  0
SECTION
  2
HEADER
  9
$ACADVER
  1
AC1015
  9
$ACADMAINTVER
 70
    20
  9
$DWGCODEPAGE
  3
ANSI_1252
  9
$INSBASE
 10
0.0
 20
0.0
 30
0.0
  9
$EXTMIN
 10
-0.0000008078504834
 20
0.0000001108869583
 30
0.0
  9
$EXTMAX
 10
353.9999991921495
 20
482.0000001108869
 30
0.0
  9
$LIMMIN
 10
-0.0000008078504834
 20
0.0000001108869583
  9
$LIMMAX
 10
353.9999991921495
 20
482.0000001108869
  9
$ORTHOMODE
 70
     0
  9
$REGENMODE
 70
     1
  9
$FILLMODE
 70
     1
  9
$QTEXTMODE
 70
     0
  9
$MIRRTEXT
 70
     1
  9
$LTSCALE
 40
1.0
  9
$ATTMODE
 70
     1
  9
$TEXTSIZE
 40
5.0
  9
$TRACEWID
 40
1.0
  9
$TEXTSTYLE
  7
Arial-Bold
  9
$CLAYER
  8
APL Joinery
  9
$CELTYPE
  6
ByLayer
  9
$CECOLOR
 62
   256
  9
$CELTSCALE
 40
1.0
  9
$DISPSILH
 70
     0
  9
$DIMSCALE
 40
1.0
  9
$DIMASZ
 40
4.0
  9
$DIMEXO
 40
0.625
  9
$DIMDLI
 40
3.75
  9
$DIMRND
 40
0.0
  9
$DIMDLE
 40
0.0
  9
$DIMEXE
 40
1.25
  9
$DIMTP
 40
0.0
  9
$DIMTM
 40
0.0
  9
$DIMTXT
 40
2.5
  9
$DIMCEN
 40
2.5
  9
$DIMTSZ
 40
0.0
  9
$DIMTOL
 70
     0
  9
$DIMLIM
 70
     0
  9
$DIMTIH
 70
     0
  9
$DIMTOH
 70
     0
  9
$DIMSE1
 70
     0
  9
$DIMSE2
 70
     0
  9
$DIMTAD
 70
     1
  9
$DIMZIN
 70
     8
  9
$DIMBLK
  1

  9
$DIMASO
 70
     1
  9
$DIMSHO
 70
     1
  9
$DIMPOST
  1

  9
$DIMAPOST
  1

  9
$DIMALT
 70
     0
  9
$DIMALTD
 70
     3
  9
$DIMALTF
 40
0.03937007874016
  9
$DIMLFAC
 40
1.0
  9
$DIMTOFL
 70
     1
  9
$DIMTVP
 40
0.0
  9
$DIMTIX
 70
     0
  9
$DIMSOXD
 70
     0
  9
$DIMSAH
 70
     0
  9
$DIMBLK1
  1

  9
$DIMBLK2
  1

  9
$DIMSTYLE
  2
ISO-25
  9
$DIMCLRD
 70
     0
  9
$DIMCLRE
 70
     0
  9
$DIMCLRT
 70
     0
  9
$DIMTFAC
 40
1.0
  9
$DIMGAP
 40
0.625
  9
$DIMJUST
 70
     0
  9
$DIMSD1
 70
     0
  9
$DIMSD2
 70
     0
  9
$DIMTOLJ
 70
     0
  9
$DIMTZIN
 70
     8
  9
$DIMALTZ
 70
     0
  9
$DIMALTTZ
 70
     0
  9
$DIMUPT
 70
     0
  9
$DIMDEC
 70
     2
  9
$DIMTDEC
 70
     2
  9
$DIMALTU
 70
     2
  9
$DIMALTTD
 70
     3
  9
$DIMTXSTY
  7
Standard
  9
$DIMAUNIT
 70
     0
  9
$DIMADEC
 70
     0
  9
$DIMALTRND
 40
0.0
  9
$DIMAZIN
 70
     0
  9
$DIMDSEP
 70
    44
  9
$DIMATFIT
 70
     3
  9
$DIMFRAC
 70
     0
  9
$DIMLDRBLK
  1

  9
$DIMLUNIT
 70
     2
  9
$DIMLWD
 70
    -2
  9
$DIMLWE
 70
    -2
  9
$DIMTMOVE
 70
     0
  9
$LUNITS
 70
     2
  9
$LUPREC
 70
     4
  9
$SKETCHINC
 40
1.0
  9
$FILLETRAD
 40
10.0
  9
$AUNITS
 70
     0
  9
$AUPREC
 70
     0
  9
$MENU
  1
.
  9
$ELEVATION
 40
0.0
  9
$PELEVATION
 40
0.0
  9
$THICKNESS
 40
0.0
  9
$LIMCHECK
 70
     0
  9
$CHAMFERA
 40
10.0
  9
$CHAMFERB
 40
10.0
  9
$CHAMFERC
 40
20.0
  9
$CHAMFERD
 40
0.0
  9
$SKPOLY
 70
     0
  9
$TDCREATE
 40
2452282.542916192
  9
$TDUCREATE
 40
2452282.042916192
  9
$TDUPDATE
 40
2456456.548793275
  9
$TDUUPDATE
 40
2456456.048793275
  9
$TDINDWG
 40
0.3942191088
  9
$TDUSRTIMER
 40
0.3942191088
  9
$USRTIMER
 70
     1
  9
$ANGBASE
 50
0.0
  9
$ANGDIR
 70
     0
  9
$PDMODE
 70
     3
  9
$PDSIZE
 40
3.0
  9
$PLINEWID
 40
0.0
  9
$SPLFRAME
 70
     0
  9
$SPLINETYPE
 70
     6
  9
$SPLINESEGS
 70
     8
  9
$HANDSEED
  5
339C
  9
$SURFTAB1
 70
     6
  9
$SURFTAB2
 70
     6
  9
$SURFTYPE
 70
     6
  9
$SURFU
 70
     6
  9
$SURFV
 70
     6
  9
$UCSBASE
  2

  9
$UCSNAME
  2

  9
$UCSORG
 10
0.0
 20
0.0
 30
0.0
  9
$UCSXDIR
 10
1.0
 20
0.0
 30
0.0
  9
$UCSYDIR
 10
0.0
 20
1.0
 30
0.0
  9
$UCSORTHOREF
  2

  9
$UCSORTHOVIEW
 70
     0
  9
$UCSORGTOP
 10
0.0
 20
0.0
 30
0.0
  9
$UCSORGBOTTOM
 10
0.0
 20
0.0
 30
0.0
  9
$UCSORGLEFT
 10
0.0
 20
0.0
 30
0.0
  9
$UCSORGRIGHT
 10
0.0
 20
0.0
 30
0.0
  9
$UCSORGFRONT
 10
0.0
 20
0.0
 30
0.0
  9
$UCSORGBACK
 10
0.0
 20
0.0
 30
0.0
  9
$PUCSBASE
  2

  9
$PUCSNAME
  2

  9
$PUCSORG
 10
0.0
 20
0.0
 30
0.0
  9
$PUCSXDIR
 10
1.0
 20
0.0
 30
0.0
  9
$PUCSYDIR
 10
0.0
 20
1.0
 30
0.0
  9
$PUCSORTHOREF
  2

  9
$PUCSORTHOVIEW
 70
     0
  9
$PUCSORGTOP
 10
0.0
 20
0.0
 30
0.0
  9
$PUCSORGBOTTOM
 10
0.0
 20
0.0
 30
0.0
  9
$PUCSORGLEFT
 10
0.0
 20
0.0
 30
0.0
  9
$PUCSORGRIGHT
 10
0.0
 20
0.0
 30
0.0
  9
$PUCSORGFRONT
 10
0.0
 20
0.0
 30
0.0
  9
$PUCSORGBACK
 10
0.0
 20
0.0
 30
0.0
  9
$USERI1
 70
     0
  9
$USERI2
 70
     0
  9
$USERI3
 70
     0
  9
$USERI4
 70
     0
  9
$USERI5
 70
     0
  9
$USERR1
 40
0.0
  9
$USERR2
 40
0.0
  9
$USERR3
 40
0.0
  9
$USERR4
 40
0.0
  9
$USERR5
 40
0.0
  9
$WORLDVIEW
 70
     1
  9
$SHADEDGE
 70
     3
  9
$SHADEDIF
 70
    70
  9
$TILEMODE
 70
     0
  9
$MAXACTVP
 70
    64
  9
$PINSBASE
 10
0.0
 20
0.0
 30
0.0
  9
$PLIMCHECK
 70
     0
  9
$PEXTMIN
 10
23.19000000000003
 20
4.594371257485027
 30
0.0
  9
$PEXTMAX
 10
201.1900000000001
 20
279.5563301500682
 30
0.0
  9
$PLIMMIN
 10
6.565115279834287
 20
-3.511209490117948
  9
$PLIMMAX
 10
216.4537718960452
 20
293.5417995430852
  9
$UNITMODE
 70
     0
  9
$VISRETAIN
 70
     1
  9
$PLINEGEN
 70
     0
  9
$PSLTSCALE
 70
     1
  9
$TREEDEPTH
 70
  3020
  9
$CMLSTYLE
  2
Standard
  9
$CMLJUST
 70
     0
  9
$CMLSCALE
 40
20.0
  9
$PROXYGRAPHICS
 70
     1
  9
$MEASUREMENT
 70
     1
  9
$CELWEIGHT
370
    -1
  9
$ENDCAPS
280
     0
  9
$JOINSTYLE
280
     0
  9
$LWDISPLAY
290
     0
  9
$INSUNITS
 70
     4
  9
$HYPERLINKBASE
  1

  9
$STYLESHEET
  1
A4 Specifier Manual.ctb
  9
$XEDIT
290
     1
  9
$CEPSNTYPE
380
     0
  9
$PSTYLEMODE
290
     1
  9
$FINGERPRINTGUID
  2
{D079D194-C9C2-11D5-B123-005004D48FB5}
  9
$VERSIONGUID
  2
{841AA4DE-87DB-4D28-9FC2-68ACEE81807D}
  9
$EXTNAMES
290
     1
  9
$PSVPSCALE
 40
0.0
  9
$OLESTARTUP
290
     0
  0
ENDSEC
  0
SECTION
  2
CLASSES
  0
CLASS
  1
ACDBDICTIONARYWDFLT
  2
AcDbDictionaryWithDefault
  3
ObjectDBX Classes
 90
        0
280
     0
281
     0
  0
CLASS
  1
ACDBPLACEHOLDER
  2
AcDbPlaceHolder
  3
ObjectDBX Classes
 90
        0
280
     0
281
     0
  0
CLASS
  1
LAYOUT
  2
AcDbLayout
  3
ObjectDBX Classes
 90
        0
280
     0
281
     0
  0
CLASS
  1
DICTIONARYVAR
  2
AcDbDictionaryVar
  3
ObjectDBX Classes
 90
        0
280
     0
281
     0
  0
CLASS
  1
PLOTSETTINGS
  2
AcDbPlotSettings
  3
ObjectDBX Classes
 90
        0
280
     0
281
     0
  0
CLASS
  1
MATERIAL
  2
AcDbMaterial
  3
ObjectDBX Classes
 90
     1153
280
     0
281
     0
  0
CLASS
  1
VISUALSTYLE
  2
AcDbVisualStyle
  3
ObjectDBX Classes
 90
     4095
280
     0
281
     0
  0
CLASS
  1
TABLESTYLE
  2
AcDbTableStyle
  3
ObjectDBX Classes
 90
     4095
280
     0
281
     0
  0
CLASS
  1
SCALE
  2
AcDbScale
  3
ObjectDBX Classes
 90
     1153
280
     0
281
     0
  0
CLASS
  1
MLEADERSTYLE
  2
AcDbMLeaderStyle
  3
ACDB_MLEADERSTYLE_CLASS
 90
     4095
280
     0
281
     0
  0
CLASS
  1
EXACTERMXREFMAP
  2
ExAcTermXrefMap
  3
EXAC_SERVICE
 90
    33793
280
     0
281
     0
  0
CLASS
  1
NPOCOLLECTION
  2
AcDbImpNonPersistentObjectsCollection
  3
ObjectDBX Classes
 90
     1153
280
     0
281
     0
  0
CLASS
  1
EXACXREFPANELOBJECT
  2
ExAcXREFPanelObject
  3
EXAC_ESW
 90
     1025
280
     0
281
     0
  0
CLASS
  1
CELLSTYLEMAP
  2
AcDbCellStyleMap
  3
ObjectDBX Classes
 90
     1152
280
     0
281
     0
  0
CLASS
  1
SORTENTSTABLE
  2
AcDbSortentsTable
  3
ObjectDBX Classes
 90
        0
280
     0
281
     0
  0
CLASS
  1
ACDBSECTIONVIEWSTYLE
  2
AcDbSectionViewStyle
  3
ObjectDBX Classes
 90
     1025
280
     0
281
     0
  0
CLASS
  1
ACDBDETAILVIEWSTYLE
  2
AcDbDetailViewStyle
  3
ObjectDBX Classes
 90
     1025
280
     0
281
     0
  0
ENDSEC
  0
SECTION
  2
TABLES
  0
TABLE
  2
VPORT
  5
8
102
{ACAD_XDICTIONARY
360
2EB6
102
}
330
0
100
AcDbSymbolTable
 70
     1
  0
VPORT
  5
2B26
330
8
100
AcDbSymbolTableRecord
100
AcDbViewportTableRecord
  2
*Active
 70
     0
 10
0.0
 20
0.0
 11
1.0
 21
1.0
 12
177.00000001637
 22
241.0000012331306
 13
0.0
 23
0.0
 14
10.0
 24
10.0
 15
10.0
 25
10.0
 16
0.0
 26
0.0
 36
1.0
 17
0.0
 27
0.0
 37
0.0
 40
486.0631379323371
 41
2.243016759776536
 42
50.0
 43
0.0
 44
0.0
 50
0.0
 51
0.0
 71
     0
 72
 20000
 73
     1
 74
     3
 75
     0
 76
     0
 77
     0
 78
     0
281
     0
 65
     1
110
0.0
120
0.0
130
0.0
111
1.0
121
0.0
131
0.0
112
0.0
122
1.0
132
0.0
 79
     0
146
0.0
  0
ENDTAB
  0
TABLE
  2
LTYPE
  5
5
330
0
100
AcDbSymbolTable
 70
     2
  0
LTYPE
  5
14
330
5
100
AcDbSymbolTableRecord
100
AcDbLinetypeTableRecord
  2
ByBlock
 70
     0
  3

 72
    65
 73
     0
 40
0.0
  0
LTYPE
  5
15
330
5
100
AcDbSymbolTableRecord
100
AcDbLinetypeTableRecord
  2
ByLayer
 70
     0
  3

 72
    65
 73
     0
 40
0.0
  0
LTYPE
  5
16
330
5
100
AcDbSymbolTableRecord
100
AcDbLinetypeTableRecord
  2
Continuous
 70
     0
  3
Solid line
 72
    65
 73
     0
 40
0.0
  0
LTYPE
  5
1123
330
5
100
AcDbSymbolTableRecord
100
AcDbLinetypeTableRecord
  2
DASHED
 70
     0
  3
_ _ _ _ _ _ _ _ _ _ _ _ _ _ _ _
 72
    65
 73
     2
 40
0.2
 49
0.1
 74
     0
 49
-0.1
 74
     0
  0
ENDTAB
  0
TABLE
  2
LAYER
  5
2
102
{ACAD_XDICTIONARY
360
2C02
102
}
330
0
100
AcDbSymbolTable
 70
     5
  0
LAYER
  5
10
102
{ACAD_XDICTIONARY
360
2C70
102
}
330
2
100
AcDbSymbolTableRecord
100
AcDbLayerTableRecord
  2
0
 70
     4
 62
     7
  6
Continuous
290
     0
370
    -3
390
F
  0
LAYER
  5
2B
102
{ACAD_XDICTIONARY
360
2C72
102
}
330
2
100
AcDbSymbolTableRecord
100
AcDbLayerTableRecord
  2
APL Joinery
 70
     0
 62
     2
  6
Continuous
370
    -3
390
F
  0
LAYER
  5
75
102
{ACAD_XDICTIONARY
360
2C74
102
}
330
2
100
AcDbSymbolTableRecord
100
AcDbLayerTableRecord
  2
APL Notes
 70
     0
 62
     7
  6
Continuous
370
    -3
390
F
  0
LAYER
  5
2818
102
{ACAD_XDICTIONARY
360
2C76
102
}
330
2
100
AcDbSymbolTableRecord
100
AcDbLayerTableRecord
  2
APL Border
 70
     0
 62
     7
  6
Continuous
370
    -3
390
F
  0
LAYER
  5
2BE1
102
{ACAD_XDICTIONARY
360
2C7A
102
}
330
2
100
AcDbSymbolTableRecord
100
AcDbLayerTableRecord
  2
APL Hatch
 70
     0
 62
   253
  6
Continuous
370
    -3
390
F
  0
ENDTAB
  0
TABLE
  2
STYLE
  5
3
330
0
100
AcDbSymbolTable
 70
     4
  0
STYLE
  5
11
330
3
100
AcDbSymbolTableRecord
100
AcDbTextStyleTableRecord
  2
Standard
 70
     0
 40
0.0
 41
1.0
 50
0.0
 71
     0
 42
3.0
  3
txt
  4

  0
STYLE
  5
56
330
3
100
AcDbSymbolTableRecord
100
AcDbTextStyleTableRecord
  2
Arial-Regular
 70
     0
 40
0.0
 41
1.0
 50
0.0
 71
     0
 42
2.5
  3
arial.ttf
  4

1001
ACAD
1000
Arial
1071
       34
  0
STYLE
  5
58
330
3
100
AcDbSymbolTableRecord
100
AcDbTextStyleTableRecord
  2
Arial-Bold
 70
     0
 40
0.0
 41
1.0
 50
0.0
 71
     0
 42
5.0
  3
arialbd.ttf
  4

1001
ACAD
1000
Arial
1071
 33554466
  0
STYLE
  5
32A1
330
3
100
AcDbSymbolTableRecord
100
AcDbTextStyleTableRecord
  2
Times New Roman - Regular
 70
     0
 40
0.0
 41
1.0
 50
0.0
 71
     0
 42
2.5
  3
times.ttf
  4

1001
ACAD
1000
Times New Roman
1071
       18
  0
ENDTAB
  0
TABLE
  2
VIEW
  5
6
330
0
100
AcDbSymbolTable
 70
     0
  0
ENDTAB
  0
TABLE
  2
UCS
  5
7
330
0
100
AcDbSymbolTable
 70
     0
  0
ENDTAB
  0
TABLE
  2
APPID
  5
9
330
0
100
AcDbSymbolTable
 70
     4
  0
APPID
  5
12
330
9
100
AcDbSymbolTableRecord
100
AcDbRegAppTableRecord
  2
ACAD
 70
     0
  0
APPID
  5
2BD9
330
9
100
AcDbSymbolTableRecord
100
AcDbRegAppTableRecord
  2
ACAD_MLEADERVER
 70
     0
  0
APPID
  5
2BF3
330
9
100
AcDbSymbolTableRecord
100
AcDbRegAppTableRecord
  2
DCO15
 70
     0
  0
APPID
  5
3003
330
9
100
AcDbSymbolTableRecord
100
AcDbRegAppTableRecord
  2
ACAD_PSEXT
 70
     0
  0
ENDTAB
  0
TABLE
  2
DIMSTYLE
  5
A
330
0
100
AcDbSymbolTable
 70
     1
100
AcDbDimStyleTable
 71
     1
340
27
  0
DIMSTYLE
105
27
330
A
100
AcDbSymbolTableRecord
100
AcDbDimStyleTableRecord
  2
ISO-25
 70
     0
 41
4.0
 42
0.625
 43
3.75
 44
1.25
 73
     0
 74
     0
 77
     1
 78
     8
140
2.5
141
2.5
143
0.03937007874016
147
0.625
171
     3
172
     1
271
     2
272
     2
274
     3
278
    44
283
     0
284
     8
340
11
  0
ENDTAB
  0
TABLE
  2
BLOCK_RECORD
  5
1
330
0
100
AcDbSymbolTable
 70
    17
  0
BLOCK_RECORD
  5
1F
102
{ACAD_XDICTIONARY
360
2D1D
102
}
330
1
100
AcDbSymbolTableRecord
100
AcDbBlockTableRecord
  2
*Model_Space
340
22
  0
BLOCK_RECORD
  5
2A63
330
1
100
AcDbSymbolTableRecord
100
AcDbBlockTableRecord
  2
*Paper_Space
340
2A64
  0
BLOCK_RECORD
  5
2673
102
{ACAD_XDICTIONARY
360
324F
102
}
330
1
100
AcDbSymbolTableRecord
100
AcDbBlockTableRecord
  2
07100
340
0
102
{BLKREFS
331
2677
331
274C
102
}
1001
ACAD
1000
DesignCenter Data
1002
{
1070
     1
1070
     4
1002
}
  0
BLOCK_RECORD
  5
2678
102
{ACAD_XDICTIONARY
360
3254
102
}
330
1
100
AcDbSymbolTableRecord
100
AcDbBlockTableRecord
  2
07103
340
0
102
{BLKREFS
331
2715
102
}
1001
ACAD
1000
DesignCenter Data
1002
{
1070
     1
1070
     4
1002
}
  0
BLOCK_RECORD
  5
2688
330
1
100
AcDbSymbolTableRecord
100
AcDbBlockTableRecord
  2
sw30mmliner
340
0
102
{BLKREFS
331
268C
331
274F
102
}
  0
BLOCK_RECORD
  5
268F
330
1
100
AcDbSymbolTableRecord
100
AcDbBlockTableRecord
  2
9700529
340
0
102
{BLKREFS
331
2717
102
}
1001
ACAD
1000
DesignCenter Data
1002
{
1070
     1
1070
     4
1002
}
  0
BLOCK_RECORD
  5
2695
330
1
100
AcDbSymbolTableRecord
100
AcDbBlockTableRecord
  2
Timber Profile 14
340
0
102
{BLKREFS
331
2716
102
}
1001
ACAD
1000
DesignCenter Data
1002
{
1070
     1
1070
     4
1002
}
  0
BLOCK_RECORD
  5
269E
330
1
100
AcDbSymbolTableRecord
100
AcDbBlockTableRecord
  2
6Glass
340
0
102
{BLKREFS
331
26F7
331
26FA
102
}
  0
BLOCK_RECORD
  5
26A3
330
1
100
AcDbSymbolTableRecord
100
AcDbBlockTableRecord
  2
9010604
340
0
102
{BLKREFS
331
26F6
102
}
1001
ACAD
1000
DesignCenter Data
1002
{
1070
     1
1070
     4
1002
}
  0
BLOCK_RECORD
  5
26B4
330
1
100
AcDbSymbolTableRecord
100
AcDbBlockTableRecord
  2
9700158
340
0
102
{BLKREFS
331
26F9
331
2718
102
}
1001
ACAD
1000
DesignCenter Data
1002
{
1070
     1
1070
     4
1002
}
  0
BLOCK_RECORD
  5
26BE
330
1
100
AcDbSymbolTableRecord
100
AcDbBlockTableRecord
  2
9010100
340
0
102
{BLKREFS
331
2719
102
}
1001
ACAD
1000
DesignCenter Data
1002
{
1070
     1
1070
     4
1002
}
  0
BLOCK_RECORD
  5
26CE
330
1
100
AcDbSymbolTableRecord
100
AcDbBlockTableRecord
  2
07103Sash
340
0
310
2800000020000000200000000100080000000000000400000000000000000000000000000000000000000000000080000080000000808000800000008000800080800000C0C0C000C0DCC000F0CAA6000020400000206000002080000020A0000020C0000020E00000400000004020000040400000406000004080000040A0
310
000040C0000040E00000600000006020000060400000606000006080000060A0000060C0000060E00000800000008020000080400000806000008080000080A0000080C0000080E00000A0000000A0200000A0400000A0600000A0800000A0A00000A0C00000A0E00000C0000000C0200000C0400000C0600000C0800000C0
310
A00000C0C00000C0E00000E0000000E0200000E0400000E0600000E0800000E0A00000E0C00000E0E00040000000400020004000400040006000400080004000A0004000C0004000E00040200000402020004020400040206000402080004020A0004020C0004020E000404000004040200040404000404060004040800040
310
40A0004040C0004040E00040600000406020004060400040606000406080004060A0004060C0004060E00040800000408020004080400040806000408080004080A0004080C0004080E00040A0000040A0200040A0400040A0600040A0800040A0A00040A0C00040A0E00040C0000040C0200040C0400040C0600040C08000
310
40C0A00040C0C00040C0E00040E0000040E0200040E0400040E0600040E0800040E0A00040E0C00040E0E00080000000800020008000400080006000800080008000A0008000C0008000E00080200000802020008020400080206000802080008020A0008020C0008020E00080400000804020008040400080406000804080
310
008040A0008040C0008040E00080600000806020008060400080606000806080008060A0008060C0008060E00080800000808020008080400080806000808080008080A0008080C0008080E00080A0000080A0200080A0400080A0600080A0800080A0A00080A0C00080A0E00080C0000080C0200080C0400080C0600080C0
310
800080C0A00080C0C00080C0E00080E0000080E0200080E0400080E0600080E0800080E0A00080E0C00080E0E000C0000000C0002000C0004000C0006000C0008000C000A000C000C000C000E000C0200000C0202000C0204000C0206000C0208000C020A000C020C000C020E000C0400000C0402000C0404000C0406000C0
310
408000C040A000C040C000C040E000C0600000C0602000C0604000C0606000C0608000C060A000C060C000C060E000C0800000C0802000C0804000C0806000C0808000C080A000C080C000C080E000C0A00000C0A02000C0A04000C0A06000C0A08000C0A0A000C0A0C000C0A0E000C0C00000C0C02000C0C04000C0C06000
310
C0C08000C0C0A000F0FBFF00A4A0A000808080000000FF0000FF000000FFFF00FF000000FF00FF00FFFF0000FFFFFF0000000000000000000000000000000000000000000000000000000000000000000000000000000000000000000000000000000000000000000000000000000000000000000000000000000000000000
310
000000000000000000000000000000000000000000000000000000000000000000000000000000000000000000000000000000000000000000000000FBFBFBFBFBFBFBFBFBFBFBFB0000000000000000000000000000000000000000FBFBFBFBFBFBFBFBFBFBFBFBFBFB0000000000000000000000000000000000000000FB
310
FB000000000000000000FBFBFB000000000000000000000000000000000000FBFB0000000000000000FB0000FBFBFB00000000000000000000000000000000FBFB00000000000000FBFB00000000FBFB00000000000000000000000000FB00FBFB000000000000FBFB000000FBFBFBFB00000000000000000000000000FBFB
310
FBFB0000000000FBFB00000000FBA4A4FB00000000000000000000000000FBFBFB00000000FBFBFBFB000000A4A4A4A4A4A4000000000000000000000000FBFB0000000000FBFBFB00000000000000000000000000000000000000000000FBFB0000000000FB00FB00000000000000000000000000000000000000000000FB
310
FB000000000000FBFB00000000000000000000000000000000000000000000FBFB00000000000000FB00000000000000000000000000000000000000000000FBFB0000000000FBFBFB00000000000000000000000000000000000000000000FBFB0000000000FBFBFB0000000000000000000000000000FB00FBFB00000000
310
FBFB0000000000FB00FB0000000000000000000000000000A4A4A4A4A4A4A4A4A4A4A4A4A4A4A4FB0000000000000000000000000000FAFAA4A4A4A4A4A4A4A4A4A4A4A4A4A4A4FB0000000000000000000000000000FA000000000000000000000000000000A4A4FBFBFB0000000000000000000000FA0000000000000000
310
0000000000FAA4A4A4A4A4FB0000000000000000000000FA000000000000000000000000000000000000FAFB0000000000000000000000FAFAFAFAFAFAFAFAFAFAFAFAFAFAFAA4A4A4A4A4FB0000000000000000000000000000000000000000000000000000A4A4A4A4A40000000000000000000000000000000000000000
310
00000000000000A4A4A4A400000000000000000000000000000000000000000000000000000000A4A40000000000000000000000000000000000000000000000000000000000000000000000000000000000000000000000000000000000000000000000000000000000000000000000000000000000000000000000000000
310
0000000000000000000000000000000000000000000000000000000000000000000000000000000000000000000000000000000000000000
102
{BLKREFS
331
271A
331
271B
102
}
1001
ACAD
1000
DesignCenter Data
1002
{
1070
     1
1070
     4
1002
}
  0
BLOCK_RECORD
  5
26E2
102
{ACAD_XDICTIONARY
360
3283
102
}
330
1
100
AcDbSymbolTableRecord
100
AcDbBlockTableRecord
  2
07123
340
0
102
{BLKREFS
331
26F8
102
}
1001
ACAD
1000
DesignCenter Data
1002
{
1070
     1
1070
     4
1002
}
  0
BLOCK_RECORD
  5
26F1
330
1
100
AcDbSymbolTableRecord
100
AcDbBlockTableRecord
  2
07123Glaze
340
0
310
2800000020000000200000000100080000000000000400000000000000000000000000000000000000000000000080000080000000808000800000008000800080800000C0C0C000C0DCC000F0CAA6000020400000206000002080000020A0000020C0000020E00000400000004020000040400000406000004080000040A0
310
000040C0000040E00000600000006020000060400000606000006080000060A0000060C0000060E00000800000008020000080400000806000008080000080A0000080C0000080E00000A0000000A0200000A0400000A0600000A0800000A0A00000A0C00000A0E00000C0000000C0200000C0400000C0600000C0800000C0
310
A00000C0C00000C0E00000E0000000E0200000E0400000E0600000E0800000E0A00000E0C00000E0E00040000000400020004000400040006000400080004000A0004000C0004000E00040200000402020004020400040206000402080004020A0004020C0004020E000404000004040200040404000404060004040800040
310
40A0004040C0004040E00040600000406020004060400040606000406080004060A0004060C0004060E00040800000408020004080400040806000408080004080A0004080C0004080E00040A0000040A0200040A0400040A0600040A0800040A0A00040A0C00040A0E00040C0000040C0200040C0400040C0600040C08000
310
40C0A00040C0C00040C0E00040E0000040E0200040E0400040E0600040E0800040E0A00040E0C00040E0E00080000000800020008000400080006000800080008000A0008000C0008000E00080200000802020008020400080206000802080008020A0008020C0008020E00080400000804020008040400080406000804080
310
008040A0008040C0008040E00080600000806020008060400080606000806080008060A0008060C0008060E00080800000808020008080400080806000808080008080A0008080C0008080E00080A0000080A0200080A0400080A0600080A0800080A0A00080A0C00080A0E00080C0000080C0200080C0400080C0600080C0
310
800080C0A00080C0C00080C0E00080E0000080E0200080E0400080E0600080E0800080E0A00080E0C00080E0E000C0000000C0002000C0004000C0006000C0008000C000A000C000C000C000E000C0200000C0202000C0204000C0206000C0208000C020A000C020C000C020E000C0400000C0402000C0404000C0406000C0
310
408000C040A000C040C000C040E000C0600000C0602000C0604000C0606000C0608000C060A000C060C000C060E000C0800000C0802000C0804000C0806000C0808000C080A000C080C000C080E000C0A00000C0A02000C0A04000C0A06000C0A08000C0A0A000C0A0C000C0A0E000C0C00000C0C02000C0C04000C0C06000
310
C0C08000C0C0A000F0FBFF00A4A0A000808080000000FF0000FF000000FFFF00FF000000FF00FF00FFFF0000FFFFFF0000000000000000000000000000000000000000000000000000000000000000000000000000000000000000FBFBFBFBFBFBFBFBFBFBFBFBFBFB000000000000000000000000000000000000FBFBFBFB
310
00FBFB000000FBFBFBFB00000000000000000000000000000000FBFBFBFB00FBFBFB00FBFB00FB00FBFBFB000000000000000000000000000000FBFBFBA400FBFBFB000000FB00FB00FBFBFB00000000000000000000000000A400FBFBA4A4FBFBA4A4000000FB00FB00000000000000000000000000000000A400A4A4A4A4
310
A4A4A4A4A4A40000FBFB000000000000000000000000000000A40000A4A4A4A4A4A4A4A4A400000000FBFB00000000000000000000FFFFFFFFFFFFFFFFFFFFFFFFFFFFFFFF0000000000FBFBFBFB00000000000000A4A4A4A4A4A4A4A4A4A4A4A4A4A4A4A40000000000FBFBFBFB00000000000000A4A4A4A4A4A4A4A4A4A4
310
A4A4A4A4A4A400000000000000FBFB00000000000000000000000000000000000000000000FF00000000000000FBFB00000000000000FFFFFFFFFFFFFFFFFFFFFFFFFFFFFFFF000000000000FBFB000000000000000000000000000000000000FF00000000FF00000000000000000000000000000000000000000000000000
310
00FF00000000FF0000000000000000000000000000000000000000000000000000FF00000000FF0000000000000000000000000000000000000000000000000000FF00000000FF0000000000000000000000000000000000000000000000000000FF00000000FF000000000000000000000000000000000000000000000000
310
0000FF00000000FF0000000000000000000000000000000000000000000000000000FF00000000FF0000000000000000000000000000000000000000000000000000FF00000000FF00000000000000000000000000000000FFFFFFFFFFFFFFFFFFFFFFFFFFFFFFFF00000000000000000000000000000000A4A4A4A4A4A4A4
310
A4A4A4A4A4A4A4A4FF00000000000000000000000000000000A4A4A4A4A4A4A4A4A4A4A4A4A4A4A4FF00000000000000000000000000000000000000000000000000000000000000FF00000000000000000000000000000000FFFFFFFFFFFFFFFFFFFFFFFFFFFFFFFF000000000000000000000000000000000000000000A4
310
A4A4A4A4A4A4A4000000000000000000000000000000000000000000000000A4A400A4A4A400000000000000000000000000000000000000000000000000A400A400A4A4A400000000000000000000000000000000000000000000000000A400A40000000000000000000000000000000000000000000000000000000000A4
310
A400000000000000000000000000000000000000000000000000000000000000000000000000000000000000000000000000000000000000
102
{BLKREFS
331
2F60
331
2F61
331
2F62
331
2750
102
}
1001
ACAD
1000
DesignCenter Data
1002
{
1070
     1
1070
     4
1002
}
  0
BLOCK_RECORD
  5
2703
102
{ACAD_XDICTIONARY
360
3288
102
}
330
1
100
AcDbSymbolTableRecord
100
AcDbBlockTableRecord
  2
07110
340
0
102
{BLKREFS
331
2707
102
}
1001
ACAD
1000
DesignCenter Data
1002
{
1070
     1
1070
     4
1002
}
  0
BLOCK_RECORD
  5
2723
330
1
100
AcDbSymbolTableRecord
100
AcDbBlockTableRecord
  2
9700530
340
0
102
{BLKREFS
331
2727
102
}
1001
ACAD
1000
DesignCenter Data
1002
{
1070
     1
1070
     4
1002
}
  0
BLOCK_RECORD
  5
2728
330
1
100
AcDbSymbolTableRecord
100
AcDbBlockTableRecord
  2
Timber Profile 5
340
0
102
{BLKREFS
331
272C
102
}
1001
ACAD
1000
DesignCenter Data
1002
{
1070
     1
1070
     4
1002
}
  0
BLOCK_RECORD
  5
2A75
330
1
100
AcDbSymbolTableRecord
100
AcDbBlockTableRecord
  2
smartwood a4 SM border
340
0
102
{BLKREFS
331
2A7A
102
}
1001
ACAD
1000
DesignCenter Data
1002
{
1070
     1
1070
     4
1002
}
  0
BLOCK_RECORD
  5
2AAD
330
1
100
AcDbSymbolTableRecord
100
AcDbBlockTableRecord
  2
smartwood a4 SM attributes (2)
340
0
102
{BLKREFS
331
2AC5
102
}
1001
ACAD
1000
DesignCenter Data
1002
{
1070
     1
1070
     4
1002
}
  0
ENDTAB
  0
ENDSEC
  0
SECTION
  2
BLOCKS
  0
BLOCK
  5
20
330
1F
100
AcDbEntity
  8
0
100
AcDbBlockBegin
  2
*Model_Space
 70
     0
 10
0.0
 20
0.0
 30
0.0
  3
*Model_Space
  1

  0
ENDBLK
  5
21
330
1F
100
AcDbEntity
  8
0
100
AcDbBlockEnd
  0
BLOCK
  5
2A65
330
2A63
100
AcDbEntity
 67
     1
  8
0
100
AcDbBlockBegin
  2
*Paper_Space
 70
     0
 10
0.0
 20
0.0
 30
0.0
  3
*Paper_Space
  1

  0
ENDBLK
  5
2A66
330
2A63
100
AcDbEntity
 67
     1
  8
0
100
AcDbBlockEnd
  0
BLOCK
  5
2674
330
2673
100
AcDbEntity
  8
0
100
AcDbBlockBegin
  2
07100
 70
     0
 10
412.3820800908974
 20
422.2176400418753
 30
0.0
  3
07100
  1
07100.dwg
  0
LWPOLYLINE
  5
324D
102
{ACAD_REACTORS
330
324E
102
}
330
2673
100
AcDbEntity
  8
APL Joinery
  6
Continuous
100
AcDbPolyline
 90
      100
 70
     1
 43
0.0
 10
407.1258300908974
 20
407.8904305773189
 42
-0.406909285354144
 10
406.8820800908975
 20
408.1403524401081
 10
406.8820800908975
 20
424.7412301935552
 42
-0.3571470433414134
 10
408.0860084823975
 20
426.2117204528363
 10
413.0820800908972
 20
427.2176400418754
 10
421.8825800908957
 20
427.2176400418754
 10
421.8825800908957
 20
437.7176400418762
 10
437.5325800908972
 20
437.7176400418762
 10
437.5325800908972
 20
442.7176400418753
 10
450.7556760195601
 20
442.7176400418755
 42
0.2544747761516115
 10
450.696505755367
 20
439.8263709579055
 42
-0.5622195450562853
 10
450.4745161408605
 20
439.4613900418749
 10
450.1325800908957
 20
439.4613900418749
 42
0.4142135623730951
 10
449.8825800908957
 20
439.211390041875
 10
449.8825800908957
 20
437.9676400418771
 42
0.4142135623730951
 10
450.1325800908957
 20
437.7176400418762
 10
456.9825800908961
 20
437.7176400418772
 10
456.9825800908961
 20
427.2176400418754
 10
459.9825800908961
 20
427.2176400418754
 10
459.9825800908961
 20
428.7176400418736
 10
458.3825800908957
 20
428.7176400418736
 10
458.3825800908961
 20
437.7176400418772
 42
0.4142135623730951
 10
456.9825800908961
 20
439.1176400418768
 10
455.6830800908969
 20
439.1176400418768
 10
455.6830800908959
 20
439.3480285867577
 42
0.6243132269123214
 10
454.3195396190705
 20
440.0144227537007
 42
-2.046147069503621
 10
454.319539619071
 20
442.4208573300497
 42
0.4767438882633759
 10
455.5979130921818
 20
442.7176400418753
 10
456.9825800908961
 20
442.7176400418741
 42
0.4142135623730951
 10
458.3825800908957
 20
444.1176400418741
 10
458.3825800908957
 20
447.7176400418754
 10
461.709555143821
 20
447.7176400418754
 10
462.209555143821
 20
448.2176400418735
 10
477.209555143821
 20
448.2176400418735
 10
477.709555143821
 20
447.7176400418735
 10
478.959555143821
 20
447.7176400418735
 42
0.9999999999999998
 10
478.959555143821
 20
449.2176400418735
 10
458.3825800908957
 20
449.2176400418735
 10
458.3825800908957
 20
450.4176400418745
 10
458.8825800908957
 20
450.4176400418746
 42
0.9999999999999998
 10
458.8825800908957
 20
451.6176400418745
 10
458.3825800908957
 20
451.6176400418745
 10
458.3825800908966
 20
457.9676400418735
 10
462.732580090897
 20
457.9676400418735
 42
0.9999999999999145
 10
462.732580090897
 20
459.4676400418745
 10
458.3825800908957
 20
459.4676400418745
 10
458.3825800908957
 20
462.8176400418753
 10
458.8825800908957
 20
462.8176400418753
 42
0.9999999999999998
 10
458.8825800908957
 20
464.0176400418753
 10
458.3825800908957
 20
464.0176400418753
 10
458.3825800908957
 20
465.2176400418754
 10
454.8825800908957
 20
465.2176400418754
 10
454.8825800908957
 20
463.1676400418752
 42
0.9999999999999998
 10
455.8825800908957
 20
463.1676400418752
 10
455.8825800908957
 20
463.9176400418752
 10
457.3825800908958
 20
463.9176400418752
 10
457.3825800908958
 20
458.4176400418751
 10
455.8825800908957
 20
458.4176400418751
 10
455.8825800908957
 20
459.1676400418752
 42
0.9999999999999998
 10
454.8825800908957
 20
459.1676400418752
 10
454.8825800908957
 20
457.117640041875
 10
456.8825800908958
 20
457.117640041875
 10
456.8825800908958
 20
455.617640041875
 10
457.1325800908957
 20
455.617640041875
 10
457.1325800908957
 20
453.9176400418751
 10
457.4325800908968
 20
453.6176400418749
 10
457.1325800908957
 20
453.3176400418757
 10
457.1325800908957
 20
451.617640041875
 10
456.8825800908958
 20
451.617640041875
 10
456.8825800908958
 20
444.2176400418754
 10
446.5325800908954
 20
444.2176400418754
 10
446.1325800908958
 20
443.8176400418757
 10
445.7325800908961
 20
444.2176400418754
 10
433.5325800908972
 20
444.2176400418754
 42
0.9999999999999998
 10
433.5325800908972
 20
443.2176400418753
 10
436.0325800908972
 20
443.2176400418753
 10
436.0325800908972
 20
439.2176400418763
 10
427.2825800908972
 20
439.2176400418763
 10
426.8825800908957
 20
438.8176400418766
 10
426.4825800908961
 20
439.2176400418763
 10
421.8825800908957
 20
439.2176400418763
 10
421.8825800908957
 20
441.3150485456059
 10
422.8490864418419
 20
442.989086651282
 42
0.3394542588633784
 10
422.8093567861938
 20
443.2908633465792
 10
421.8825800908957
 20
444.2176400418754
 10
420.3825800908957
 20
444.2176400418754
 10
420.3825800908957
 20
430.2176400418753
 10
407.7899368739002
 20
427.6822107121177
 42
0.3571470433414134
 10
405.3820800908974
 20
424.7412301935552
 10
405.3820800908974
 20
403.2176400418753
 42
0.4142135623730951
 10
406.3820800908975
 20
402.2176400418754
 10
412.1320800908974
 20
402.2176400418754
 42
0.4142135623730951
 10
412.3820800908974
 20
402.4676400418753
 10
412.3820800908974
 20
403.4676400418753
 42
0.4142135623730951
 10
412.1320800908974
 20
403.7176400418753
 10
411.6503150881467
 20
403.7176400418753
 42
-0.5908090823378033
 10
411.4389994395025
 20
404.1012278281349
 42
0.3201949615811702
 10
411.2422449260619
 20
407.6097940923825
 42
0.9999999999999998
 10
410.0719152557326
 20
406.6715358855195
 42
-2.083394336380681
 10
407.6922449260608
 20
406.6715358855194
 42
0.6205504467590894
  0
HATCH
  5
324E
330
2673
100
AcDbEntity
  8
APL Hatch
100
AcDbHatch
 10
0.0
 20
0.0
 30
0.0
210
0.0
220
0.0
230
1.0
  2
SOLID
 70
     1
 71
     1
 91
        1
 92
        1
 93
      100
 72
     2
 10
407.1320800908974
 20
408.1403524401081
 40
0.2500000000000131
 50
91.43254373757162
 51
180.0
 73
     0
 72
     1
 10
406.8820800908975
 20
408.1403524401081
 11
406.8820800908975
 21
424.7412301935552
 72
     2
 10
408.3820800908967
 20
424.7412301935559
 40
1.499999999999317
 50
179.9999999999696
 51
258.6161471069981
 73
     0
 72
     1
 10
408.0860084823975
 20
426.2117204528363
 11
413.0820800908972
 21
427.2176400418754
 72
     1
 10
413.0820800908972
 20
427.2176400418754
 11
421.8825800908957
 21
427.2176400418754
 72
     1
 10
421.8825800908957
 20
427.2176400418754
 11
421.8825800908957
 21
437.7176400418762
 72
     1
 10
421.8825800908957
 20
437.7176400418762
 11
437.5325800908972
 21
437.7176400418762
 72
     1
 10
437.5325800908972
 20
437.7176400418762
 11
437.5325800908972
 21
442.7176400418753
 72
     1
 10
437.5325800908972
 20
442.7176400418753
 11
450.7556760195601
 21
442.7176400418755
 72
     2
 10
453.3825800908967
 20
441.217640041876
 40
3.025000000000496
 50
150.2730117288945
 51
207.3821817981256
 73
     1
 72
     2
 10
450.4745161408605
 20
439.711390041875
 40
0.2500000000000165
 50
332.6178182018861
 51
450.0
 73
     0
 72
     1
 10
450.4745161408605
 20
439.4613900418749
 11
450.1325800908957
 21
439.4613900418749
 72
     2
 10
450.1325800908957
 20
439.211390041875
 40
0.25
 50
90.0
 51
180.0
 73
     1
 72
     1
 10
449.8825800908957
 20
439.211390041875
 11
449.8825800908957
 21
437.9676400418771
 72
     2
 10
450.1325800908962
 20
437.9676400418767
 40
0.2500000000004547
 50
179.9999999998957
 51
269.9999999998958
 73
     1
 72
     1
 10
450.1325800908957
 20
437.7176400418762
 11
456.9825800908961
 21
437.7176400418772
 72
     1
 10
456.9825800908961
 20
437.7176400418772
 11
456.9825800908961
 21
427.2176400418754
 72
     1
 10
456.9825800908961
 20
427.2176400418754
 11
459.9825800908961
 21
427.2176400418754
 72
     1
 10
459.9825800908961
 20
427.2176400418754
 11
459.9825800908961
 21
428.7176400418736
 72
     1
 10
459.9825800908961
 20
428.7176400418736
 11
458.3825800908957
 21
428.7176400418736
 72
     1
 10
458.3825800908957
 20
428.7176400418736
 11
458.3825800908961
 21
437.7176400418772
 72
     2
 10
456.9825800908962
 20
437.717640041877
 40
1.399999999999806
 50
0.000000000006979
 51
90.00000000000698
 73
     1
 72
     1
 10
456.9825800908961
 20
439.1176400418768
 11
455.6830800908969
 21
439.1176400418768
 72
     1
 10
455.6830800908969
 20
439.1176400418768
 11
455.6830800908959
 21
439.3480285867577
 72
     2
 10
454.8384686357779
 20
439.3480285867576
 40
0.844611455118013
 50
0.0000000000115682
 51
127.908313681073
 73
     1
 72
     2
 10
453.3825800908961
 20
441.2176400418753
 40
1.524999999999786
 50
52.0916863189523
 51
307.9083136810661
 73
     0
 72
     2
 10
454.838468635778
 20
443.0872514969932
 40
0.8446114551181407
 50
232.0916863189533
 51
334.0484329360907
 73
     1
 72
     1
 10
455.5979130921818
 20
442.7176400418753
 11
456.9825800908961
 21
442.7176400418741
 72
     2
 10
456.9825800908959
 20
444.1176400418739
 40
1.399999999999806
 50
270.000000000007
 51
360.000000000007
 73
     1
 72
     1
 10
458.3825800908957
 20
444.1176400418741
 11
458.3825800908957
 21
447.7176400418754
 72
     1
 10
458.3825800908957
 20
447.7176400418754
 11
461.709555143821
 21
447.7176400418754
 72
     1
 10
461.709555143821
 20
447.7176400418754
 11
462.209555143821
 21
448.2176400418735
 72
     1
 10
462.209555143821
 20
448.2176400418735
 11
477.209555143821
 21
448.2176400418735
 72
     1
 10
477.209555143821
 20
448.2176400418735
 11
477.709555143821
 21
447.7176400418735
 72
     1
 10
477.709555143821
 20
447.7176400418735
 11
478.959555143821
 21
447.7176400418735
 72
     2
 10
478.959555143821
 20
448.4676400418735
 40
0.75
 50
270.0
 51
450.0
 73
     1
 72
     1
 10
478.959555143821
 20
449.2176400418735
 11
458.3825800908957
 21
449.2176400418735
 72
     1
 10
458.3825800908957
 20
449.2176400418735
 11
458.3825800908957
 21
450.4176400418745
 72
     1
 10
458.3825800908957
 20
450.4176400418745
 11
458.8825800908957
 21
450.4176400418746
 72
     2
 10
458.8825800908957
 20
451.0176400418745
 40
0.5999999999999659
 50
270.0
 51
450.0
 73
     1
 72
     1
 10
458.8825800908957
 20
451.6176400418745
 11
458.3825800908957
 21
451.6176400418745
 72
     1
 10
458.3825800908957
 20
451.6176400418745
 11
458.3825800908966
 21
457.9676400418735
 72
     1
 10
458.3825800908966
 20
457.9676400418735
 11
462.732580090897
 21
457.9676400418735
 72
     2
 10
462.732580090897
 20
458.717640041874
 40
0.7500000000004548
 50
270.0000000000043
 51
449.9999999999956
 73
     1
 72
     1
 10
462.732580090897
 20
459.4676400418745
 11
458.3825800908957
 21
459.4676400418745
 72
     1
 10
458.3825800908957
 20
459.4676400418745
 11
458.3825800908957
 21
462.8176400418753
 72
     1
 10
458.3825800908957
 20
462.8176400418753
 11
458.8825800908957
 21
462.8176400418753
 72
     2
 10
458.8825800908957
 20
463.4176400418753
 40
0.5999999999999659
 50
270.0
 51
450.0
 73
     1
 72
     1
 10
458.8825800908957
 20
464.0176400418753
 11
458.3825800908957
 21
464.0176400418753
 72
     1
 10
458.3825800908957
 20
464.0176400418753
 11
458.3825800908957
 21
465.2176400418754
 72
     1
 10
458.3825800908957
 20
465.2176400418754
 11
454.8825800908957
 21
465.2176400418754
 72
     1
 10
454.8825800908957
 20
465.2176400418754
 11
454.8825800908957
 21
463.1676400418752
 72
     2
 10
455.3825800908957
 20
463.1676400418752
 40
0.5
 50
180.0
 51
360.0
 73
     1
 72
     1
 10
455.8825800908957
 20
463.1676400418752
 11
455.8825800908957
 21
463.9176400418752
 72
     1
 10
455.8825800908957
 20
463.9176400418752
 11
457.3825800908958
 21
463.9176400418752
 72
     1
 10
457.3825800908958
 20
463.9176400418752
 11
457.3825800908958
 21
458.4176400418751
 72
     1
 10
457.3825800908958
 20
458.4176400418751
 11
455.8825800908957
 21
458.4176400418751
 72
     1
 10
455.8825800908957
 20
458.4176400418751
 11
455.8825800908957
 21
459.1676400418752
 72
     2
 10
455.3825800908957
 20
459.1676400418752
 40
0.5
 50
0.0
 51
180.0
 73
     1
 72
     1
 10
454.8825800908957
 20
459.1676400418752
 11
454.8825800908957
 21
457.117640041875
 72
     1
 10
454.8825800908957
 20
457.117640041875
 11
456.8825800908958
 21
457.117640041875
 72
     1
 10
456.8825800908958
 20
457.117640041875
 11
456.8825800908958
 21
455.617640041875
 72
     1
 10
456.8825800908958
 20
455.617640041875
 11
457.1325800908957
 21
455.617640041875
 72
     1
 10
457.1325800908957
 20
455.617640041875
 11
457.1325800908957
 21
453.9176400418751
 72
     1
 10
457.1325800908957
 20
453.9176400418751
 11
457.4325800908968
 21
453.6176400418749
 72
     1
 10
457.4325800908968
 20
453.6176400418749
 11
457.1325800908957
 21
453.3176400418757
 72
     1
 10
457.1325800908957
 20
453.3176400418757
 11
457.1325800908957
 21
451.617640041875
 72
     1
 10
457.1325800908957
 20
451.617640041875
 11
456.8825800908958
 21
451.617640041875
 72
     1
 10
456.8825800908958
 20
451.617640041875
 11
456.8825800908958
 21
444.2176400418754
 72
     1
 10
456.8825800908958
 20
444.2176400418754
 11
446.5325800908954
 21
444.2176400418754
 72
     1
 10
446.5325800908954
 20
444.2176400418754
 11
446.1325800908958
 21
443.8176400418757
 72
     1
 10
446.1325800908958
 20
443.8176400418757
 11
445.7325800908961
 21
444.2176400418754
 72
     1
 10
445.7325800908961
 20
444.2176400418754
 11
433.5325800908972
 21
444.2176400418754
 72
     2
 10
433.5325800908972
 20
443.7176400418754
 40
0.5
 50
90.0
 51
270.0
 73
     1
 72
     1
 10
433.5325800908972
 20
443.2176400418753
 11
436.0325800908972
 21
443.2176400418753
 72
     1
 10
436.0325800908972
 20
443.2176400418753
 11
436.0325800908972
 21
439.2176400418763
 72
     1
 10
436.0325800908972
 20
439.2176400418763
 11
427.2825800908972
 21
439.2176400418763
 72
     1
 10
427.2825800908972
 20
439.2176400418763
 11
426.8825800908957
 21
438.8176400418766
 72
     1
 10
426.8825800908957
 20
438.8176400418766
 11
426.4825800908961
 21
439.2176400418763
 72
     1
 10
426.4825800908961
 20
439.2176400418763
 11
421.8825800908957
 21
439.2176400418763
 72
     1
 10
421.8825800908957
 20
439.2176400418763
 11
421.8825800908957
 21
441.3150485456059
 72
     1
 10
421.8825800908957
 20
441.3150485456059
 11
422.8490864418419
 21
442.989086651282
 72
     2
 10
422.6325800908961
 20
443.1140866512832
 40
0.2500000000002443
 50
329.9999999997315
 51
404.9999999997329
 73
     1
 72
     1
 10
422.8093567861938
 20
443.2908633465792
 11
421.8825800908957
 21
444.2176400418754
 72
     1
 10
421.8825800908957
 20
444.2176400418754
 11
420.3825800908957
 21
444.2176400418754
 72
     1
 10
420.3825800908957
 20
444.2176400418754
 11
420.3825800908957
 21
430.2176400418753
 72
     1
 10
420.3825800908957
 20
430.2176400418753
 11
407.7899368739002
 21
427.6822107121177
 72
     2
 10
408.3820800908974
 20
424.7412301935552
 40
3.000000000000019
 50
101.3838528929718
 51
180.0
 73
     1
 72
     1
 10
405.3820800908974
 20
424.7412301935552
 11
405.3820800908974
 21
403.2176400418753
 72
     2
 10
406.3820800908975
 20
403.2176400418753
 40
1.0
 50
180.0
 51
270.0
 73
     1
 72
     1
 10
406.3820800908975
 20
402.2176400418754
 11
412.1320800908974
 21
402.2176400418754
 72
     2
 10
412.1320800908974
 20
402.4676400418753
 40
0.25
 50
270.0
 51
360.0
 73
     1
 72
     1
 10
412.3820800908974
 20
402.4676400418753
 11
412.3820800908974
 21
403.4676400418753
 72
     2
 10
412.1320800908974
 20
403.4676400418753
 40
0.25
 50
0.0
 51
90.0
 73
     1
 72
     1
 10
412.1320800908974
 20
403.7176400418753
 11
411.6503150881467
 21
403.7176400418753
 72
     2
 10
411.6503150881471
 20
403.9676400418751
 40
0.2499999999997726
 50
90.00000000009119
 51
212.2999183635763
 73
     0
 72
     2
 10
408.8820800908973
 20
405.717640041875
 40
3.024999999999915
 50
327.7000816365276
 51
398.7192973222455
 73
     1
 72
     2
 10
410.6570800908973
 20
407.140664988951
 40
0.749999999999785
 50
38.71929732224645
 51
218.7192973222437
 73
     1
 72
     2
 10
408.8820800908968
 20
405.7176400418747
 40
1.5250000000009
 50
321.2807026777562
 51
578.7192973222365
 73
     0
 72
     2
 10
407.1070800908966
 20
407.1406649889516
 40
0.7499999999998657
 50
321.2807026776973
 51
448.5674562623716
 73
     1
 97
        1
330
324D
 75
     0
 76
     1
 98
        1
 10
0.0
 20
0.0
  0
ENDBLK
  5
2675
330
2673
100
AcDbEntity
  8
0
100
AcDbBlockEnd
  0
BLOCK
  5
2679
330
2678
100
AcDbEntity
  8
0
100
AcDbBlockBegin
  2
07103
 70
     0
 10
494.0467264791148
 20
408.3095849969407
 30
0.0
  3
07103
  1
07103.dwg
  0
LWPOLYLINE
  5
3251
102
{ACAD_REACTORS
330
3253
102
}
330
2678
100
AcDbEntity
  8
APL Joinery
  6
Continuous
100
AcDbPolyline
 90
       74
 70
     1
 43
0.0
 10
486.4049948130859
 20
401.4784354062674
 10
480.9372350254932
 20
409.692910204529
 42
-0.3573073485341374
 10
481.0625785385654
 20
410.9541167128311
 10
490.1680468226747
 20
420.0595849969407
 10
492.2962983302766
 20
420.0595849969407
 10
492.2962983302766
 20
421.3095849969407
 10
511.0967264791149
 20
421.3095849969407
 42
0.9999999999999998
 10
511.0967264791149
 20
422.8095849969407
 10
507.2967264791157
 20
422.8095849969407
 42
-0.4142135623730951
 10
507.0467264791156
 20
423.0595849969407
 10
507.0467264791156
 20
426.3614675875855
 42
-0.4142135623730951
 10
507.2967264791157
 20
426.6114675875854
 10
519.0467264791156
 20
426.6114675875854
 10
519.0467264791156
 20
420.9095849969411
 10
525.1467264791151
 20
420.9095849969411
 42
-0.4142135623730951
 10
525.3967264791151
 20
420.6595849969411
 10
525.3967264791151
 20
419.7595849969415
 42
0.4142135623730951
 10
525.6467264791151
 20
419.5095849969415
 10
526.5467264791157
 20
419.5095849969415
 42
0.4142135623730951
 10
526.7967264791157
 20
419.7595849969415
 10
526.7967264791157
 20
422.3095849969407
 10
520.4467264791153
 20
422.3095849969407
 10
520.4467264791153
 20
429.4114675875857
 10
519.2467264791154
 20
429.4114675875857
 10
519.2467264791154
 20
428.0114675875851
 10
513.3967264791151
 20
428.0114675875851
 10
513.3967264791151
 20
466.0595849969407
 10
509.8967264791151
 20
466.0595849969407
 10
509.8967264791151
 20
464.0095849969405
 42
0.9999999999999998
 10
510.8967264791151
 20
464.0095849969405
 10
510.8967264791151
 20
464.7595849969405
 10
512.3967264791152
 20
464.7595849969405
 10
512.3967264791152
 20
459.2595849969406
 10
510.8967264791151
 20
459.2595849969406
 10
510.8967264791151
 20
460.0095849969405
 42
0.9999999999999998
 10
509.8967264791151
 20
460.0095849969405
 10
509.8967264791151
 20
457.9595849969413
 10
511.8967264791151
 20
457.9595849969413
 10
511.8967264791151
 20
456.4595849969413
 10
512.1467264791151
 20
456.4595849969413
 10
512.1467264791151
 20
452.4595849969413
 10
511.8967264791151
 20
452.4595849969413
 10
511.8967264791151
 20
447.0595849969408
 42
-0.4142135623730951
 10
509.8967264791151
 20
445.0595849969407
 10
488.5467264791157
 20
445.0595849969407
 42
0.9999999999999998
 10
488.5467264791157
 20
444.0595849969407
 10
491.0467264791157
 20
444.0595849969407
 10
491.0467264791157
 20
440.0595849969407
 10
476.8967264791151
 20
440.0595849969407
 10
476.8967264791151
 20
442.1569935006713
 10
477.8632328300616
 20
443.8310316063473
 42
0.3394542588633301
 10
477.8235031744117
 20
444.132808301644
 10
476.8967264791151
 20
445.0595849969407
 10
475.3967264791151
 20
445.0595849969407
 10
475.3967264791151
 20
418.3334035902848
 42
0.1478844142756872
 10
477.072223536533
 20
412.7924063191301
 10
485.156319371699
 20
400.6472858155943
 42
0.2509566172926127
 10
487.6536702544733
 20
399.3095849969408
 10
491.0467264791147
 20
399.3095849969408
 42
0.4142135623730951
 10
492.0467264791148
 20
400.3095849969407
 10
492.0467264791148
 20
401.3595849969409
 42
0.9999999999999998
 10
491.0467264791147
 20
401.3595849969409
 10
491.0467264791147
 20
400.6095849969409
 10
489.5467264791148
 20
400.6095849969409
 10
489.5467264791148
 20
406.1095849969409
 10
491.0467264791147
 20
406.1095849969409
 10
491.0467264791147
 20
405.359584996941
 42
0.9999999999999998
 10
492.0467264791148
 20
405.359584996941
 10
492.0467264791148
 20
406.4095849969411
 42
0.4142135623730951
 10
491.0467264791147
 20
407.4095849969411
 10
489.5467264791148
 20
407.4095849969411
 42
0.4142135623730951
 10
488.0467264791148
 20
405.9095849969411
 10
488.0467264791148
 20
401.3153199271977
 42
-0.4459564851225481
 10
487.4932545914353
 20
400.818187392326
 42
-0.2226658265771438
  0
LWPOLYLINE
  5
3252
102
{ACAD_REACTORS
330
3253
102
}
330
2678
100
AcDbEntity
  8
APL Joinery
  6
Continuous
100
AcDbPolyline
 90
       27
 70
     1
 43
0.0
 10
497.8626446329609
 20
426.7344822248993
 42
-0.9999999999999998
 10
498.9299523252697
 20
427.7884529502705
 42
-0.3548088091890836
 10
499.3397914444508
 20
423.5855590229147
 42
0.5978996910514593
 10
499.7567306930084
 20
422.8095849969407
 10
505.5467264791157
 20
422.8095849969407
 10
505.5467264791157
 20
426.2614675875851
 42
-0.4142135623730951
 10
507.2967264791157
 20
428.0114675875851
 10
511.3967264791151
 20
428.0114675875851
 42
0.4142135623730951
 10
511.8967264791151
 20
428.5114675875851
 10
511.8967264791151
 20
443.0595849969408
 42
0.4142135623730951
 10
511.3967264791151
 20
443.5595849969407
 10
493.0467264791157
 20
443.5595849969407
 42
0.4142135623730951
 10
492.5467264791157
 20
443.0595849969408
 10
492.5467264791157
 20
440.0595849969407
 42
-0.4142135623730951
 10
491.0467264791157
 20
438.5595849969408
 10
477.3967264791151
 20
438.5595849969408
 42
0.4142135623730951
 10
476.8967264791151
 20
438.0595849969408
 10
476.896726479115
 20
418.3334035902847
 42
0.1478844142756755
 10
478.3208989779203
 20
413.6235559098032
 10
478.9591933542949
 20
412.6646160016355
 42
0.4735056154819743
 10
480.4987504297392
 20
412.5116089475654
 10
489.9912701273786
 20
422.0041286452035
 42
-0.1989123673796641
 10
491.9358137756415
 20
422.8095849969407
 10
493.3358662652215
 20
422.8095849969407
 42
0.5978996910514752
 10
493.752805513779
 20
423.5855590229146
 42
-0.354808809189094
 10
494.162644632961
 20
427.7884529502705
 42
-1.00000000000004
 10
495.229952325269
 20
426.7344822248991
 42
2.392909508455622
  0
HATCH
  5
3253
330
2678
100
AcDbEntity
  8
APL Hatch
100
AcDbHatch
 10
0.0
 20
0.0
 30
0.0
210
0.0
220
0.0
230
1.0
  2
SOLID
 70
     1
 71
     1
 91
        2
 92
       16
 93
       27
 72
     2
 10
498.3962984791153
 20
427.261467587585
 40
0.7500000000002328
 50
135.360227041443
 51
315.3602270414491
 73
     0
 72
     2
 10
496.5462984791149
 20
425.4345849969405
 40
3.350000000000496
 50
315.3602270414142
 51
393.5007603850511
 73
     0
 72
     2
 10
499.7567306930084
 20
423.3095849969407
 40
0.5000000000000253
 50
146.4992396149542
 51
270.0
 73
     1
 72
     1
 10
499.7567306930084
 20
422.8095849969407
 11
505.5467264791157
 21
422.8095849969407
 72
     1
 10
505.5467264791157
 20
422.8095849969407
 11
505.5467264791157
 21
426.2614675875851
 72
     2
 10
507.2967264791157
 20
426.2614675875851
 40
1.75
 50
180.0
 51
270.0
 73
     0
 72
     1
 10
507.2967264791157
 20
428.0114675875851
 11
511.3967264791151
 21
428.0114675875851
 72
     2
 10
511.3967264791151
 20
428.5114675875851
 40
0.5
 50
270.0
 51
360.0
 73
     1
 72
     1
 10
511.8967264791151
 20
428.5114675875851
 11
511.8967264791151
 21
443.0595849969408
 72
     2
 10
511.3967264791151
 20
443.0595849969408
 40
0.5
 50
0.0
 51
90.0
 73
     1
 72
     1
 10
511.3967264791151
 20
443.5595849969407
 11
493.0467264791157
 21
443.5595849969407
 72
     2
 10
493.0467264791157
 20
443.0595849969408
 40
0.5
 50
90.0
 51
180.0
 73
     1
 72
     1
 10
492.5467264791157
 20
443.0595849969408
 11
492.5467264791157
 21
440.0595849969407
 72
     2
 10
491.0467264791157
 20
440.0595849969407
 40
1.5
 50
360.0
 51
450.0
 73
     0
 72
     1
 10
491.0467264791157
 20
438.5595849969408
 11
477.3967264791151
 21
438.5595849969408
 72
     2
 10
477.3967264791151
 20
438.0595849969408
 40
0.5
 50
90.0
 51
180.0
 73
     1
 72
     1
 10
476.8967264791151
 20
438.0595849969408
 11
476.896726479115
 21
418.3334035902847
 72
     2
 10
485.3967264791152
 20
418.3334035902848
 40
8.50000000000017
 50
180.0000000000004
 51
213.6487285868878
 73
     1
 72
     1
 10
478.3208989779203
 20
413.6235559098032
 11
478.9591933542949
 21
412.6646160016355
 72
     2
 10
479.7916436485524
 20
413.2187157287514
 40
0.9999999999996809
 50
213.6487285869261
 51
315.0000000000368
 73
     1
 72
     1
 10
480.4987504297392
 20
412.5116089475654
 11
489.9912701273786
 21
422.0041286452035
 72
     2
 10
491.9358137756416
 20
420.0595849969408
 40
2.749999999999861
 50
224.9999999999941
 51
269.9999999999953
 73
     0
 72
     1
 10
491.9358137756415
 20
422.8095849969407
 11
493.3358662652215
 21
422.8095849969407
 72
     2
 10
493.3358662652215
 20
423.3095849969407
 40
0.5
 50
269.9999999999935
 51
393.500760385044
 73
     1
 72
     2
 10
496.5462984791153
 20
425.4345849969399
 40
3.350000000000573
 50
146.4992396149599
 51
224.6397729585988
 73
     0
 72
     2
 10
494.696298479115
 20
427.2614675875849
 40
0.7499999999999897
 50
224.6397729585814
 51
404.6397729585875
 73
     0
 72
     2
 10
496.5462984791151
 20
425.4345849969415
 40
1.849999999999111
 50
135.3602270414172
 51
404.6397729585926
 73
     1
 97
        1
330
3252
 92
        1
 93
       74
 72
     1
 10
486.4049948130859
 20
401.4784354062674
 11
480.9372350254932
 21
409.692910204529
 72
     2
 10
481.7696853197516
 20
410.2470099316442
 40
1.000000000000091
 50
146.3512714131326
 51
225.000000000023
 73
     0
 72
     1
 10
481.0625785385654
 20
410.9541167128311
 11
490.1680468226747
 21
420.0595849969407
 72
     1
 10
490.1680468226747
 20
420.0595849969407
 11
492.2962983302766
 21
420.0595849969407
 72
     1
 10
492.2962983302766
 20
420.0595849969407
 11
492.2962983302766
 21
421.3095849969407
 72
     1
 10
492.2962983302766
 20
421.3095849969407
 11
511.0967264791149
 21
421.3095849969407
 72
     2
 10
511.0967264791149
 20
422.0595849969408
 40
0.75
 50
270.0
 51
450.0
 73
     1
 72
     1
 10
511.0967264791149
 20
422.8095849969407
 11
507.2967264791157
 21
422.8095849969407
 72
     2
 10
507.2967264791157
 20
423.0595849969407
 40
0.25
 50
90.0
 51
180.0
 73
     0
 72
     1
 10
507.0467264791156
 20
423.0595849969407
 11
507.0467264791156
 21
426.3614675875855
 72
     2
 10
507.2967264791157
 20
426.3614675875855
 40
0.25
 50
180.0
 51
270.0
 73
     0
 72
     1
 10
507.2967264791157
 20
426.6114675875854
 11
519.0467264791156
 21
426.6114675875854
 72
     1
 10
519.0467264791156
 20
426.6114675875854
 11
519.0467264791156
 21
420.9095849969411
 72
     1
 10
519.0467264791156
 20
420.9095849969411
 11
525.1467264791151
 21
420.9095849969411
 72
     2
 10
525.1467264791151
 20
420.6595849969411
 40
0.25
 50
270.0
 51
360.0
 73
     0
 72
     1
 10
525.3967264791151
 20
420.6595849969411
 11
525.3967264791151
 21
419.7595849969415
 72
     2
 10
525.6467264791151
 20
419.7595849969415
 40
0.25
 50
180.0
 51
270.0
 73
     1
 72
     1
 10
525.6467264791151
 20
419.5095849969415
 11
526.5467264791157
 21
419.5095849969415
 72
     2
 10
526.5467264791157
 20
419.7595849969415
 40
0.25
 50
270.0
 51
360.0
 73
     1
 72
     1
 10
526.7967264791157
 20
419.7595849969415
 11
526.7967264791157
 21
422.3095849969407
 72
     1
 10
526.7967264791157
 20
422.3095849969407
 11
520.4467264791153
 21
422.3095849969407
 72
     1
 10
520.4467264791153
 20
422.3095849969407
 11
520.4467264791153
 21
429.4114675875857
 72
     1
 10
520.4467264791153
 20
429.4114675875857
 11
519.2467264791154
 21
429.4114675875857
 72
     1
 10
519.2467264791154
 20
429.4114675875857
 11
519.2467264791154
 21
428.0114675875851
 72
     1
 10
519.2467264791154
 20
428.0114675875851
 11
513.3967264791151
 21
428.0114675875851
 72
     1
 10
513.3967264791151
 20
428.0114675875851
 11
513.3967264791151
 21
466.0595849969407
 72
     1
 10
513.3967264791151
 20
466.0595849969407
 11
509.8967264791151
 21
466.0595849969407
 72
     1
 10
509.8967264791151
 20
466.0595849969407
 11
509.8967264791151
 21
464.0095849969405
 72
     2
 10
510.3967264791151
 20
464.0095849969405
 40
0.5
 50
180.0
 51
360.0
 73
     1
 72
     1
 10
510.8967264791151
 20
464.0095849969405
 11
510.8967264791151
 21
464.7595849969405
 72
     1
 10
510.8967264791151
 20
464.7595849969405
 11
512.3967264791152
 21
464.7595849969405
 72
     1
 10
512.3967264791152
 20
464.7595849969405
 11
512.3967264791152
 21
459.2595849969406
 72
     1
 10
512.3967264791152
 20
459.2595849969406
 11
510.8967264791151
 21
459.2595849969406
 72
     1
 10
510.8967264791151
 20
459.2595849969406
 11
510.8967264791151
 21
460.0095849969405
 72
     2
 10
510.3967264791151
 20
460.0095849969405
 40
0.5
 50
0.0
 51
180.0
 73
     1
 72
     1
 10
509.8967264791151
 20
460.0095849969405
 11
509.8967264791151
 21
457.9595849969413
 72
     1
 10
509.8967264791151
 20
457.9595849969413
 11
511.8967264791151
 21
457.9595849969413
 72
     1
 10
511.8967264791151
 20
457.9595849969413
 11
511.8967264791151
 21
456.4595849969413
 72
     1
 10
511.8967264791151
 20
456.4595849969413
 11
512.1467264791151
 21
456.4595849969413
 72
     1
 10
512.1467264791151
 20
456.4595849969413
 11
512.1467264791151
 21
452.4595849969413
 72
     1
 10
512.1467264791151
 20
452.4595849969413
 11
511.8967264791151
 21
452.4595849969413
 72
     1
 10
511.8967264791151
 20
452.4595849969413
 11
511.8967264791151
 21
447.0595849969408
 72
     2
 10
509.8967264791151
 20
447.0595849969408
 40
2.0
 50
360.0
 51
450.0
 73
     0
 72
     1
 10
509.8967264791151
 20
445.0595849969407
 11
488.5467264791157
 21
445.0595849969407
 72
     2
 10
488.5467264791157
 20
444.5595849969407
 40
0.5
 50
90.0
 51
270.0
 73
     1
 72
     1
 10
488.5467264791157
 20
444.0595849969407
 11
491.0467264791157
 21
444.0595849969407
 72
     1
 10
491.0467264791157
 20
444.0595849969407
 11
491.0467264791157
 21
440.0595849969407
 72
     1
 10
491.0467264791157
 20
440.0595849969407
 11
476.8967264791151
 21
440.0595849969407
 72
     1
 10
476.8967264791151
 20
440.0595849969407
 11
476.8967264791151
 21
442.1569935006713
 72
     1
 10
476.8967264791151
 20
442.1569935006713
 11
477.8632328300616
 21
443.8310316063473
 72
     2
 10
477.6467264791151
 20
443.956031606347
 40
0.2500000000000753
 50
330.0000000000852
 51
405.0000000000737
 73
     1
 72
     1
 10
477.8235031744117
 20
444.132808301644
 11
476.8967264791151
 21
445.0595849969407
 72
     1
 10
476.8967264791151
 20
445.0595849969407
 11
475.3967264791151
 21
445.0595849969407
 72
     1
 10
475.3967264791151
 20
445.0595849969407
 11
475.3967264791151
 21
418.3334035902848
 72
     2
 10
485.3967264791146
 20
418.3334035902846
 40
9.999999999999545
 50
179.9999999999993
 51
213.6487285868891
 73
     1
 72
     1
 10
477.072223536533
 20
412.7924063191301
 11
485.156319371699
 21
400.6472858155943
 72
     2
 10
487.6536702544735
 20
402.3095849969406
 40
2.999999999999848
 50
213.6487285868885
 51
269.9999999999978
 73
     1
 72
     1
 10
487.6536702544733
 20
399.3095849969408
 11
491.0467264791147
 21
399.3095849969408
 72
     2
 10
491.0467264791147
 20
400.3095849969407
 40
1.0
 50
270.0
 51
360.0
 73
     1
 72
     1
 10
492.0467264791148
 20
400.3095849969407
 11
492.0467264791148
 21
401.3595849969409
 72
     2
 10
491.5467264791147
 20
401.3595849969409
 40
0.5
 50
0.0
 51
180.0
 73
     1
 72
     1
 10
491.0467264791147
 20
401.3595849969409
 11
491.0467264791147
 21
400.6095849969409
 72
     1
 10
491.0467264791147
 20
400.6095849969409
 11
489.5467264791148
 21
400.6095849969409
 72
     1
 10
489.5467264791148
 20
400.6095849969409
 11
489.5467264791148
 21
406.1095849969409
 72
     1
 10
489.5467264791148
 20
406.1095849969409
 11
491.0467264791147
 21
406.1095849969409
 72
     1
 10
491.0467264791147
 20
406.1095849969409
 11
491.0467264791147
 21
405.359584996941
 72
     2
 10
491.5467264791147
 20
405.359584996941
 40
0.5
 50
180.0
 51
360.0
 73
     1
 72
     1
 10
492.0467264791148
 20
405.359584996941
 11
492.0467264791148
 21
406.4095849969411
 72
     2
 10
491.0467264791147
 20
406.4095849969411
 40
1.0
 50
0.0
 51
90.0
 73
     1
 72
     1
 10
491.0467264791147
 20
407.4095849969411
 11
489.5467264791148
 21
407.4095849969411
 72
     2
 10
489.5467264791148
 20
405.9095849969411
 40
1.5
 50
90.0
 51
180.0
 73
     1
 72
     1
 10
488.0467264791148
 20
405.9095849969411
 11
488.0467264791148
 21
401.3153199271977
 72
     2
 10
487.5467264791147
 20
401.3153199271977
 40
0.5
 50
360.0
 51
456.1391673652599
 73
     0
 72
     2
 10
487.6536702544726
 20
402.309584996941
 40
1.499999999999656
 50
96.1391673652194
 51
146.3512714130889
 73
     0
 97
        1
330
3251
 75
     0
 76
     1
 98
        1
 10
0.0
 20
0.0
  0
ENDBLK
  5
267A
330
2678
100
AcDbEntity
  8
0
100
AcDbBlockEnd
  0
BLOCK
  5
2689
330
2688
100
AcDbEntity
  8
0
100
AcDbBlockBegin
  2
sw30mmliner
 70
     0
 10
-8.320245268962722
 20
142.2739088327281
 30
0.0
  3
sw30mmliner
  1
sw30mmliner.dwg
  0
LWPOLYLINE
  5
29F4
330
2688
100
AcDbEntity
  8
APL Joinery
  6
Continuous
 62
     3
100
AcDbPolyline
 90
       16
 70
   129
 43
0.0
 10
-8.320245268962722
 20
161.273908832728
 10
-8.320245268962722
 20
152.973908832728
 10
-3.920245268962716
 20
152.973908832728
 10
-3.920245268962716
 20
150.473908832728
 10
-8.320245268962722
 20
150.473908832728
 10
-8.320245268962722
 20
142.2739088327281
 10
16.67975473103728
 20
142.2739088327281
 10
16.67975473103728
 20
131.273908832728
 10
58.57975473103727
 20
131.273908832728
 10
58.57975473103727
 20
139.2739088327281
 10
68.57975473103727
 20
139.2739088327281
 10
68.57975473103727
 20
131.273908832728
 10
77.57975473103726
 20
131.273908832728
 42
0.4142135623730951
 10
80.57975473103727
 20
134.273908832728
 10
80.57975473103727
 20
158.273908832728
 42
0.4142135623730951
 10
77.57975473103726
 20
161.273908832728
  0
ARC
  5
29F5
330
2688
100
AcDbEntity
  8
APL Joinery
  6
Continuous
 62
     8
100
AcDbCircle
 10
-2.065094850108238
 20
126.3181393429162
 30
0.0
 40
41.9195481519577
100
AcDbArc
 50
10.24507817588775
 51
50.73613270831355
  0
ARC
  5
29F6
330
2688
100
AcDbEntity
  8
APL Joinery
  6
Continuous
 62
     8
100
AcDbCircle
 10
-2.065094850108238
 20
126.3181393429162
 30
0.0
 40
61.9195481519577
100
AcDbArc
 50
14.45446489788398
 51
31.61173285031439
  0
ARC
  5
29F7
330
2688
100
AcDbEntity
  8
APL Joinery
  6
Continuous
 62
     8
100
AcDbCircle
 10
-2.065094850108238
 20
126.3181393429162
 30
0.0
 40
81.91954815195769
100
AcDbArc
 50
11.94794822801606
 51
23.34026053111568
  0
ARC
  5
29F8
330
2688
100
AcDbEntity
  8
APL Joinery
  6
Continuous
 62
     8
100
AcDbCircle
 10
-2.065094850108238
 20
126.3181393429162
 30
0.0
 40
21.9195481519577
100
AcDbArc
 50
57.3495468426925
 51
88.31417642809208
  0
LINE
  5
29F9
330
2688
100
AcDbEntity
  8
APL Joinery
  6
Continuous
 62
     8
100
AcDbLine
 10
1.439132372933531
 20
144.773908832728
 30
0.0
 11
4.097335334867297
 21
158.773908832728
 31
0.0
  0
LINE
  5
29FA
330
2688
100
AcDbEntity
  8
APL Joinery
  6
Continuous
 62
     8
100
AcDbLine
 10
19.17975473103728
 20
143.487533006339
 30
0.0
 11
31.20445811643854
 21
158.773908832728
 31
0.0
  0
LINE
  5
29FB
330
2688
100
AcDbEntity
  8
APL Joinery
  6
Continuous
 62
     8
100
AcDbLine
 10
23.56650084485508
 20
133.773908832728
 30
0.0
 11
78.07975473103725
 21
149.6308324496542
 31
0.0
  0
ENDBLK
  5
268A
330
2688
100
AcDbEntity
  8
0
100
AcDbBlockEnd
  0
BLOCK
  5
2690
330
268F
100
AcDbEntity
  8
0
100
AcDbBlockBegin
  2
9700529
 70
     0
 10
781.9306002937151
 20
277.8363373982324
 30
0.0
  3
9700529
  1
9700529.dwg
  0
LWPOLYLINE
  5
325F
330
268F
100
AcDbEntity
  8
APL Joinery
  6
Continuous
 62
     8
100
AcDbPolyline
 90
       14
 70
     1
 43
0.0
 10
774.6306002937147
 20
314.2344548075874
 10
774.6306002937147
 20
279.2863373982321
 10
779.980600293715
 20
279.2863373982321
 10
779.980600293715
 20
281.8863373982316
 10
781.9806002937146
 20
281.8863373982316
 10
781.9806002937146
 20
270.7844548075875
 10
780.6806002937149
 20
270.7844548075875
 10
780.6806002937149
 20
277.9863373982319
 10
779.3806002937151
 20
277.9863373982319
 10
779.3806002937151
 20
276.4863373982319
 10
778.0806002937149
 20
276.4863373982319
 10
778.0806002937149
 20
277.9863373982319
 10
773.6306002937147
 20
277.9863373982319
 10
773.6306002937147
 20
314.2344548075874
  0
ENDBLK
  5
2691
330
268F
100
AcDbEntity
  8
0
100
AcDbBlockEnd
  0
BLOCK
  5
2696
330
2695
100
AcDbEntity
  8
0
100
AcDbBlockBegin
  2
Timber Profile 14
 70
     0
 10
393.7519846435696
 20
820.8839080702457
 30
0.0
  3
Timber Profile 14
  1
Timber Profile 14.dwg
  0
LWPOLYLINE
  5
3261
330
2695
100
AcDbEntity
  8
APL Joinery
  6
Continuous
 62
     3
100
AcDbPolyline
 90
        8
 70
     1
 43
0.0
 10
391.7019846435692
 20
818.3339080702477
 10
386.7019846435687
 20
818.3339080702477
 10
386.7019846435687
 20
856.4320254796042
 10
398.5019846435694
 20
856.4320254796037
 10
398.5019846435698
 20
809.7320254796034
 10
393.8019846435695
 20
809.7320254796038
 10
393.8019846435695
 20
821.6339080702475
 10
391.7019846435687
 20
821.633908070248
  0
SPLINE
  5
3262
330
2695
100
AcDbEntity
  8
APL Joinery
 62
     8
100
AcDbSpline
210
0.0
220
0.0
230
1.0
 70
  1064
 71
     3
 72
    10
 73
     6
 74
     4
 42
0.000000001
 43
0.0000000001
 44
0.0000000001
 40
0.0
 40
0.0
 40
0.0
 40
0.0
 40
5.263591546577339
 40
10.30985873790608
 40
15.81802698952888
 40
15.81802698952888
 40
15.81802698952888
 40
15.81802698952888
 10
395.0380500373597
 20
855.4752186760918
 30
0.0
 10
394.89416405571
 20
853.7003268954194
 30
0.0
 10
394.6123328892819
 20
850.2238254663334
 30
0.0
 10
391.6248487596279
 20
845.6714687065561
 30
0.0
 10
389.0323190059914
 20
843.3002743516691
 30
0.0
 10
387.679324792558
 20
842.0627910647029
 30
0.0
 11
395.0380500373597
 21
855.4752186760918
 31
0.0
 11
394.1723178228613
 21
850.2833111555382
 31
0.0
 11
391.575120367043
 21
845.9567215122081
 31
0.0
 11
387.679324792558
 21
842.0627910647029
 31
0.0
  0
SPLINE
  5
3263
330
2695
100
AcDbEntity
  8
APL Joinery
 62
     8
100
AcDbSpline
210
0.0
220
0.0
230
1.0
 70
  1064
 71
     3
 72
    11
 73
     7
 74
     5
 42
0.000000001
 43
0.0000000001
 44
0.0000000001
 40
0.0
 40
0.0
 40
0.0
 40
0.0
 40
5.642376584452415
 40
9.888772310793711
 40
15.5710224310065
 40
19.40985520851824
 40
19.40985520851824
 40
19.40985520851824
 40
19.40985520851824
 10
397.458452421487
 20
846.0232058202477
 30
0.0
 10
397.3042749500872
 20
844.0837523734547
 30
0.0
 10
397.034065068257
 20
840.6846858177823
 30
0.0
 10
393.4912435035322
 20
836.714053757292
 30
0.0
 10
391.3805634006039
 20
832.4927010298289
 30
0.0
 10
388.6113428291015
 20
830.8322635653421
 30
0.0
 10
387.4948128280252
 20
830.1627870118714
 30
0.0
 11
397.458452421487
 21
846.0232058202477
 31
0.0
 11
396.3513806342912
 21
840.4905025407675
 31
0.0
 11
393.9527283410171
 21
836.9864557601635
 31
0.0
 11
390.6315162250799
 21
832.3758683236638
 31
0.0
 11
387.4948128280252
 21
830.1627870118714
 31
0.0
  0
ENDBLK
  5
2697
330
2695
100
AcDbEntity
  8
0
100
AcDbBlockEnd
  0
BLOCK
  5
269F
330
269E
100
AcDbEntity
  8
0
100
AcDbBlockBegin
  2
6Glass
 70
     0
 10
101.8368839708302
 20
399.4111348733001
 30
0.0
  3
6Glass
  1
6Glass.dwg
  0
LINE
  5
29FC
330
269E
100
AcDbEntity
  8
APL Joinery
 62
     7
100
AcDbLine
 10
95.33688397083029
 20
412.4111348732999
 30
0.0
 11
95.33688397083029
 21
392.4111348733
 31
0.0
  0
LINE
  5
29FD
330
269E
100
AcDbEntity
  8
APL Joinery
 62
     7
100
AcDbLine
 10
89.33688397083029
 20
412.4111348732999
 30
0.0
 11
95.33688397083029
 21
412.4111348732999
 31
0.0
  0
LINE
  5
29FE
330
269E
100
AcDbEntity
  8
APL Joinery
 62
     8
100
AcDbLine
 10
93.33688397083028
 20
412.4111348732999
 30
0.0
 11
93.33688397083028
 21
392.4111348733
 31
0.0
  0
LINE
  5
29FF
330
269E
100
AcDbEntity
  8
APL Joinery
 62
     7
100
AcDbLine
 10
89.33688397083029
 20
412.4111348732999
 30
0.0
 11
89.33688397083029
 21
392.4111348733
 31
0.0
  0
LINE
  5
2A00
330
269E
100
AcDbEntity
  8
APL Joinery
 62
     8
100
AcDbLine
 10
91.33688397083028
 20
412.4111348732999
 30
0.0
 11
91.33688397083028
 21
392.4111348733
 31
0.0
  0
ENDBLK
  5
26A0
330
269E
100
AcDbEntity
  8
0
100
AcDbBlockEnd
  0
BLOCK
  5
26A4
330
26A3
100
AcDbEntity
  8
0
100
AcDbBlockBegin
  2
9010604
 70
     0
 10
-20.17351297792279
 20
130.681482016425
 30
0.0
  3
9010604
  1
9010604.dwg
  0
LWPOLYLINE
  5
3265
330
26A3
100
AcDbEntity
  8
APL Joinery
 62
   252
100
AcDbPolyline
 90
        2
 70
     0
 43
0.0
 10
16.60163658520415
 20
134.3235541766534
 42
0.6709480368361744
 10
16.17351297792268
 20
134.1481347349457
210
0.0
220
0.0
230
-1.0
  0
LWPOLYLINE
  5
3266
330
26A3
100
AcDbEntity
  8
APL Joinery
 62
   252
100
AcDbPolyline
 90
        2
 70
     0
 43
0.0
 10
16.67351297792268
 20
128.8441344391318
 42
0.9999999999999998
 10
16.17351297792268
 20
128.8441344391318
210
0.0
220
0.0
230
-1.0
  0
LWPOLYLINE
  5
3267
330
26A3
100
AcDbEntity
  8
APL Joinery
 62
   252
100
AcDbPolyline
 90
        2
 70
     0
 43
0.0
 10
16.67351297792269
 20
125.4689079447544
 42
0.9999999999999998
 10
16.17351297792269
 20
125.4689079447544
210
0.0
220
0.0
230
-1.0
  0
LWPOLYLINE
  5
3268
330
26A3
100
AcDbEntity
  8
APL Joinery
 62
   252
100
AcDbPolyline
 90
        2
 70
     0
 43
0.0
 10
-16.17351297792268
 20
128.8441344391318
 10
-16.1735129779228
 20
127.9621344391317
  0
LWPOLYLINE
  5
3269
330
26A3
100
AcDbEntity
  8
APL Joinery
 62
   252
100
AcDbPolyline
 90
        2
 70
     0
 43
0.0
 10
-16.17351297792268
 20
134.1481347349457
 10
-16.1735129779228
 20
132.4795000512589
  0
LWPOLYLINE
  5
326A
330
26A3
100
AcDbEntity
  8
APL Joinery
 62
   252
100
AcDbPolyline
 90
        2
 70
     0
 43
0.0
 10
16.17351297792542
 20
132.4795000512256
 42
0.2679491924311239
 10
17.67351297795256
 20
130.3216344391175
210
0.0
220
0.0
230
-1.0
  0
LWPOLYLINE
  5
326B
330
26A3
100
AcDbEntity
  8
APL Joinery
 62
   252
100
AcDbPolyline
 90
        6
 70
     0
 43
0.0
 10
-17.67351297792268
 20
130.3216344391317
 10
-17.67351297792259
 20
127.9076182450579
 42
0.493145426031304
 10
-17.48469012115723
 20
127.7627293711144
 10
-17.41469393282016
 20
127.7814847932528
 42
0.3394542588633749
 10
-16.67351297792268
 20
128.7474106195419
 10
-16.67351297792279
 20
128.8441344391318
  0
LWPOLYLINE
  5
326C
330
26A3
100
AcDbEntity
  8
APL Joinery
 62
   252
100
AcDbPolyline
 90
        2
 70
     0
 43
0.0
 10
16.17351297792268
 20
127.9621344391317
 42
0.4142135623730951
 10
17.67351297792268
 20
126.4621344391317
210
0.0
220
0.0
230
-1.0
  0
LWPOLYLINE
  5
326D
330
26A3
100
AcDbEntity
  8
APL Joinery
 62
   252
100
AcDbPolyline
 90
        2
 70
     0
 43
0.0
 10
16.67351297792269
 20
122.0936814503771
 42
0.9999999999999998
 10
16.17351297792269
 20
122.0936814503771
210
0.0
220
0.0
230
-1.0
  0
LWPOLYLINE
  5
326E
330
26A3
100
AcDbEntity
  8
APL Joinery
 62
   252
100
AcDbPolyline
 90
        2
 70
     0
 43
0.0
 10
-16.17351297792269
 20
122.0936814503771
 10
-16.1735129779228
 20
121.2116814503773
  0
LWPOLYLINE
  5
326F
330
26A3
100
AcDbEntity
  8
APL Joinery
 62
   252
100
AcDbPolyline
 90
        2
 70
     0
 43
0.0
 10
16.17351297792269
 20
121.2116814503773
 42
0.2513102605358356
 10
16.84402567435407
 20
119.9619011443961
210
0.0
220
0.0
230
-1.0
  0
LWPOLYLINE
  5
3270
330
26A3
100
AcDbEntity
  8
APL Joinery
 62
   252
100
AcDbPolyline
 90
        2
 70
     0
 43
0.0
 10
16.17351297792269
 20
124.5869079447544
 42
0.4142135623730951
 10
17.67351297792269
 20
123.0869079447544
210
0.0
220
0.0
230
-1.0
  0
LWPOLYLINE
  5
3271
330
26A3
100
AcDbEntity
  8
APL Joinery
 62
   252
100
AcDbPolyline
 90
        6
 70
     0
 43
0.0
 10
-17.67351297792269
 20
123.0869079447544
 10
-17.6735129779226
 20
121.1571652563034
 42
0.493145426031304
 10
-17.48469012115723
 20
121.01227638236
 10
-17.41469393282017
 20
121.0310318044981
 42
0.3394542588633749
 10
-16.67351297792269
 20
121.9969576307872
 10
-16.6735129779228
 20
122.0936814503773
  0
LWPOLYLINE
  5
3272
330
26A3
100
AcDbEntity
  8
APL Joinery
 62
   252
100
AcDbPolyline
 90
        6
 70
     0
 43
0.0
 10
-17.67351297792268
 20
126.4621344391317
 10
-17.6735129779226
 20
124.5323917506806
 42
0.493145426031304
 10
-17.48469012115701
 20
124.3875028767373
 10
-17.41469393282017
 20
124.4062582988755
 42
0.3394542588633749
 10
-16.67351297792269
 20
125.3721841251645
 10
-16.6735129779228
 20
125.4689079447544
  0
LWPOLYLINE
  5
3273
330
26A3
100
AcDbEntity
  8
APL Joinery
 62
   252
100
AcDbPolyline
 90
        2
 70
     0
 43
0.0
 10
-16.17351297792268
 20
125.4689079447544
 10
-16.1735129779228
 20
124.5869079447544
  0
LWPOLYLINE
  5
3274
330
26A3
100
AcDbEntity
  8
APL Joinery
 62
   252
100
AcDbPolyline
 90
        5
 70
     0
 43
0.0
 10
-16.84402567440342
 20
119.9619011443633
 10
-18.92388950453384
 20
118.5814820164251
 10
-20.17351297792281
 20
120.4886926987968
 10
-20.17351297792281
 20
125.131482016425
 10
-21.10930520105367
 20
127.2276565962382
  0
LWPOLYLINE
  5
3275
330
26A3
100
AcDbEntity
  8
APL Joinery
 62
   252
100
AcDbPolyline
 90
        2
 70
     0
 43
0.0
 10
21.10930520105035
 20
127.2276565962311
 42
0.543279747118861
 10
20.65273625983471
 20
127.931482016425
210
0.0
220
0.0
230
-1.0
  0
LWPOLYLINE
  5
3276
330
26A3
100
AcDbEntity
  8
APL Joinery
 62
   252
100
AcDbPolyline
 90
        5
 70
     0
 43
0.0
 10
-20.65273625983471
 20
127.931482016425
 10
-20.1735129779228
 20
127.931482016425
 10
-20.1735129779228
 20
130.7814820164249
 10
-21.1735129779228
 20
130.681482016425
 10
-21.1735129779228
 20
131.6862565916781
  0
LWPOLYLINE
  5
3277
330
26A3
100
AcDbEntity
  8
APL Joinery
 62
   252
100
AcDbPolyline
 90
        2
 70
     0
 43
0.0
 10
-21.17351297755487
 20
131.6862565917625
 42
0.149906020253322
 10
-16.6016365851351
 20
134.3235541767276
  0
ENDBLK
  5
26A5
330
26A3
100
AcDbEntity
  8
0
100
AcDbBlockEnd
  0
BLOCK
  5
26B5
330
26B4
100
AcDbEntity
  8
0
100
AcDbBlockBegin
  2
9700158
 70
     0
 10
174.0833845896645
 20
209.1838914698199
 30
0.0
  3
9700158
  1
9700158.dwg
  0
LWPOLYLINE
  5
327A
330
26B4
100
AcDbEntity
  8
APL Joinery
 62
     8
100
AcDbPolyline
 90
       16
 70
     0
 43
0.0
 10
170.0844615238645
 20
210.7276577404199
 10
170.5812307214826
 20
205.3929768350096
 42
-1.73205080756885
 10
169.7943127780645
 20
205.7545845650198
 10
169.5990464418646
 20
208.6720902866199
 10
169.5856905330645
 20
209.0611154212198
 10
169.5833845896645
 20
211.1173474922199
 10
169.6471993674645
 20
211.4735521188198
 10
169.6839086074645
 20
211.5745025288198
 10
169.7450906740645
 20
211.6876893520199
 10
169.8123909474645
 20
211.7702851420198
 10
169.9286368740645
 20
211.8651173452199
 10
170.0142917672645
 20
211.9171221018198
 10
170.1427741072645
 20
211.9630086518199
 10
170.2804337572645
 20
211.9905405818199
 10
170.3333845896645
 20
212.0043371268199
 10
169.5919031330645
 20
214.7715835956199
  0
LWPOLYLINE
  5
327B
330
26B4
100
AcDbEntity
  8
APL Joinery
 62
     8
100
AcDbPolyline
 90
       20
 70
     0
 43
0.0
 10
170.0844615237555
 20
210.7276577405251
 42
-1.047538523474869
 10
170.5833845896645
 20
210.7508376296199
 10
170.5833845896645
 20
205.6338914698199
 42
0.4142135623730951
 10
171.0833845896645
 20
205.1338914698199
 10
171.5833845896645
 20
205.1338914698199
 10
171.5833845896645
 20
207.9338914698198
 10
172.8333845896645
 20
207.9338914698198
 10
172.8333845896645
 20
207.4338914698198
 42
0.9999999999999998
 10
173.8333845896645
 20
207.4338914698198
 10
173.8333845896645
 20
210.9338914698199
 42
0.9999999999999998
 10
172.8333845896645
 20
210.9338914698199
 10
172.8333845896645
 20
210.4338914698199
 10
171.5833845896645
 20
210.4338914698199
 10
171.5833845896645
 20
213.2338914698199
 10
175.6833845896645
 20
213.2338914698199
 10
176.1792862290088
 20
215.9388095026067
 42
0.4683749459846007
 10
175.9333845896645
 20
216.2338914698199
 10
175.1833845896646
 20
216.2338914698199
 10
169.7838326132251
 20
215.081328357083
 42
0.4325719375873472
 10
169.5919031330922
 20
214.7715835957442
  0
LWPOLYLINE
  5
327C
330
26B4
100
AcDbEntity
  8
APL Joinery
 62
     8
100
AcDbPolyline
 90
        2
 70
     0
 43
0.0
 10
172.2085048132645
 20
207.9338914698198
 10
172.2085048132645
 20
210.4338914698199
  0
ENDBLK
  5
26B6
330
26B4
100
AcDbEntity
  8
0
100
AcDbBlockEnd
  0
BLOCK
  5
26BF
330
26BE
100
AcDbEntity
  8
0
100
AcDbBlockBegin
  2
9010100
 70
     0
 10
-698.0412257018842
 20
103.9239421823788
 30
0.0
  3
9010100
  1
9010100.dwg
  0
LWPOLYLINE
  5
327E
330
26BE
100
AcDbEntity
  8
APL Joinery
 62
   252
100
AcDbPolyline
 90
       16
 70
     1
 43
0.0
 10
-697.0412257018843
 20
102.9239421823788
 10
-695.7492784149856
 20
102.9239421823788
 10
-694.0229808775646
 20
98.81824357162003
 42
0.9293418001092543
 10
-693.550394430906
 20
98.97737999157357
 10
-694.5444653146969
 20
102.8447215218598
 10
-693.5412257018843
 20
103.4239421823788
 10
-693.5412257018843
 20
104.4239421823788
 10
-694.5663527677213
 20
105.0157995697934
 10
-693.5768325592873
 20
108.8654371152974
 42
0.9293418001092604
 10
-694.0494190059462
 20
109.024573535251
 10
-695.7735859449865
 20
104.9239421823788
 10
-697.0412257018843
 20
104.9239421823788
 10
-697.0412257018843
 20
106.1739421823788
 10
-698.0412257018842
 20
106.1739421823788
 10
-698.0412257018842
 20
101.6739421823788
 10
-697.0412257018843
 20
101.6739421823788
  0
ENDBLK
  5
26C0
330
26BE
100
AcDbEntity
  8
0
100
AcDbBlockEnd
  0
BLOCK
  5
26CF
330
26CE
100
AcDbEntity
  8
0
100
AcDbBlockBegin
  2
07103Sash
 70
     0
 10
0.0
 20
0.0
 30
0.0
  3
07103Sash
  1

  0
INSERT
  5
2715
330
26CE
100
AcDbEntity
  8
APL Joinery
100
AcDbBlockReference
  2
07103
 10
0.0
 20
0.0
 30
0.0
 50
90.0
  0
INSERT
  5
2716
330
26CE
100
AcDbEntity
  8
APL Joinery
100
AcDbBlockReference
  2
Timber Profile 14
 10
-25.15188259064195
 20
27.70000000000027
 30
0.0
 50
90.0
  0
INSERT
  5
2717
330
26CE
100
AcDbEntity
  8
APL Joinery
100
AcDbBlockReference
  2
9700529
 10
-21.10188259064285
 20
27.65000000000072
 30
0.0
 50
90.0
  0
INSERT
  5
2718
330
26CE
100
AcDbEntity
  8
APL Joinery
100
AcDbBlockReference
  2
9700158
 10
-16.94999999999976
 20
37.0
 30
0.0
 50
90.0
  0
INSERT
  5
2719
330
26CE
100
AcDbEntity
  8
APL Joinery
100
AcDbBlockReference
  2
9010100
 10
-4.949999999999818
 20
-4.5
 30
0.0
 43
-1.0
 50
90.0
210
0.0
220
0.0
230
-1.0
  0
ENDBLK
  5
26D0
330
26CE
100
AcDbEntity
  8
0
100
AcDbBlockEnd
  0
BLOCK
  5
26E3
330
26E2
100
AcDbEntity
  8
0
100
AcDbBlockBegin
  2
07123
 70
     0
 10
458.3656891128131
 20
292.4876175000117
 30
0.0
  3
07123
  1
07123.dwg
  0
LWPOLYLINE
  5
3281
102
{ACAD_REACTORS
330
3282
102
}
330
26E2
100
AcDbEntity
  8
APL Joinery
  6
Continuous
100
AcDbPolyline
 90
       56
 70
     1
 43
0.0
 10
459.5121357222217
 20
306.5340641094199
 42
-0.9999999999999797
 10
460.2192425034092
 20
307.2411708906055
 10
461.7727958940023
 20
305.6876175000123
 42
-0.198912367379658
 10
462.0656891128158
 20
304.9805107188258
 10
462.0656891128158
 20
304.2353124947366
 42
-0.1873013852563519
 10
461.8037365730718
 20
303.5605636922864
 10
461.3598098581149
 20
303.074991901237
 42
0.6521072359563518
 10
461.7288335882434
 20
302.2376175000117
 10
462.7656891128165
 20
302.2376175000117
 42
-0.9999999999999998
 10
462.7656891128165
 20
301.2376175000117
 10
459.9003636353329
 20
301.2376175000117
 42
0.2105751711947796
 10
459.5313399052041
 20
301.0749919012377
 10
453.6345243070663
 20
294.6249919012381
 42
0.6521072359563482
 10
454.0035480371928
 20
293.7876175000128
 10
456.0544192755945
 20
293.7876175000128
 42
0.1989123673796545
 10
456.7615260567811
 20
294.0805107188261
 10
458.5416894616386
 20
295.8606741236834
 42
-0.3394542588634284
 10
459.7487962428252
 20
296.0195927462809
 10
460.1156891128133
 20
295.8077670490304
 42
-1.163404169897045
 10
459.4983642097079
 20
295.0355310938692
 42
0.4259052264678404
 10
459.137925062859
 20
295.0426961625298
 10
458.1813745377661
 20
294.0861456374358
 42
0.4142135623730951
 10
458.1813745377651
 20
293.3790388562501
 10
458.2192425034102
 20
293.341170890605
 42
-0.6681786379192989
 10
457.8656891128169
 20
292.4876175000117
 10
440.5727954482293
 20
292.4876175000117
 42
-0.1989123673797415
 10
440.2192420576359
 20
292.6340641094185
 10
437.5424653623388
 20
295.3108408047155
 42
-0.668178637919367
 10
437.719242057635
 20
295.7376175000117
 10
438.3300891105548
 20
295.7376175000117
 10
438.3300891105548
 20
296.9876175000117
 10
440.3800891105541
 20
296.9876175000117
 42
-0.9999999999999998
 10
440.3800891105541
 20
295.9876175000117
 10
439.6300891105541
 20
295.9876175000117
 10
439.6300891105541
 20
295.0616946875852
 10
440.2041662981276
 20
294.4876175000117
 10
440.8800891105541
 20
294.4876175000117
 10
440.8800891105541
 20
294.0376175000128
 42
0.4142135623730951
 10
441.1300891105541
 20
293.7876175000128
 10
443.6300891105541
 20
293.7876175000128
 42
0.4142135623730951
 10
443.8800891105541
 20
294.0376175000128
 10
443.8800891105541
 20
294.4876175000117
 10
445.1300891105541
 20
294.4876175000117
 10
445.1300891105541
 20
295.9876175000117
 10
444.3800891105541
 20
295.9876175000117
 42
-0.9999999999999998
 10
444.3800891105541
 20
296.9876175000117
 10
445.4300891105552
 20
296.9876175000117
 42
-0.4142135623730951
 10
446.4300891105552
 20
295.9876175000117
 10
446.4300891105552
 20
293.7876175000129
 10
448.9041058039487
 20
293.7876175000128
 42
0.2105751711947817
 10
452.5943431052322
 20
295.4138734877578
 10
458.3656891128169
 20
301.7266335070253
 10
458.3656891128169
 20
302.4876175000117
 10
459.061407295728
 20
302.4876175000117
 10
460.5640551380639
 20
304.1312297890105
 42
0.4011595793581357
 10
460.5331144589938
 20
305.5130853726477
  0
HATCH
  5
3282
330
26E2
100
AcDbEntity
  8
APL Hatch
100
AcDbHatch
 10
0.0
 20
0.0
 30
0.0
210
0.0
220
0.0
230
1.0
  2
SOLID
 70
     1
 71
     1
 91
        1
 92
        1
 93
       56
 72
     2
 10
459.8656891128155
 20
306.8876175000127
 40
0.5000000000000443
 50
135.0000000000783
 51
315.0000000000783
 73
     0
 72
     1
 10
460.2192425034092
 20
307.2411708906055
 11
461.7727958940023
 21
305.6876175000123
 72
     2
 10
461.0656891128158
 20
304.9805107188258
 40
1.000000000000007
 50
315.0
 51
360.0
 73
     0
 72
     1
 10
462.0656891128158
 20
304.9805107188258
 11
462.0656891128158
 21
304.2353124947366
 72
     2
 10
461.0656891128159
 20
304.2353124947378
 40
0.9999999999999431
 50
0.0000000000683946
 51
42.43464631024123
 73
     0
 72
     1
 10
461.8037365730718
 20
303.5605636922864
 11
461.3598098581149
 21
303.074991901237
 72
     2
 10
461.7288335882434
 20
302.7376175000117
 40
0.5000000000000034
 50
137.5653536898278
 51
270.0
 73
     1
 72
     1
 10
461.7288335882434
 20
302.2376175000117
 11
462.7656891128165
 21
302.2376175000117
 72
     2
 10
462.7656891128165
 20
301.7376175000117
 40
0.5
 50
270.0
 51
450.0
 73
     0
 72
     1
 10
462.7656891128165
 20
301.2376175000117
 11
459.9003636353329
 21
301.2376175000117
 72
     2
 10
459.9003636353319
 20
300.7376175000115
 40
0.5000000000002274
 50
89.99999999987624
 51
137.5653536897021
 73
     1
 72
     1
 10
459.5313399052041
 20
301.0749919012377
 11
453.6345243070663
 21
294.6249919012381
 72
     2
 10
454.0035480371938
 20
294.2876175000124
 40
0.4999999999996426
 50
137.5653536897282
 51
269.9999999998893
 73
     1
 72
     1
 10
454.0035480371928
 20
293.7876175000128
 11
456.0544192755945
 21
293.7876175000128
 72
     2
 10
456.0544192755947
 20
294.7876175000129
 40
1.000000000000113
 50
269.9999999999902
 51
314.9999999999885
 73
     1
 72
     1
 10
456.7615260567811
 20
294.0805107188261
 11
458.5416894616386
 21
295.8606741236834
 72
     2
 10
459.2487962428249
 20
295.1535673424968
 40
0.9999999999998474
 50
225.0000000000138
 51
300.0000000000227
 73
     0
 72
     1
 10
459.7487962428252
 20
296.0195927462809
 11
460.1156891128133
 21
295.8077670490304
 72
     2
 10
459.8656891128134
 20
295.3747543471383
 40
0.4999999999998649
 50
300.0000000000014
 51
497.2776334669029
 73
     0
 72
     2
 10
459.3147017581562
 20
294.8659194672341
 40
0.2499999999996247
 50
42.72236653332014
 51
135.0000000002211
 73
     1
 72
     1
 10
459.137925062859
 20
295.0426961625298
 11
458.1813745377661
 21
294.0861456374358
 72
     2
 10
458.5349279283585
 20
293.7325922468425
 40
0.4999999999994414
 50
134.9999999999263
 51
224.9999999999171
 73
     1
 72
     1
 10
458.1813745377651
 20
293.3790388562501
 11
458.2192425034102
 21
293.341170890605
 72
     2
 10
457.8656891128169
 20
292.9876175000117
 40
0.500000000000004
 50
315.0
 51
450.0
 73
     0
 72
     1
 10
457.8656891128169
 20
292.4876175000117
 11
440.5727954482293
 21
292.4876175000117
 72
     2
 10
440.5727954482292
 20
292.9876175000117
 40
0.5
 50
89.99999999999349
 51
135.0000000000138
 73
     0
 72
     1
 10
440.2192420576359
 20
292.6340641094185
 11
437.5424653623388
 21
295.3108408047155
 72
     2
 10
437.7192420576352
 20
295.4876175000121
 40
0.2499999999997207
 50
134.9999999999631
 51
269.9999999999739
 73
     0
 72
     1
 10
437.719242057635
 20
295.7376175000117
 11
438.3300891105548
 21
295.7376175000117
 72
     1
 10
438.3300891105548
 20
295.7376175000117
 11
438.3300891105548
 21
296.9876175000117
 72
     1
 10
438.3300891105548
 20
296.9876175000117
 11
440.3800891105541
 21
296.9876175000117
 72
     2
 10
440.3800891105541
 20
296.4876175000117
 40
0.5
 50
270.0
 51
450.0
 73
     0
 72
     1
 10
440.3800891105541
 20
295.9876175000117
 11
439.6300891105541
 21
295.9876175000117
 72
     1
 10
439.6300891105541
 20
295.9876175000117
 11
439.6300891105541
 21
295.0616946875852
 72
     1
 10
439.6300891105541
 20
295.0616946875852
 11
440.2041662981276
 21
294.4876175000117
 72
     1
 10
440.2041662981276
 20
294.4876175000117
 11
440.8800891105541
 21
294.4876175000117
 72
     1
 10
440.8800891105541
 20
294.4876175000117
 11
440.8800891105541
 21
294.0376175000128
 72
     2
 10
441.1300891105541
 20
294.0376175000128
 40
0.25
 50
180.0
 51
270.0
 73
     1
 72
     1
 10
441.1300891105541
 20
293.7876175000128
 11
443.6300891105541
 21
293.7876175000128
 72
     2
 10
443.6300891105541
 20
294.0376175000128
 40
0.25
 50
270.0
 51
360.0
 73
     1
 72
     1
 10
443.8800891105541
 20
294.0376175000128
 11
443.8800891105541
 21
294.4876175000117
 72
     1
 10
443.8800891105541
 20
294.4876175000117
 11
445.1300891105541
 21
294.4876175000117
 72
     1
 10
445.1300891105541
 20
294.4876175000117
 11
445.1300891105541
 21
295.9876175000117
 72
     1
 10
445.1300891105541
 20
295.9876175000117
 11
444.3800891105541
 21
295.9876175000117
 72
     2
 10
444.3800891105541
 20
296.4876175000117
 40
0.5
 50
90.0
 51
270.0
 73
     0
 72
     1
 10
444.3800891105541
 20
296.9876175000117
 11
445.4300891105552
 21
296.9876175000117
 72
     2
 10
445.4300891105552
 20
295.9876175000117
 40
1.0
 50
270.0
 51
360.0
 73
     0
 72
     1
 10
446.4300891105552
 20
295.9876175000117
 11
446.4300891105552
 21
293.7876175000129
 72
     1
 10
446.4300891105552
 20
293.7876175000129
 11
448.9041058039487
 21
293.7876175000128
 72
     2
 10
448.9041058039507
 20
298.7876175000114
 40
4.999999999998578
 50
269.9999999999765
 51
317.5653536898046
 73
     1
 72
     1
 10
452.5943431052322
 20
295.4138734877578
 11
458.3656891128169
 21
301.7266335070253
 72
     1
 10
458.3656891128169
 20
301.7266335070253
 11
458.3656891128169
 21
302.4876175000117
 72
     1
 10
458.3656891128169
 20
302.4876175000117
 11
459.061407295728
 21
302.4876175000117
 72
     1
 10
459.061407295728
 20
302.4876175000117
 11
460.5640551380639
 21
304.1312297890105
 72
     2
 10
459.8260076778072
 20
304.8059785914611
 40
1.000000000000083
 50
317.565353689823
 51
404.9999999999953
 73
     1
 72
     1
 10
460.5331144589938
 20
305.5130853726477
 11
459.5121357222217
 21
306.5340641094199
 97
        1
330
3281
 75
     0
 76
     1
 98
        1
 10
0.0
 20
0.0
  0
ENDBLK
  5
26E4
330
26E2
100
AcDbEntity
  8
0
100
AcDbBlockEnd
  0
BLOCK
  5
26F2
330
26F1
100
AcDbEntity
  8
0
100
AcDbBlockBegin
  2
07123Glaze
 70
     0
 10
0.0
 20
0.0
 30
0.0
  3
07123Glaze
  1

  0
LINE
  5
26F4
330
26F1
100
AcDbEntity
  8
APL Joinery
 62
     7
100
AcDbLine
 10
-15.34989374080936
 20
26.50115297170002
 30
0.0
 11
-15.34989374080936
 21
14.50115297170002
 31
0.0
  0
LINE
  5
26F5
330
26F1
100
AcDbEntity
  8
APL Joinery
 62
     7
100
AcDbLine
 10
-9.349893740809363
 20
26.50115297170002
 30
0.0
 11
-9.349893740809363
 21
14.50115297170002
 31
0.0
  0
INSERT
  5
26F6
330
26F1
100
AcDbEntity
  8
APL Joinery
100
AcDbBlockReference
  2
9010604
 10
-20.03560000225826
 20
4.5
 30
0.0
 50
90.0
  0
INSERT
  5
26F7
330
26F1
100
AcDbEntity
  8
APL Joinery
100
AcDbBlockReference
  2
6Glass
 10
-22.34989374080919
 20
2.001152971700079
 30
0.0
 50
270.0
  0
INSERT
  5
26F8
330
26F1
100
AcDbEntity
  8
APL Joinery
100
AcDbBlockReference
  2
07123
 10
0.0
 20
0.0
 30
0.0
  0
INSERT
  5
26F9
330
26F1
100
AcDbEntity
  8
APL Joinery
100
AcDbBlockReference
  2
9700158
 10
-16.94999999999987
 20
37.0
 30
0.0
 50
90.0
  0
INSERT
  5
26FA
330
26F1
100
AcDbEntity
  8
APL Joinery
100
AcDbBlockReference
  2
6Glass
 10
-22.34989374080919
 20
20.00115297170008
 30
0.0
 50
270.0
  0
ENDBLK
  5
26F3
330
26F1
100
AcDbEntity
  8
0
100
AcDbBlockEnd
  0
BLOCK
  5
2704
330
2703
100
AcDbEntity
  8
0
100
AcDbBlockBegin
  2
07110
 70
     0
 10
402.4316715941655
 20
365.0275869373002
 30
0.0
  3
07110
  1
07110.dwg
  0
LWPOLYLINE
  5
3285
102
{ACAD_REACTORS
330
3287
102
}
330
2703
100
AcDbEntity
  8
APL Joinery
  6
Continuous
100
AcDbPolyline
 90
       64
 70
     1
 43
0.0
 10
404.8584482894621
 20
376.1008102420022
 10
403.9316715941654
 20
377.0275869372998
 10
402.4316715941655
 20
377.0275869372998
 10
402.4316715941655
 20
353.0275869373007
 10
403.9316715941654
 20
353.0275869373007
 10
404.8584482894616
 20
353.9543636325969
 42
0.3394542588633509
 10
404.8981779451116
 20
354.2561403278931
 10
403.9316715941654
 20
355.9301784335701
 10
403.9316715941654
 20
358.0275869373007
 10
418.081671594165
 20
358.0275869373007
 10
418.081671594165
 20
354.0275869373007
 10
415.5816715941651
 20
354.0275869373007
 42
0.9999999999999998
 10
415.5816715941651
 20
353.0275869373007
 10
438.9316715941655
 20
353.0275869373007
 10
438.9316715941655
 20
345.6275869373001
 10
439.1816715941654
 20
345.6275869373001
 10
439.1816715941654
 20
343.9275869373003
 10
439.4816715941665
 20
343.6275869373001
 10
439.1816715941654
 20
343.3275869372999
 10
439.1816715941654
 20
341.6275869373001
 10
438.9316715941655
 20
341.6275869373001
 10
438.9316715941655
 20
340.1275869373001
 10
436.9316715941654
 20
340.1275869373001
 10
436.9316715941654
 20
338.0775869373
 42
0.9999999999999998
 10
437.9316715941654
 20
338.0775869373
 10
437.9316715941654
 20
338.8275869372999
 10
439.4316715941655
 20
338.8275869372999
 10
439.4316715941654
 20
333.3275869372999
 10
437.9316715941654
 20
333.3275869372999
 10
437.9316715941654
 20
334.0775869373
 42
0.9999999999999998
 10
436.9316715941654
 20
334.0775869373
 10
436.9316715941654
 20
332.0275869373007
 10
440.4316715941654
 20
332.0275869373007
 10
440.4316715941654
 20
364.2775869372979
 10
446.1816715941655
 20
364.2775869372997
 42
0.9999999999999998
 10
446.1816715941655
 20
365.7775869372998
 10
440.4316715941654
 20
365.7775869372998
 10
440.4316715941654
 20
398.0275869372998
 10
436.9316715941654
 20
398.0275869372998
 10
436.9316715941654
 20
395.9775869372987
 42
0.9999999999999998
 10
437.9316715941654
 20
395.9775869372987
 10
437.9316715941654
 20
396.7275869372987
 10
439.4316715941655
 20
396.7275869372987
 10
439.4316715941655
 20
391.2275869372987
 10
437.9316715941654
 20
391.2275869372987
 10
437.9316715941654
 20
391.9775869372987
 42
0.9999999999999998
 10
436.9316715941654
 20
391.9775869372987
 10
436.9316715941654
 20
389.9275869372994
 10
438.9316715941655
 20
389.9275869372994
 10
438.9316715941655
 20
388.4275869372994
 10
439.1816715941654
 20
388.4275869372994
 10
439.1816715941654
 20
386.7275869372987
 10
439.4816715941665
 20
386.4275869372994
 10
439.1816715941654
 20
386.1275869372983
 10
439.1816715941654
 20
384.4275869372994
 10
438.9316715941655
 20
384.4275869372994
 10
438.9316715941655
 20
377.0275869372998
 10
415.5816715941651
 20
377.0275869372998
 42
0.9999999999999998
 10
415.5816715941651
 20
376.0275869372998
 10
418.081671594165
 20
376.0275869372998
 10
418.081671594165
 20
372.0275869372998
 10
403.9316715941654
 20
372.0275869372998
 10
403.9316715941654
 20
374.1249954410285
 10
404.898177945111
 20
375.7990335467055
 42
0.3394542588633833
  0
LWPOLYLINE
  5
3286
102
{ACAD_REACTORS
330
3287
102
}
330
2703
100
AcDbEntity
  8
APL Joinery
  6
Continuous
100
AcDbPolyline
 90
       38
 70
     1
 43
0.0
 10
425.8215067590009
 20
357.9447409878065
 42
-1.000000000000022
 10
426.9918364293302
 20
357.0064827809443
 42
2.083394336380303
 10
429.3715067590002
 20
357.0064827809436
 42
-0.9999999999999998
 10
430.5418364293306
 20
357.9447409878073
 42
-0.2475859549385178
 10
431.0759610359227
 20
355.1729770082227
 42
0.5035199589280133
 10
431.5543559849735
 20
354.5275869373007
 10
438.4316715941655
 20
354.5275869373007
 42
0.4142135623730951
 10
438.9316715941655
 20
355.0275869373006
 10
438.9316715941655
 20
375.0275869372998
 42
0.4142135623730951
 10
438.4316715941655
 20
375.5275869372998
 10
431.5543559849735
 20
375.5275869372998
 42
0.5035199589280026
 10
431.0759610359226
 20
374.8821968663767
 42
-0.2475859549385176
 10
430.54183642933
 20
372.1104328867921
 42
-0.9999999999999998
 10
429.3715067590007
 20
373.0486910936543
 42
2.083394336380362
 10
426.9918364293308
 20
373.048691093655
 42
-0.9999999999999998
 10
425.8215067590003
 20
372.1104328867913
 42
-0.2475859549385162
 10
425.2873821524082
 20
374.8821968663778
 42
0.5035199589278685
 10
424.8089872033575
 20
375.5275869372998
 10
419.5816715941651
 20
375.5275869372998
 10
419.5816715941651
 20
372.0275869372979
 42
-0.4142135623730951
 10
418.081671594165
 20
370.5275869372979
 10
404.4316715941654
 20
370.5275869372979
 42
0.4142135623730951
 10
403.9316715941654
 20
370.0275869372979
 10
403.9316715941654
 20
367.895621978926
 42
0.7045568313917638
 10
406.5918925886409
 20
366.9448921308732
 42
-0.4110822946495551
 10
410.8238256446731
 20
367.3877517724644
 42
-0.9999999999999998
 10
409.8855674378103
 20
366.2174221021346
 42
2.08339433638105
 10
409.8855674378099
 20
363.8377517724647
 42
-1.000000000000057
 10
410.8238256446737
 20
362.6674221021336
 42
-0.4110822946494463
 10
406.5918925886407
 20
363.1102817437254
 42
0.7045568313917339
 10
403.9316715941654
 20
362.1595518956724
 10
403.9316715941654
 20
360.0275869373007
 42
0.4142135623730951
 10
404.4316715941654
 20
359.5275869373007
 10
418.081671594165
 20
359.5275869373007
 42
-0.4142135623730951
 10
419.5816715941651
 20
358.0275869373007
 10
419.5816715941651
 20
354.5275869373007
 10
424.8089872033575
 20
354.5275869373007
 42
0.5035199589280069
 10
425.2873821524083
 20
355.1729770082219
 42
-0.2475859549385176
  0
HATCH
  5
3287
330
2703
100
AcDbEntity
  8
APL Hatch
100
AcDbHatch
 10
0.0
 20
0.0
 30
0.0
210
0.0
220
0.0
230
1.0
  2
SOLID
 70
     1
 71
     1
 91
        2
 92
       16
 93
       38
 72
     2
 10
426.4066715941655
 20
357.4756118843755
 40
0.7499999999995361
 50
218.7192973222227
 51
398.7192973222234
 73
     0
 72
     2
 10
428.181671594165
 20
356.0525869373001
 40
1.524999999999631
 50
141.2807026777508
 51
398.7192973222159
 73
     1
 72
     2
 10
429.9566715941653
 20
357.4756118843755
 40
0.7500000000003975
 50
141.2807026777576
 51
321.2807026777604
 73
     0
 72
     2
 10
428.1816715941661
 20
356.0525869373006
 40
3.024999999999271
 50
321.2807026777642
 51
376.9046677439093
 73
     0
 72
     2
 10
431.5543559849735
 20
355.0275869373006
 40
0.4999999999999954
 50
163.0953322560882
 51
270.0
 73
     1
 72
     1
 10
431.5543559849735
 20
354.5275869373007
 11
438.4316715941655
 21
354.5275869373007
 72
     2
 10
438.4316715941655
 20
355.0275869373006
 40
0.5
 50
270.0
 51
360.0
 73
     1
 72
     1
 10
438.9316715941655
 20
355.0275869373006
 11
438.9316715941655
 21
375.0275869372998
 72
     2
 10
438.4316715941655
 20
375.0275869372998
 40
0.5
 50
0.0
 51
90.0
 73
     1
 72
     1
 10
438.4316715941655
 20
375.5275869372998
 11
431.5543559849735
 21
375.5275869372998
 72
     2
 10
431.5543559849738
 20
375.0275869372992
 40
0.5000000000005116
 50
90.00000000003907
 51
196.9046677439527
 73
     1
 72
     2
 10
428.1816715941658
 20
374.0025869372993
 40
3.024999999999449
 50
343.0953322561005
 51
398.7192973222453
 73
     0
 72
     2
 10
429.9566715941653
 20
372.5795619902232
 40
0.7499999999995361
 50
38.71929732222274
 51
218.71929732222
 73
     0
 72
     2
 10
428.181671594166
 20
374.0025869372985
 40
1.524999999999622
 50
321.2807026777478
 51
578.7192973222158
 73
     1
 72
     2
 10
426.4066715941655
 20
372.5795619902232
 40
0.7500000000004419
 50
321.2807026777604
 51
501.2807026777569
 73
     0
 72
     2
 10
428.1816715941666
 20
374.0025869372989
 40
3.02500000000125
 50
141.2807026777708
 51
196.9046677439161
 73
     0
 72
     2
 10
424.8089872033573
 20
375.0275869372997
 40
0.5000000000000876
 50
343.0953322560982
 51
449.999999999987
 73
     1
 72
     1
 10
424.8089872033575
 20
375.5275869372998
 11
419.5816715941651
 21
375.5275869372998
 72
     1
 10
419.5816715941651
 20
375.5275869372998
 11
419.5816715941651
 21
372.0275869372979
 72
     2
 10
418.081671594165
 20
372.0275869372979
 40
1.5
 50
360.0
 51
450.0
 73
     0
 72
     1
 10
418.081671594165
 20
370.5275869372979
 11
404.4316715941654
 21
370.5275869372979
 72
     2
 10
404.4316715941654
 20
370.0275869372979
 40
0.5
 50
90.0
 51
180.0
 73
     1
 72
     1
 10
403.9316715941654
 20
370.0275869372979
 11
403.9316715941654
 21
367.895621978926
 72
     2
 10
405.4316715941655
 20
367.8956219789261
 40
1.500000000000056
 50
180.0000000000021
 51
320.667486588044
 73
     1
 72
     2
 10
408.9316715941657
 20
365.0275869373004
 40
3.024999999999363
 50
219.3325134119569
 51
308.719297322252
 73
     0
 72
     2
 10
410.3546965412418
 20
366.8025869372995
 40
0.7499999999999356
 50
308.7192973222261
 51
488.7192973222288
 73
     0
 72
     2
 10
408.9316715941659
 20
365.0275869372998
 40
1.524999999999889
 50
51.28070267774212
 51
308.7192973222365
 73
     1
 72
     2
 10
410.3546965412419
 20
363.2525869372992
 40
0.7500000000008146
 50
231.2807026777665
 51
411.2807026777767
 73
     0
 72
     2
 10
408.9316715941663
 20
365.0275869372992
 40
3.02500000000062
 50
51.28070267776683
 51
140.6674865880393
 73
     0
 72
     2
 10
405.4316715941655
 20
362.1595518956724
 40
1.499999999999982
 50
39.33251341196213
 51
180.0
 73
     1
 72
     1
 10
403.9316715941654
 20
362.1595518956724
 11
403.9316715941654
 21
360.0275869373007
 72
     2
 10
404.4316715941654
 20
360.0275869373007
 40
0.5
 50
180.0
 51
270.0
 73
     1
 72
     1
 10
404.4316715941654
 20
359.5275869373007
 11
418.081671594165
 21
359.5275869373007
 72
     2
 10
418.081671594165
 20
358.0275869373007
 40
1.5
 50
270.0
 51
360.0
 73
     0
 72
     1
 10
419.5816715941651
 20
358.0275869373007
 11
419.5816715941651
 21
354.5275869373007
 72
     1
 10
419.5816715941651
 20
354.5275869373007
 11
424.8089872033575
 21
354.5275869373007
 72
     2
 10
424.8089872033578
 20
355.0275869373003
 40
0.4999999999996021
 50
269.9999999999609
 51
376.9046677438757
 73
     1
 72
     2
 10
428.1816715941651
 20
356.0525869372993
 40
3.024999999999449
 50
163.0953322561005
 51
218.7192973222453
 73
     0
 97
        1
330
3286
 92
        1
 93
       64
 72
     1
 10
404.8584482894621
 20
376.1008102420022
 11
403.9316715941654
 21
377.0275869372998
 72
     1
 10
403.9316715941654
 20
377.0275869372998
 11
402.4316715941655
 21
377.0275869372998
 72
     1
 10
402.4316715941655
 20
377.0275869372998
 11
402.4316715941655
 21
353.0275869373007
 72
     1
 10
402.4316715941655
 20
353.0275869373007
 11
403.9316715941654
 21
353.0275869373007
 72
     1
 10
403.9316715941654
 20
353.0275869373007
 11
404.8584482894616
 21
353.9543636325969
 72
     2
 10
404.6816715941655
 20
354.1311403278936
 40
0.2499999999997206
 50
314.9999999999079
 51
389.9999999999023
 73
     1
 72
     1
 10
404.8981779451116
 20
354.2561403278931
 11
403.9316715941654
 21
355.9301784335701
 72
     1
 10
403.9316715941654
 20
355.9301784335701
 11
403.9316715941654
 21
358.0275869373007
 72
     1
 10
403.9316715941654
 20
358.0275869373007
 11
418.081671594165
 21
358.0275869373007
 72
     1
 10
418.081671594165
 20
358.0275869373007
 11
418.081671594165
 21
354.0275869373007
 72
     1
 10
418.081671594165
 20
354.0275869373007
 11
415.5816715941651
 21
354.0275869373007
 72
     2
 10
415.5816715941651
 20
353.5275869373007
 40
0.5
 50
90.0
 51
270.0
 73
     1
 72
     1
 10
415.5816715941651
 20
353.0275869373007
 11
438.9316715941655
 21
353.0275869373007
 72
     1
 10
438.9316715941655
 20
353.0275869373007
 11
438.9316715941655
 21
345.6275869373001
 72
     1
 10
438.9316715941655
 20
345.6275869373001
 11
439.1816715941654
 21
345.6275869373001
 72
     1
 10
439.1816715941654
 20
345.6275869373001
 11
439.1816715941654
 21
343.9275869373003
 72
     1
 10
439.1816715941654
 20
343.9275869373003
 11
439.4816715941665
 21
343.6275869373001
 72
     1
 10
439.4816715941665
 20
343.6275869373001
 11
439.1816715941654
 21
343.3275869372999
 72
     1
 10
439.1816715941654
 20
343.3275869372999
 11
439.1816715941654
 21
341.6275869373001
 72
     1
 10
439.1816715941654
 20
341.6275869373001
 11
438.9316715941655
 21
341.6275869373001
 72
     1
 10
438.9316715941655
 20
341.6275869373001
 11
438.9316715941655
 21
340.1275869373001
 72
     1
 10
438.9316715941655
 20
340.1275869373001
 11
436.9316715941654
 21
340.1275869373001
 72
     1
 10
436.9316715941654
 20
340.1275869373001
 11
436.9316715941654
 21
338.0775869373
 72
     2
 10
437.4316715941654
 20
338.0775869373
 40
0.5
 50
180.0
 51
360.0
 73
     1
 72
     1
 10
437.9316715941654
 20
338.0775869373
 11
437.9316715941654
 21
338.8275869372999
 72
     1
 10
437.9316715941654
 20
338.8275869372999
 11
439.4316715941655
 21
338.8275869372999
 72
     1
 10
439.4316715941655
 20
338.8275869372999
 11
439.4316715941654
 21
333.3275869372999
 72
     1
 10
439.4316715941654
 20
333.3275869372999
 11
437.9316715941654
 21
333.3275869372999
 72
     1
 10
437.9316715941654
 20
333.3275869372999
 11
437.9316715941654
 21
334.0775869373
 72
     2
 10
437.4316715941654
 20
334.0775869373
 40
0.5
 50
0.0
 51
180.0
 73
     1
 72
     1
 10
436.9316715941654
 20
334.0775869373
 11
436.9316715941654
 21
332.0275869373007
 72
     1
 10
436.9316715941654
 20
332.0275869373007
 11
440.4316715941654
 21
332.0275869373007
 72
     1
 10
440.4316715941654
 20
332.0275869373007
 11
440.4316715941654
 21
364.2775869372979
 72
     1
 10
440.4316715941654
 20
364.2775869372979
 11
446.1816715941655
 21
364.2775869372997
 72
     2
 10
446.1816715941655
 20
365.0275869372998
 40
0.75
 50
270.0
 51
450.0
 73
     1
 72
     1
 10
446.1816715941655
 20
365.7775869372998
 11
440.4316715941654
 21
365.7775869372998
 72
     1
 10
440.4316715941654
 20
365.7775869372998
 11
440.4316715941654
 21
398.0275869372998
 72
     1
 10
440.4316715941654
 20
398.0275869372998
 11
436.9316715941654
 21
398.0275869372998
 72
     1
 10
436.9316715941654
 20
398.0275869372998
 11
436.9316715941654
 21
395.9775869372987
 72
     2
 10
437.4316715941654
 20
395.9775869372987
 40
0.5
 50
180.0
 51
360.0
 73
     1
 72
     1
 10
437.9316715941654
 20
395.9775869372987
 11
437.9316715941654
 21
396.7275869372987
 72
     1
 10
437.9316715941654
 20
396.7275869372987
 11
439.4316715941655
 21
396.7275869372987
 72
     1
 10
439.4316715941655
 20
396.7275869372987
 11
439.4316715941655
 21
391.2275869372987
 72
     1
 10
439.4316715941655
 20
391.2275869372987
 11
437.9316715941654
 21
391.2275869372987
 72
     1
 10
437.9316715941654
 20
391.2275869372987
 11
437.9316715941654
 21
391.9775869372987
 72
     2
 10
437.4316715941654
 20
391.9775869372987
 40
0.5
 50
0.0
 51
180.0
 73
     1
 72
     1
 10
436.9316715941654
 20
391.9775869372987
 11
436.9316715941654
 21
389.9275869372994
 72
     1
 10
436.9316715941654
 20
389.9275869372994
 11
438.9316715941655
 21
389.9275869372994
 72
     1
 10
438.9316715941655
 20
389.9275869372994
 11
438.9316715941655
 21
388.4275869372994
 72
     1
 10
438.9316715941655
 20
388.4275869372994
 11
439.1816715941654
 21
388.4275869372994
 72
     1
 10
439.1816715941654
 20
388.4275869372994
 11
439.1816715941654
 21
386.7275869372987
 72
     1
 10
439.1816715941654
 20
386.7275869372987
 11
439.4816715941665
 21
386.4275869372994
 72
     1
 10
439.4816715941665
 20
386.4275869372994
 11
439.1816715941654
 21
386.1275869372983
 72
     1
 10
439.1816715941654
 20
386.1275869372983
 11
439.1816715941654
 21
384.4275869372994
 72
     1
 10
439.1816715941654
 20
384.4275869372994
 11
438.9316715941655
 21
384.4275869372994
 72
     1
 10
438.9316715941655
 20
384.4275869372994
 11
438.9316715941655
 21
377.0275869372998
 72
     1
 10
438.9316715941655
 20
377.0275869372998
 11
415.5816715941651
 21
377.0275869372998
 72
     2
 10
415.5816715941651
 20
376.5275869372997
 40
0.5
 50
90.0
 51
270.0
 73
     1
 72
     1
 10
415.5816715941651
 20
376.0275869372998
 11
418.081671594165
 21
376.0275869372998
 72
     1
 10
418.081671594165
 20
376.0275869372998
 11
418.081671594165
 21
372.0275869372998
 72
     1
 10
418.081671594165
 20
372.0275869372998
 11
403.9316715941654
 21
372.0275869372998
 72
     1
 10
403.9316715941654
 20
372.0275869372998
 11
403.9316715941654
 21
374.1249954410285
 72
     1
 10
403.9316715941654
 20
374.1249954410285
 11
404.898177945111
 21
375.7990335467055
 72
     2
 10
404.6816715941651
 20
375.9240335467059
 40
0.2499999999999941
 50
329.9999999999089
 51
404.9999999998987
 73
     1
 97
        1
330
3285
 75
     0
 76
     1
 98
        1
 10
0.0
 20
0.0
  0
ENDBLK
  5
2705
330
2703
100
AcDbEntity
  8
0
100
AcDbBlockEnd
  0
BLOCK
  5
2724
330
2723
100
AcDbEntity
  8
0
100
AcDbBlockBegin
  2
9700530
 70
     0
 10
559.2908553915317
 20
166.067763171617
 30
0.0
  3
9700530
  1
9700530.dwg
  0
LWPOLYLINE
  5
328A
330
2723
100
AcDbEntity
  8
APL Joinery
  6
Continuous
 62
     8
100
AcDbPolyline
 90
       24
 70
     1
 43
0.0
 10
561.2908553915333
 20
168.4177631716161
 42
0.9999999999999998
 10
560.2908553915333
 20
168.4177631716161
 10
560.2908553915333
 20
168.3677631716172
 10
553.8408553915316
 20
168.3677631716172
 10
553.8408553915316
 20
198.817763171617
 10
552.8408553915316
 20
198.817763171617
 10
552.8408553915316
 20
167.3677631716172
 10
556.6712401492615
 20
167.3677631716172
 10
557.190855391532
 20
167.0677631716179
 10
557.6908553915321
 20
167.0677631716179
 10
557.6908553915321
 20
167.3677631716172
 10
560.2908553915324
 20
167.3677631716172
 10
560.2908553915324
 20
164.7677631716168
 10
557.6908553915321
 20
164.7677631716177
 10
557.6908553915321
 20
165.0677631716179
 10
557.190855391532
 20
165.0677631716179
 10
556.6712401492615
 20
164.7677631716168
 10
552.8408553915316
 20
164.7677631716168
 10
552.8408553915316
 20
133.317763171617
 10
553.8408553915316
 20
133.317763171617
 10
553.8408553915316
 20
163.7677631716168
 10
560.2908553915324
 20
163.7677631716174
 10
560.2908553915333
 20
163.7177631716185
 42
0.9999999999999998
 10
561.2908553915333
 20
163.7177631716187
  0
ENDBLK
  5
2725
330
2723
100
AcDbEntity
  8
0
100
AcDbBlockEnd
  0
BLOCK
  5
2729
330
2728
100
AcDbEntity
  8
0
100
AcDbBlockBegin
  2
Timber Profile 5
 70
     0
 10
453.3641191346937
 20
1105.130055158593
 30
0.0
  3
Timber Profile 5
  1
Timber Profile 5.dwg
  0
LINE
  5
328C
330
2728
100
AcDbEntity
  8
APL Joinery
  6
Continuous
 62
     3
100
AcDbLine
 10
422.3641191346923
 20
1129.730055158591
 30
0.0
 11
484.3641191346932
 21
1129.730055158591
 31
0.0
  0
LINE
  5
328D
330
2728
100
AcDbEntity
  8
APL Joinery
  6
Continuous
 62
     3
100
AcDbLine
 10
489.3641191346932
 20
1097.730055158591
 30
0.0
 11
456.4641191346918
 21
1097.730055158591
 31
0.0
  0
SPLINE
  5
328E
330
2728
100
AcDbEntity
  8
APL Joinery
 62
     8
100
AcDbSpline
210
0.0
220
0.0
230
1.0
 70
  1064
 71
     3
 72
    10
 73
     6
 74
     4
 42
0.000000001
 43
0.0000000001
 44
0.0000000001
 40
0.0
 40
0.0
 40
0.0
 40
0.0
 40
9.911908116756421
 40
18.72333204569151
 40
24.45540376577131
 40
24.45540376577131
 40
24.45540376577131
 40
24.45540376577131
 10
418.9273580474901
 20
1121.541427449017
 30
0.0
 10
422.2432806847167
 20
1121.30453541498
 30
0.0
 10
428.5069707677251
 20
1120.857052633663
 30
0.0
 10
436.5211352354377
 20
1123.584764152606
 30
0.0
 10
440.2344295525356
 20
1126.728605676344
 30
0.0
 10
441.6979614197734
 20
1127.967697399925
 30
0.0
 11
418.9273580474901
 21
1121.541427449017
 31
0.0
 11
428.8392661642465
 21
1121.541427449017
 31
0.0
 11
437.143840745317
 21
1124.486802243988
 31
0.0
 11
441.6979614197734
 21
1127.967697399925
 31
0.0
  0
SPLINE
  5
328F
330
2728
100
AcDbEntity
  8
APL Joinery
 62
     8
100
AcDbSpline
210
0.0
220
0.0
230
1.0
 70
  1064
 71
     3
 72
    11
 73
     7
 74
     5
 42
0.000000001
 43
0.0000000001
 44
0.0000000001
 40
0.0
 40
0.0
 40
0.0
 40
0.0
 40
11.54722017285554
 40
27.46345027272591
 40
37.76828271794729
 40
44.59633610021312
 40
44.59633610021312
 40
44.59633610021312
 40
44.59633610021312
 10
419.4631358927181
 20
1117.257247481745
 30
0.0
 10
423.2942846665483
 20
1116.899017700237
 30
0.0
 10
432.4061368926654
 20
1116.047018202228
 30
0.0
 10
445.1376357368148
 20
1116.9866274103
 30
0.0
 10
455.4527291290709
 20
1121.920874006242
 30
0.0
 10
459.0261095549122
 20
1126.436016875326
 30
0.0
 10
460.4502264578359
 20
1128.235459003703
 30
0.0
 11
419.4631358927181
 21
1117.257247481745
 31
0.0
 11
430.982382040167
 21
1116.453965517
 31
0.0
 11
446.7878644344655
 21
1118.328293896858
 31
0.0
 11
455.8961057833794
 21
1123.147994225097
 31
0.0
 11
460.4502264578359
 21
1128.235459003703
 31
0.0
  0
LINE
  5
3290
330
2728
100
AcDbEntity
  8
APL Joinery
  6
Continuous
 62
     3
100
AcDbLine
 10
450.2641191346937
 20
1097.73005515859
 30
0.0
 11
417.3641191346924
 21
1097.73005515859
 31
0.0
  0
LINE
  5
3291
330
2728
100
AcDbEntity
  8
APL Joinery
  6
Continuous
 62
     3
100
AcDbLine
 10
417.3641191346924
 20
1097.73005515859
 30
0.0
 11
417.3641191346924
 21
1124.730055158591
 31
0.0
  0
ARC
  5
3292
330
2728
100
AcDbEntity
  8
APL Joinery
  6
Continuous
 62
     3
100
AcDbCircle
 10
422.3641191346923
 20
1124.730055158591
 30
0.0
 40
5.0
100
AcDbArc
 50
90.0
 51
180.0
  0
LINE
  5
3293
330
2728
100
AcDbEntity
  8
APL Joinery
  6
Continuous
 62
     3
100
AcDbLine
 10
456.4641191346927
 20
1106.480055158592
 30
0.0
 11
450.2641191346947
 21
1106.480055158592
 31
0.0
  0
LINE
  5
3294
330
2728
100
AcDbEntity
  8
APL Joinery
  6
Continuous
 62
     3
100
AcDbLine
 10
450.2641191346947
 20
1106.480055158592
 30
0.0
 11
450.2641191346937
 21
1097.73005515859
 31
0.0
  0
LINE
  5
3295
330
2728
100
AcDbEntity
  8
APL Joinery
  6
Continuous
 62
     3
100
AcDbLine
 10
456.4641191346918
 20
1097.730055158591
 30
0.0
 11
456.4641191346927
 21
1106.480055158592
 31
0.0
  0
ARC
  5
3296
330
2728
100
AcDbEntity
  8
APL Joinery
  6
Continuous
 62
     3
100
AcDbCircle
 10
484.3641191346932
 20
1124.730055158591
 30
0.0
 40
5.0
100
AcDbArc
 50
0.0
 51
90.0
  0
LINE
  5
3297
330
2728
100
AcDbEntity
  8
APL Joinery
  6
Continuous
 62
     3
100
AcDbLine
 10
489.3641191346932
 20
1124.730055158591
 30
0.0
 11
489.3641191346932
 21
1097.730055158591
 31
0.0
  0
ENDBLK
  5
272A
330
2728
100
AcDbEntity
  8
0
100
AcDbBlockEnd
  0
BLOCK
  5
2A76
330
2A75
100
AcDbEntity
  8
0
100
AcDbBlockBegin
  2
smartwood a4 SM border
 70
     0
 10
0.0
 20
0.0
 30
0.0
  3
smartwood a4 SM border
  1
smartwood a4 SM border.dwg
  0
TEXT
  5
3299
330
2A75
100
AcDbEntity
  8
APL Border
100
AcDbText
 10
50.59500000000003
 20
260.4903256579735
 30
0.0
 40
2.5
  1
Cad Ref.
  7
Arial-Bold
100
AcDbText
  0
TEXT
  5
329A
330
2A75
100
AcDbEntity
  8
APL Border
100
AcDbText
 10
86.34500000000002
 20
260.4903256579735
 30
0.0
 40
2.5
  1
Scale
  7
Arial-Bold
100
AcDbText
  0
TEXT
  5
329B
330
2A75
100
AcDbEntity
  8
APL Border
100
AcDbText
 10
106.595
 20
260.4903256579735
 30
0.0
 40
2.5
  1
Date
  7
Arial-Bold
100
AcDbText
  0
TEXT
  5
329C
330
2A75
100
AcDbEntity
  8
APL Border
100
AcDbText
 10
38.28915075034109
 20
2.689999999999997
 30
0.0
 40
1.75
  1
Product Manual 2011:1       Architectural Profiles Ltd. NB. Technical specifications subject to change without notice.
  7
Arial-Regular
 72
     1
 11
100.595
 21
2.689999999999997
 31
0.0
100
AcDbText
  0
MTEXT
  5
329D
330
2A75
100
AcDbEntity
  8
APL Border
100
AcDbMText
 10
65.62154724931708
 20
2.589999999999999
 30
0.0
 40
1.75
 41
2.550279071751219
 71
     8
 72
     5
  1
{\fCommercialPi BT|b0|i0|c2|p18;a}
  7
Arial-Regular
 73
     1
 44
1.0
1001
ACAD
1000
MTEXTBEGIN
1070
    73
1070
     1
1070
    44
1040
1.0
1070
    74
1070
     0
1000
MTEXTEND
  0
LWPOLYLINE
  5
329E
330
2A75
100
AcDbEntity
  8
APL Border
100
AcDbPolyline
 90
        2
 70
     0
 43
0.1
 10
189.595
 20
264.94
 10
50.59500000000003
 20
264.94
  0
LWPOLYLINE
  5
329F
330
2A75
100
AcDbEntity
  8
APL Border
100
AcDbPolyline
 90
        2
 70
     0
 43
0.1
 10
11.59500000000003
 20
5.939999999999997
 10
189.595
 20
5.939999999999997
  0
MTEXT
  5
32A0
330
2A75
100
AcDbEntity
  8
APL Border
100
AcDbMText
 10
23.67538783647292
 20
270.7761693860163
 30
0.0
 40
5.299999999999999
 41
19.73351692440951
 71
     1
 72
     5
  1
{\fBook Antiqua|b0|i0|c0|p18;w}ood
  7
Times New Roman - Regular
 73
     1
 44
1.0
1001
ACAD
1000
MTEXTBEGIN
1070
    73
1070
     1
1070
    44
1040
1.0
1070
    74
1070
     0
1000
MTEXTEND
  0
ELLIPSE
  5
32A2
102
{ACAD_REACTORS
330
32A7
102
}
330
2A75
100
AcDbEntity
  8
APL Border
100
AcDbEllipse
 10
29.84950874715276
 20
269.0814048081144
 30
0.0
 11
-16.84682124459841
 21
0.4533421263139781
 31
0.0
210
0.0
220
0.0
230
1.0
 40
0.4004023718890052
 41
3.319153797531644
 42
4.72316325263933
  0
ELLIPSE
  5
32A3
102
{ACAD_REACTORS
330
32A7
102
}
330
2A75
100
AcDbEntity
  8
APL Border
100
AcDbEllipse
 10
29.74950874715276
 20
269.5814048081144
 30
0.0
 11
18.29645482212482
 21
0.1554481253131277
 31
0.0
210
0.0
220
0.0
230
1.0
 40
0.4217850638291509
 41
4.55200959415153
 42
5.610358989911128
  0
ELLIPSE
  5
32A4
102
{ACAD_REACTORS
330
32A7
102
}
330
2A75
100
AcDbEntity
  8
APL Border
100
AcDbEllipse
 10
29.74950874715276
 20
268.5814048081144
 30
0.0
 11
17.46996531743542
 21
1.044704257257092
 31
0.0
210
0.0
220
0.0
230
0.9999999999999998
 40
0.4379375984541014
 41
4.521982387362084
 42
5.649576101878832
  0
ELLIPSE
  5
32A5
102
{ACAD_REACTORS
330
32A7
102
}
330
2A75
100
AcDbEntity
  8
APL Border
100
AcDbEllipse
 10
30.84950874715276
 20
269.8814048081144
 30
0.0
 11
-16.74489455126359
 21
0.1068617375822129
 31
0.0
210
0.0
220
0.0
230
1.0
 40
0.3957593505602212
 41
-0.0140565277795168
 42
2.526331138818026
  0
ELLIPSE
  5
32A6
102
{ACAD_REACTORS
330
32A7
102
}
330
2A75
100
AcDbEntity
  8
APL Border
100
AcDbEllipse
 10
30.34950874715276
 20
269.5814048081144
 30
0.0
 11
-16.75
 21
0.0
 31
0.0
210
0.0
220
0.0
230
1.0
 40
0.4029850746268657
 41
6.209043324945823
 42
12.10581662267785
  0
HATCH
  5
32A7
330
2A75
100
AcDbEntity
  8
APL Border
100
AcDbHatch
 10
0.0
 20
0.0
 30
0.0
210
0.0
220
0.0
230
1.0
  2
SOLID
 70
     1
 71
     1
 91
        3
 92
        5
 93
        5
 72
     3
 10
29.84950874715276
 20
269.0814048081144
 11
-16.84682124459841
 21
0.4533421263139781
 40
0.4004023718890052
 50
88.45856240750569
 51
175.8902112425113
 73
     0
 72
     2
 10
44.67714020925939
 20
269.2071355523921
 40
1.890748898226122
 50
340.8735689376148
 51
382.2290912344739
 73
     0
 72
     2
 10
41.51959182547458
 20
270.2447528778072
 40
5.211423477554833
 50
19.65518680593698
 51
55.12585124074014
 73
     0
 72
     3
 10
30.34950874715276
 20
269.5814048081144
 11
-16.75
 21
0.0
 40
0.4029850746268657
 50
525.6794536794745
 51
348.6935611181874
 73
     1
 72
     2
 10
29.60957360403146
 20
242.9098529133927
 40
32.92242621724226
 50
244.3237283389977
 51
270.4175692479047
 73
     0
 97
        5
330
32A6
330
32AA
330
32A2
330
32B5
330
32B4
 92
        5
 93
        4
 72
     3
 10
30.84950874715276
 20
269.8814048081144
 11
-16.74489455126359
 21
0.1068617375822129
 40
0.3957593505602212
 50
195.6270825703936
 51
360.318754259222
 73
     0
 72
     2
 10
17.870699176928
 20
269.9064821669413
 40
3.767898811686352
 50
182.6608816075128
 51
206.3929086446277
 73
     0
 72
     2
 10
16.28271146983885
 20
269.5778144790396
 40
2.684837801621857
 50
131.7324572923458
 51
169.189096032782
 73
     1
 72
     3
 10
30.34950874715276
 20
269.5814048081144
 11
-16.75
 21
0.0
 40
0.4029850746268657
 50
358.2854785228978
 51
525.6794536794776
 73
     1
 97
        4
330
32A5
330
32AE
330
32AF
330
32A6
 92
        5
 93
        9
 72
     2
 10
23.33536788863245
 20
278.6194209938267
 40
17.2590652710141
 50
239.5349412106921
 51
252.4590542466208
 73
     1
 72
     2
 10
26.60089549689329
 20
289.2363088326019
 40
28.36660625123186
 50
252.6329792468225
 51
270.588845138434
 73
     1
 72
     3
 10
29.74950874715276
 20
268.5814048081144
 11
17.46996531743545
 21
1.044704257257094
 40
0.4379375984541014
 50
246.2451393282852
 51
342.165250303591
 73
     1
 72
     3
 10
29.74950874715276
 20
269.5814048081144
 11
18.29645482212482
 21
0.1554481253131277
 40
0.4217850638291509
 50
18.57778891659629
 51
110.9834979725197
 73
     0
 72
     3
 10
29.74950874715276
 20
269.5814048081144
 11
17.34970603451196
 21
0.3014458951867201
 40
0.4441716687466341
 50
111.492116901814
 51
177.6950000689094
 73
     0
 72
     2
 10
15.8463477617491
 20
269.5207324823547
 40
3.491202579869705
 50
164.4648671532029
 51
195.6449073964833
 73
     0
 72
     2
 10
12.41226765070615
 20
270.4824469054599
 40
0.0750000000000129
 50
344.3550926036264
 51
501.1312117459546
 73
     1
 72
     2
 10
15.55515394903143
 20
268.1982842226753
 40
3.960153949031391
 50
143.9372392604366
 51
199.8052767528797
 73
     1
 72
     2
 10
18.12711839863348
 20
269.6545364822648
 40
6.891465295079229
 50
203.9548519902146
 51
239.068349295085
 73
     1
 97
        9
330
32AB
330
32B3
330
32B2
330
32B1
330
32B0
330
32AD
330
32AC
330
32A4
330
32A3
 75
     0
 76
     1
 47
0.0305803701263538
 98
        3
 10
35.28102042538729
 20
275.5954279676816
 10
16.9851601393558
 20
265.9626110897854
 10
14.87409983201144
 20
264.188949598939
  0
MTEXT
  5
32A8
330
2A75
100
AcDbEntity
  8
APL Border
100
AcDbMText
 10
18.74489831846832
 20
273.6217875585393
 30
0.0
 40
3.8
 41
22.4226
 71
     1
 72
     5
  1
{\fCalisto MT|b0|i0|c0|p18;S}MART
  7
Times New Roman - Regular
 73
     1
 44
1.0
1001
ACAD
1000
MTEXTBEGIN
1070
    73
1070
     1
1070
    44
1040
1.0
1070
    74
1070
     0
1000
MTEXTEND
  0
MTEXT
  5
32A9
330
2A75
100
AcDbEntity
  8
APL Border
100
AcDbMText
 10
18.65989831846832
 20
273.6217875585393
 30
0.0
 40
3.8
 41
22.4226
 71
     1
 72
     5
  1
{\fCalisto MT|b0|i0|c0|p18;S}MART
  7
Times New Roman - Regular
 73
     1
 44
1.0
1001
ACAD
1000
MTEXTBEGIN
1070
    73
1070
     1
1070
    44
1040
1.0
1070
    74
1070
     0
1000
MTEXTEND
  0
ARC
  5
32AA
102
{ACAD_REACTORS
330
32A7
102
}
330
2A75
100
AcDbEntity
  8
APL Border
100
AcDbCircle
 10
29.60957360403142
 20
242.9098529133927
 30
0.0
 40
32.92242621724227
100
AcDbArc
 50
89.58243075209727
 51
115.6762716610028
  0
ELLIPSE
  5
32AB
102
{ACAD_REACTORS
330
32A7
102
}
330
2A75
100
AcDbEntity
  8
APL Border
100
AcDbEllipse
 10
29.74950874715276
 20
269.5814048081144
 30
0.0
 11
17.34970603451196
 21
0.3014458951867201
 31
0.0
210
0.0
220
0.0
230
1.0
 40
0.4441716687466341
 41
3.231967416867259
 42
4.539246861848816
  0
ARC
  5
32AC
102
{ACAD_REACTORS
330
32A7
102
}
330
2A75
100
AcDbEntity
  8
APL Border
100
AcDbCircle
 10
26.60089549689345
 20
289.2363088326019
 30
0.0
 40
28.36660625123188
100
AcDbArc
 50
252.6329792467665
 51
270.5888451384333
  0
ARC
  5
32AD
102
{ACAD_REACTORS
330
32A7
102
}
330
2A75
100
AcDbEntity
  8
APL Border
100
AcDbCircle
 10
23.33536788863257
 20
278.6194209938267
 30
0.0
 40
17.25906527101414
100
AcDbArc
 50
239.5349412106916
 51
252.4590542465295
  0
ARC
  5
32AE
102
{ACAD_REACTORS
330
32A7
102
}
330
2A75
100
AcDbEntity
  8
APL Border
100
AcDbCircle
 10
17.87069917692793
 20
269.9064821669413
 30
0.0
 40
3.767898811686282
100
AcDbArc
 50
153.6070913553711
 51
177.3391183924929
  0
ARC
  5
32AF
102
{ACAD_REACTORS
330
32A7
102
}
330
2A75
100
AcDbEntity
  8
APL Border
100
AcDbCircle
 10
16.28271146983881
 20
269.5778144790396
 30
0.0
 40
2.684837801621823
100
AcDbArc
 50
131.7324572923451
 51
169.1890960327197
  0
ARC
  5
32B0
102
{ACAD_REACTORS
330
32A7
102
}
330
2A75
100
AcDbEntity
  8
APL Border
100
AcDbCircle
 10
18.12711839863346
 20
269.6545364822648
 30
0.0
 40
6.891465295079221
100
AcDbArc
 50
203.9548519902172
 51
239.0683492950841
  0
ARC
  5
32B1
102
{ACAD_REACTORS
330
32A7
102
}
330
2A75
100
AcDbEntity
  8
APL Border
100
AcDbCircle
 10
15.55515394903143
 20
268.1982842226753
 30
0.0
 40
3.960153949031401
100
AcDbArc
 50
143.9372392604394
 51
199.8052767528839
  0
ARC
  5
32B2
102
{ACAD_REACTORS
330
32A7
102
}
330
2A75
100
AcDbEntity
  8
APL Border
100
AcDbCircle
 10
12.41226765070622
 20
270.48244690546
 30
0.0
 40
0.075
100
AcDbArc
 50
344.355092603511
 51
141.1312117461879
  0
ARC
  5
32B3
102
{ACAD_REACTORS
330
32A7
102
}
330
2A75
100
AcDbEntity
  8
APL Border
100
AcDbCircle
 10
15.8463477617491
 20
269.5207324823547
 30
0.0
 40
3.491202579869703
100
AcDbArc
 50
164.355092603516
 51
195.5351328468004
  0
ARC
  5
32B4
102
{ACAD_REACTORS
330
32A7
102
}
330
2A75
100
AcDbEntity
  8
APL Border
100
AcDbCircle
 10
41.51959182547463
 20
270.2447528778072
 30
0.0
 40
5.211423477554786
100
AcDbArc
 50
304.8741487592643
 51
340.3448131940653
  0
ARC
  5
32B5
102
{ACAD_REACTORS
330
32A7
102
}
330
2A75
100
AcDbEntity
  8
APL Border
100
AcDbCircle
 10
44.67714020925941
 20
269.2071355523921
 30
0.0
 40
1.890748898226107
100
AcDbArc
 50
337.7709087655318
 51
19.12643106237982
  0
ENDBLK
  5
2A77
330
2A75
100
AcDbEntity
  8
0
100
AcDbBlockEnd
  0
BLOCK
  5
2AB6
330
2AAD
100
AcDbEntity
  8
0
100
AcDbBlockBegin
  2
smartwood a4 SM attributes (2)
 70
     2
 10
0.0
 20
0.0
 30
0.0
  3
smartwood a4 SM attributes (2)
  1

  0
ATTDEF
  5
3095
330
2AAD
100
AcDbEntity
  8
APL Border
100
AcDbText
 10
50.59500000000003
 20
272.44
 30
0.0
 40
3.5
  1
DRAWING TITLE LINE 1
  7
Arial-Regular
100
AcDbAttributeDefinition
  3
Drawing Title Line 1
  2
DRAWINGTITLE_1
 70
     0
  0
ATTDEF
  5
3096
330
2AAD
100
AcDbEntity
  8
APL Border
100
AcDbText
 10
50.59500000000003
 20
266.94
 30
0.0
 40
3.5
  1
DRAWING TITLE LINE 2
  7
Arial-Regular
100
AcDbAttributeDefinition
  3
Drawing Title Line 2
  2
DRAWINGTITLE_2
 70
     0
  0
ATTDEF
  5
3097
330
2AAD
100
AcDbEntity
  8
APL Border
100
AcDbText
 10
65.59500000000003
 20
260.4903256579735
 30
0.0
 40
2.5
  1
VSAW01-0
  7
Arial-Regular
100
AcDbAttributeDefinition
  3
CAD Reference
  2
VSAW01-0
 70
     0
  0
ATTDEF
  5
3098
330
2AAD
100
AcDbEntity
  8
APL Border
100
AcDbText
 10
96.34500000000002
 20
260.4903256579735
 30
0.0
 40
2.5
  1
1:2
  7
Arial-Regular
100
AcDbAttributeDefinition
  3
Scale
  2
1:2
 70
     0
  0
ATTDEF
  5
3099
330
2AAD
100
AcDbEntity
  8
APL Border
100
AcDbText
 10
115.595
 20
260.4903256579735
 30
0.0
 40
2.5
  1
20.09.02
  7
Arial-Regular
100
AcDbAttributeDefinition
  3
Scale
  2
20.09.02
 70
     0
  0
ATTDEF
  5
309A
330
2AAD
100
AcDbEntity
  8
APL Border
100
AcDbText
 10
11.59500000000003
 20
2.689999999999997
 30
0.0
 40
4.5
  1
1.2.34
  7
Arial-Regular
100
AcDbAttributeDefinition
  3
Page Number (Left)
  2
1.2.34
 70
     0
  0
ATTDEF
  5
309B
330
2AAD
100
AcDbEntity
  8
APL Border
100
AcDbText
 10
172.1168281036835
 20
2.689999999999997
 30
0.0
 40
4.5
  1
1.2.34
  7
Arial-Regular
 72
     2
 11
189.595
 21
2.689999999999997
 31
0.0
100
AcDbAttributeDefinition
  3
Page Number (Right)
  2
1.2.34
 70
     0
  0
ENDBLK
  5
2AB7
330
2AAD
100
AcDbEntity
  8
0
100
AcDbBlockEnd
  0
ENDSEC
  0
SECTION
  2
ENTITIES
  0
INSERT
  5
2677
330
1F
100
AcDbEntity
  8
APL Joinery
100
AcDbBlockReference
  2
07100
 10
40.40010545134077
 20
118.7626576876796
 30
0.0
 41
-1.0
 50
270.0
  0
INSERT
  5
268C
330
1F
100
AcDbEntity
  8
APL Joinery
100
AcDbBlockReference
  2
sw30mmliner
 10
67.45010545133943
 20
165.8631576876778
 30
0.0
 41
-1.0
 50
270.0
  0
INSERT
  5
2707
330
1F
100
AcDbEntity
  8
APL Joinery
100
AcDbBlockReference
  2
07110
 10
213.7499991921496
 20
126.7631576876779
 30
0.0
 50
90.0
  0
INSERT
  5
271A
330
1F
100
AcDbEntity
  8
APL Joinery
100
AcDbBlockReference
  2
07103Sash
 10
201.7499991921499
 20
126.7631576876779
 30
0.0
  0
INSERT
  5
271B
330
1F
100
AcDbEntity
  8
APL Joinery
100
AcDbBlockReference
  2
07103Sash
 10
62.40010545134078
 20
126.7631576876779
 30
0.0
 41
-1.0
  0
INSERT
  5
2727
330
1F
100
AcDbEntity
  8
APL Joinery
100
AcDbBlockReference
  2
9700530
 10
213.74999919215
 20
171.2631576876779
 30
0.0
 50
90.0
  0
INSERT
  5
272C
330
1F
100
AcDbEntity
  8
APL Joinery
100
AcDbBlockReference
  2
Timber Profile 5
 10
213.7499991921496
 20
173.2631576876795
 30
0.0
  0
LINE
  5
2740
330
1F
100
AcDbEntity
  8
APL Joinery
  6
DASHED
 62
     3
 48
20.0
100
AcDbLine
 10
182.7499991921501
 20
207.8631576876802
 30
0.0
 11
244.7499991921493
 21
207.8631576876802
 31
0.0
  0
ARC
  5
2741
330
1F
100
AcDbEntity
  8
APL Joinery
  6
DASHED
 62
     3
 48
20.0
100
AcDbCircle
 10
182.7499991921501
 20
202.8631576876803
 30
0.0
 40
4.999999999999943
100
AcDbArc
 50
89.99999999999863
 51
180.0000000000006
  0
ARC
  5
2743
330
1F
100
AcDbEntity
  8
APL Joinery
  6
DASHED
 62
     3
 48
20.0
100
AcDbCircle
 10
244.7499991921497
 20
202.863157687681
 30
0.0
 40
4.999999999999204
100
AcDbArc
 50
359.9999999999909
 51
90.00000000000454
  0
LINE
  5
2744
330
1F
100
AcDbEntity
  8
APL Joinery
  6
DASHED
 62
     3
 48
20.0
100
AcDbLine
 10
182.7499991921499
 20
219.8631576876796
 30
0.0
 11
244.749999192149
 21
219.8631576876796
 31
0.0
  0
ARC
  5
2745
330
1F
100
AcDbEntity
  8
APL Joinery
  6
DASHED
 62
     3
 48
20.0
100
AcDbCircle
 10
182.7499991921499
 20
214.8631576876797
 30
0.0
 40
4.999999999999943
100
AcDbArc
 50
89.99999999999863
 51
180.0000000000006
  0
ARC
  5
2746
330
1F
100
AcDbEntity
  8
APL Joinery
  6
DASHED
 62
     3
 48
20.0
100
AcDbCircle
 10
244.7499991921494
 20
214.8631576876804
 30
0.0
 40
4.999999999999204
100
AcDbArc
 50
359.9999999999909
 51
90.00000000000454
  0
LINE
  5
2747
330
1F
100
AcDbEntity
  8
APL Joinery
  6
DASHED
 62
     3
 48
20.0
100
AcDbLine
 10
182.7499991921501
 20
238.86315768768
 30
0.0
 11
244.7499991921493
 21
238.86315768768
 31
0.0
  0
ARC
  5
2748
330
1F
100
AcDbEntity
  8
APL Joinery
  6
DASHED
 62
     3
 48
20.0
100
AcDbCircle
 10
182.7499991921501
 20
233.86315768768
 30
0.0
 40
4.999999999999943
100
AcDbArc
 50
89.99999999999863
 51
180.0000000000006
  0
ARC
  5
2749
330
1F
100
AcDbEntity
  8
APL Joinery
  6
DASHED
 62
     3
 48
20.0
100
AcDbCircle
 10
244.7499991921497
 20
233.8631576876808
 30
0.0
 40
4.999999999999204
100
AcDbArc
 50
359.9999999999909
 51
90.00000000000454
  0
LINE
  5
274A
330
1F
100
AcDbEntity
  8
APL Joinery
  6
DASHED
 62
     3
 48
20.0
100
AcDbLine
 10
177.7499991921501
 20
233.86315768768
 30
0.0
 11
177.7499991921483
 21
192.8631576876787
 31
0.0
  0
LINE
  5
274B
330
1F
100
AcDbEntity
  8
APL Joinery
  6
DASHED
 62
     3
 48
20.0
100
AcDbLine
 10
249.7499991921489
 20
233.86315768768
 30
0.0
 11
249.7499991921493
 21
192.8631576876787
 31
0.0
  0
INSERT
  5
274C
330
1F
100
AcDbEntity
  8
APL Joinery
100
AcDbBlockReference
  2
07100
 10
313.5998929329583
 20
118.7626576876796
 30
0.0
 50
90.0
  0
INSERT
  5
274F
330
1F
100
AcDbEntity
  8
APL Joinery
100
AcDbBlockReference
  2
sw30mmliner
 10
286.5498929329596
 20
165.8631576876778
 30
0.0
 50
90.0
  0
INSERT
  5
2750
330
1F
100
AcDbEntity
  8
APL Joinery
100
AcDbBlockReference
  2
07123Glaze
 10
291.5998929329583
 20
126.7631576876779
 30
0.0
  0
TEXT
  5
2752
330
1F
100
AcDbEntity
  8
APL Notes
100
AcDbText
 10
20.976503814233
 20
123.7626576876796
 30
0.0
 40
5.0
  1
07100
  7
Arial-Bold
 72
     2
 11
40.40010545134077
 21
123.7626576876796
 31
0.0
100
AcDbText
  0
TEXT
  5
2753
330
1F
100
AcDbEntity
  8
APL Notes
100
AcDbText
 10
66.363413110905
 20
101.1131576876783
 30
0.0
 40
5.0
  1
07103
  7
Arial-Bold
 72
     2
 11
85.78701474801277
 21
106.1131576876782
 31
0.0
100
AcDbText
 73
     3
  0
TEXT
  5
2755
330
1F
100
AcDbEntity
  8
APL Notes
100
AcDbText
 10
144.940551541204
 20
101.1131576876783
 30
0.0
 40
5.0
  1
07123
  7
Arial-Bold
 11
144.940551541204
 21
106.1131576876782
 31
0.0
100
AcDbText
 73
     3
  0
TEXT
  5
2756
330
1F
100
AcDbEntity
  8
APL Notes
100
AcDbText
 10
178.3630898954779
 20
101.1131576876783
 30
0.0
 40
5.0
  1
07103
  7
Arial-Bold
 11
178.3630898954779
 21
106.1131576876782
 31
0.0
100
AcDbText
 73
     3
  0
TEXT
  5
2759
330
1F
100
AcDbEntity
  8
APL Notes
100
AcDbText
 10
272.9994845118286
 20
119.7631576876779
 30
0.0
 40
5.0
  1
07123
  7
Arial-Bold
 11
272.9994845118286
 21
124.7631576876779
 31
0.0
100
AcDbText
 73
     3
  0
TEXT
  5
275A
330
1F
100
AcDbEntity
  8
APL Notes
100
AcDbText
 10
313.5998929329583
 20
123.7626576876796
 30
0.0
 40
5.0
  1
07100
  7
Arial-Bold
100
AcDbText
  0
TEXT
  5
275C
330
1F
100
AcDbEntity
  8
APL Notes
100
AcDbText
 10
190.2626185645908
 20
199.8631576876787
 30
0.0
 40
5.0
  1
32mm Mullion
  7
Arial-Bold
 72
     1
 11
213.7499991921488
 21
199.8631576876787
 31
0.0
100
AcDbText
  0
TEXT
  5
275D
330
1F
100
AcDbEntity
  8
APL Notes
100
AcDbText
 10
190.2626185645908
 20
210.8338002692333
 30
0.0
 40
5.0
  1
42mm Mullion
  7
Arial-Bold
 72
     1
 11
213.7499991921488
 21
210.8338002692333
 31
0.0
100
AcDbText
  0
TEXT
  5
275E
330
1F
100
AcDbEntity
  8
APL Notes
100
AcDbText
 10
190.2626185645908
 20
222.959247333057
 30
0.0
 40
5.0
  1
54mm Mullion
  7
Arial-Bold
 72
     1
 11
213.7499991921488
 21
222.959247333057
 31
0.0
100
AcDbText
  0
TEXT
  5
275F
330
1F
100
AcDbEntity
  8
APL Notes
100
AcDbText
 10
190.2626185645908
 20
241.7248196088051
 30
0.0
 40
5.0
  1
73mm Mullion
  7
Arial-Bold
 72
     1
 11
213.7499991921488
 21
241.7248196088051
 31
0.0
100
AcDbText
  0
LINE
  5
27B4
330
1F
100
AcDbEntity
  8
APL Notes
  6
Continuous
 62
     2
100
AcDbLine
 10
121.9999991921495
 20
432.0000001108869
 30
0.0
 11
231.9999991921495
 21
432.0000001108869
 31
0.0
  0
LINE
  5
27B6
330
1F
100
AcDbEntity
  8
APL Notes
  6
Continuous
 62
     2
100
AcDbLine
 10
231.9999991921495
 20
322.000000110887
 30
0.0
 11
121.9999991921495
 21
322.000000110887
 31
0.0
  0
LINE
  5
27B7
330
1F
100
AcDbEntity
  8
APL Notes
  6
Continuous
 62
     2
100
AcDbLine
 10
175.8999991921495
 20
428.7000001108869
 30
0.0
 11
228.6999991921495
 21
428.7000001108869
 31
0.0
  0
LINE
  5
27B8
330
1F
100
AcDbEntity
  8
APL Notes
  6
Continuous
 62
     2
100
AcDbLine
 10
228.6999991921495
 20
325.3000001108869
 30
0.0
 11
125.2999991921495
 21
325.3000001108869
 31
0.0
  0
LINE
  5
27B9
330
1F
100
AcDbEntity
  8
APL Notes
  6
Continuous
 62
     2
100
AcDbLine
 10
171.4999991921495
 20
382.500000110887
 30
0.0
 11
171.4999991921495
 21
425.4000001108869
 31
0.0
  0
LINE
  5
27BA
330
1F
100
AcDbEntity
  8
APL Notes
  6
Continuous
 62
     2
100
AcDbLine
 10
128.5999991921495
 20
382.500000110887
 30
0.0
 11
128.5999991921495
 21
425.4000001108869
 31
0.0
  0
LINE
  5
27BB
330
1F
100
AcDbEntity
  8
APL Notes
  6
DASHED
 62
     7
 48
20.0
100
AcDbLine
 10
128.5999991921495
 20
382.500000110887
 30
0.0
 11
150.0499991921495
 21
418.800000110887
 31
0.0
  0
LINE
  5
27BF
330
1F
100
AcDbEntity
  8
APL Notes
  6
DASHED
 62
     7
 48
20.0
100
AcDbLine
 10
150.0499991921495
 20
418.800000110887
 30
0.0
 11
171.4999991921495
 21
382.500000110887
 31
0.0
  0
LINE
  5
27C0
330
1F
100
AcDbEntity
  8
APL Notes
  6
Continuous
 62
     2
100
AcDbLine
 10
121.9999991921495
 20
322.000000110887
 30
0.0
 11
121.9999991921495
 21
432.0000001108869
 31
0.0
  0
LINE
  5
27C1
330
1F
100
AcDbEntity
  8
APL Notes
  6
Continuous
 62
     2
100
AcDbLine
 10
124.1999991921495
 20
378.100000110887
 30
0.0
 11
124.1999991921495
 21
429.8000001108869
 31
0.0
  0
LINE
  5
27C2
330
1F
100
AcDbEntity
  8
APL Notes
  6
Continuous
 62
     2
100
AcDbLine
 10
175.8999991921495
 20
378.100000110887
 30
0.0
 11
175.8999991921495
 21
429.8000001108869
 31
0.0
  0
LINE
  5
27C3
330
1F
100
AcDbEntity
  8
APL Notes
  6
Continuous
 62
     2
100
AcDbLine
 10
172.5999991921495
 20
327.500000110887
 30
0.0
 11
172.5999991921495
 21
372.600000110887
 31
0.0
  0
LINE
  5
27C4
330
1F
100
AcDbEntity
  8
APL Notes
  6
Continuous
 62
     2
100
AcDbLine
 10
127.4999991921495
 20
327.500000110887
 30
0.0
 11
127.4999991921495
 21
372.600000110887
 31
0.0
  0
LINE
  5
27C7
330
1F
100
AcDbEntity
  8
APL Notes
  6
Continuous
 62
     2
100
AcDbLine
 10
174.7999991921495
 20
325.3000001108869
 30
0.0
 11
174.7999991921495
 21
378.100000110887
 31
0.0
  0
LINE
  5
27C8
330
1F
100
AcDbEntity
  8
APL Notes
  6
Continuous
 62
     2
100
AcDbLine
 10
125.2999991921495
 20
325.3000001108869
 30
0.0
 11
125.2999991921495
 21
378.100000110887
 31
0.0
  0
LINE
  5
27CB
330
1F
100
AcDbEntity
  8
APL Notes
  6
Continuous
 62
     2
100
AcDbLine
 10
172.5999991921495
 20
327.500000110887
 30
0.0
 11
127.4999991921495
 21
327.500000110887
 31
0.0
  0
LINE
  5
27CD
330
1F
100
AcDbEntity
  8
APL Notes
  6
Continuous
 62
     2
100
AcDbLine
 10
127.4999991921495
 20
327.500000110887
 30
0.0
 11
125.2999991921495
 21
325.3000001108869
 31
0.0
  0
LINE
  5
27CE
330
1F
100
AcDbEntity
  8
APL Notes
  6
Continuous
 62
     2
100
AcDbLine
 10
172.5999991921495
 20
327.500000110887
 30
0.0
 11
174.7999991921495
 21
325.3000001108869
 31
0.0
  0
LINE
  5
27CF
330
1F
100
AcDbEntity
  8
APL Notes
  6
Continuous
 62
     2
100
AcDbLine
 10
125.2999991921495
 20
374.800000110887
 30
0.0
 11
174.7999991921495
 21
374.800000110887
 31
0.0
  0
LINE
  5
27D0
330
1F
100
AcDbEntity
  8
APL Notes
  6
Continuous
 62
     2
100
AcDbLine
 10
124.1999991921495
 20
378.100000110887
 30
0.0
 11
175.8999991921495
 21
378.100000110887
 31
0.0
  0
LINE
  5
27D1
330
1F
100
AcDbEntity
  8
APL Notes
  6
Continuous
 62
     2
100
AcDbLine
 10
127.4999991921495
 20
372.600000110887
 30
0.0
 11
172.5999991921495
 21
372.600000110887
 31
0.0
  0
LINE
  5
27D2
330
1F
100
AcDbEntity
  8
APL Notes
  6
Continuous
 62
     2
100
AcDbLine
 10
128.5999991921495
 20
382.500000110887
 30
0.0
 11
171.4999991921495
 21
382.500000110887
 31
0.0
  0
LINE
  5
27D3
330
1F
100
AcDbEntity
  8
APL Notes
  6
Continuous
 62
     2
100
AcDbLine
 10
127.4999991921495
 20
372.600000110887
 30
0.0
 11
125.2999991921495
 21
374.800000110887
 31
0.0
  0
LINE
  5
27D4
330
1F
100
AcDbEntity
  8
APL Notes
  6
Continuous
 62
     2
100
AcDbLine
 10
128.5999991921495
 20
382.500000110887
 30
0.0
 11
124.1999991921495
 21
378.100000110887
 31
0.0
  0
LINE
  5
27D5
330
1F
100
AcDbEntity
  8
APL Notes
  6
Continuous
 62
     2
100
AcDbLine
 10
172.5999991921495
 20
372.600000110887
 30
0.0
 11
174.7999991921495
 21
374.800000110887
 31
0.0
  0
LINE
  5
27D7
330
1F
100
AcDbEntity
  8
APL Notes
  6
Continuous
 62
     2
100
AcDbLine
 10
175.8999991921495
 20
378.100000110887
 30
0.0
 11
171.4999991921495
 21
382.500000110887
 31
0.0
  0
LINE
  5
27D9
330
1F
100
AcDbEntity
  8
APL Notes
  6
Continuous
 62
     2
100
AcDbLine
 10
124.1999991921495
 20
429.8000001108869
 30
0.0
 11
175.8999991921495
 21
429.8000001108869
 31
0.0
  0
LINE
  5
27DA
330
1F
100
AcDbEntity
  8
APL Notes
  6
Continuous
 62
     2
100
AcDbLine
 10
128.5999991921495
 20
425.4000001108869
 30
0.0
 11
171.4999991921495
 21
425.4000001108869
 31
0.0
  0
LINE
  5
27DC
330
1F
100
AcDbEntity
  8
APL Notes
  6
Continuous
 62
     2
100
AcDbLine
 10
128.5999991921495
 20
425.4000001108869
 30
0.0
 11
124.1999991921495
 21
429.8000001108869
 31
0.0
  0
LINE
  5
27DE
330
1F
100
AcDbEntity
  8
APL Notes
  6
DASHED
 62
     7
 48
20.0
100
AcDbLine
 10
143.4499991921495
 20
418.800000110887
 30
0.0
 11
156.6499991921495
 21
418.800000110887
 31
0.0
  0
LINE
  5
27DF
330
1F
100
AcDbEntity
  8
APL Notes
  6
Continuous
 62
     2
100
AcDbLine
 10
171.4999991921495
 20
425.4000001108869
 30
0.0
 11
175.8999991921495
 21
429.8000001108869
 31
0.0
  0
LINE
  5
27E0
330
1F
100
AcDbEntity
  8
APL Notes
  6
Continuous
 62
     2
100
AcDbLine
 10
226.4999991921495
 20
426.500000110887
 30
0.0
 11
226.4999991921495
 21
327.500000110887
 31
0.0
  0
LINE
  5
27E1
330
1F
100
AcDbEntity
  8
APL Notes
  6
Continuous
 62
     2
100
AcDbLine
 10
228.6999991921495
 20
428.7000001108869
 30
0.0
 11
228.6999991921495
 21
325.3000001108869
 31
0.0
  0
LINE
  5
27E5
330
1F
100
AcDbEntity
  8
APL Notes
  6
Continuous
 62
     2
100
AcDbLine
 10
181.3999991921495
 20
327.500000110887
 30
0.0
 11
181.3999991921495
 21
426.500000110887
 31
0.0
  0
LINE
  5
27E6
330
1F
100
AcDbEntity
  8
APL Notes
  6
Continuous
 62
     2
100
AcDbLine
 10
179.1999991921495
 20
325.3000001108869
 30
0.0
 11
179.1999991921495
 21
428.7000001108869
 31
0.0
  0
LINE
  5
27E7
330
1F
100
AcDbEntity
  8
APL Notes
  6
Continuous
 62
     2
100
AcDbLine
 10
231.9999991921495
 20
432.0000001108869
 30
0.0
 11
231.9999991921495
 21
322.000000110887
 31
0.0
  0
LINE
  5
27E8
330
1F
100
AcDbEntity
  8
APL Notes
  6
Continuous
 62
     8
100
AcDbLine
 10
215.1420543153719
 20
403.9500001108869
 30
0.0
 11
237.9999991921495
 21
403.9500001108869
 31
0.0
  0
LINE
  5
27EC
330
1F
100
AcDbEntity
  8
APL Notes
  6
Continuous
 62
     2
100
AcDbLine
 10
226.4999991921495
 20
327.500000110887
 30
0.0
 11
181.3999991921495
 21
327.500000110887
 31
0.0
  0
LEADER
  5
27ED
330
1F
100
AcDbEntity
  8
APL Notes
 62
     8
100
AcDbLeader
  3
ISO-25
 76
     2
 10
237.9999991921495
 20
385.2541181075854
 30
0.0
 10
237.9999991921495
 20
403.9500001108869
 30
0.0
211
0.0000000000000001
221
1.0
231
0.0
1001
ACAD
1000
DSTYLE
1002
{
1070
   147
1040
0.625
1070
    77
1070
     0
1002
}
  0
LINE
  5
27EE
330
1F
100
AcDbEntity
  8
APL Notes
  6
Continuous
 62
     2
100
AcDbLine
 10
179.1999991921495
 20
325.3000001108869
 30
0.0
 11
181.3999991921495
 21
327.500000110887
 31
0.0
  0
LINE
  5
27EF
330
1F
100
AcDbEntity
  8
APL Notes
  6
Continuous
 62
     2
100
AcDbLine
 10
226.4999991921495
 20
327.500000110887
 30
0.0
 11
231.9999991921495
 21
322.000000110887
 31
0.0
  0
LINE
  5
27F0
330
1F
100
AcDbEntity
  8
APL Notes
  6
Continuous
 62
     2
100
AcDbLine
 10
181.3999991921495
 20
426.500000110887
 30
0.0
 11
226.4999991921495
 21
426.500000110887
 31
0.0
  0
LINE
  5
27F2
330
1F
100
AcDbEntity
  8
APL Notes
  6
Continuous
 62
     2
100
AcDbLine
 10
181.3999991921495
 20
426.500000110887
 30
0.0
 11
179.1999991921495
 21
428.7000001108869
 31
0.0
  0
LINE
  5
27F4
330
1F
100
AcDbEntity
  8
APL Notes
  6
Continuous
 62
     2
100
AcDbLine
 10
226.4999991921495
 20
426.500000110887
 30
0.0
 11
231.9999991921495
 21
432.0000001108869
 31
0.0
  0
TEXT
  5
27F5
330
1F
100
AcDbEntity
  8
APL Notes
  6
Continuous
 62
     7
100
AcDbText
 10
235.6113355022189
 20
378.3581107977819
 30
0.0
 40
5.0
  1
A
  7
Arial-Bold
100
AcDbText
  0
LWPOLYLINE
  5
29E6
330
1F
100
AcDbEntity
  8
APL Notes
100
AcDbPolyline
 90
        4
 70
     1
 43
0.3
 10
202.4999991921495
 20
60.00000011088696
 10
202.4999991921495
 20
71.00000011088695
 10
151.4999991921495
 20
71.00000011088695
 10
151.4999991921495
 20
60.00000011088696
  0
TEXT
  5
29E7
330
1F
100
AcDbEntity
  8
APL Notes
100
AcDbText
 10
154.4999991921495
 20
63.00000011088698
 30
0.0
 40
5.0
  1
SECTION A-A
  7
Arial-Bold
100
AcDbText
  0
LEADER
  5
2A06
330
1F
100
AcDbEntity
  8
APL Notes
 62
     8
100
AcDbLeader
  3
ISO-25
 76
     2
 10
115.9999991921495
 20
385.2541181075854
 30
0.0
 10
115.9999991921495
 20
403.9500001108869
 30
0.0
211
-0.0000000000000001
221
1.0
231
0.0
210
0.0
220
0.0
230
-1.0
1001
ACAD
1000
DSTYLE
1002
{
1070
   147
1040
0.625
1070
    77
1070
     0
1002
}
  0
TEXT
  5
2A07
330
1F
100
AcDbEntity
  8
APL Notes
  6
Continuous
 62
     7
100
AcDbText
 10
118.3886628820801
 20
378.3581107977819
 30
0.0
 40
5.0
  1
A
  7
Arial-Bold
 71
     2
100
AcDbText
  0
LINE
  5
2A08
330
1F
100
AcDbEntity
  8
APL Notes
  6
Continuous
 62
     8
100
AcDbLine
 10
138.8579440689271
 20
403.9500001108869
 30
0.0
 11
115.9999991921495
 21
403.9500001108869
 31
0.0
  0
TEXT
  5
2A17
330
1F
100
AcDbEntity
  8
APL Notes
100
AcDbText
 10
144.940551541204
 20
94.11315768767826
 30
0.0
 40
5.0
  1
D/G Bead
  7
Arial-Regular
 11
144.940551541204
 21
99.11315768767828
 31
0.0
100
AcDbText
 73
     3
  0
TEXT
  5
2A27
330
1F
100
AcDbEntity
  8
APL Notes
100
AcDbText
 10
213.5592021429244
 20
112.3094438581888
 30
0.0
 40
5.0
  1
Refer to tables for
  7
Arial-Regular
100
AcDbText
  0
TEXT
  5
2A28
330
1F
100
AcDbEntity
  8
APL Notes
100
AcDbText
 10
213.3684050936992
 20
104.8557300286998
 30
0.0
 40
5.0
  1
span requirements
  7
Arial-Regular
100
AcDbText
  0
TEXT
  5
2A29
330
1F
100
AcDbEntity
  8
APL Notes
100
AcDbText
 10
213.7499991921496
 20
119.7631576876779
 30
0.0
 40
5.0
  1
07110 Mullion
  7
Arial-Bold
100
AcDbText
  0
LWPOLYLINE
  5
2D1C
330
1F
100
AcDbEntity
  8
0
100
AcDbPolyline
 90
        4
 70
     1
 43
0.0
 10
353.9999991921495
 20
0.0000001108869583
 10
353.9999991921495
 20
482.0000001108869
 10
-0.0000008078504834
 20
482.0000001108869
 10
-0.0000008078504834
 20
0.0000001108869583
  0
INSERT
  5
2F60
330
1F
100
AcDbEntity
  8
APL Joinery
100
AcDbBlockReference
  2
07123Glaze
 10
225.7499991921492
 20
126.7631576876779
 30
0.0
 41
-1.0
  0
INSERT
  5
2F61
330
1F
100
AcDbEntity
  8
APL Joinery
100
AcDbBlockReference
  2
07123Glaze
 10
164.9999991921498
 20
108.1131576876782
 30
0.0
  0
INSERT
  5
2F62
330
1F
100
AcDbEntity
  8
APL Joinery
100
AcDbBlockReference
  2
07123Glaze
 10
99.15010545133998
 20
108.1131576876783
 30
0.0
 41
-1.0
  0
TEXT
  5
2F63
330
1F
100
AcDbEntity
  8
APL Notes
100
AcDbText
 10
101.4029168809659
 20
101.1131576876783
 30
0.0
 40
5.0
  1
07123
  7
Arial-Bold
 11
101.4029168809659
 21
106.1131576876782
 31
0.0
100
AcDbText
 73
     3
  0
VIEWPORT
  5
2A6A
102
{ACAD_XDICTIONARY
360
3360
102
}
330
2A63
100
AcDbEntity
 67
     1
  8
0
100
AcDbViewport
 10
111.5094435879398
 20
173.9086686589625
 30
0.0
 40
508.3226708906841
 41
357.1182153969298
 68
     1
 69
     1
 12
111.5094435879398
 22
173.9086686589625
 13
0.0
 23
0.0
 14
10.0
 24
10.0
 15
10.0
 25
10.0
 16
0.0
 26
0.0
 36
1.0
 17
0.0
 27
0.0
 37
0.0
 42
50.0
 43
0.0
 44
0.0
 45
357.1182153969298
 50
0.0
 51
0.0
 72
 20000
 90
    32800
  1

281
     0
 71
     1
 74
     0
110
0.0
120
0.0
130
0.0
111
1.0
121
0.0
131
0.0
112
0.0
122
1.0
132
0.0
 79
     0
146
0.0
  0
VIEWPORT
  5
2A6C
102
{ACAD_XDICTIONARY
360
3362
102
}
330
2A63
100
AcDbEntity
 67
     1
  8
0
100
AcDbViewport
 10
112.19
 20
133.6299999999999
 30
0.0
 40
178.0
 41
241.9999999999999
 68
     2
 69
     2
 12
177.0000000163699
 22
241.0000012331306
 13
0.0
 23
0.0
 14
10.0
 24
10.0
 15
10.0
 25
10.0
 16
0.0
 26
0.0
 36
1.0
 17
0.0
 27
0.0
 37
0.0
 42
50.0
 43
0.0
 44
0.0
 45
483.9999999999998
 50
0.0
 51
0.0
 72
 20000
 90
    32864
  1

281
     0
 71
     1
 74
     0
110
0.0
120
0.0
130
0.0
111
1.0
121
0.0
131
0.0
112
0.0
122
1.0
132
0.0
 79
     0
146
0.0
  0
INSERT
  5
2A7A
330
2A63
100
AcDbEntity
 67
     1
  8
APL Border
100
AcDbBlockReference
  2
smartwood a4 SM border
 10
11.59500000000003
 20
2.689999999999997
 30
0.0
  0
INSERT
  5
2AC5
330
2A63
100
AcDbEntity
 67
     1
  8
APL Border
100
AcDbBlockReference
 66
     1
  2
smartwood a4 SM attributes (2)
 10
11.59500000000003
 20
2.689999999999997
 30
0.0
  0
ATTRIB
  5
2AC6
330
2AC5
100
AcDbEntity
 67
     1
  8
APL Border
100
AcDbText
 10
62.19000000000005
 20
275.13
 30
0.0
 40
3.5
  1
AWNING WINDOW AND FIXED LIGHT
  7
Arial-Regular
100
AcDbAttribute
  2
DRAWINGTITLE_1
 70
     0
  0
ATTRIB
  5
2AC7
330
2AC5
100
AcDbEntity
 67
     1
  8
APL Border
100
AcDbText
 10
62.19000000000005
 20
269.63
 30
0.0
 40
3.5
  1
CROSS SECTION
  7
Arial-Regular
100
AcDbAttribute
  2
DRAWINGTITLE_2
 70
     0
  0
ATTRIB
  5
2AC8
330
2AC5
100
AcDbEntity
 67
     1
  8
APL Border
100
AcDbText
 10
77.19000000000005
 20
263.1803256579735
 30
0.0
 40
2.5
  1
SAW02-0
  7
Arial-Regular
100
AcDbAttribute
  2
VSAW01-0
 70
     0
  0
ATTRIB
  5
2AC9
330
2AC5
100
AcDbEntity
 67
     1
  8
APL Border
100
AcDbText
 10
107.94
 20
263.1803256579735
 30
0.0
 40
2.5
  1
1:2
  7
Arial-Regular
100
AcDbAttribute
  2
1:2
 70
     0
  0
ATTRIB
  5
2ACA
330
2AC5
100
AcDbEntity
 67
     1
  8
APL Border
100
AcDbText
 10
127.19
 20
263.1803256579735
 30
0.0
 40
2.5
  1
01.06.11
  7
Arial-Regular
100
AcDbAttribute
  2
20.09.02
 70
     0
  0
ATTRIB
  5
2ACB
330
2AC5
100
AcDbEntity
 67
     1
  8
APL Border
100
AcDbText
 10
23.19000000000006
 20
5.379999999999995
 30
0.0
 40
4.5
  1

  7
Arial-Regular
100
AcDbAttribute
  2
1.2.34
 70
     0
  0
ATTRIB
  5
2ACC
330
2AC5
100
AcDbEntity
 67
     1
  8
APL Border
100
AcDbText
 10
201.1900000000001
 20
5.379999999999995
 30
0.0
 40
4.5
  1

  7
Arial-Regular
 72
     2
 11
201.1900000000001
 21
5.379999999999995
 31
0.0
100
AcDbAttribute
  2
1.2.34
 70
     0
  0
SEQEND
  5
2ACD
330
2AC5
100
AcDbEntity
 67
     1
  8
APL Border
  0
ENDSEC
  0
SECTION
  2
OBJECTS
  0
DICTIONARY
  5
C
330
0
100
AcDbDictionary
281
     1
  3
ACAD_CIP_PREVIOUS_PRODUCT_INFO
350
32F6
  3
ACAD_COLOR
350
2BB2
  3
ACAD_DETAILVIEWSTYLE
350
32ED
  3
ACAD_GROUP
350
D
  3
ACAD_LAYOUT
350
1A
  3
ACAD_MATERIAL
350
2B88
  3
ACAD_MLEADERSTYLE
350
2BD7
  3
ACAD_MLINESTYLE
350
17
  3
ACAD_PLOTSETTINGS
350
19
  3
ACAD_PLOTSTYLENAME
350
E
  3
ACAD_SCALELIST
350
2BB5
  3
ACAD_SECTIONVIEWSTYLE
350
32EB
  3
ACAD_TABLESTYLE
350
2BB3
  3
ACAD_VISUALSTYLE
350
2BA1
  3
AcadDim
350
86
  3
ACDB_RECOMPOSE_DATA
350
3357
  3
AcDbVariableDictionary
350
3B
  3
DWGPROPS
350
3358
  0
DICTIONARY
  5
2EB6
330
8
100
AcDbDictionary
280
     1
281
     1
  0
DICTIONARY
  5
2C02
330
2
100
AcDbDictionary
280
     1
281
     1
  3
ACAD_LAYERSTATES
360
2C03
  0
DICTIONARY
  5
2C70
330
10
100
AcDbDictionary
280
     1
281
     1
  3
ADSK_XREC_LAYER_RECONCILED
360
2C71
  0
DICTIONARY
  5
2C72
330
2B
100
AcDbDictionary
280
     1
281
     1
  3
ADSK_XREC_LAYER_RECONCILED
360
2C73
  0
DICTIONARY
  5
2C74
330
75
100
AcDbDictionary
280
     1
281
     1
  3
ADSK_XREC_LAYER_RECONCILED
360
2C75
  0
DICTIONARY
  5
2C76
330
2818
100
AcDbDictionary
280
     1
281
     1
  3
ADSK_XREC_LAYER_RECONCILED
360
2C77
  0
DICTIONARY
  5
2C7A
330
2BE1
100
AcDbDictionary
280
     1
281
     1
  3
ADSK_XREC_LAYER_RECONCILED
360
2C7B
  0
DICTIONARY
  5
2D1D
330
1F
100
AcDbDictionary
280
     1
281
     1
  3
ACAD_SORTENTS
360
2D1E
  0
DICTIONARY
  5
324F
330
2673
100
AcDbDictionary
280
     1
281
     1
  0
DICTIONARY
  5
3254
330
2678
100
AcDbDictionary
280
     1
281
     1
  0
DICTIONARY
  5
3283
330
26E2
100
AcDbDictionary
280
     1
281
     1
  0
DICTIONARY
  5
3288
330
2703
100
AcDbDictionary
280
     1
281
     1
  0
DICTIONARY
  5
3360
330
2A6A
100
AcDbDictionary
280
     1
281
     1
  3
ACAD_XREC_ROUNDTRIP
360
3361
  0
DICTIONARY
  5
3362
330
2A6C
100
AcDbDictionary
280
     1
281
     1
  3
ACAD_XREC_ROUNDTRIP
360
3363
  0
XRECORD
  5
32F6
102
{ACAD_REACTORS
330
C
102
}
330
C
100
AcDbXrecord
280
     1
300
ACDLT
300
2013
300
ACDLT_F_S
  0
DICTIONARY
  5
2BB2
102
{ACAD_REACTORS
330
C
102
}
330
C
100
AcDbDictionary
281
     1
  0
DICTIONARY
  5
32ED
102
{ACAD_REACTORS
330
C
102
}
330
C
100
AcDbDictionary
281
     1
  3
Metric50
350
32EE
  0
DICTIONARY
  5
D
102
{ACAD_REACTORS
330
C
102
}
330
C
100
AcDbDictionary
281
     1
  0
DICTIONARY
  5
1A
102
{ACAD_REACTORS
330
C
102
}
330
C
100
AcDbDictionary
281
     1
  3
Model
350
22
  3
Smartwood A4
350
2A64
  0
DICTIONARY
  5
2B88
102
{ACAD_REACTORS
330
C
102
}
330
C
100
AcDbDictionary
281
     1
  3
ByBlock
350
2B91
  3
ByLayer
350
2B89
  3
Global
350
2B99
  0
DICTIONARY
  5
2BD7
102
{ACAD_REACTORS
330
C
102
}
330
C
100
AcDbDictionary
281
     1
  3
Standard
350
2E8E
  0
DICTIONARY
  5
17
102
{ACAD_REACTORS
330
C
102
}
330
C
100
AcDbDictionary
281
     1
  3
Standard
350
18
  0
DICTIONARY
  5
19
102
{ACAD_REACTORS
330
C
102
}
330
C
100
AcDbDictionary
281
     1
  3
A4 Specifier Manual Hardcopy
350
2966
  3
A4 Specifier Manual PDF
350
2967
  0
ACDBDICTIONARYWDFLT
  5
E
102
{ACAD_REACTORS
330
C
102
}
330
C
100
AcDbDictionary
281
     1
  3
Normal
350
F
100
AcDbDictionaryWithDefault
340
F
  0
DICTIONARY
  5
2BB5
102
{ACAD_REACTORS
330
C
102
}
330
C
100
AcDbDictionary
281
     1
  3
A0
350
2BB6
  3
A1
350
2BB7
  3
A2
350
2BB8
  3
A3
350
2BB9
  3
A4
350
2BBA
  3
A5
350
2BBB
  3
A6
350
2BBC
  3
A7
350
2BBD
  3
A8
350
2BBE
  3
A9
350
2BBF
  3
B0
350
2BC0
  3
B1
350
2BC1
  3
B2
350
2BC2
  3
B3
350
2BC3
  3
B4
350
2BC4
  3
B5
350
2BC5
  3
B6
350
2BC6
  3
B7
350
2BC7
  3
B8
350
2BC8
  3
B9
350
2BC9
  3
C0
350
2BCA
  3
C1
350
2BCB
  3
C2
350
2BCC
  3
C3
350
2BCD
  3
C4
350
2BCE
  3
C5
350
2BCF
  3
C6
350
2BD0
  3
C7
350
2BD1
  3
C8
350
2BD2
  3
C9
350
2BD3
  3
D0
350
2BD4
  3
D1
350
2BD5
  3
D2
350
2BD6
  0
DICTIONARY
  5
32EB
102
{ACAD_REACTORS
330
C
102
}
330
C
100
AcDbDictionary
281
     1
  3
Metric50
350
32EC
  0
DICTIONARY
  5
2BB3
102
{ACAD_REACTORS
330
C
102
}
330
C
100
AcDbDictionary
281
     1
  3
Standard
350
2BB4
  0
DICTIONARY
  5
2BA1
102
{ACAD_REACTORS
330
C
102
}
330
C
100
AcDbDictionary
281
     1
  3
2dWireframe
350
2BA7
  3
3D Hidden
350
2BA9
  3
3dWireframe
350
2BA8
  3
Basic
350
2BA6
  3
Brighten
350
2BAD
  3
ColorChange
350
2BB1
  3
Conceptual
350
2BAA
  3
Dim
350
2BAC
  3
EdgeColorOff
350
32EA
  3
Facepattern
350
2BB0
  3
Flat
350
2BA2
  3
FlatWithEdges
350
2BA3
  3
Gouraud
350
2BA4
  3
GouraudWithEdges
350
2BA5
  3
Hidden
350
32E2
  3
JitterOff
350
32E8
  3
Linepattern
350
2BAF
  3
OverhangOff
350
32E9
  3
Realistic
350
2BAB
  3
Shaded
350
32E7
  3
Shaded with edges
350
32E6
  3
Shades of Gray
350
32E3
  3
Sketchy
350
32E4
  3
Thicken
350
2BAE
  3
Wireframe
350
32E1
  3
X-Ray
350
32E5
  0
XRECORD
  5
86
102
{ACAD_REACTORS
330
C
102
}
330
C
100
AcDbXrecord
280
     1
 90
   990106
  3

 60
     0
 61
     0
 62
     1
 63
     3
 64
     0
 65
     0
 66
     0
 67
     3
 68
     1
 69
     0
 70
     0
 71
     0
 72
     0
 40
8.188652110585962
170
     0
  0
XRECORD
  5
3357
102
{ACAD_REACTORS
330
C
102
}
330
C
100
AcDbXrecord
280
     1
 90
        1
330
2BB4
  0
DICTIONARY
  5
3B
102
{ACAD_REACTORS
330
C
102
}
330
C
100
AcDbDictionary
281
     1
  3
CANNOSCALE
350
2EF1
  3
CMLEADERSTYLE
350
2F49
  3
CTABLESTYLE
350
2EF0
  3
CVIEWDETAILSTYLE
350
3344
  3
CVIEWSECTIONSTYLE
350
3345
  3
DIMASSOC
350
3D
  3
HIDETEXT
350
3C
  3
INDEXCTL
350
2EF3
  3
PROJECTNAME
350
30D3
  3
SORTENTS
350
2EF2
  3
XCLIPFRAME
350
3355
  0
XRECORD
  5
3358
102
{ACAD_REACTORS
330
C
102
}
330
C
100
AcDbXrecord
280
     1
  1
DWGPROPS COOKIE
  2

  3

  4

  6

  7

  8
mark
  9

300
=
301
=
302
=
303
=
304
=
305
=
306
=
307
=
308
=
309
=
 40
0.3942179513888889
 41
2452282.542916192
 42
2456456.548793275
  1

 90
        0
  0
DICTIONARY
  5
2C03
102
{ACAD_REACTORS
330
2C02
102
}
330
2C02
100
AcDbDictionary
281
     1
  0
XRECORD
  5
2C71
102
{ACAD_REACTORS
330
2C70
102
}
330
2C70
100
AcDbXrecord
280
     1
290
     1
  0
XRECORD
  5
2C73
102
{ACAD_REACTORS
330
2C72
102
}
330
2C72
100
AcDbXrecord
280
     1
290
     1
  0
XRECORD
  5
2C75
102
{ACAD_REACTORS
330
2C74
102
}
330
2C74
100
AcDbXrecord
280
     1
290
     1
  0
XRECORD
  5
2C77
102
{ACAD_REACTORS
330
2C76
102
}
330
2C76
100
AcDbXrecord
280
     1
290
     1
  0
XRECORD
  5
2C7B
102
{ACAD_REACTORS
330
2C7A
102
}
330
2C7A
100
AcDbXrecord
280
     1
290
     1
  0
SORTENTSTABLE
  5
2D1E
102
{ACAD_REACTORS
330
2D1D
102
}
330
2D1D
100
AcDbSortentsTable
330
1F
331
2753
  5
2758
331
275F
  5
27B8
331
2747
  5
274B
331
29E6
  5
2A08
331
2A06
  5
2A27
331
2752
  5
2756
331
2746
  5
274A
331
275E
  5
27B7
331
275D
  5
27B6
331
2745
  5
2749
331
2750
  5
2755
331
2744
  5
2748
331
275C
  5
27B4
331
2743
  5
2747
331
274F
  5
2754
331
275A
  5
275F
331
2759
  5
275E
331
2741
  5
2746
331
2740
  5
2745
331
274C
  5
2750
331
274B
  5
274F
331
274A
  5
274E
331
2749
  5
274D
331
272C
  5
2744
331
2748
  5
274C
331
2D1C
  5
262B
331
268C
  5
26DA
331
2677
  5
26C4
331
27F5
  5
2A07
331
27ED
  5
27F2
331
2A27
  5
2D1F
331
2727
  5
2743
331
2707
  5
271C
331
271B
  5
272C
331
271A
  5
2727
331
27B4
  5
27B9
331
2A17
  5
2D1C
331
2756
  5
275C
331
2A29
  5
2D21
331
2755
  5
275A
331
2A28
  5
2D20
331
29E7
  5
2A17
331
2A07
  5
2A28
  0
XRECORD
  5
3361
102
{ACAD_REACTORS
330
3360
102
}
330
3360
100
AcDbXrecord
280
     1
102
SHADEPLOT
 70
     0
  0
XRECORD
  5
3363
102
{ACAD_REACTORS
330
3362
102
}
330
3362
100
AcDbXrecord
280
     1
102
SHADEPLOT
 70
     0
  0
ACDBDETAILVIEWSTYLE
  5
32EE
102
{ACAD_REACTORS
330
32ED
102
}
330
32ED
100
AcDbModelDocViewStyle
 70
     0
  3
Metric50
290
     0
100
AcDbDetailViewStyle
 70
     0
 71
     0
 90
        3
 71
     1
340
11
 40
5.0
340
0
 40
5.0
300

 40
0.0
280
     1
 71
     2
340
16
 90
       25
 71
     3
340
11
 40
5.0
 90
        0
 40
15.0
 90
        1
300
%<\AcVar ViewDetailId>% (%<\AcVar ViewScale \f "%sn">%)
 71
     4
340
16
 90
       25
340
16
 90
       25
280
     0
  0
LAYOUT
  5
22
102
{ACAD_XDICTIONARY
360
3359
102
}
102
{ACAD_REACTORS
330
1A
102
}
330
1A
100
AcDbPlotSettings
  1

  2
\\APL01\HP LaserJet 4MV
  4
A4
  6

 40
6.043083190917968
 41
6.720414161682128
 42
7.821090698242187
 43
5.027069091796875
 44
210.0579986572266
 45
296.9259948730469
 46
0.0
 47
0.0
 48
55.19893561856474
 49
77.41415496436935
140
329.6878846931311
141
251.7976535946928
142
1.0
143
1.0
 70
 11936
 72
     1
 73
     1
 74
     4
  7

 75
     0
147
1.0
148
-55.19893561856474
149
-77.41415496436935
100
AcDbLayout
  1
Model
 70
     1
 71
     0
 10
0.0
 20
0.0
 11
12.0
 21
9.0
 12
0.0
 22
0.0
 32
0.0
 14
0.0
 24
0.0
 34
0.0
 15
0.0
 25
0.0
 35
0.0
146
0.0
 13
0.0
 23
0.0
 33
0.0
 16
1.0
 26
0.0
 36
0.0
 17
0.0
 27
1.0
 37
0.0
 76
     0
330
1F
331
2B26
  0
LAYOUT
  5
2A64
102
{ACAD_XDICTIONARY
360
2C07
102
}
102
{ACAD_REACTORS
330
1A
102
}
330
1A
100
AcDbPlotSettings
  1

  2
\\Aplfp01\APL Technical HP5100 PSLaser
  4
A4
  6

 40
5.027082920074462
 41
5.408084392547607
 42
5.70440673828125
 43
5.365753173828125
 44
209.8886566162109
 45
297.0530090332031
 46
0.0
 47
0.0
 48
0.0
 49
0.0
140
0.0
141
0.0
142
1.0
143
1.0
 70
   688
 72
     1
 73
     0
 74
     5
  7
A4 Specifier Manual.ctb
 75
    16
147
1.0
148
-11.59219819990875
149
-1.896874902429658
100
AcDbLayout
  1
Smartwood A4
 70
     1
 71
     1
 10
6.565115279834287
 20
-3.511209490117948
 11
216.4537718960452
 21
293.5417995430852
 12
0.0
 22
0.0
 32
0.0
 14
23.19000000000003
 24
4.594371257485027
 34
0.0
 15
201.1900000000001
 25
279.5563301500682
 35
0.0
146
0.0
 13
0.0
 23
0.0
 33
0.0
 16
1.0
 26
0.0
 36
0.0
 17
0.0
 27
1.0
 37
0.0
 76
     0
330
2A63
331
2A6A
1001
ACAD_PSEXT
1000
\\Aplfp01\APL Technical HP5100 PSLaser
1000
HP LaserJet 5100 PS
1000
APL Technical Office
1000

1070
     0
  0
MATERIAL
  5
2B91
102
{ACAD_XDICTIONARY
360
2B92
102
}
102
{ACAD_REACTORS
330
2B88
102
}
330
2B88
100
AcDbMaterial
  1
ByBlock
 72
     0
 43
0.0008202099737533
 43
0.0
 43
0.0
 43
0.0
 43
0.0
 43
0.0008202099737533
 43
0.0
 43
0.0
 43
0.0
 43
0.0
 43
1.0
 43
0.0
 43
0.0
 43
0.0
 43
0.0
 43
1.0
 77
     0
 47
0.0008202099737533
 47
0.0
 47
0.0
 47
0.0
 47
0.0
 47
0.0008202099737533
 47
0.0
 47
0.0
 47
0.0
 47
0.0
 47
1.0
 47
0.0
 47
0.0
 47
0.0
 47
0.0
 47
1.0
171
     0
 49
0.0008202099737533
 49
0.0
 49
0.0
 49
0.0
 49
0.0
 49
0.0008202099737533
 49
0.0
 49
0.0
 49
0.0
 49
0.0
 49
1.0
 49
0.0
 49
0.0
 49
0.0
 49
0.0
 49
1.0
175
     0
142
0.0008202099737533
142
0.0
142
0.0
142
0.0
142
0.0
142
0.0008202099737533
142
0.0
142
0.0
142
0.0
142
0.0
142
1.0
142
0.0
142
0.0
142
0.0
142
0.0
142
1.0
179
     0
144
0.0008202099737533
144
0.0
144
0.0
144
0.0
144
0.0
144
0.0008202099737533
144
0.0
144
0.0
144
0.0
144
0.0
144
1.0
144
0.0
144
0.0
144
0.0
144
0.0
144
1.0
147
0.0008202099737533
147
0.0
147
0.0
147
0.0
147
0.0
147
0.0008202099737533
147
0.0
147
0.0
147
0.0
147
0.0
147
1.0
147
0.0
147
0.0
147
0.0
147
0.0
147
1.0
  0
MATERIAL
  5
2B89
102
{ACAD_XDICTIONARY
360
2B8A
102
}
102
{ACAD_REACTORS
330
2B88
102
}
330
2B88
100
AcDbMaterial
  1
ByLayer
 72
     0
 43
0.0008202099737533
 43
0.0
 43
0.0
 43
0.0
 43
0.0
 43
0.0008202099737533
 43
0.0
 43
0.0
 43
0.0
 43
0.0
 43
1.0
 43
0.0
 43
0.0
 43
0.0
 43
0.0
 43
1.0
 77
     0
 47
0.0008202099737533
 47
0.0
 47
0.0
 47
0.0
 47
0.0
 47
0.0008202099737533
 47
0.0
 47
0.0
 47
0.0
 47
0.0
 47
1.0
 47
0.0
 47
0.0
 47
0.0
 47
0.0
 47
1.0
171
     0
 49
0.0008202099737533
 49
0.0
 49
0.0
 49
0.0
 49
0.0
 49
0.0008202099737533
 49
0.0
 49
0.0
 49
0.0
 49
0.0
 49
1.0
 49
0.0
 49
0.0
 49
0.0
 49
0.0
 49
1.0
175
     0
142
0.0008202099737533
142
0.0
142
0.0
142
0.0
142
0.0
142
0.0008202099737533
142
0.0
142
0.0
142
0.0
142
0.0
142
1.0
142
0.0
142
0.0
142
0.0
142
0.0
142
1.0
179
     0
144
0.0008202099737533
144
0.0
144
0.0
144
0.0
144
0.0
144
0.0008202099737533
144
0.0
144
0.0
144
0.0
144
0.0
144
1.0
144
0.0
144
0.0
144
0.0
144
0.0
144
1.0
147
0.0008202099737533
147
0.0
147
0.0
147
0.0
147
0.0
147
0.0008202099737533
147
0.0
147
0.0
147
0.0
147
0.0
147
1.0
147
0.0
147
0.0
147
0.0
147
0.0
147
1.0
  0
MATERIAL
  5
2B99
102
{ACAD_XDICTIONARY
360
2B9A
102
}
102
{ACAD_REACTORS
330
2B88
102
}
330
2B88
100
AcDbMaterial
  1
Global
 72
     0
 43
0.0008202099737533
 43
0.0
 43
0.0
 43
0.0
 43
0.0
 43
0.0008202099737533
 43
0.0
 43
0.0
 43
0.0
 43
0.0
 43
1.0
 43
0.0
 43
0.0
 43
0.0
 43
0.0
 43
1.0
 77
     0
 47
0.0008202099737533
 47
0.0
 47
0.0
 47
0.0
 47
0.0
 47
0.0008202099737533
 47
0.0
 47
0.0
 47
0.0
 47
0.0
 47
1.0
 47
0.0
 47
0.0
 47
0.0
 47
0.0
 47
1.0
171
     0
 49
0.0008202099737533
 49
0.0
 49
0.0
 49
0.0
 49
0.0
 49
0.0008202099737533
 49
0.0
 49
0.0
 49
0.0
 49
0.0
 49
1.0
 49
0.0
 49
0.0
 49
0.0
 49
0.0
 49
1.0
175
     0
142
0.0008202099737533
142
0.0
142
0.0
142
0.0
142
0.0
142
0.0008202099737533
142
0.0
142
0.0
142
0.0
142
0.0
142
1.0
142
0.0
142
0.0
142
0.0
142
0.0
142
1.0
179
     0
144
0.0008202099737533
144
0.0
144
0.0
144
0.0
144
0.0
144
0.0008202099737533
144
0.0
144
0.0
144
0.0
144
0.0
144
1.0
144
0.0
144
0.0
144
0.0
144
0.0
144
1.0
147
0.0008202099737533
147
0.0
147
0.0
147
0.0
147
0.0
147
0.0008202099737533
147
0.0
147
0.0
147
0.0
147
0.0
147
1.0
147
0.0
147
0.0
147
0.0
147
0.0
147
1.0
  0
MLEADERSTYLE
  5
2E8E
102
{ACAD_REACTORS
330
2BD7
102
}
330
2BD7
100
AcDbMLeaderStyle
170
     2
171
     1
172
     0
 90
        2
 40
0.0
 41
0.0
173
     1
 91
-1056964608
340
14
 92
       -2
290
     1
 42
2.0
291
     1
 43
0.36
  3
Standard
 44
4.0
300

342
11
174
     1
178
     6
175
     1
176
     0
 93
-1056964608
 45
4.0
292
     0
297
     0
 46
4.0
 94
-1056964608
 47
1.0
 49
1.0
140
1.0
293
     1
141
0.0
294
     1
177
     0
142
1.0
295
     0
296
     0
143
0.125
1001
ACAD
1000
AcRTDxfName
1000
MLEADERSTYLE
1000
AcRTDxfName
1000
MLEADERSTYLE
1000
AcRTDxfName
1000
MLEADERSTYLE
1000
AcRTDxfName
1000
MLEADERSTYLE
1000
AcRTDxfName
1000
MLEADERSTYLE
1001
ACAD_MLEADERVER
1070
     2
  0
MLINESTYLE
  5
18
102
{ACAD_REACTORS
330
17
102
}
330
17
100
AcDbMlineStyle
  2
STANDARD
 70
     0
  3

 62
   256
 51
90.0
 52
90.0
 71
     2
 49
0.5
 62
   256
  6
BYLAYER
 49
-0.5
 62
   256
  6
BYLAYER
  0
PLOTSETTINGS
  5
2966
102
{ACAD_XDICTIONARY
360
335B
102
}
102
{ACAD_REACTORS
330
19
102
}
330
19
100
AcDbPlotSettings
  1
A4 Specifier Manual Hardcopy
  2
A4 Specifier Manual.pc3
  4
A4
  6

 40
6.0
 41
5.0
 42
6.97332763671875
 43
5.96832275390625
 44
209.9733276367187
 45
296.9683227539062
 46
10.5
 47
-1.0
 48
55.19893561856474
 49
77.41415496436935
140
329.6878846931311
141
251.7976535946928
142
1.0
143
2.0
 70
  1712
 72
     1
 73
     0
 74
     1
  7
A4 specifier manual.ctb
 75
    17
147
0.5
148
2.225667800726114
149
26.13925412475783
  0
PLOTSETTINGS
  5
2967
102
{ACAD_XDICTIONARY
360
335D
102
}
102
{ACAD_REACTORS
330
19
102
}
330
19
100
AcDbPlotSettings
  1
A4 Specifier Manual PDF
  2
Acrobat Distiller.pc3
  4
A4
  6

 40
3.174999952316284
 41
3.174999952316284
 42
3.175003051757812
 43
3.17498779296875
 44
209.9098358154297
 45
297.0318298339844
 46
12.0
 47
3.0
 48
55.19893561856474
 49
77.41415496436935
140
329.6878846931311
141
251.7976535946928
142
1.0
143
2.0
 70
  1712
 72
     1
 73
     0
 74
     1
  7
A4 Specifier Manual.ctb
 75
    17
147
0.5
148
2.231438335389952
149
26.15846035871732
  0
ACDBPLACEHOLDER
  5
F
102
{ACAD_REACTORS
330
E
102
}
330
E
  0
SCALE
  5
2BB6
102
{ACAD_REACTORS
330
2BB5
102
}
330
2BB5
100
AcDbScale
 70
     0
300
1:1
140
1.0
141
1.0
290
     1
1001
ACAD
1000
AcRTDxfName
1000
SCALE
1000
AcRTDxfName
1000
SCALE
1000
AcRTDxfName
1000
SCALE
1000
AcRTDxfName
1000
SCALE
1000
AcRTDxfName
1000
SCALE
  0
SCALE
  5
2BB7
102
{ACAD_REACTORS
330
2BB5
102
}
330
2BB5
100
AcDbScale
 70
     0
300
1:2
140
1.0
141
2.0
290
     0
1001
ACAD
1000
AcRTDxfName
1000
SCALE
1000
AcRTDxfName
1000
SCALE
1000
AcRTDxfName
1000
SCALE
1000
AcRTDxfName
1000
SCALE
1000
AcRTDxfName
1000
SCALE
  0
SCALE
  5
2BB8
102
{ACAD_REACTORS
330
2BB5
102
}
330
2BB5
100
AcDbScale
 70
     0
300
1:4
140
1.0
141
4.0
290
     0
1001
ACAD
1000
AcRTDxfName
1000
SCALE
1000
AcRTDxfName
1000
SCALE
1000
AcRTDxfName
1000
SCALE
1000
AcRTDxfName
1000
SCALE
1000
AcRTDxfName
1000
SCALE
  0
SCALE
  5
2BB9
102
{ACAD_REACTORS
330
2BB5
102
}
330
2BB5
100
AcDbScale
 70
     0
300
1:5
140
1.0
141
5.0
290
     0
1001
ACAD
1000
AcRTDxfName
1000
SCALE
1000
AcRTDxfName
1000
SCALE
1000
AcRTDxfName
1000
SCALE
1000
AcRTDxfName
1000
SCALE
1000
AcRTDxfName
1000
SCALE
  0
SCALE
  5
2BBA
102
{ACAD_REACTORS
330
2BB5
102
}
330
2BB5
100
AcDbScale
 70
     0
300
1:8
140
1.0
141
8.0
290
     0
1001
ACAD
1000
AcRTDxfName
1000
SCALE
1000
AcRTDxfName
1000
SCALE
1000
AcRTDxfName
1000
SCALE
1000
AcRTDxfName
1000
SCALE
1000
AcRTDxfName
1000
SCALE
  0
SCALE
  5
2BBB
102
{ACAD_REACTORS
330
2BB5
102
}
330
2BB5
100
AcDbScale
 70
     0
300
1:10
140
1.0
141
10.0
290
     0
1001
ACAD
1000
AcRTDxfName
1000
SCALE
1000
AcRTDxfName
1000
SCALE
1000
AcRTDxfName
1000
SCALE
1000
AcRTDxfName
1000
SCALE
1000
AcRTDxfName
1000
SCALE
  0
SCALE
  5
2BBC
102
{ACAD_REACTORS
330
2BB5
102
}
330
2BB5
100
AcDbScale
 70
     0
300
1:16
140
1.0
141
16.0
290
     0
1001
ACAD
1000
AcRTDxfName
1000
SCALE
1000
AcRTDxfName
1000
SCALE
1000
AcRTDxfName
1000
SCALE
1000
AcRTDxfName
1000
SCALE
1000
AcRTDxfName
1000
SCALE
  0
SCALE
  5
2BBD
102
{ACAD_REACTORS
330
2BB5
102
}
330
2BB5
100
AcDbScale
 70
     0
300
1:20
140
1.0
141
20.0
290
     0
1001
ACAD
1000
AcRTDxfName
1000
SCALE
1000
AcRTDxfName
1000
SCALE
1000
AcRTDxfName
1000
SCALE
1000
AcRTDxfName
1000
SCALE
1000
AcRTDxfName
1000
SCALE
  0
SCALE
  5
2BBE
102
{ACAD_REACTORS
330
2BB5
102
}
330
2BB5
100
AcDbScale
 70
     0
300
1:30
140
1.0
141
30.0
290
     0
1001
ACAD
1000
AcRTDxfName
1000
SCALE
1000
AcRTDxfName
1000
SCALE
1000
AcRTDxfName
1000
SCALE
1000
AcRTDxfName
1000
SCALE
1000
AcRTDxfName
1000
SCALE
  0
SCALE
  5
2BBF
102
{ACAD_REACTORS
330
2BB5
102
}
330
2BB5
100
AcDbScale
 70
     0
300
1:40
140
1.0
141
40.0
290
     0
1001
ACAD
1000
AcRTDxfName
1000
SCALE
1000
AcRTDxfName
1000
SCALE
1000
AcRTDxfName
1000
SCALE
1000
AcRTDxfName
1000
SCALE
1000
AcRTDxfName
1000
SCALE
  0
SCALE
  5
2BC0
102
{ACAD_REACTORS
330
2BB5
102
}
330
2BB5
100
AcDbScale
 70
     0
300
1:50
140
1.0
141
50.0
290
     0
1001
ACAD
1000
AcRTDxfName
1000
SCALE
1000
AcRTDxfName
1000
SCALE
1000
AcRTDxfName
1000
SCALE
1000
AcRTDxfName
1000
SCALE
1000
AcRTDxfName
1000
SCALE
  0
SCALE
  5
2BC1
102
{ACAD_REACTORS
330
2BB5
102
}
330
2BB5
100
AcDbScale
 70
     0
300
1:100
140
1.0
141
100.0
290
     0
1001
ACAD
1000
AcRTDxfName
1000
SCALE
1000
AcRTDxfName
1000
SCALE
1000
AcRTDxfName
1000
SCALE
1000
AcRTDxfName
1000
SCALE
1000
AcRTDxfName
1000
SCALE
  0
SCALE
  5
2BC2
102
{ACAD_REACTORS
330
2BB5
102
}
330
2BB5
100
AcDbScale
 70
     0
300
2:1
140
2.0
141
1.0
290
     0
1001
ACAD
1000
AcRTDxfName
1000
SCALE
1000
AcRTDxfName
1000
SCALE
1000
AcRTDxfName
1000
SCALE
1000
AcRTDxfName
1000
SCALE
1000
AcRTDxfName
1000
SCALE
  0
SCALE
  5
2BC3
102
{ACAD_REACTORS
330
2BB5
102
}
330
2BB5
100
AcDbScale
 70
     0
300
4:1
140
4.0
141
1.0
290
     0
1001
ACAD
1000
AcRTDxfName
1000
SCALE
1000
AcRTDxfName
1000
SCALE
1000
AcRTDxfName
1000
SCALE
1000
AcRTDxfName
1000
SCALE
1000
AcRTDxfName
1000
SCALE
  0
SCALE
  5
2BC4
102
{ACAD_REACTORS
330
2BB5
102
}
330
2BB5
100
AcDbScale
 70
     0
300
8:1
140
8.0
141
1.0
290
     0
1001
ACAD
1000
AcRTDxfName
1000
SCALE
1000
AcRTDxfName
1000
SCALE
1000
AcRTDxfName
1000
SCALE
1000
AcRTDxfName
1000
SCALE
1000
AcRTDxfName
1000
SCALE
  0
SCALE
  5
2BC5
102
{ACAD_REACTORS
330
2BB5
102
}
330
2BB5
100
AcDbScale
 70
     0
300
10:1
140
10.0
141
1.0
290
     0
1001
ACAD
1000
AcRTDxfName
1000
SCALE
1000
AcRTDxfName
1000
SCALE
1000
AcRTDxfName
1000
SCALE
1000
AcRTDxfName
1000
SCALE
1000
AcRTDxfName
1000
SCALE
  0
SCALE
  5
2BC6
102
{ACAD_REACTORS
330
2BB5
102
}
330
2BB5
100
AcDbScale
 70
     0
300
100:1
140
100.0
141
1.0
290
     0
1001
ACAD
1000
AcRTDxfName
1000
SCALE
1000
AcRTDxfName
1000
SCALE
1000
AcRTDxfName
1000
SCALE
1000
AcRTDxfName
1000
SCALE
1000
AcRTDxfName
1000
SCALE
  0
SCALE
  5
2BC7
102
{ACAD_REACTORS
330
2BB5
102
}
330
2BB5
100
AcDbScale
 70
     0
300
1/128" = 1'-0"
140
0.0078125
141
12.0
290
     0
1001
ACAD
1000
AcRTDxfName
1000
SCALE
1000
AcRTDxfName
1000
SCALE
1000
AcRTDxfName
1000
SCALE
1000
AcRTDxfName
1000
SCALE
1000
AcRTDxfName
1000
SCALE
  0
SCALE
  5
2BC8
102
{ACAD_REACTORS
330
2BB5
102
}
330
2BB5
100
AcDbScale
 70
     0
300
1/64" = 1'-0"
140
0.015625
141
12.0
290
     0
1001
ACAD
1000
AcRTDxfName
1000
SCALE
1000
AcRTDxfName
1000
SCALE
1000
AcRTDxfName
1000
SCALE
1000
AcRTDxfName
1000
SCALE
1000
AcRTDxfName
1000
SCALE
  0
SCALE
  5
2BC9
102
{ACAD_REACTORS
330
2BB5
102
}
330
2BB5
100
AcDbScale
 70
     0
300
1/32" = 1'-0"
140
0.03125
141
12.0
290
     0
1001
ACAD
1000
AcRTDxfName
1000
SCALE
1000
AcRTDxfName
1000
SCALE
1000
AcRTDxfName
1000
SCALE
1000
AcRTDxfName
1000
SCALE
1000
AcRTDxfName
1000
SCALE
  0
SCALE
  5
2BCA
102
{ACAD_REACTORS
330
2BB5
102
}
330
2BB5
100
AcDbScale
 70
     0
300
1/16" = 1'-0"
140
0.0625
141
12.0
290
     0
1001
ACAD
1000
AcRTDxfName
1000
SCALE
1000
AcRTDxfName
1000
SCALE
1000
AcRTDxfName
1000
SCALE
1000
AcRTDxfName
1000
SCALE
1000
AcRTDxfName
1000
SCALE
  0
SCALE
  5
2BCB
102
{ACAD_REACTORS
330
2BB5
102
}
330
2BB5
100
AcDbScale
 70
     0
300
3/32" = 1'-0"
140
0.09375
141
12.0
290
     0
1001
ACAD
1000
AcRTDxfName
1000
SCALE
1000
AcRTDxfName
1000
SCALE
1000
AcRTDxfName
1000
SCALE
1000
AcRTDxfName
1000
SCALE
1000
AcRTDxfName
1000
SCALE
  0
SCALE
  5
2BCC
102
{ACAD_REACTORS
330
2BB5
102
}
330
2BB5
100
AcDbScale
 70
     0
300
1/8" = 1'-0"
140
0.125
141
12.0
290
     0
1001
ACAD
1000
AcRTDxfName
1000
SCALE
1000
AcRTDxfName
1000
SCALE
1000
AcRTDxfName
1000
SCALE
1000
AcRTDxfName
1000
SCALE
1000
AcRTDxfName
1000
SCALE
  0
SCALE
  5
2BCD
102
{ACAD_REACTORS
330
2BB5
102
}
330
2BB5
100
AcDbScale
 70
     0
300
3/16" = 1'-0"
140
0.1875
141
12.0
290
     0
1001
ACAD
1000
AcRTDxfName
1000
SCALE
1000
AcRTDxfName
1000
SCALE
1000
AcRTDxfName
1000
SCALE
1000
AcRTDxfName
1000
SCALE
1000
AcRTDxfName
1000
SCALE
  0
SCALE
  5
2BCE
102
{ACAD_REACTORS
330
2BB5
102
}
330
2BB5
100
AcDbScale
 70
     0
300
1/4" = 1'-0"
140
0.25
141
12.0
290
     0
1001
ACAD
1000
AcRTDxfName
1000
SCALE
1000
AcRTDxfName
1000
SCALE
1000
AcRTDxfName
1000
SCALE
1000
AcRTDxfName
1000
SCALE
1000
AcRTDxfName
1000
SCALE
  0
SCALE
  5
2BCF
102
{ACAD_REACTORS
330
2BB5
102
}
330
2BB5
100
AcDbScale
 70
     0
300
3/8" = 1'-0"
140
0.375
141
12.0
290
     0
1001
ACAD
1000
AcRTDxfName
1000
SCALE
1000
AcRTDxfName
1000
SCALE
1000
AcRTDxfName
1000
SCALE
1000
AcRTDxfName
1000
SCALE
1000
AcRTDxfName
1000
SCALE
  0
SCALE
  5
2BD0
102
{ACAD_REACTORS
330
2BB5
102
}
330
2BB5
100
AcDbScale
 70
     0
300
1/2" = 1'-0"
140
0.5
141
12.0
290
     0
1001
ACAD
1000
AcRTDxfName
1000
SCALE
1000
AcRTDxfName
1000
SCALE
1000
AcRTDxfName
1000
SCALE
1000
AcRTDxfName
1000
SCALE
1000
AcRTDxfName
1000
SCALE
  0
SCALE
  5
2BD1
102
{ACAD_REACTORS
330
2BB5
102
}
330
2BB5
100
AcDbScale
 70
     0
300
3/4" = 1'-0"
140
0.75
141
12.0
290
     0
1001
ACAD
1000
AcRTDxfName
1000
SCALE
1000
AcRTDxfName
1000
SCALE
1000
AcRTDxfName
1000
SCALE
1000
AcRTDxfName
1000
SCALE
1000
AcRTDxfName
1000
SCALE
  0
SCALE
  5
2BD2
102
{ACAD_REACTORS
330
2BB5
102
}
330
2BB5
100
AcDbScale
 70
     0
300
1" = 1'-0"
140
1.0
141
12.0
290
     0
1001
ACAD
1000
AcRTDxfName
1000
SCALE
1000
AcRTDxfName
1000
SCALE
1000
AcRTDxfName
1000
SCALE
1000
AcRTDxfName
1000
SCALE
1000
AcRTDxfName
1000
SCALE
  0
SCALE
  5
2BD3
102
{ACAD_REACTORS
330
2BB5
102
}
330
2BB5
100
AcDbScale
 70
     0
300
1-1/2" = 1'-0"
140
1.5
141
12.0
290
     0
1001
ACAD
1000
AcRTDxfName
1000
SCALE
1000
AcRTDxfName
1000
SCALE
1000
AcRTDxfName
1000
SCALE
1000
AcRTDxfName
1000
SCALE
1000
AcRTDxfName
1000
SCALE
  0
SCALE
  5
2BD4
102
{ACAD_REACTORS
330
2BB5
102
}
330
2BB5
100
AcDbScale
 70
     0
300
3" = 1'-0"
140
3.0
141
12.0
290
     0
1001
ACAD
1000
AcRTDxfName
1000
SCALE
1000
AcRTDxfName
1000
SCALE
1000
AcRTDxfName
1000
SCALE
1000
AcRTDxfName
1000
SCALE
1000
AcRTDxfName
1000
SCALE
  0
SCALE
  5
2BD5
102
{ACAD_REACTORS
330
2BB5
102
}
330
2BB5
100
AcDbScale
 70
     0
300
6" = 1'-0"
140
6.0
141
12.0
290
     0
1001
ACAD
1000
AcRTDxfName
1000
SCALE
1000
AcRTDxfName
1000
SCALE
1000
AcRTDxfName
1000
SCALE
1000
AcRTDxfName
1000
SCALE
1000
AcRTDxfName
1000
SCALE
  0
SCALE
  5
2BD6
102
{ACAD_REACTORS
330
2BB5
102
}
330
2BB5
100
AcDbScale
 70
     0
300
1'-0" = 1'-0"
140
12.0
141
12.0
290
     0
1001
ACAD
1000
AcRTDxfName
1000
SCALE
1000
AcRTDxfName
1000
SCALE
1000
AcRTDxfName
1000
SCALE
1000
AcRTDxfName
1000
SCALE
1000
AcRTDxfName
1000
SCALE
  0
ACDBSECTIONVIEWSTYLE
  5
32EC
102
{ACAD_REACTORS
330
32EB
102
}
330
32EB
100
AcDbModelDocViewStyle
 70
     0
  3
Metric50
290
     0
100
AcDbSectionViewStyle
 70
     0
 71
     0
 90
      102
 71
     1
340
11
 40
5.0
340
0
340
0
 40
5.0
300
I, O, Q, S, X, Z
 40
10.0
 90
        0
 40
2.5
 90
        0
 71
     2
340
16
 90
       25
340
16
 90
       50
 40
5.0
 40
2.5
 40
5.0
 71
     3
340
11
 40
5.0
 90
        0
 40
15.0
 90
        1
300
%<\AcVar ViewSectionStartId>%-%<\AcVar ViewSectionEndId>% (%<\AcVar ViewScale \f "%sn">%)
 71
     4
300
ANSI31
 40
1.0
 90
        0
290
     0
290
     0
 90
        6
 40
0.0
 40
1.570796326794896
 40
0.2617993877991494
 40
1.308996938995747
 40
-0.2617993877991494
 40
1.832595714594046
  0
TABLESTYLE
  5
2BB4
102
{ACAD_XDICTIONARY
360
2EB2
102
}
102
{ACAD_REACTORS
330
2BB3
102
}
330
2BB3
100
AcDbTableStyle
  3
Standard
 70
     0
 71
     0
 40
1.5
 41
1.5
280
     0
281
     0
  7
Standard
140
4.5
170
     2
 62
     0
 63
     7
283
     0
274
    -2
284
     1
 64
     0
275
    -2
285
     1
 65
     0
276
    -2
286
     1
 66
     0
277
    -2
287
     1
 67
     0
278
    -2
288
     1
 68
     0
279
    -2
289
     1
 69
     0
  7
Standard
140
6.0
170
     5
 62
     0
 63
     7
283
     0
274
    -2
284
     1
 64
     0
275
    -2
285
     1
 65
     0
276
    -2
286
     1
 66
     0
277
    -2
287
     1
 67
     0
278
    -2
288
     1
 68
     0
279
    -2
289
     1
 69
     0
  7
Standard
140
4.5
170
     5
 62
     0
 63
     7
283
     0
274
    -2
284
     1
 64
     0
275
    -2
285
     1
 65
     0
276
    -2
286
     1
 66
     0
277
    -2
287
     1
 67
     0
278
    -2
288
     1
 68
     0
279
    -2
289
     1
 69
     0
  0
VISUALSTYLE
  5
2BA7
102
{ACAD_XDICTIONARY
360
3371
102
}
102
{ACAD_REACTORS
330
2BA1
102
}
330
2BA1
100
AcDbVisualStyle
  2
2dWireframe
 70
     4
 71
     0
 72
     2
 73
     0
 90
        0
 40
-0.6
 41
-30.0
 62
     5
 63
     7
 74
     1
 91
        4
 64
     7
 65
   257
 75
     1
175
     1
 42
1.0
 92
        0
 66
   257
 43
1.0
 76
     1
 77
     6
 78
     2
 67
     7
 79
     5
170
     0
171
     0
290
     0
174
     0
 93
        1
 44
0.0
173
     0
291
     0
 45
0.0
1001
ACAD
1000
AcRTDxfName
1000
VISUALSTYLE
1000
AcRTDxfName
1000
VISUALSTYLE
1000
AcRTDxfName
1000
VISUALSTYLE
1000
AcRTDxfName
1000
VISUALSTYLE
1000
AcRTDxfName
1000
VISUALSTYLE
1000
AcDbSavedByObjectVersion
1070
     0
  0
VISUALSTYLE
  5
2BA9
102
{ACAD_XDICTIONARY
360
3375
102
}
102
{ACAD_REACTORS
330
2BA1
102
}
330
2BA1
100
AcDbVisualStyle
  2
3D Hidden
 70
     6
 71
     1
 72
     2
 73
     2
 90
        0
 40
-0.6
 41
-30.0
 62
     5
 63
     7
 74
     2
 91
        2
 64
     7
 65
   257
 75
     2
175
     1
 42
40.0
 92
        0
 66
   257
 43
1.0
 76
     1
 77
     6
 78
     2
 67
     7
 79
     3
170
     0
171
     0
290
     0
174
     0
 93
        1
 44
0.0
173
     0
291
     0
 45
0.0
1001
ACAD
1000
AcRTDxfName
1000
VISUALSTYLE
1000
AcRTDxfName
1000
VISUALSTYLE
1000
AcRTDxfName
1000
VISUALSTYLE
1000
AcRTDxfName
1000
VISUALSTYLE
1000
AcRTDxfName
1000
VISUALSTYLE
1000
AcDbSavedByObjectVersion
1070
     0
  0
VISUALSTYLE
  5
2BA8
102
{ACAD_XDICTIONARY
360
3373
102
}
102
{ACAD_REACTORS
330
2BA1
102
}
330
2BA1
100
AcDbVisualStyle
  2
3dWireframe
 70
     5
 71
     0
 72
     2
 73
     0
 90
        0
 40
-0.6
 41
-30.0
 62
     5
 63
     7
 74
     1
 91
        4
 64
     7
 65
   257
 75
     1
175
     1
 42
1.0
 92
        0
 66
   257
 43
1.0
 76
     1
 77
     6
 78
     2
 67
     7
 79
     5
170
     0
171
     0
290
     0
174
     0
 93
        1
 44
0.0
173
     0
291
     0
 45
0.0
1001
ACAD
1000
AcRTDxfName
1000
VISUALSTYLE
1000
AcRTDxfName
1000
VISUALSTYLE
1000
AcRTDxfName
1000
VISUALSTYLE
1000
AcRTDxfName
1000
VISUALSTYLE
1000
AcRTDxfName
1000
VISUALSTYLE
1000
AcDbSavedByObjectVersion
1070
     0
  0
VISUALSTYLE
  5
2BA6
102
{ACAD_XDICTIONARY
360
336F
102
}
102
{ACAD_REACTORS
330
2BA1
102
}
330
2BA1
100
AcDbVisualStyle
  2
Basic
 70
     7
 71
     1
 72
     0
 73
     1
 90
        0
 40
-0.6
 41
-30.0
 62
     5
 63
     7
 74
     0
 91
        4
 64
     7
 65
   257
 75
     1
175
     1
 42
1.0
 92
        8
 66
     7
 43
1.0
 76
     1
 77
     6
 78
     2
 67
     7
 79
     5
170
     0
171
     0
290
     0
174
     0
 93
        1
 44
0.0
173
     0
291
     1
 45
0.0
1001
ACAD
1000
AcRTDxfName
1000
VISUALSTYLE
1000
AcRTDxfName
1000
VISUALSTYLE
1000
AcRTDxfName
1000
VISUALSTYLE
1000
AcRTDxfName
1000
VISUALSTYLE
1000
AcRTDxfName
1000
VISUALSTYLE
1000
AcDbSavedByObjectVersion
1070
     0
  0
VISUALSTYLE
  5
2BAD
102
{ACAD_XDICTIONARY
360
337D
102
}
102
{ACAD_REACTORS
330
2BA1
102
}
330
2BA1
100
AcDbVisualStyle
  2
Brighten
 70
    12
 71
     2
 72
     2
 73
     0
 90
        0
 40
-0.6
 41
-30.0
 62
     5
 63
     7
 74
     1
 91
        4
 64
     7
 65
   257
 75
     1
175
     1
 42
1.0
 92
        8
 66
     7
 43
1.0
 76
     1
 77
     6
 78
     2
 67
     7
 79
     5
170
     0
171
     0
290
     0
174
     0
 93
        1
 44
50.0
173
     0
291
     1
 45
0.0
1001
ACAD
1000
AcRTDxfName
1000
VISUALSTYLE
1000
AcRTDxfName
1000
VISUALSTYLE
1000
AcRTDxfName
1000
VISUALSTYLE
1000
AcRTDxfName
1000
VISUALSTYLE
1000
AcRTDxfName
1000
VISUALSTYLE
1000
AcDbSavedByObjectVersion
1070
     0
  0
VISUALSTYLE
  5
2BB1
102
{ACAD_XDICTIONARY
360
3385
102
}
102
{ACAD_REACTORS
330
2BA1
102
}
330
2BA1
100
AcDbVisualStyle
  2
ColorChange
 70
    16
 71
     2
 72
     2
 73
     3
 90
        0
 40
-0.6
 41
-30.0
 62
     5
 63
     8
 74
     1
 91
        4
 64
     7
 65
   257
 75
     1
175
     1
 42
1.0
 92
        8
 66
     8
 43
1.0
 76
     1
 77
     6
 78
     2
 67
     7
 79
     5
170
     0
171
     0
290
     0
174
     0
 93
        1
 44
0.0
173
     0
291
     1
 45
0.0
1001
ACAD
1000
AcRTDxfName
1000
VISUALSTYLE
1000
AcRTDxfName
1000
VISUALSTYLE
1000
AcRTDxfName
1000
VISUALSTYLE
1000
AcRTDxfName
1000
VISUALSTYLE
1000
AcRTDxfName
1000
VISUALSTYLE
1000
AcDbSavedByObjectVersion
1070
     0
  0
VISUALSTYLE
  5
2BAA
102
{ACAD_XDICTIONARY
360
3377
102
}
102
{ACAD_REACTORS
330
2BA1
102
}
330
2BA1
100
AcDbVisualStyle
  2
Conceptual
 70
     9
 71
     3
 72
     2
 73
     0
 90
        0
 40
-0.6
 41
-30.0
 62
     5
 63
     7
 74
     2
 91
        2
 64
     7
 65
   257
 75
     1
175
     1
 42
40.0
 92
        8
 66
     7
 43
1.0
 76
     1
 77
     6
 78
     2
 67
     7
 79
     3
170
     0
171
     0
290
     0
174
     0
 93
        1
 44
0.0
173
     0
291
     0
 45
0.0
1001
ACAD
1000
AcRTDxfName
1000
VISUALSTYLE
1000
AcRTDxfName
1000
VISUALSTYLE
1000
AcRTDxfName
1000
VISUALSTYLE
1000
AcRTDxfName
1000
VISUALSTYLE
1000
AcRTDxfName
1000
VISUALSTYLE
1000
AcDbSavedByObjectVersion
1070
     0
  0
VISUALSTYLE
  5
2BAC
102
{ACAD_XDICTIONARY
360
337B
102
}
102
{ACAD_REACTORS
330
2BA1
102
}
330
2BA1
100
AcDbVisualStyle
  2
Dim
 70
    11
 71
     2
 72
     2
 73
     0
 90
        0
 40
-0.6
 41
-30.0
 62
     5
 63
     7
 74
     1
 91
        4
 64
     7
 65
   257
 75
     1
175
     1
 42
1.0
 92
        8
 66
     7
 43
1.0
 76
     1
 77
     6
 78
     2
 67
     7
 79
     5
170
     0
171
     0
290
     0
174
     0
 93
        1
 44
-50.0
173
     0
291
     1
 45
0.0
1001
ACAD
1000
AcRTDxfName
1000
VISUALSTYLE
1000
AcRTDxfName
1000
VISUALSTYLE
1000
AcRTDxfName
1000
VISUALSTYLE
1000
AcRTDxfName
1000
VISUALSTYLE
1000
AcRTDxfName
1000
VISUALSTYLE
1000
AcDbSavedByObjectVersion
1070
     0
  0
VISUALSTYLE
  5
32EA
102
{ACAD_XDICTIONARY
360
339A
102
}
102
{ACAD_REACTORS
330
2BA1
102
}
330
2BA1
100
AcDbVisualStyle
  2
EdgeColorOff
 70
    22
 71
     2
 72
     2
 73
     0
 90
        0
 40
-0.6
 41
-30.0
 62
     5
 63
     7
 74
     1
 91
        4
 64
     7
 65
   257
 75
     1
175
     1
 42
1.0
 92
        8
 66
     7
 43
1.0
 76
     1
 77
     6
 78
     2
 67
     7
 79
     5
170
     0
171
     0
290
     0
174
     0
 93
        1
 44
0.0
173
     0
291
     1
 45
0.0
1001
ACAD
1000
AcDbSavedByObjectVersion
1070
     0
  0
VISUALSTYLE
  5
2BB0
102
{ACAD_XDICTIONARY
360
3383
102
}
102
{ACAD_REACTORS
330
2BA1
102
}
330
2BA1
100
AcDbVisualStyle
  2
Facepattern
 70
    15
 71
     2
 72
     2
 73
     0
 90
        0
 40
-0.6
 41
-30.0
 62
     5
 63
     7
 74
     1
 91
        4
 64
     7
 65
   257
 75
     1
175
     1
 42
1.0
 92
        8
 66
     7
 43
1.0
 76
     1
 77
     6
 78
     2
 67
     7
 79
     5
170
     0
171
     0
290
     0
174
     0
 93
        1
 44
0.0
173
     0
291
     1
 45
0.0
1001
ACAD
1000
AcRTDxfName
1000
VISUALSTYLE
1000
AcRTDxfName
1000
VISUALSTYLE
1000
AcRTDxfName
1000
VISUALSTYLE
1000
AcRTDxfName
1000
VISUALSTYLE
1000
AcRTDxfName
1000
VISUALSTYLE
1000
AcDbSavedByObjectVersion
1070
     0
  0
VISUALSTYLE
  5
2BA2
102
{ACAD_XDICTIONARY
360
3367
102
}
102
{ACAD_REACTORS
330
2BA1
102
}
330
2BA1
100
AcDbVisualStyle
  2
Flat
 70
     0
 71
     2
 72
     1
 73
     1
 90
        2
 40
-0.6
 41
30.0
 62
     5
 63
     7
 74
     0
 91
        4
 64
     7
 65
   257
 75
     1
175
     1
 42
1.0
 92
        8
 66
     7
 43
1.0
 76
     1
 77
     6
 78
     2
 67
     7
 79
     5
170
     0
171
     0
290
     0
174
     0
 93
       13
 44
0.0
173
     0
291
     1
 45
0.0
1001
ACAD
1000
AcRTDxfName
1000
VISUALSTYLE
1000
AcRTDxfName
1000
VISUALSTYLE
1000
AcRTDxfName
1000
VISUALSTYLE
1000
AcRTDxfName
1000
VISUALSTYLE
1000
AcRTDxfName
1000
VISUALSTYLE
1000
AcDbSavedByObjectVersion
1070
     0
  0
VISUALSTYLE
  5
2BA3
102
{ACAD_XDICTIONARY
360
3369
102
}
102
{ACAD_REACTORS
330
2BA1
102
}
330
2BA1
100
AcDbVisualStyle
  2
FlatWithEdges
 70
     1
 71
     2
 72
     1
 73
     1
 90
        2
 40
-0.6
 41
30.0
 62
     5
 63
     7
 74
     1
 91
        4
 64
     7
 65
   257
 75
     1
175
     1
 42
1.0
 92
        0
 66
   257
 43
1.0
 76
     1
 77
     6
 78
     2
 67
     7
 79
     5
170
     0
171
     0
290
     0
174
     0
 93
       13
 44
0.0
173
     0
291
     1
 45
0.0
1001
ACAD
1000
AcRTDxfName
1000
VISUALSTYLE
1000
AcRTDxfName
1000
VISUALSTYLE
1000
AcRTDxfName
1000
VISUALSTYLE
1000
AcRTDxfName
1000
VISUALSTYLE
1000
AcRTDxfName
1000
VISUALSTYLE
1000
AcDbSavedByObjectVersion
1070
     0
  0
VISUALSTYLE
  5
2BA4
102
{ACAD_XDICTIONARY
360
336B
102
}
102
{ACAD_REACTORS
330
2BA1
102
}
330
2BA1
100
AcDbVisualStyle
  2
Gouraud
 70
     2
 71
     2
 72
     2
 73
     1
 90
        2
 40
-0.6
 41
30.0
 62
     5
 63
     7
 74
     0
 91
        4
 64
     7
 65
   257
 75
     1
175
     1
 42
1.0
 92
        0
 66
     7
 43
1.0
 76
     1
 77
     6
 78
     2
 67
     7
 79
     5
170
     0
171
     0
290
     0
174
     0
 93
       13
 44
0.0
173
     0
291
     1
 45
0.0
1001
ACAD
1000
AcRTDxfName
1000
VISUALSTYLE
1000
AcRTDxfName
1000
VISUALSTYLE
1000
AcRTDxfName
1000
VISUALSTYLE
1000
AcRTDxfName
1000
VISUALSTYLE
1000
AcRTDxfName
1000
VISUALSTYLE
1000
AcDbSavedByObjectVersion
1070
     0
  0
VISUALSTYLE
  5
2BA5
102
{ACAD_XDICTIONARY
360
336D
102
}
102
{ACAD_REACTORS
330
2BA1
102
}
330
2BA1
100
AcDbVisualStyle
  2
GouraudWithEdges
 70
     3
 71
     2
 72
     2
 73
     1
 90
        2
 40
-0.6
 41
30.0
 62
     5
 63
     7
 74
     1
 91
        4
 64
     7
 65
   257
 75
     1
175
     1
 42
1.0
 92
        0
 66
   257
 43
1.0
 76
     1
 77
     6
 78
     2
 67
     7
 79
     5
170
     0
171
     0
290
     0
174
     0
 93
       13
 44
0.0
173
     0
291
     1
 45
0.0
1001
ACAD
1000
AcRTDxfName
1000
VISUALSTYLE
1000
AcRTDxfName
1000
VISUALSTYLE
1000
AcRTDxfName
1000
VISUALSTYLE
1000
AcRTDxfName
1000
VISUALSTYLE
1000
AcRTDxfName
1000
VISUALSTYLE
1000
AcDbSavedByObjectVersion
1070
     0
  0
VISUALSTYLE
  5
32E2
102
{ACAD_XDICTIONARY
360
338A
102
}
102
{ACAD_REACTORS
330
2BA1
102
}
330
2BA1
100
AcDbVisualStyle
  2
Hidden
 70
     6
 71
     1
 72
     2
 73
     2
 90
        0
 40
-0.6
 41
-30.0
 62
     5
 63
     7
 74
     2
 91
        2
 64
     7
 65
   257
 75
     2
175
     1
 42
40.0
 92
        0
 66
   257
 43
1.0
 76
     1
 77
     6
 78
     2
 67
     7
 79
     3
170
     0
171
     0
290
     0
174
     0
 93
        1
 44
0.0
173
     0
291
     0
 45
0.0
1001
ACAD
1000
AcDbSavedByObjectVersion
1070
     0
  0
VISUALSTYLE
  5
32E8
102
{ACAD_XDICTIONARY
360
3396
102
}
102
{ACAD_REACTORS
330
2BA1
102
}
330
2BA1
100
AcDbVisualStyle
  2
JitterOff
 70
    20
 71
     2
 72
     2
 73
     0
 90
        0
 40
-0.6
 41
-30.0
 62
     5
 63
     7
 74
     1
 91
        4
 64
     7
 65
   257
 75
     1
175
     1
 42
1.0
 92
       10
 66
     7
 43
1.0
 76
     1
 77
     6
 78
     2
 67
     7
 79
     5
170
     0
171
     0
290
     0
174
     0
 93
        1
 44
0.0
173
     0
291
     1
 45
0.0
1001
ACAD
1000
AcDbSavedByObjectVersion
1070
     0
  0
VISUALSTYLE
  5
2BAF
102
{ACAD_XDICTIONARY
360
3381
102
}
102
{ACAD_REACTORS
330
2BA1
102
}
330
2BA1
100
AcDbVisualStyle
  2
Linepattern
 70
    14
 71
     2
 72
     2
 73
     0
 90
        0
 40
-0.6
 41
-30.0
 62
     5
 63
     7
 74
     1
 91
        4
 64
     7
 65
   257
 75
     7
175
     7
 42
1.0
 92
        8
 66
     7
 43
1.0
 76
     1
 77
     6
 78
     2
 67
     7
 79
     5
170
     0
171
     0
290
     0
174
     0
 93
        1
 44
0.0
173
     0
291
     1
 45
0.0
1001
ACAD
1000
AcRTDxfName
1000
VISUALSTYLE
1000
AcRTDxfName
1000
VISUALSTYLE
1000
AcRTDxfName
1000
VISUALSTYLE
1000
AcRTDxfName
1000
VISUALSTYLE
1000
AcRTDxfName
1000
VISUALSTYLE
1000
AcDbSavedByObjectVersion
1070
     0
  0
VISUALSTYLE
  5
32E9
102
{ACAD_XDICTIONARY
360
3398
102
}
102
{ACAD_REACTORS
330
2BA1
102
}
330
2BA1
100
AcDbVisualStyle
  2
OverhangOff
 70
    21
 71
     2
 72
     2
 73
     0
 90
        0
 40
-0.6
 41
-30.0
 62
     5
 63
     7
 74
     1
 91
        4
 64
     7
 65
   257
 75
     1
175
     1
 42
1.0
 92
        9
 66
     7
 43
1.0
 76
     1
 77
     6
 78
     2
 67
     7
 79
     5
170
     0
171
     0
290
     0
174
     0
 93
        1
 44
0.0
173
     0
291
     1
 45
0.0
1001
ACAD
1000
AcDbSavedByObjectVersion
1070
     0
  0
VISUALSTYLE
  5
2BAB
102
{ACAD_XDICTIONARY
360
3379
102
}
102
{ACAD_REACTORS
330
2BA1
102
}
330
2BA1
100
AcDbVisualStyle
  2
Realistic
 70
     8
 71
     2
 72
     2
 73
     0
 90
        0
 40
-0.6
 41
-30.0
 62
     5
 63
     7
 74
     1
 91
        0
 64
     7
 65
   257
 75
     1
175
     1
 42
1.0
 92
        8
 66
     8
 43
1.0
 76
     1
 77
     6
 78
     2
 67
     7
 79
     5
170
     0
171
     0
290
     0
174
     0
 93
       13
 44
0.0
173
     0
291
     0
 45
0.0
1001
ACAD
1000
AcRTDxfName
1000
VISUALSTYLE
1000
AcRTDxfName
1000
VISUALSTYLE
1000
AcRTDxfName
1000
VISUALSTYLE
1000
AcRTDxfName
1000
VISUALSTYLE
1000
AcRTDxfName
1000
VISUALSTYLE
1000
AcDbSavedByObjectVersion
1070
     0
  0
VISUALSTYLE
  5
32E7
102
{ACAD_XDICTIONARY
360
3394
102
}
102
{ACAD_REACTORS
330
2BA1
102
}
330
2BA1
100
AcDbVisualStyle
  2
Shaded
 70
    27
 71
     2
 72
     2
 73
     1
 90
        2
 40
-0.6
 41
30.0
 62
     5
 63
     7
 74
     0
 91
        4
 64
     7
 65
   257
 75
     1
175
     1
 42
1.0
 92
        8
 66
   257
 43
1.0
 76
     1
 77
     6
 78
     2
 67
     8
 79
     3
170
     0
171
     0
290
     0
174
     0
 93
        5
 44
0.0
173
     0
291
     0
 45
0.0
1001
ACAD
1000
AcDbSavedByObjectVersion
1070
     0
  0
VISUALSTYLE
  5
32E6
102
{ACAD_XDICTIONARY
360
3392
102
}
102
{ACAD_REACTORS
330
2BA1
102
}
330
2BA1
100
AcDbVisualStyle
  2
Shaded with edges
 70
    26
 71
     2
 72
     2
 73
     1
 90
        2
 40
-0.6
 41
30.0
 62
     5
 63
     7
 74
     1
 91
       10
 64
     7
 65
   257
 75
     2
175
     1
 42
1.0
 92
        8
 66
   257
 43
1.0
 76
     1
 77
     6
 78
     2
 67
     7
 79
     3
170
     0
171
     0
290
     0
174
     0
 93
        5
 44
0.0
173
     0
291
     0
 45
0.0
1001
ACAD
1000
AcDbSavedByObjectVersion
1070
     0
  0
VISUALSTYLE
  5
32E3
102
{ACAD_XDICTIONARY
360
338C
102
}
102
{ACAD_REACTORS
330
2BA1
102
}
330
2BA1
100
AcDbVisualStyle
  2
Shades of Gray
 70
    23
 71
     2
 72
     2
 73
     3
 90
        0
 40
-0.6
 41
-30.0
 62
     5
 63
     7
 74
     2
 91
        2
 64
     7
 65
     7
 75
     1
175
     1
 42
40.0
 92
        8
 66
     7
 43
1.0
 76
     1
 77
     6
 78
     2
 67
     7
 79
     3
170
     0
171
     0
290
     0
174
     0
 93
        1
 44
0.0
173
     0
291
     0
 45
0.0
1001
ACAD
1000
AcDbSavedByObjectVersion
1070
     0
  0
VISUALSTYLE
  5
32E4
102
{ACAD_XDICTIONARY
360
338E
102
}
102
{ACAD_REACTORS
330
2BA1
102
}
330
2BA1
100
AcDbVisualStyle
  2
Sketchy
 70
    24
 71
     1
 72
     2
 73
     2
 90
        0
 40
-0.6
 41
-30.0
 62
     5
 63
     7
 74
     2
 91
        2
 64
     7
 65
     7
 75
     1
175
     1
 42
40.0
 92
       11
 66
     7
 43
1.0
 76
     1
 77
     6
 78
     2
 67
     7
 79
     6
170
     0
171
     0
290
     0
174
     0
 93
        1
 44
0.0
173
     0
291
     0
 45
0.0
1001
ACAD
1000
AcDbSavedByObjectVersion
1070
     0
  0
VISUALSTYLE
  5
2BAE
102
{ACAD_XDICTIONARY
360
337F
102
}
102
{ACAD_REACTORS
330
2BA1
102
}
330
2BA1
100
AcDbVisualStyle
  2
Thicken
 70
    13
 71
     2
 72
     2
 73
     0
 90
        0
 40
-0.6
 41
-30.0
 62
     5
 63
     7
 74
     1
 91
        4
 64
     7
 65
   257
 75
     1
175
     1
 42
1.0
 92
       12
 66
     7
 43
1.0
 76
     1
 77
     6
 78
     2
 67
     7
 79
     5
170
     0
171
     0
290
     0
174
     0
 93
        1
 44
0.0
173
     0
291
     1
 45
0.0
1001
ACAD
1000
AcRTDxfName
1000
VISUALSTYLE
1000
AcRTDxfName
1000
VISUALSTYLE
1000
AcRTDxfName
1000
VISUALSTYLE
1000
AcRTDxfName
1000
VISUALSTYLE
1000
AcRTDxfName
1000
VISUALSTYLE
1000
AcDbSavedByObjectVersion
1070
     0
  0
VISUALSTYLE
  5
32E1
102
{ACAD_XDICTIONARY
360
3388
102
}
102
{ACAD_REACTORS
330
2BA1
102
}
330
2BA1
100
AcDbVisualStyle
  2
Wireframe
 70
     5
 71
     0
 72
     2
 73
     0
 90
        0
 40
-0.6
 41
-30.0
 62
     5
 63
     7
 74
     1
 91
        4
 64
     7
 65
   257
 75
     1
175
     1
 42
1.0
 92
        0
 66
   257
 43
1.0
 76
     1
 77
     6
 78
     2
 67
     7
 79
     3
170
     0
171
     0
290
     0
174
     0
 93
        1
 44
0.0
173
     0
291
     0
 45
0.0
1001
ACAD
1000
AcDbSavedByObjectVersion
1070
     0
  0
VISUALSTYLE
  5
32E5
102
{ACAD_XDICTIONARY
360
3390
102
}
102
{ACAD_REACTORS
330
2BA1
102
}
330
2BA1
100
AcDbVisualStyle
  2
X-Ray
 70
    25
 71
     2
 72
     2
 73
     1
 90
        1
 40
0.5
 41
-30.0
 62
     5
 63
     7
 74
     1
 91
        0
 64
     7
 65
   257
 75
     1
175
     1
 42
1.0
 92
        8
 66
     7
 43
1.0
 76
     1
 77
     6
 78
     2
 67
     7
 79
     3
170
     0
171
     0
290
     0
174
     0
 93
       13
 44
0.0
173
     0
291
     0
 45
0.0
1001
ACAD
1000
AcDbSavedByObjectVersion
1070
     0
  0
DICTIONARYVAR
  5
2EF1
102
{ACAD_REACTORS
330
3B
102
}
330
3B
100
DictionaryVariables
280
     0
  1
1:1
  0
DICTIONARYVAR
  5
2F49
102
{ACAD_REACTORS
330
3B
102
}
330
3B
100
DictionaryVariables
280
     0
  1
STANDARD
  0
DICTIONARYVAR
  5
2EF0
102
{ACAD_REACTORS
330
3B
102
}
330
3B
100
DictionaryVariables
280
     0
  1
STANDARD
  0
DICTIONARYVAR
  5
3344
102
{ACAD_REACTORS
330
3B
102
}
330
3B
100
DictionaryVariables
280
     0
  1
Metric50
  0
DICTIONARYVAR
  5
3345
102
{ACAD_REACTORS
330
3B
102
}
330
3B
100
DictionaryVariables
280
     0
  1
Metric50
  0
DICTIONARYVAR
  5
3D
102
{ACAD_REACTORS
330
3B
102
}
330
3B
100
DictionaryVariables
280
     0
  1
2
  0
DICTIONARYVAR
  5
3C
102
{ACAD_REACTORS
330
3B
102
}
330
3B
100
DictionaryVariables
280
     0
  1
1
  0
DICTIONARYVAR
  5
2EF3
102
{ACAD_REACTORS
330
3B
102
}
330
3B
100
DictionaryVariables
280
     0
  1
0
  0
DICTIONARYVAR
  5
30D3
102
{ACAD_REACTORS
330
3B
102
}
330
3B
100
DictionaryVariables
280
     0
  1

  0
DICTIONARYVAR
  5
2EF2
102
{ACAD_REACTORS
330
3B
102
}
330
3B
100
DictionaryVariables
280
     0
  1
127
  0
DICTIONARYVAR
  5
3355
102
{ACAD_REACTORS
330
3B
102
}
330
3B
100
DictionaryVariables
280
     0
  1
2
  0
DICTIONARY
  5
3359
330
22
100
AcDbDictionary
280
     1
281
     1
  3
ACAD_XREC_ROUNDTRIP
360
335A
  0
DICTIONARY
  5
2C07
330
2A64
100
AcDbDictionary
280
     1
281
     1
  3
ACAD_XREC_ROUNDTRIP
360
335F
  3
ADSK_XREC_LAYOUTTHUMBNAIL
360
2C08
  0
DICTIONARY
  5
2B92
330
2B91
100
AcDbDictionary
280
     1
281
     1
  3
ACAD_XREC_ROUNDTRIP
360
3365
  3
BUMPTILE
360
2B94
  3
DIFFUSETILE
360
2B93
  3
OPACITYTILE
360
2B97
  3
REFLECTIONTILE
360
2B96
  3
REFRACTIONTILE
360
2B98
  3
SPECULARTILE
360
2B95
  0
DICTIONARY
  5
2B8A
330
2B89
100
AcDbDictionary
280
     1
281
     1
  3
ACAD_XREC_ROUNDTRIP
360
3364
  3
BUMPTILE
360
2B8C
  3
DIFFUSETILE
360
2B8B
  3
OPACITYTILE
360
2B8F
  3
REFLECTIONTILE
360
2B8E
  3
REFRACTIONTILE
360
2B90
  3
SPECULARTILE
360
2B8D
  0
DICTIONARY
  5
2B9A
330
2B99
100
AcDbDictionary
280
     1
281
     1
  3
ACAD_XREC_ROUNDTRIP
360
3366
  3
BUMPTILE
360
2B9C
  3
DIFFUSETILE
360
2B9B
  3
OPACITYTILE
360
2B9F
  3
REFLECTIONTILE
360
2B9E
  3
REFRACTIONTILE
360
2BA0
  3
SPECULARTILE
360
2B9D
  0
DICTIONARY
  5
335B
330
2966
100
AcDbDictionary
280
     1
281
     1
  3
ACAD_XREC_ROUNDTRIP
360
335C
  0
DICTIONARY
  5
335D
330
2967
100
AcDbDictionary
280
     1
281
     1
  3
ACAD_XREC_ROUNDTRIP
360
335E
  0
DICTIONARY
  5
2EB2
330
2BB4
100
AcDbDictionary
280
     1
281
     1
  3
ACAD_ROUNDTRIP_2008_TABLESTYLE_CELLSTYLEMAP
360
3356
  3
ACAD_XREC_ROUNDTRIP
360
3387
  0
DICTIONARY
  5
3371
330
2BA7
100
AcDbDictionary
280
     1
281
     1
  3
ACAD_XREC_ROUNDTRIP
360
3372
  0
DICTIONARY
  5
3375
330
2BA9
100
AcDbDictionary
280
     1
281
     1
  3
ACAD_XREC_ROUNDTRIP
360
3376
  0
DICTIONARY
  5
3373
330
2BA8
100
AcDbDictionary
280
     1
281
     1
  3
ACAD_XREC_ROUNDTRIP
360
3374
  0
DICTIONARY
  5
336F
330
2BA6
100
AcDbDictionary
280
     1
281
     1
  3
ACAD_XREC_ROUNDTRIP
360
3370
  0
DICTIONARY
  5
337D
330
2BAD
100
AcDbDictionary
280
     1
281
     1
  3
ACAD_XREC_ROUNDTRIP
360
337E
  0
DICTIONARY
  5
3385
330
2BB1
100
AcDbDictionary
280
     1
281
     1
  3
ACAD_XREC_ROUNDTRIP
360
3386
  0
DICTIONARY
  5
3377
330
2BAA
100
AcDbDictionary
280
     1
281
     1
  3
ACAD_XREC_ROUNDTRIP
360
3378
  0
DICTIONARY
  5
337B
330
2BAC
100
AcDbDictionary
280
     1
281
     1
  3
ACAD_XREC_ROUNDTRIP
360
337C
  0
DICTIONARY
  5
339A
330
32EA
100
AcDbDictionary
280
     1
281
     1
  3
ACAD_XREC_ROUNDTRIP
360
339B
  0
DICTIONARY
  5
3383
330
2BB0
100
AcDbDictionary
280
     1
281
     1
  3
ACAD_XREC_ROUNDTRIP
360
3384
  0
DICTIONARY
  5
3367
330
2BA2
100
AcDbDictionary
280
     1
281
     1
  3
ACAD_XREC_ROUNDTRIP
360
3368
  0
DICTIONARY
  5
3369
330
2BA3
100
AcDbDictionary
280
     1
281
     1
  3
ACAD_XREC_ROUNDTRIP
360
336A
  0
DICTIONARY
  5
336B
330
2BA4
100
AcDbDictionary
280
     1
281
     1
  3
ACAD_XREC_ROUNDTRIP
360
336C
  0
DICTIONARY
  5
336D
330
2BA5
100
AcDbDictionary
280
     1
281
     1
  3
ACAD_XREC_ROUNDTRIP
360
336E
  0
DICTIONARY
  5
338A
330
32E2
100
AcDbDictionary
280
     1
281
     1
  3
ACAD_XREC_ROUNDTRIP
360
338B
  0
DICTIONARY
  5
3396
330
32E8
100
AcDbDictionary
280
     1
281
     1
  3
ACAD_XREC_ROUNDTRIP
360
3397
  0
DICTIONARY
  5
3381
330
2BAF
100
AcDbDictionary
280
     1
281
     1
  3
ACAD_XREC_ROUNDTRIP
360
3382
  0
DICTIONARY
  5
3398
330
32E9
100
AcDbDictionary
280
     1
281
     1
  3
ACAD_XREC_ROUNDTRIP
360
3399
  0
DICTIONARY
  5
3379
330
2BAB
100
AcDbDictionary
280
     1
281
     1
  3
ACAD_XREC_ROUNDTRIP
360
337A
  0
DICTIONARY
  5
3394
330
32E7
100
AcDbDictionary
280
     1
281
     1
  3
ACAD_XREC_ROUNDTRIP
360
3395
  0
DICTIONARY
  5
3392
330
32E6
100
AcDbDictionary
280
     1
281
     1
  3
ACAD_XREC_ROUNDTRIP
360
3393
  0
DICTIONARY
  5
338C
330
32E3
100
AcDbDictionary
280
     1
281
     1
  3
ACAD_XREC_ROUNDTRIP
360
338D
  0
DICTIONARY
  5
338E
330
32E4
100
AcDbDictionary
280
     1
281
     1
  3
ACAD_XREC_ROUNDTRIP
360
338F
  0
DICTIONARY
  5
337F
330
2BAE
100
AcDbDictionary
280
     1
281
     1
  3
ACAD_XREC_ROUNDTRIP
360
3380
  0
DICTIONARY
  5
3388
330
32E1
100
AcDbDictionary
280
     1
281
     1
  3
ACAD_XREC_ROUNDTRIP
360
3389
  0
DICTIONARY
  5
3390
330
32E5
100
AcDbDictionary
280
     1
281
     1
  3
ACAD_XREC_ROUNDTRIP
360
3391
  0
XRECORD
  5
335A
102
{ACAD_REACTORS
330
3359
102
}
330
3359
100
AcDbXrecord
280
     1
102
SHADEPLOT
 70
     0
102
SHADEPLOTRESLEVEL
 70
     2
102
SHADEPLOTCUSTOMDPI
 70
   300
  0
XRECORD
  5
335F
102
{ACAD_REACTORS
330
2C07
102
}
330
2C07
100
AcDbXrecord
280
     1
102
SHADEPLOT
 70
     0
102
SHADEPLOTRESLEVEL
 70
     2
102
SHADEPLOTCUSTOMDPI
 70
   300
  0
XRECORD
  5
2C08
102
{ACAD_REACTORS
330
2C07
102
}
330
2C07
100
AcDbXrecord
280
     1
310
28000000630000008C0000000100080000000000B0360000000000000000000000010000000000000000000000000000FFFFFF000000000000000000000000000000000000000000000000000000000000000000330000006600000099000000CC000000FF00000000330000333300006633000099330000CC330000FF3300
310
0000660000336600006666000099660000CC660000FF66000000990000339900006699000099990000CC990000FF99000000CC000033CC000066CC000099CC0000CCCC0000FFCC000000FF000033FF000066FF000099FF0000CCFF0000FFFF000000003300330033006600330099003300CC003300FF003300003333003333
310
33006633330099333300CC333300FF33330000663300336633006666330099663300CC663300FF66330000993300339933006699330099993300CC993300FF99330000CC330033CC330066CC330099CC3300CCCC3300FFCC330000FF330033FF330066FF330099FF3300CCFF3300FFFF330000006600330066006600660099
310
006600CC006600FF00660000336600333366006633660099336600CC336600FF33660000666600336666006666660099666600CC666600FF66660000996600339966006699660099996600CC996600FF99660000CC660033CC660066CC660099CC6600CCCC6600FFCC660000FF660033FF660066FF660099FF6600CCFF6600
310
FFFF660000009900330099006600990099009900CC009900FF00990000339900333399006633990099339900CC339900FF33990000669900336699006666990099669900CC669900FF66990000999900339999006699990099999900CC999900FF99990000CC990033CC990066CC990099CC9900CCCC9900FFCC990000FF99
310
0033FF990066FF990099FF9900CCFF9900FFFF99000000CC003300CC006600CC009900CC00CC00CC00FF00CC000033CC003333CC006633CC009933CC00CC33CC00FF33CC000066CC003366CC006666CC009966CC00CC66CC00FF66CC000099CC003399CC006699CC009999CC00CC99CC00FF99CC0000CCCC0033CCCC0066CC
310
CC0099CCCC00CCCCCC00FFCCCC0000FFCC0033FFCC0066FFCC0099FFCC00CCFFCC00FFFFCC000000FF003300FF006600FF009900FF00CC00FF00FF00FF000033FF003333FF006633FF009933FF00CC33FF00FF33FF000066FF003366FF006666FF009966FF00CC66FF00FF66FF000099FF003399FF006699FF009999FF00CC
310
99FF00FF99FF0000CCFF0033CCFF0066CCFF0099CCFF00CCCCFF00FFCCFF0000FFFF0033FFFF0066FFFF0099FFFF00CCFFFF00FFFFFF00000000000D0D0D001A1A1A00282828003535350043434300505050005D5D5D006B6B6B00787878008686860093939300A1A1A100AEAEAE00BBBBBB00C9C9C900D6D6D600E4E4E400
310
F1F1F100FFFFFF0000000000000000000000000000000000000000000000000000000000000000000000000000000000F5F5F5F5F5F5F5F5F5F5F5F5F5F5F5F5F5F5F5F5F5F5F5F5F5F5F5F5F5F5F5F5F5F5F5F5F5F5F5F5F5F5F5F5F5F5F5F5F5F5F5F5F5F5F5F5F5F5F5F5F5F5F5F5F5F5F5F5F5F5F5F5F5F5F5F5F5F5F5
310
F5F5F5F5F5F5F5F5F5F5F5F5F5F5F5F5F5F5F5EF00E2E2E2E2E2E2E2E2E2E2E2E2E2E2E2E2E2E2E2E2E2E2E2E2E2E2E2E2E2E2E2E2E2E2E2E2E2E2E2E2E2E2E2E2E2E2E2E2E2E2E2E2E2E2E2E2E2E2E2E2E2E2E2E2E2E2E2E2E2E2E2E2E2E2E2E2E2E2E2E2E2E2E2E2E2E2E2E2E2E2E2E2E2E2E2E2E2F5EF00E2E2E2E2E2E2
310
E2E2E2E2E2E2E2E2E2E2E2E2E2E2E2E2E2E2E2E2E2E2E2E2E2E2E2E2E2E2E2E2E2E2E2E2E2E2E2E2E2E2E2E2E2E2E2E2E2E2E2E2E2E2E2E2E2E2E2E2E2E2E2E2E2E2E2E2E2E2E2E2E2E2E2E2E2E2E2E2E2E2E2E2E2E2E2E2E2E2E2F5EF00E2F5F5F5F5F5F5F5F5E2E2E2E2E2E2E2E2F5F5F5F5F5F5F5F5F5F5F5F5F5F5F5F5
310
F5E2E2E2E2E2E2E2F5F5F5F5F5F5F5F5F5F5F5F5F5F5E2E2E2E2E2E2E2E2E2F5F5F5F5F5F5F5F5F5F5F5F5F5F5F5E2E2E2E2E2E2E2E2F5F5F5F5F5F5F5F5E2E2F5EF00E2F5E2E2E2E2E2E2E2E2E2E2E2E2E2E2E2E2E2F5F5F5F5F5F5F5F5F5F5F5F5F5F5F5F5F5F5F5F5F5F5F5F5F5F5F5F5F5F5F5F5F5F5F5F5F5F5F5F5F5
310
F5F5F5F5F5F5F5F5F5F5F5F5F5F5F5F5F5E2E2E2E2E2E2E2E2E2E2E2E2E2E2E2E2E2F5E2E2F5EF00E2F5E2E2E2E2E2E2E2E2E2E2E2E2E2E2E2E2E2F5F5F5F5F5F5F5F5F5F5F5F5F5F5F5F5F5F5F5F5F5F5F5F5F5F5F5F5F5F5F5F5F5F5F5F5F5F5F5F5F5F5F5F5F5F5F5F5F5F5F5F5F5F5F5F5F5F5E2E2E2E2E2E2E2E2E2E2
310
E2E2E2E2E2E2E2F5E2E2F5EF00E2F5E2E2E2E2E2F5F5F5F5F5F5F5F5F5F5F5F5F5F5F5F5F5F5F5F5F5F5F5F5F5F5F5F5F5F5F5F5F5F5F5F5F5F5F5F5F5F5F5F5F5F5F5F5F5F5F5F5F5F5F5F5F5F5F5F5F5F5F5F5F5F5F5F5F5F5F5F5F5F5F5F5F5F5F5F5F5F5F5F5E2E2E2F5E2E2F5EF00E2F5E2E2E2E2E2E2E2E2E2E2E2E2
310
E2E2E2E2E2E2E2E2E2E2E2E2E2E2E2E2E2E2E2E2E2E2E2E2E2E2E2E2E2E2E2E2E2E2E2E2E2E2E2E2E2E2E2E2E2E2E2E2E2E2E2E2E2E2E2E2E2E2E2E2E2E2E2E2E2E2E2E2E2E2E2E2E2E2E2E2E2E2E2E2F5E2E2F5EF00E2F5E2E2E2E2E2F5F5F5F5F5F5F5F5F5F5F5F5F5F5F5F5F5F5F5F5F5F5F5F5F5F5F5F5F5F5F5F5F5F5
310
F5F5F5F5F5F5F5F5F5F5F5F5F5F5F5F5F5F5F5F5F5F5F5F5F5F5F5F5F5F5F5F5F5F5F5F5F5F5F5F5F5F5F5F5F5F5F5F5F5F5E2E2E2F5E2E2F5EF00E2F5E2E2E2E2E2F5E2E2E2E2E2E2E2E2E2E2E2E2E2E2E2E2E2E2E2E2E2E2E2E2E2E2E2E2E2E2E2E2E2E2E2E2E2E2E2E2E2E2E2E2E2E2E2E2E2E2E2E2E2E2E2E2E2E2E2E2
310
E2E2E2E2E2E2E2E2E2E2E2E2E2E2E2E2E2E2E2E2E2E2F5E2E2E2F5E2E2F5EF00E2F5E2E2E2E2E2F5E2E2E2E2E2E2E2E2E2E2E2E2E2E2E2E2E2E2E2E2E2E2E2E2E2E2E2E2E2E2E2E2E2E2E2E2E2E2E2E2E2E2E2E2E2E2E2E2E2E2E2E2E2E2E2E2E2E2E2E2E2E2E2E2E2E2E2E2E2E2E2E2E2E2E2E2E2E2E2E2E2E2F5E2E2E2F5
310
E2E2F5EF00E2F5E2E2E2E2E2F5E2E2E2E2E2E2E2E2E2E2E2E2E2E2E2E2E2E2E2E2E2E2E2E2E2E2E2E2E2E2E2E2E2E2E2E2E2E2E2E2E2E2E2E2E2E2E2E2E2E2E2E2E2E2E2E2E2E2E2E2E2E2E2E2E2E2E2E2E2E2E2E2E2E2E2E2E2E2E2E2E2E2F5E2E2E2F5E2E2F5EF00E2E2E2E2E2E2E2F5E2E2E2E2E2E2E2E2E2E2E2E2E2E2
310
E2E2E2E2E2E2E2E2E2E2E2E2E2E2E2E2E2E2E2E2E2E2E2E2E2E2E2E2E2E2E2E2E2E2E2E2E2E2E2E2E2E2E2E2E2E2E2E2E2E2E2E2E2E2E2E2E2E2E2E2E2E2E2E2E2E2E2E2F5E2E2E2E2E2E2F5EF00E2E2E2E2E2E2E2F5E2E2E2E2E2E2E2E2E2E2E2E2E2E2E2E2E2E2E2E2E2E2E2E2E2E2E2E2E2E2E2E2E2E2E2E2E2E2E2E2E2
310
E2E2E2E2E2E2E2E2E2E2E2E2E2E2E2E2E2E2E2E2E2E2E2E2E2E2E2E2E2E2E2E2E2E2E2E2E2E2E2E2E2F5E2E2E2E2E2E2F5EF00E2E2E2E2E2E2E2F5E2E2E2E2E2E2E2E2E2E2E2E2E2E2E2E2E2E2E2E2E2E2E2E2E2E2E2E2E2E2E2E2E2E2E2E2E2E2E2E2E2E2E2E2E2E2E2E2E2E2E2E2E2E2E2E2E2E2E2E2E2E2E2E2E2E2E2E2
310
E2E2E2E2E2E2E2E2E2E2E2E2E2E2F5E2E2E2E2E2E2F5EF00E2E2E2E2E2E2E2F5E2E2E2E2E2E2E2E2E2E2E2E2E2E2E2E2E2E2E2E2E2E2E2E2E2E2E2E2E2E2E2E2E2E2E2E2E2E2E2E2E2E2E2E2E2E2E2E2E2E2E2E2E2E2E2E2E2E2E2E2E2E2E2E2E2E2E2E2E2E2E2E2E2E2E2E2E2E2E2E2E2E2F5E2E2E2E2E2E2F5EF00E2E2E2
310
E2E2E2E2F5E2E2E2E2E2E2E2E2E2E2E2E2E2E2E2E2E2E2E2E2E2E2E2E2E2E2E2E2E2E2E2E2E2E2E2E2E2E2E2E2E2E2E2E2E2E2E2E2E2E2E2E2E2E2E2E2E2E2E2E2E2E2E2E2E2E2E2E2E2E2E2E2E2E2E2E2E2E2E2E2E2E2F5E2E2E2E2E2E2F5EF00E2E2E2E2E2E2E2F5E2E2E2E2E2E2E2E2E2E2E2E2E2E2E2E2E2E2E2E2E2E2
310
E2E2E2E2E2E2E2E2E2E2E2E2E2E2E2E2E2E2E2E2E2E2E2E2E2E2E2E2E2E2E2E2E2E2E2E2E2E2E2E2E2E2E2E2E2E2E2E2E2E2E2E2E2E2E2E2E2E2E2E2F5E2E2E2E2E2E2F5EF00E2E2E2E2E2E2E2F5E2E2E2E2E2E2E2E2E2E2E2E2E2E2E2E2E2E2E2E2E2E2E2E2E2E2E2E2E2E2E2E2E2E2E2E2E2E2E2E2E2E2E2E2E2E2E2E2E2
310
E2E2E2E2E2E2E2E2E2E2E2E2E2E2E2E2E2E2E2E2E2E2E2E2E2E2E2E2E2E2E2E2E2F5E2E2E2E2E2E2F5EF00E2E2E2E2E2E2E2F5E2E2E2E2E2E2E2E2E2E2E2E2E2E2E2E2E2E2E2E2E2E2E2E2E2E2E2E2E2E2E2E2E2E2E2E2E2E2E2E2E2E2E2E2E2E2E2E2E2E2E2E2E2E2E2E2E2E2E2E2E2E2E2E2E2E2E2E2E2E2E2E2E2E2E2E2
310
E2E2E2E2E2E2F5E2E2E2E2E2E2F5EF00E2E2E2E2E2E2E2F5E2E2E2E2E2E2E2E2E2E2E2E2E2E2E2E2E2E2E2E2E2E2E2E2E2E2E2E2E2E2E2E2E2E2E2E2E2E2E2E2E2E2E2E2E2E2E2E2E2E2E2E2E2E2E2E2E2E2E2E2E2E2E2E2E2E2E2E2E2E2E2E2E2E2E2E2E2E2E2E2E2E2F5E2E2E2E2E2E2F5EF00E2E2E2E2E2E2E2F5E2E2E2
310
E2E2E2E2E2E2E2E2E2E2E2E2E2E2E2E2E2E2E2E2E2E2E2E2E2E2E2E2E2E2E2E2E2E2E2E2E2E2E2E2E2E2E2E2E2E2E2E2E2E2E2E2E2E2E2E2E2E2E2E2E2E2E2E2E2E2E2E2E2E2E2E2E2E2E2E2E2E2E2F5E2E2E2E2E2E2F5EF00E2F5E2E2E2E2E2F5E2E2E2E2E2E2E2E2E2E2E2E2E2E2E2E2E2E2E2E2E2E2E2E2E2E2E2E2E2E2
310
E2E2E2E2F5F5F5F5F5F5F5F5F5F5F5F5F5F5E2E2E2E2E2E2E2E2E2E2E2E2E2E2E2E2E2E2E2E2E2E2E2E2E2E2E2E2E2E2E2E2E2E2F5E2E2E2F5E2E2F5EF00E2F5E2E2E2E2E2F5E2E2E2E2E2E2E2E2E2E2E2E2E2E2E2E2E2E2E2E2E2E2E2E2E2E2E2E2E2E2E2E2E2E2F5F5F5F5F5F5F5F5F5F5F5F5F5F5E2E2E2E2E2E2E2E2E2
310
E2E2E2E2E2E2E2E2E2E2E2E2E2E2E2E2E2E2E2E2E2E2E2E2E2F5E2E2E2F5E2E2F5EF00E2F5E2E2E2E2E2F5E2E2E2E2E2E2E2E2E2E2E2E2E2E2E2E2E2E2E2E2E2E2E2E2E2E2E2E2E2E2E2E2E2E2F5F5F5F5F5F5F5F5F5F5F5F5F5F5E2E2E2E2E2E2E2E2E2E2E2E2E2E2E2E2E2E2E2E2E2E2E2E2E2E2E2E2E2E2E2E2E2E2F5E2
310
E2E2F5E2E2F5EF00E2F5E2E2E2E2E2F5E2E2E2E2E2E2E2E2E2E2E2E2E2E2E2E2E2E2E2E2E2E2E2E2E2E2E2E2E2E2E2E2E2E2F5F5F5F5F5F5F5F5F5F5F5F5F5F5E2E2E2E2E2E2E2E2E2E2E2E2E2E2E2E2E2E2E2E2E2E2E2E2E2E2E2E2E2E2E2E2E2E2F5E2E2E2F5E2E2F5EF00E2F5E2E2E2E2E2F5E2E2E2E2E2E2E2E2E2E2E2
310
E2E2E2E2E2E2E2E2E2E2E2E2E2E2E2E2E2E2E2E2E2E2E2E2E2E2E2E2E2E2E2E2E2E2E2E2E2E2E2E2E2E2E2E2E2E2E2E2E2E2E2E2E2E2E2E2E2E2E2E2E2E2E2E2E2E2E2E2E2E2E2F5E2E2E2F5E2E2F5EF00E2F5E2E2E2E2E2F5E2E2E2E2E2E2E2E2E2E2E2E2E2E2E2E2E2E2E2E2E2E2E2E2E2E2E2E2E2E2E2E2E2E2E2E2E2E2
310
E2E2E2E2E2E2E2E2E2E2E2E2E2E2E2E2E2E2E2E2E2E2E2E2E2E2E2E2E2E2E2E2E2E2E2E2E2E2E2E2E2E2E2E2F5E2E2E2F5E2E2F5EF00E2F5E2E2E2E2E2F5E2E2E2E2E2E2E2E2E2E2E2E2E2E2E2E2E2E2E2E2E2E2E2E2E2E2E2E2E2E2E2E2E2E2E2E2E2E2E2E2E2E2E2E2E2E2E2E2E2E2E2E2E2E2E2E2E2E2E2E2E2E2E2E2E2
310
E2E2E2E2E2E2E2E2E2E2E2E2E2E2E2E2E2F5E2E2E2F5E2E2F5EF00E2F5E2E2E2E2E2F5E2E2E2E2E2E2E2E2E2E2E2E2E2E2E2E2E2E2E2E2E2E2E2E2E2E2E2E2E2E2E2E2E2E2E2E2E2E2E2E2E2E2E2E2E2E2E2E2E2E2E2E2E2E2E2E2E2E2E2E2E2E2E2E2E2E2E2E2E2E2E2E2E2E2E2E2E2E2E2E2E2E2F5E2E2E2F5E2E2F5EF00
310
E2F5E2E2E2E2E2F5E2E2E2E2E2E2E2E2E2E2E2E2E2E2E2E2E2E2E2E2E2E2E2E2E2E2E2E2E2E2E2E2E2F5F5F5F5F5F5F5E2E2E2E2E2E2E2E2E2E2E2E2E2E2E2E2E2E2E2E2E2E2E2E2E2E2E2E2E2E2E2E2E2E2E2E2E2E2E2E2E2E2F5E2E2E2F5E2E2F5EF00E2F5E2E2E2E2E2F5E2E2E2E2E2E2E2E2E2E2E2E2E2E2E2F5F5F5F5
310
E2E2E2E2F5F5F5F5E2E2E2E2E2E2F5F5F5F5F5E2E2E2F5F5F5F5E2E2E2E2E2E2E2E2E2E2E2E2E2E2E2E2E2E2E2E2E2E2E2E2E2E2E2E2E2E2E2E2E2E2E2E2E2F5E2E2E2F5E2E2F5EF00E2F5E2E2E2E2E2F5E2E2E2E2E2E2E2E2E2E2E2E2E2E2E2F5F5F5F5E2E2E2E2F5F5F5F5E2E2E2E2E2E2F5F5F5F5F5E2E2E2F5F5F5F5E2
310
E2E2E2F5F5F5F5F5F5F5F5F5F5F5F5F5F5E2E2E2E2E2E2E2E2E2E2E2E2E2E2E2E2E2E2E2F5E2E2E2F5E2E2F5EF00E2F5E2E2E2E2E2F5E2E2E2E2E2E2E2E2E2E2E2E2E2E2E2EFEFEFEFEFEFEFEFEFEFEFEFEFE2E2E2E2E2EFEFEFEFEFEFEFEFEFEFEFEFEFE2E2E2F5F5F5F5F5F5F5F5F5F5F5F5F5F5E2E2E2E2E2E2E2E2E2E2
310
E2E2E2E2E2E2E2E2E2F5E2E2E2F5E2E2F5EF00E2F5E2E2E2E2E2F5E2E2E2E2EFEFEFEFEFEFEFE2E2EFEFEFEFE2E2E2E2EFEFEFEFEFEFEFE2E2E2E2E2EFEFEFEFEFEFEFE2E2E2E2EFEFEFEFE2F5F5F5F5F5F5F5F5F5F5F5F5F5E2E2E2E2E2E2E2E2E2EFEFEFEFEFEFEFE2E2E2E2F5E2E2E2F5E2E2F5EF00E2F5E2E2E2E2E2F5
310
E2E2E2E2EFEFE2E2E2EFEFE2EFEFE2EFEFE2E2E2E2EFEFDCF5F5F5F5F5F5E2F5F5F5F5F5ECDCEFEFE2E2E2E2EFEFE2EFEFF5F5F5F5F5F5F5F5F5F5F5F5F5E2E2E2E2E2E2E2E2E2EFEFE2E2E2EFEFE2E2E2E2F5E2E2E2F5E2E2F5EF00E2F5E2E2E2E2E2F5E2E2E2E2F5F5F5F5E2E2EFE2ECECE2EFEFEFE2E2E2EFEFE2ECECEC
310
ECECECE2ECECECECECE2E2EFEFE2E2E2EFEFEFE2ECECF5F5F5F5F5F5F5F5F5F5F5E2E2E2F5F5F5F5F5E2E2E2EFE2F5F5F5F5EFE2E2E2E2F5E2E2E2F5E2E2F5EF00E2F5E2E2E2E2E2F5E2E2E2E2F5F5F5F5E2E2EFECECECECE2EFEFEFE2E2EFEFE2F5F5F5F5F5F5E2F5F5F5F5F5E2E2EFEFE2E2EFEFEFE2ECECECECEFEFEFEF
310
EFEFEFE2E2E2E2E2E2EFEFEFEFEFEFEFEFEFE2F5F5F5F5E2E2E2E2E2F5E2E2E2F5E2E2F5EF00E2F5E2E2E2E2E2F5E2E2E2E2E2E2E2E2E2E2EFEFEFEFEFE2E2EFEFE2E2E2EFE2F5E2F5E2E2E2E2E2E2E2F5F5E2E2EFE2E2E2EFEFE2E2EFEFEFEFEFEFEFEFEFEFEFEFE2E2E2E2EFEFEFEFEFEFEFEFEFEFE2E2E2E2E2E2E2E2E2
310
E2F5E2E2E2F5E2E2F5EF00E2E2E2E2E2E2E2F5E2E2E2E2E2E2E2E2E2E2E2E2EFE2E2E2E2EFEFE2E2E2EFE2F5F5F5F5F5F5E2F5F5F5F5F5E2E2EFE2E2E2EFEFE2E2E2EFEFEFEFEFEFEFF5EFEFEFF5F5F5F5F5EFEFF5EFEFEFEFE2E2E2E2E2E2E2E2E2E2E2E2F5E2E2E2E2E2E2F5EF00E2E2E2E2E2E2E2F5E2E2E2E2E2E2E2E2
310
E2E2E2E2EFEFEFE2E2EFEFE2E2E2EFE2ECECECECECECE2ECECECECECE2E2EFE2E2E2EFEFE2E2EFEFEFE2EFEFEFE2ECECECECECECECECECECECECE2EFEFEFE2E2E2E2E2E2E2E2E2E2E2E2F5E2E2E2E2E2E2F5EF00E2E2E2E2E2E2E2F5E2E2E2E2E2E2E2E2E2E2E2E2EFEFEFE2E2EFEFE2E2E2EFE2F5F5F5F5F5F5E2F5F5F5F5
310
F5E2E2EFE2E2E2EFEFE2E2EFEFEFE2EFEFEFE2F5F5F5F5F5F5F5F5F5F5F5F5E2EFEFEFE2E2E2E2E2E2E2E2E2E2E2E2F5E2E2E2E2E2E2F5EF00E2E2E2E2E2E2E2F5E2E2E2E2E2E2E2E2E2E2E2E2E2EFEFE2E2EFEFECECECECECECECECECECE2E2E2ECECECECECECECECECECEFEFE2E2EFEFE2E2E2E2EFE2F5E2F5E2E2E2E2E2
310
E2E2F5F5E2EFEFE2E2E2E2E2E2E2E2E2E2E2E2E2F5E2E2E2E2E2E2F5EF00E2E2E2E2E2E2E2F5E2E2E2E2E2E2E2E2E2E2E2E2E2EFEFE2E2EFECECECE2ECECE2ECE2E228E2E2E228E2ECECE2ECECE2ECECECEFE2E2EFEFEFE2E2EFEFE2F5E2F5E2E2E2E2E2E2E2F5F5E2EFEFE2E2E2E2E2E2E2E2E2E2E2E2E2F5E2E2E2E2E2E2
310
F5EF00E2E2E2E2E2E2E2F5E2E2E2E2E2E2E2E2E2E2E2E2EFEFEFE2E2ECECECECE2E2ECECE2ECECECE2E2E2ECECECE2ECECE2E2ECECECECE2E2EFEFEFE2E2EFEFE2ECECECECECECECECECECECECE2EFEFEFE2E2E2E2E2E2E2E2E2E2E2E2F5E2E2E2E2E2E2F5EF00E2E2E2E2E2E2E2F5E2E2E2E2E2E2E2E2E2E2E2E2EFEFEFE2
310
EFECECEC28282828ECEC282828E2E2E2282828ECEC28282828ECECECEFE2EFEFE2E2E2E2EFE2ECECECECECECECECECECECECE2EFEFEFE2E2E2E2E2E2E2E2E2E2E2E2F5E2E2E2E2E2E2F5EF00E2E2E2E2E2E2E2F5E2E2E2E2E2E2E2E2E2E2EFEFEFEFEFEFEFECECECE2E2E2E2E2E2E2E2E2E2E2E2E2E2E2E2E2E2E2E2E2ECEC
310
ECECECECECECECECECECECECECECECECE2E2E2ECECECEFEFEFEFEFEFEFE2E2E2E2E2E2E2E2E2E2F5E2E2E2E2E2E2F5EF00E2E2E2E2E2E2E2F5E2E2E2E2E2E2E2E2E2E2EFE2E2E2EF28282828ECE2E2E2E2E2E2E2E2E2E2E2E2E2E2E2E2E2E2E2E2E22828282828282828EC28282828282828ECECE2E2E2EC28282828EFE2E2
310
E2EFE2E2E2E2E2E2E2E2E2E2F5E2E2E2E2E2E2F5EF00E2F5E2E2E2E2E2F5E2E2E2E2E2E2E2E2E2E2E2E2E2E2E228EC28E228E2E2E2E2E2E2E2E2E2E2E2E2E2E2E2E2E2E2E2E2E228E2E2E2E2E2E228EC28E2E2E2E2E2E2E228E2E2E228E228EC28E2E2E2E2E2E2E2E2E2E2E2E2E2E2E2F5E2E2E2F5E2E2F5EF00E2F5E2E2E2
310
E2E2F5E2E2E2E2E2E2E2E2E2E2E2E2E2E2E2ECECECECECE2E2E2E2E2E2E2E2E2E2E2E2E2E2E2E2E2E2E2E2E228E2E2E2E2E2E2282828E2E2E2E2E2E2E228E2E2E2ECECECECECE2E2E2E2E2E2E2E2E2E2E2E2E2E2E2F5E2E2E2F5E2E2F5EF00E2F5E2E2E2E2E2F5E2E2E2E2E2E2E2E2E2E2E2E2E2E2E228ECE2E228E2E2E2E2
310
E2E2E2E2E2E2E2E2E2E2E2E2E2E2E2E2E228E2E2E2E2E2E2E2E2E2E2E2E2E2E2E2E228E2E2E228E2E2EC28E2E2E2E2E2E2E2E2E2E2E2E2E2E2E2F5E2E2E2F5E2E2F5EF00E2F5E2E2E2E2E2F5E2E2E2E2E2E2E2E2E2E2E2E2E2E2EFECECE2E228E2E2E2E2E2E2E2E2E2E2E2E2E2E2E2E2E2E2E2E2E228ECECECECECECECE2E2
310
E2E2E2E2E2E2E228E2E2E228E2E2ECECEFE2E2E2E2E2E2E2E2E2E2E2E2E2E2F5E2E2E2F5E2E2F5EF00E2F5E2E2E2E2E2F5E2E2E2E2E2E2E2E2E2E2E2E228282828E2E2E228E2E2E2E2E2E2E2E2E2E2E2E2E2E2E2E2E2E2E2E2E228ECECECECE2E2ECECECE2E2E2E2E2E2E228E2E2E228E2E2E228282828E2E2E2E2E2E2E2E2
310
E2E2E2E2F5E2E2E2F5E2E2F5EF00E2F5E2E2E2E2E2F5E2E2E2E2E2E2E2E2E2E2E2E228E2E2ECE2E2E228E2E2E2E2E2E2E2E2E2E2E2E2E2E2E2E2E2E2E2E2E228E2E2E2ECECE2E2E2ECECE2E2E2E2E22828E2E2E228E2E2E2ECE2E228E2E2E2E2E2E2E2E2E2E2E2E2F5E2E2E2F5E2E2F5EF00E2F5E2E2E2E2E2F5E2E2E2E2E2
310
E2E2E2E2E2E2E228ECE2E2ECE2ECECE2E2E2E2E2E2E2E2E2E2E2E2E2E2E2E2E2E2E2E2E2282828F5F5F5F5F5F5F5F5F5F5F528282828E2E2E2ECECE2ECE2E2EC28E2E2E2E2E2E2E2E2E2E2E2E2F5E2E2E2F5E2E2F5EF00E2F5E2E2E2E2E2F5E2E2E2E2E2E2E2E2E2E2E2E228ECE2E2E2ECEC28E2E2E2E2E2E2E2E2E2E2E2E2
310
E2E2E2E2E2E2E2E2E228E2E2F5F5F5F5F5F5F5F5F5F5F5E2E2E228E2E2E228ECECE2E2E2EC28E2E2E2E2E2E2E2E2E2E2E2E2F5E2E2E2F5E2E2F5EF00E2F5E2E2E2E2E2F5E2E2E2E2E2E2E2E2E2E2E2E228E2ECE2ECECE2ECE2E2E2E2E2E2E2E2E2E2E2E2E2E2E2E2E2E2E2E2E2282828282828282828282828282828282828
310
E2E2E2ECE2ECECE2ECE228E2E2E2E2E2E2E2E2E2E2E2E2F5E2E2E2F5E2E2F5EF00E2F5E2E2E2E2E2F5E2E2E2E2E2E2E2E2E2E2E2E228ECECECECE2E228E2E2E2E2E2E2E2E2E2E2E2E2E2E2E2E2E2E2E2E2E228E2E2F5F5F5F5F5F5F5F5F5F5F5E2E2E228E2E2E228E2E2ECECECEC28E2E2E2E2E2E2E2E2E2E2E2E2F5E2E2E2
310
F5E2E2F5EF00E2F5E2E2E2E2E2F5E2E2E2E2E2E2E2E2E2E2E2E228ECECE2E2E2E228E2E2E2E2E2E2E2E2E2E2E2E2E2E2E2E2E2E2E2E2E228E2E2E2E2E2E2E2E2E2E2E2E2E2E2E22828E2E2E228E2E2E2E2ECEC28E2E2E2E2E2E2E2E2E2E2E2E2F5E2E2E2F5E2E2F5EF00E2F5E2E2E2E2E2F5E2E2E2E2E2E2E2E2E2E2E2E228
310
E2E2ECE2E2E228E2E2E2E2E2E2E2E2E2E2E2E2E2E2E2E2E2E2E2E2E2282828F5F5F5F5F5F5F5F5F5F5F528282828E2E2E228E2E2E2ECE2E228E2E2E2E2E2E2E2E2E2E2E2E2F5E2E2E2F5E2E2F5EF00E2F5E2E2E2E2E2F5E2E2E2E2E2E2E2E2E2E2E2E228E2E2ECE2E2ECECE2E2E2E2E2E2E2E2E2E2E2E2E2E2E2E2E2E2E2E2
310
E228E2E2F5F5F5F5F5F5F5F5F5F5F5E2E2E228E2E2E2ECECE2E2ECE2E228E2E2E2E2E2E2E2E2E2E2E2E2F5E2E2E2F5E2E2F5EF00E2F5E2E2E2E2E2F5E2E2E2E2E2E2E2E2E2E2E2E228E2E2ECECECEC28E2E2E2E2E2E2E2E2E2E2E2E2E2E2E2E2E2E2E2E2E228E2E2E2E2E2E2E2E2E2E2E2E2E2E2E2E228E2E2E228ECECECEC
310
E2E228E2E2E2E2E2E2E2E2E2E2E2E2F5E2E2E2F5E2E2F5EF00E2F5E2E2E2E2E2F5E2E2E2E2E2E2E2E2E2E2E2E2282828ECECE2E228E2E2E2E2E2E2E2E2E2E2E2E2E2E2E2E2E2E2E2E2E228E2E2E2E2E2E2E2E2E2E2E2E2E2E2E2E228E2E2E228E2E2ECEC282828E2E2E2E2E2E2E2E2E2E2E2E2F5E2E2E2F5E2E2F5EF00E2F5
310
E2E2E2E2E2F5E2E2E2E2E2E2E2E2E2E2E2E2E2E228E2ECE2E228E2E2E2E2E2E2E2E2E2E2E2E2E2E2E2E2E2E2E2E2E22828E2E2E2E2E2E2E2E2E2E2E2E2E2282828E2E2E228E2E2ECE228E2E2E2E2E2E2E2E2E2E2E2E2E2E2F5E2E2E2F5E2E2F5EF00E2F5E2E2E2E2E2F5E2E2E2E2E2E2E2E2E2E2E2E2282828E2ECE2E228E2
310
E2E2E2E2E2E2E2E2E2E2E2E2E2E2E2E2E2E2E2E2E22828F5F5F5F5F5F5F5F5F5F5F52828E2E2E2E2E228E2E2ECE2282828E2E2E2E2E2E2E2E2E2E2E2E2F5E2E2E2F5E2E2F5EF00E2E2E2E2E2E2E2F5E2E2E2E2E2E2E2E2E2E2E2E228E2E2E2ECE2E2ECE2E2E2E2E2E2E2E2E2E2E2E2E2E2E2E2E2E2E2E2E2E2E2E2F5F5F5F5
310
F5F5F5F5F5F5F5E2E2E2E2E2E2E2ECE2E2ECE2E2E228E2E2E2E2E2E2E2E2E2E2E2E2F5E2E2E2E2E2E2F5EF00E2E2E2E2E2E2E2F5E2E2E2E2E2E2E2E2E2E2E2E228E2E2E2ECECEC28E2E2E2E2E2E2E2E2E2E2E2E2E2E2E2E2E2E2E2E2E2E2E2E2E2E2E2E2E2E2E2E2E2E2E2E2E2E2E2E2E2E228ECECECE2E2E228E2E2E2E2E2
310
E2E2E2E2E2E2E2F5E2E2E2E2E2E2F5EF00E2E2E2E2E2E2E2F5E2E2E2E2E2E2E2E2E2E2E2E2282828ECECEC2828E2E2E2E2E2E2E2E2E2E2E2E2E2E2E2E2E2E2E2E2E2E2E2E2E2E2E2E2E2E2E2E2E2E2E2E2E2E2E2E2E2E22828ECECEC282828E2E2E2E2E2E2E2E2E2E2E2E2F5E2E2E2E2E2E2F5EF00E2E2E2E2E2E2E2F5E2E2
310
E2E2E2E2E2E2E2E2E2E2E2E2E2E2E2E2E2E2E2E2E2E2E2E2E2E2E2E2E2E2E2E2E2E2E2E2E2E2E2E2E2E2E2E2E2E2E2E2E2E2E2E2E2E2E2E2E2E2E2E2E2E2E2E2E2E2E2E2E2E2E2E2E2E2E2E2E2E2E2E2F5E2E2E2E2E2E2F5EF00E2E2E2E2E2E2E2F5E2E2E2E2E2E2E2E2E2E2E2E2E2E2E2E2E2E2E2E2E2E2E2E2E2E2E2E2E2
310
E2E2E2E2E2E2E2E2E2E2E2E2E2E2E2E2E2E2E2E2E2E2E2E2E2E2E2E2E2E2E2E2E2E2E2E2E2E2E2E2E2E2E2E2E2E2E2E2E2E2E2E2E2F5E2E2E2E2E2E2F5EF00E2E2E2E2E2E2E2F5E2E2E2E2E2E2E2E2E2E2E2E2E2E2E2E2E2E2E2E2E2E2E2E2E2E2E2E2E2E2E2E2E2E2E2E2E2E2E2E2E2E2E2E2E2E2E2E2E2E2E2E2E2E2E2E2
310
E2E2E2E2E2E2E2E2E2E2E2E2E2E2E2E2E2E2E2E2E2E2E2E2E2E2F5E2E2E2E2E2E2F5EF00E2E2E2E2E2E2E2F5E2E2E2E2E2E2E2E2E2E2E2E2E2E2E2E2E2E2E2E2E2E2E2E2E2E2E2E2E2E2E2E2E2E2E2E2E2E2E2E2E2E2E2E2E2E2E2E2E2E2E2E2E2E2E2E2E2E2E2E2E2E2E2E2E2E2E2E2E2E2E2E2E2E2E2E2E2E2E2E2E2E2F5
310
E2E2E2E2E2E2F5EF00E2E2E2E2E2E2E2F5E2E2E2E2E2E2E2E2E2E2E2E2E2E2E2E2E2E2E2E2E2E2E2E2E2E2E2E2E2E2E2E2E2E2E2E2E2E2E2E2E2E2E2E2E2E2E2E2E2E2E2E2E2E2E2E2E2E2E2E2E2E2E2E2E2E2E2E2E2E2E2E2E2E2E2E2E2E2E2E2E2E2F5E2E2E2E2E2E2F5EF00E2E2E2E2E2E2E2F5E2E2E2E2E2E2E2E2E2E2
310
E2E2E2E2E2E2E2E2E2E2E2E2E2E2E2E2E2E2E2E2E2E2E2E2E2E2E2E2E2E2E2E2E2E2E2E2E2E2E2E2E2E2E2E2E2E2E2E2E2E2E2E2E2E2E2E2E2E2E2E2E2E2E2E2E2E2E2E2E2E2E2E2F5E2E2E2E2E2E2F5EF00E2E2E2E2E2E2E2F5E2E2E2E2E2E2E2E2E2E2E2E2E2E2E2E2E2E2E2E2E2E2E2E2E2E2E2E2E2E2E2E2E2E2E2E2E2
310
E2E2E2E2E2E2E2E2E2E2E2E2E2E2E2E2E2E2E2E2E2E2E2E2E2E2E2E2E2E2E2E2E2E2E2E2E2E2E2E2E2E2E2E2E2F5E2E2E2E2E2E2F5EF00E2F5E2E2E2E2E2F5E2E2E2E2E2E2E2E2E2E2E2E2E2E2E2E2E2E2E2E2E2E2E2E2E2E2E2E2E2E2E2E2E2E2E2E2E2E2E2E2E2E2E2E2E2E2E2E2E2E2E2E2E2E2E2E2E2E2E2E2E2E2E2E2
310
E2E2E2E2E2E2E2E2E2E2E2E2E2E2E2E2E2E2F5E2E2E2F5E2E2F5EF00E2F5E2E2E2E2E2F5E2E2E2E2E2E2E2E2E2E2E2E2E2E2E2E2E2E2E2E2E2E2E2E2E2E2E2E2E2E2E2E2E2E2E2E2E2E2E2E2E2E2E2E2E2E2E2E2E2E2E2E2E2E2E2E2E2E2E2E2E2E2E2E2E2E2E2E2E2E2E2E2E2E2E2E2E2E2E2E2E2E2F5E2E2E2F5E2E2F5EF
310
00E2F5E2E2E2E2E2F5E2E2E2E2E2E2E2E2E2E2E2E2E2E2E2E2E2E2E2E2E2E2E2E2E2E2E2E2E2E2E2E2E2E2E2E2E2E2E2E2E2E2E2E2E2E2E2E2E2E2E2E2E2E2E2E2E2E2E2E2E2E2E2E2E2E2E2E2E2E2E2E2E2E2E2E2E2E2E2E2E2E2F5E2E2E2F5E2E2F5EF00E2F5E2E2E2E2E2F5E2E2E2E2E2E2E2E2E2E2E2E2E2E2E2E2E2E2
310
E2E2E2E2E2E2E2E2E2E2E2E2E2E2E2E2E2E2E2E2E2E2E2E2E2E2E2E2E2E2E2E2E2E2E2E2E2E2E2E2E2E2E2E2E2E2E2E2E2E2E2E2E2E2E2E2E2E2E2E2E2E2E2E2F5E2E2E2F5E2E2F5EF00E2F5E2E2E2E2E2F5E2E2E2E2E2E2E2E2E2E2E2E2E2E2E2E2E2E2E2E2E2E2E2E2E2E2E2E2E2E2E2E2E2E2E2E2E2E2E2E2E2E2E2E2E2
310
E2E2E2E2E2E2E2E2E2E2E2E2E2E2E2E2E2E2E2E2E2E2E2E2E2E2E2E2E2E2E2E2E2E2E2E2E2F5E2E2E2F5E2E2F5EF00E2F5E2E2E2E2E2F5E2E2E2E2E2E2E2E2E2E2E2E2E2E2E2E2E2E2E2E2E2E2E2E2E2E2E2E2E2E2E2E2E2E2E2E2E2E2E2E2E2E2E2E2E2E2E2E2E2E2E2E2E2E2E2E2E2E2E2E2E2E2E2E2E2E2E2E2E2E2E2E2
310
E2E2E2E2E2E2E2E2E2E2F5E2E2E2F5E2E2F5EF00E2F5E2E2E2E2E2F5E2E2E2E2E2E2E2E2E2E2E2E2E2E2E2E2E2E2E2E2E2E2E2E2E2E2E2E2E2E2E2E2E2E2E2E2E2E2E2E2E2E2E2E2E2E2E2E2E2E2E2E2E2E2E2E2E2E2E2E2E2E2E2E2E2E2E2E2E2E2E2E2E2E2E2E2E2E2E2E2E2E2F5E2E2E2F5E2E2F5EF00E2F5E2E2E2E2E2
310
F5E2E2E2E2E2E2E2E2E2E2E2E2E2E2E2E2E2E2E2E2E2E2E2E2E2E2E2E2E2E2E2E2E2E2E2E2E2E2E2E2E2E2E2E2E2E2E2E2E2E2E2E2E2E2E2E2E2E2E2E2E2E2E2E2E2E2E2E2E2E2E2E2E2E2E2E2E2E2E2E2E2E2F5E2E2E2F5E2E2F5EF00E2F5E2E2E2E2E2F5E2E2E2E2E2E2E2E2E2E2E2E2E2E2E2E2E2E2E2E2E2E2E2E2E2E2
310
E2E2DCDCDCDCDCDCDCDCDCDCDCDCDCDCDCDCDCDCDCDCDCDCDCDCDCDCE2E2E2E2E2E2E2E2E2E2E2E2E2E2E2E2E2E2E2E2E2E2E2E2E2E2E2E2F5E2E2E2F5E2E2F5EF00E2F5E2E2E2E2E2F5E2E2E2E2E2E2E2E2E2E2E2E2E2E2E2E2E2E2E2E2E2E2E2E2E2E2E2E2DCDCDCDCDCDCDCDCDCDCDCDCDCDCDCDCDCDCDCDCDCDCDCDCDC
310
DCE2E2E2E2E2E2E2E2E2E2E2E2E2E2E2E2E2E2E2E2E2E2E2E2E2E2E2E2F5E2E2E2F5E2E2F5EF00E2F5E2E2E2E2E2F5E2E2E2E2E2E2E2E2E2E2E2E2E2E2E2E2E2E2E2E2E2E2E2E2E2E2E2E2DCDCE2E2E2E2E2E2E2E2E2DCDCDCDCE2E2E2E2E2E2E2E2E2DCDCE2E2E2E2E2E2E2E2E2E2E2E2E2E2E2E2E2E2E2E2E2E2E2E2E2E2
310
E2E2F5E2E2E2F5E2E2F5EF00E2F5E2E2E2E2E2F5E2E2E2E2E2E2E2E2E2E2E2E2E2E2E2E2E2E2E2E2E2E2E2E2E2E2E2E2DCDCE2E2E2E2E2E2E2E2E2DCDCDCDCE2E2E2E2E2E2E2E2E2DCDCE2E2E2E2E2E2E2E2E2E2E2E2E2E2E2E2E2E2E2E2E2E2E2E2E2E2E2E2F5E2E2E2F5E2E2F5EF00E2F5E2E2E2E2E2F5E2E2E2E2E2E2E2
310
E2E2E2E2E2E2E2E2E2E2E2E2E2E2E2E2E2E2E2E2E2DCDCE2E2E2E2E2E2E2E2E2DCDCDCDCE2E2E2E2E2E2E2E2E2DCDCE2E2E2E2E2E2E2E2E2E2E2E2E2E2E2E2E2E2E2E2E2E2E2E2E2E2E2E2F5E2E2E2F5E2E2F5EF00E2F5E2E2E2E2E2F5E2E2E2E2E2E2E2E2E2E2E2E2E2E2E2E2E2E2E2E2E2E2E2E2E2E2E2E2DCDCE2E2E2E2
310
E2E2E2E2E2DCDCDCDCE2E2E2E2E2E2E2E2E2DCDCE2E2E2E2E2E2E2E2E2E2E2E2E2E2E2E2E2E2E2E2E2E2E2E2E2E2E2E2F5E2E2E2F5E2E2F5EF00E2F5E2E2E2E2E2F5E2E2E2E2E2E2E2E2E2E2E2E2E2E2E2E2E2E2E2E2E2E2E2E2E2E2E2E2DCDCE2E2E2E2E2E2E2E2E2DCDCDCDCE2E2E2E2E2E2E2E2E2DCDCE2E2E2E2E2E2E2
310
E2E2E2E2E2E2E2E2E2E2E2E2E2E2E2E2E2E2E2E2E2F5E2E2E2F5E2E2F5EF00E2F5E2E2E2E2E2F5E2E2E2E2E2E2E2E2E2E2E2E2E2E2E2E2E2E2E2E2E2E2E2E2E2E2E2E2DCDCE2E2E2E2E2E2E2E2E2DCDCDCDCE2E2E2E2E2E2E2E2E2DCDCE2E2E2E2E2E2E2E2E2E2E2E2E2E2E2E2E2E2E2E2E2E2E2E2E2E2E2E2F5E2E2E2F5E2
310
E2F5EF00E2F5E2E2E2E2E2F5E2E2E2E2E2E2E2E2E2E2E2E2E2E2E2E2E2E2E2E2E2E2E2E2E2E2E2E2DCDCE2E2E2E2E2E2E2E2E2DCDCDCDCE2E2E2E2E2E2E2E2E2DCDCE2E2E2E2E2E2E2E2E2E2E2E2E2E2E2E2E2E2E2E2E2E2E2E2E2E2E2E2F5E2E2E2F5E2E2F5EF00E2E2E2E2E2E2E2F5E2E2E2E2E2E2E2E2E2E2E2E2E2E2E2
310
E2E2E2E2E2E2E2E2E2E2E2E2E2DCDCE2E2E2E2E2E2E2E2E2DCDCDCDCE2E2E2E2E2E2E2E2E2DCDCE2E2E2E2E2E2E2E2E2E2E2E2E2E2E2E2E2E2E2E2E2E2E2E2E2E2E2E2F5E2E2E2E2E2E2F5EF00E2E2E2E2E2E2E2F5E2E2E2E2E2E2E2E2E2E2E2E2E2E2E2E2E2E2E2E2E2E2E2E2E2E2E2E2DCDCE2E2E2E2E2E2E2E2E2DCDCDC
310
DCE2E2E2E2E2E2E2E2E2DCDCE2E2E2E2E2E2E2E2E2E2E2E2E2E2E2E2E2E2E2E2E2E2E2E2E2E2E2E2F5E2E2E2E2E2E2F5EF00E2E2E2E2E2E2E2F5E2E2E2E2E2E2E2E2E2E2E2E2E2E2E2E2E2E2E2E2E2E2E2E2E2E2E2E2DCDCE2E2E2E2E2E2E2E2E2DCDCDCDCE2E2E2E2E2E2E2E2E2DCDCE2E2E2E2E2E2E2E2E2E2E2E2E2E2E2
310
E2E2E2E2E2E2E2E2E2E2E2E2E2F5E2E2E2E2E2E2F5EF00E2E2E2E2E2E2E2F5E2E2E2E2E2E2E2E2E2E2E2E2E2E2E2E2E2E2E2E2E2E2E2E2E2E2F5F5DCDCDCDCDCDCDCDCDCDCDCDCDCDCDCE2E2E2E2E2E2E2E2E2DCDCF5F5E2E2E2E2E2E2E2E2E2E2E2E2E2E2E2E2E2E2E2E2E2E2E2E2E2E2F5E2E2E2E2E2E2F5EF00E2E2E2E2
310
E2E2E2F5E2E2E2E2E2E2E2E2E2E2E2E2E2E2E2E2E2E2E2E2E2E2E2E2E2E2E2E2DCDCDCDCDCDCDCDCDCDCDCDCDCDCDCE2E2E2E2E2E2E2E2E2DCDCF5F5E2E2E2E2E2E2E2E2E2E2E2E2E2E2E2E2E2E2E2E2E2E2E2E2E2E2F5E2E2E2E2E2E2F5EF00E2E2E2E2E2E2E2F5E2E2E2E2E2E2E2E2E2E2E2E2E2E2E2E2E2E2E2E2E2E2E2
310
E2E2E2E2E2DCDCDCDCDCDCDCDCDCDCDCDCDCDCDCE2E2E2E2E2E2E2E2E2DCDCE2E2E2E2E2E2E2E2E2E2E2E2E2E2E2E2E2E2E2E2E2E2E2E2E2E2E2E2F5E2E2E2E2E2E2F5EF00E2E2E2E2E2E2E2F5E2E2E2E2E2E2E2E2E2E2E2E2E2E2E2E2E2E2E2E2E2E2E2E2E2E2ECE2DCDCF5E2E2E2E2E2E2E2F5DCDCDCDCE2E2E2E2E2E2E2
310
E2E2DCDCE2ECE2E2E2E2E2E2E2E2E2E2E2E2E2E2E2E2E2E2E2E2E2E2E2E2E2E2F5E2E2E2E2E2E2F5EF00E2E2E2E2E2E2E2F5E2E2E2E2E2E2E2E2E2E2E2E2E2E2E2E2E2E2E2E2E2E2E2E2E2E2ECE2DCDCF5E2E2E2E2E2E2E2F5DCDCDCDCE2E2E2E2E2E2E2E2E2DCDCE2ECE2E2E2E2E2E2E2E2E2E2E2E2E2E2E2E2E2E2E2E2E2
310
E2E2E2E2E2F5E2E2E2E2E2E2F5EF00E2E2E2E2E2E2E2F5E2E2E2E2E2E2E2E2E2E2E2E2E2E2E2E2E2E2E2E2E2E2E2E2E2E2ECE2DCDCE2F5E2E2E2E2E2F5E2DCDCDCDCE2E2E2E2E2E2E2E2E2DCDCE2ECE2E2E2E2E2E2E2E2E2E2E2E2E2E2E2E2E2E2E2E2E2E2E2E2E2E2F5E2E2E2E2E2E2F5EF00E2F5E2E2E2E2E2F5E2E2E2E2
310
E2E2E2E2E2E2E2E2E2E2E2E2E2E2E2E2E2E2E2E2E2E2ECE2DCDCE2F5F5E2E2E2F5F5E2DCDCDCDCE2E2E2E2E2E2E2E2E2DCDCE2ECE2E2E2E2E2E2E2E2E2E2E2E2E2E2E2E2E2E2E2E2E2E2E2E2E2E2F5E2E2E2F5E2E2F5EF00E2F5E2E2E2E2E2F5E2E2E2E2E2E2E2E2E2E2E2E2E2E2E2E2E2E2E2E2E2E2E2E2E2E2ECECECECEC
310
ECECE2E2E2F5E2E2DCDCDCDCE2E2E2E2E2E2ECECECECECECECE2E2E2E2E2E2E2E2E2E2E2E2E2E2E2E2E2E2E2E2E2E2E2E2E2E2F5E2E2E2F5E2E2F5EF00E2F5E2E2E2E2E2F5E2E2E2E2E2E2E2E2E2E2E2E2E2E2E2E2E2E2E2E2E2E2E2E2E2E2E2E2DCDCE2E2E2F5E2E2F5E2E2DCDCDCDCE2E2E2E2E2E2E2E2E2DCDCE2E2E2E2
310
E2E2E2E2E2E2E2E2E2E2E2E2E2E2E2E2E2E2E2E2E2E2E2E2F5E2E2E2F5E2E2F5EF00E2F5E2E2E2E2E2F5E2E2E2E2E2E2E2E2E2E2E2E2E2E2E2E2E2E2E2E2E2E2E2E2E2E2E2E2DCDCE2E2E2F5E2F5E2E2E2DCDCDCDCE2E2E2E2E2E2E2E2E2DCDCE2E2E2E2E2E2E2E2E2E2E2E2E2E2E2E2E2E2E2E2E2E2E2E2E2E2E2E2F5E2E2
310
E2F5E2E2F5EF00E2F5E2E2E2E2E2F5E2E2E2E2E2E2E2E2E2E2E2E2E2E2E2E2E2E2E2E2E2E2E2E2E2E2E2E2DCDCE2E2E2F5F5F5F5E2E2DCDCDCDCE2E2E2E2E2E2E2E2E2DCDCE2E2E2E2E2E2E2E2E2E2E2E2E2E2E2E2E2E2E2E2E2E2E2E2E2E2E2E2F5E2E2E2F5E2E2F5EF00E2F5E2E2E2E2E2F5E2E2E2E2E2E2E2E2E2E2E2E2
310
E2E2E2E2E2E2E2E2E2E2E2E2E2E2E2E2DCDCE2E2E2E2E2E2E2E2E2DCDCDCDCE2E2E2E2E2E2E2E2E2DCDCE2E2E2E2E2E2E2E2E2E2E2E2E2E2E2E2E2E2E2E2E2E2E2E2E2E2E2E2F5E2E2E2F5E2E2F5EF00E2F5E2E2E2E2E2F5E2E2E2E2E2E2E2E2E2E2E2E2E2E2E2E2E2E2E2E2E2E2E2E2E2E2E2E2DCDCDCDCDCDCDCDCDCDCDC
310
DCDCDCDCDCDCDCDCDCDCDCDCDCDCDCE2E2E2E2E2E2E2E2E2E2E2E2E2E2E2E2E2E2E2E2E2E2E2E2E2E2E2E2F5E2E2E2F5E2E2F5EF00E2F5E2E2E2E2E2F5E2E2E2E2E2E2E2E2E2E2E2E2E2E2E2E2E2E2E2E2E2E2E2E2E2E2E2E2DCDCDCDCDCDCDCDCDCDCDCDCDCDCDCDCDCDCDCDCDCDCDCDCDCDCE2E2E2E2E2E2E2E2E2E2E2E2
310
E2E2E2E2E2E2E2E2E2E2E2E2E2E2E2E2F5E2E2E2F5E2E2F5EF00E2F5E2E2E2E2E2F5E2E2E2E2E2E2E2E2E2E2E2E2E2E2E2E2E2E2E2E2E2E2E2E2E2E2E2E2E2E2E2E2E2E2E2E2E2E2E2E2E2E2E2E2E2E2E2E2E2E2E2E2E2E2E2E2E2E2E2E2E2E2E2E2E2E2E2E2E2E2E2E2E2E2E2E2E2E2E2E2E2E2F5E2E2E2F5E2E2F5EF00E2
310
F5E2E2E2E2E2F5E2E2E2E2E2E2E2E2E2E2E2E2E2E2E2E2E2E2E2E2E2E2E2E2E2E2E2E2E2E2E2E2E2E2E2E2E2E2E2E2E2E2E2E2E2E2E2E2E2E2E2E2E2E2E2E2E2E2E2E2E2E2E2E2E2E2E2E2E2E2E2E2E2E2E2E2E2E2E2E2E2E2F5E2E2E2F5E2E2F5EF00E2F5E2E2E2E2E2F5E2E2E2E2E2E2E2E2E2E2E2E2E2E2E2E2E2E2E2E2
310
E2E2E2E2E2E2E2E2E2E2E2E2E2E2E2E2E2E2E2E2E2E2E2E2E2E2E2E2E2E2E2E2E2E2E2E2E2E2E2E2E2E2E2E2E2E2E2E2E2E2E2E2E2E2E2E2E2E2E2E2E2E2F5E2E2E2F5E2E2F5EF40E2F5E2E2E2E2E2F5E2E2E2E2E2E2E2E2E2E2E2E2E2E2E2E2E2E2E2E2E2E2E2E2E2E2E2E2E2E2E2E2E2E2E2E2E2E2E2E2E2E2E2E2E2E2E2
310
E2E2E2E2E2E2E2E2E2E2E2E2E2E2E2E2E2E2E2E2E2E2E2E2E2E2E2E2E2E2E2E2E2E2E2F5E2E2E2F5E2E2F5EF00E2F5E2E2E2E2E2F5E2E2E2E2E2E2E2E2E2E2E2E2E2E2E2E2E2E2E2E2E2E2E2E2E2E2E2E2E2E2E2E2E2E2E2E2E2E2E2E2E2E2E2E2E2E2E2E2E2E2E2E2E2E2E2E2E2E2E2E2E2E2E2E2E2E2E2E2E2E2E2E2E2E2
310
E2E2E2E2E2E2E2E2F5E2E2E2F5E2E2F5EF00E2F5E2E2E2E2E2F5E2E2E2E2E2E2E2E2E2E2E2E2E2E2E2E2E2E2E2E2E2E2E2E2E2E2E2E2E2E2E2E2E2E2E2E2E2E2E2E2E2E2E2E2E2E2E2E2E2E2E2E2E2E2E2E2E2E2E2E2E2E2E2E2E2E2E2E2E2E2E2E2E2E2E2E2E2E2E2E2E2E2F5E2E2E2F5E2E2F5EF00E2F5E2E2E2E2E2F5E2
310
E2E2E2E2E2E2E2E2E2E2E2E2E2E2E2E2E2E2E2E2E2E2E2E2E2E2E2E2E2E2E2E2E2E2E2E2E2E2E2E2E2E2E2E2E2E2E2E2E2E2E2E2E2E2E2E2E2E2E2E2E2E2E2E2E2E2E2E2E2E2E2E2E2E2E2E2E2E2E2E2E2F5E2E2E2F5E2E2F5EF00E2F5E2E2E2E2E2F5E2E2E2E2E2E2E2E2E2E2E2E2E2E2E2E2E2E2E2E2E2E2E2E2E2E2E2E2
310
E2E2E2E2E2E2E2E2E2E2E2E2E2E2E2E2E2E2E2E2E2E2E2E2E2E2E2E2E2E2E2E2E2E2E2E2E2E2E2E2E2E2E2E2E2E2E2E2E2E2E2E2E2E2F5E2E2E2F5E2E2F5EF00E2F5E2E2E2E2E2F5E2E2E2E2E2E2E2E2E2E2E2E2E2E2E2E2E2E2E2E2E2E2E2E2E2E2E2E2E2E2E2E2E2E2E2E2E2E2E2E2E2E2E2E2E2E2E2E2E2E2E2E2E2E2E2
310
E2E2E2E2E2E2E2E2E2E2E2E2E2E2E2E2E2E2E2E2E2E2E2E2E2E2E2F5E2E2E2F5E2E2F5EF00E2E2E2E2E2E2E2F5E2E2E2E2E2E2E2E2E2E2E2E2E2E2E2E2E2E2E2E2E2E2E2E2E2E2E2E2E2E2E2E2E2E2E2E2E2E2E2E2E2E2E2E2E2E2E2E2E2E2E2E2E2E2E2E2E2E2E2E2E2E2E2E2E2E2E2E2E2E2E2E2E2E2E2E2E2E2E2E2E2E2
310
F5E2E2E2E2E2E2F5EF00E2E2E2E2E2E2E2F5E2E2E2E2E2E2E2E2E2E2E2E2E2E2E2E2E2E2E2E2E2E2E2E2E2E2E2E2E2E2E2E2E2E2E2E2E2E2E2E2E2E2E2E2E2E2E2E2E2E2E2E2E2E2E2E2E2E2E2E2E2E2E2E2E2E2E2E2E2E2E2E2E2E2E2E2E2E2E2E2E2E2F5E2E2E2E2E2E2F5EF00E2E2E2E2E2E2E2F5F5F5F5F5F5F5F5F5F5
310
F5F5F5F5F5F5F5F5F5F5F5F5F5F5F5F5F5F5F5F5F5F5F5F5F5F5F5F5F5F5F5F5F5F5F5F5F5F5F5F5F5F5F5F5F5F5F5F5F5F5F5F5F5F5F5F5F5F5F5F5F5F5F5F5F5F5F5F5F5F5F5F5F5F5E2E2E2E2E2E2F5EF00E2E2E2E2E2E2E2E2E2E2E2E2E2E2E2E2E2E2E2E2E2E2E2E2E2E2E2E2E2E2E2E2E2E2E2E2E2E2E2E2E2E2E2E2
310
E2E2E2E2E2E2E2E2E2E2E2E2E2E2E2E2E2E2E2E2E2E2E2E2E2E2E2E2E2E2E2E2E2E2E2E2E2E2E2E2E2E2E2E2E2E2E2E2E2E2E2E2E2F5EF00E2E2E2E2E2E2E2E2E2E2E2E2E2E2E2E2E2E2E2E2E2E2E2E2E2E2E2E2E2E2E2E2E2E2E2E2E2E2E2E2E2E2E2E2E2E2E2E2E2E2E2E2E2E2E2E2E2E2E2E2E2E2E2E2E2E2E2E2E2E2E2
310
E2E2E2E2E2E2E2E2E2E2E2E2E2E2E2E2E2E2E2E2E2E2E2E2E2E2F5EF00E2E2E2E2E2E2E2E2E2E2E2E2E2E2E2E2E2E2E2E2E2E2E2E2E2E2E2E2E2E2E2E2E2E2E2E2E2E2E2E2E2E2E2E2E2E2E2E2E2E2E2E2E2E2E2E2E2E2E2E2E2E2E2E2E2E2E2E2E2E2E2E2E2E2E2E2E2E2E2E2E2E2E2E2E2E2E2E2E2E2E2E2E2E2E2E2E2F5
310
EF00E2E2E2E2E2E2E2E2E2E2E2E2E2E2E2E2E2E2E2E2E2E2E2E2E2F5F5F5F5F5F5F5F5F5F5F5F5F5F5E2E2E2F5F5F5F5F5F5F5E2E2F5F5F5F5F5F5F5F5F5F5F5E2E2E2E2E2E2E2E2E2E2E2E2E2E2E2E2E2E2E2E2E2E2E2E2E2E2E2E2E2E2E2E2E2E2E2F5EF00E2E2E2E2E2E2E2E2E2F5F5F5F5F5F5F5F5F5F5F5F5E2E2E2E2
310
F5F5F5F5F5F5F5F5F5F5F5F5F5F5E2E2E2F5F5F5F5F5F5F5E2E2F5F5F5F5F5F5F5F5F5F5F5E2E2E2E2E2E2E2E2E2E2E2E2E2E2E2E2E2E2E2E2E2E2E2E2E2E2E2E2E2E2E2E2E2E2E2F5EF00E2E2E2E2E2E2E2E2F5F5F5F5F5F5F5F5F5F5F5F5F5F5F5E2E2F5F5F5F5F5F5F5F5F5F5F5F5F5F5F5F5F5F5F5F5F5F5F5F5F5F5F5
310
F5F5F5F5F5F5F5F5F5F5F5F5F5F5F5F5F5F5F5F5F5F5F5F5F5F5F5F5F5F5F5F5F5F5F5F5F5F5F5E2E2E2E2E2E2F5EF00E2E2E2E2E2E2E2F5F5F5F5F5F5F5F5F5F5F5F5F5F5F5F5F5E2F5F5F5F5F5F5F5F5F5F5F5F5F5F5F5F5F5F5F5F5F5F5F5F5F5F5F5F5F5F5F5F5F5F5F5F5F5F5F5F5F5F5F5F5F5F5F5F5F5F5F5F5F5F5
310
F5F5F5F5F5F5F5F5F5F5F5F5E2E2E2E2E2E2F5EF00E2F5E2E2E2E2E2F5F5F5F5F5F5F5F5F5F5F5F5F5F5E2E2F5E2F5F5F5F5F5F5F5F5F5F5F5F5F5F5F5F5F5F5F5E2E2E2E2E2E2E2E2E2E2E2E2E2E2E2E2E2E2E2E2E2E2E2E2E2E2E2E2E2E2E2E2E2E2E2E2E2E2E2E2E2E2E2E2E2E2E2E2E2E2F5E2E2F5EF00E2F5E2E2E2E2
310
E2F5F5E2F5F5F5F5F5F5F5F5F5F5F5E2E2F5E2E2E2E2E2E2E2E2E2E2E2E2E2E2E2E2E2E2E2E2E2E2E2E2E2E2E2E2E2E2E2E2E2E2E2E2E2E2E2E2E2E2E2E2E2E2E2E2E2E2E2E2E2E2E2E2E2E2E2E2E2E2E2E2E2E2E2E2E2E2F5E2E2F5EF00E2F5E2E2E2E2E2E2F5F5F5F5F5F5F5F5F5F5F5E2E2F5F5F5E2F5F5F5F5F5F5F5F5
310
F5F5F5F5F5F5F5F5F5F5F5F5F5F5F5F5F5F5F5F5F5F5F5F5F5F5F5F5F5F5F5F5F5F5F5F5F5F5F5F5F5F5E2E2E2E2E2E2E2E2E2E2E2E2E2E2E2E2E2E2E2F5E2E2F5EF00E2F5E2E2E2E2E2E2E2F5F5F5F5F5F5E2E2F5F5F5F5F5F5E2E2F5F5F5F5F5F5F5F5F5F5F5F5F5F5F5F5F5F5F5F5F5F5F5F5F5F5F5F5F5F5F5F5F5F5F5
310
F5F5F5F5F5F5F5F5F5F5F5F5F5F5F5E2E2E2E2E2E2E2E2E2E2E2E2E2E2E2E2E2E2E2F5E2E2F5EF00E2F5E2E2E2E2E2E2E2E2E2E2F5F5F5F5F5F5F5F5E2E2E2E2E2E2E2E2E2E2E2E2E2E2E2E2E2E2E2E2E2E2E2E2E2E2E2E2E2E2E2E2E2E2E2E2E2E2E2E2E2E2E2E2E2E2E2E2E2E2E2E2E2E2E2E2E2E2E2E2E2E2E2E2E2E2E2
310
E2E2E2E2E2E2E2F5E2E2F5EF00E2F5E2E2E2E2E2E2E2E2E2E2E2E2E2E2E2E2E2E2E2E2E2E2E2E2E2E2E2E2E2E2E2E2E2E2E2E2E2E2E2E2E2E2E2E2E2E2E2E2E2E2E2E2E2E2E2E2E2E2E2E2E2E2E2E2E2E2E2E2E2E2E2E2E2E2E2E2E2E2E2E2E2E2E2E2E2E2E2E2E2E2E2E2F5E2E2F5EF00E2F5E2E2E2E2E2E2E2E2E2E2E2E2
310
E2E2E2E2E2E2E2E2E2E2E2E2E2E2E2E2E2E2E2E2E2E2E2E2E2E2E2E2E2E2E2E2E2E2E2E2E2E2E2E2E2E2E2E2E2E2E2E2E2E2E2E2E2E2E2E2E2E2E2E2E2E2E2E2E2E2E2E2E2E2E2E2E2E2E2E2E2E2E2E2F5E2E2F5EF00E2F5E2E2E2E2E2E2E2E2E2E2E2E2E2E2E2E2E2E2E2E2E2E2E2E2E2E2E2E2E2E2E2E2E2E2E2E2E2E2E2
310
E2E2E2E2E2E2E2E2E2E2E2E2E2E2E2E2E2E2E2E2E2E2E2E2E2E2E2E2E2E2E2E2E2E2E2E2E2E2E2E2E2E2E2E2E2E2E2E2E2E2E2E2E2F5E2E2F5EF00E2F5F5F5F5F5F5F5F5E2E2E2E2E2E2E2E2F5F5F5F5F5F5F5F5F5F5F5F5F5F5F5E2E2E2E2E2E2E2E2E2F5F5F5F5F5F5F5F5F5F5F5F5F5F5E2E2E2E2E2E2E2E2E2F5F5F5F5
310
F5F5F5F5F5F5F5F5F5F5F5E2E2E2E2E2E2E2E2F5F5F5F5F5F5F5F5E2E2F5EF00E2E2E2E2E2E2E2E2E2E2E2E2E2E2E2E2E2E2E2E2E2E2E2E2E2E2E2E2E2E2E2E2E2E2E2E2E2E2E2E2E2E2E2E2E2E2E2E2E2E2E2E2E2E2E2E2E2E2E2E2E2E2E2E2E2E2E2E2E2E2E2E2E2E2E2E2E2E2E2E2E2E2E2E2E2E2E2E2E2E2E2E2E2E2E2
310
E2E2F5EF00E2E2E2E2E2E2E2E2E2E2E2E2E2E2E2E2E2E2E2E2E2E2E2E2E2E2E2E2E2E2E2E2E2E2E2E2E2E2E2E2E2E2E2E2E2E2E2E2E2E2E2E2E2E2E2E2E2E2E2E2E2E2E2E2E2E2E2E2E2E2E2E2E2E2E2E2E2E2E2E2E2E2E2E2E2E2E2E2E2E2E2E2E2E2E2E2E2F5EF00F5F5F5F5F5F5F5F5F5F5F5F5F5F5F5F5F5F5F5F5F5F5
310
F5F5F5F5F5F5F5F5F5F5F5F5F5F5F5F5F5F5F5F5F5F5F5F5F5F5F5F5F5F5F5F5F5F5F5F5F5F5F5F5F5F5F5F5F5F5F5F5F5F5F5F5F5F5F5F5F5F5F5F5F5F5F5F5F5F5F5F5F5F5F5F5F5F5F5F5EF00
  0
XRECORD
  5
3365
102
{ACAD_REACTORS
330
2B92
102
}
330
2B92
100
AcDbXrecord
280
     1
102
MATERIAL
148
0.0
149
0.0
149
0.0
 93
        0
 94
      127
282
     0
 72
     0
 77
     0
171
     0
175
     0
179
     0
273
     0
  0
XRECORD
  5
2B94
102
{ACAD_REACTORS
330
2B92
102
}
330
2B92
100
AcDbXrecord
280
     1
270
     1
271
     1
  0
XRECORD
  5
2B93
102
{ACAD_REACTORS
330
2B92
102
}
330
2B92
100
AcDbXrecord
280
     1
270
     1
271
     1
  0
XRECORD
  5
2B97
102
{ACAD_REACTORS
330
2B92
102
}
330
2B92
100
AcDbXrecord
280
     1
270
     1
271
     1
  0
XRECORD
  5
2B96
102
{ACAD_REACTORS
330
2B92
102
}
330
2B92
100
AcDbXrecord
280
     1
270
     1
271
     1
  0
XRECORD
  5
2B98
102
{ACAD_REACTORS
330
2B92
102
}
330
2B92
100
AcDbXrecord
280
     1
270
     1
271
     1
  0
XRECORD
  5
2B95
102
{ACAD_REACTORS
330
2B92
102
}
330
2B92
100
AcDbXrecord
280
     1
270
     1
271
     1
  0
XRECORD
  5
3364
102
{ACAD_REACTORS
330
2B8A
102
}
330
2B8A
100
AcDbXrecord
280
     1
102
MATERIAL
148
0.0
149
0.0
149
0.0
 93
        0
 94
      127
282
     0
 72
     0
 77
     0
171
     0
175
     0
179
     0
273
     0
  0
XRECORD
  5
2B8C
102
{ACAD_REACTORS
330
2B8A
102
}
330
2B8A
100
AcDbXrecord
280
     1
270
     1
271
     1
  0
XRECORD
  5
2B8B
102
{ACAD_REACTORS
330
2B8A
102
}
330
2B8A
100
AcDbXrecord
280
     1
270
     1
271
     1
  0
XRECORD
  5
2B8F
102
{ACAD_REACTORS
330
2B8A
102
}
330
2B8A
100
AcDbXrecord
280
     1
270
     1
271
     1
  0
XRECORD
  5
2B8E
102
{ACAD_REACTORS
330
2B8A
102
}
330
2B8A
100
AcDbXrecord
280
     1
270
     1
271
     1
  0
XRECORD
  5
2B90
102
{ACAD_REACTORS
330
2B8A
102
}
330
2B8A
100
AcDbXrecord
280
     1
270
     1
271
     1
  0
XRECORD
  5
2B8D
102
{ACAD_REACTORS
330
2B8A
102
}
330
2B8A
100
AcDbXrecord
280
     1
270
     1
271
     1
  0
XRECORD
  5
3366
102
{ACAD_REACTORS
330
2B9A
102
}
330
2B9A
100
AcDbXrecord
280
     1
102
MATERIAL
148
0.0
149
0.0
149
0.0
 93
        0
 94
      127
282
     0
 72
     0
 77
     0
171
     0
175
     0
179
     0
273
     0
  0
XRECORD
  5
2B9C
102
{ACAD_REACTORS
330
2B9A
102
}
330
2B9A
100
AcDbXrecord
280
     1
270
     1
271
     1
  0
XRECORD
  5
2B9B
102
{ACAD_REACTORS
330
2B9A
102
}
330
2B9A
100
AcDbXrecord
280
     1
270
     1
271
     1
  0
XRECORD
  5
2B9F
102
{ACAD_REACTORS
330
2B9A
102
}
330
2B9A
100
AcDbXrecord
280
     1
270
     1
271
     1
  0
XRECORD
  5
2B9E
102
{ACAD_REACTORS
330
2B9A
102
}
330
2B9A
100
AcDbXrecord
280
     1
270
     1
271
     1
  0
XRECORD
  5
2BA0
102
{ACAD_REACTORS
330
2B9A
102
}
330
2B9A
100
AcDbXrecord
280
     1
270
     1
271
     1
  0
XRECORD
  5
2B9D
102
{ACAD_REACTORS
330
2B9A
102
}
330
2B9A
100
AcDbXrecord
280
     1
270
     1
271
     1
  0
XRECORD
  5
335C
102
{ACAD_REACTORS
330
335B
102
}
330
335B
100
AcDbXrecord
280
     1
102
SHADEPLOT
 70
     0
102
SHADEPLOTRESLEVEL
 70
     2
102
SHADEPLOTCUSTOMDPI
 70
   300
  0
XRECORD
  5
335E
102
{ACAD_REACTORS
330
335D
102
}
330
335D
100
AcDbXrecord
280
     1
102
SHADEPLOT
 70
     0
102
SHADEPLOTRESLEVEL
 70
     2
102
SHADEPLOTCUSTOMDPI
 70
   300
  0
CELLSTYLEMAP
  5
3356
102
{ACAD_REACTORS
330
2EB2
102
}
330
2EB2
100
AcDbCellStyleMap
 90
        3
300
CELLSTYLE
  1
TABLEFORMAT_BEGIN
 90
        5
170
     1
 91
        0
 92
    32768
 62
   257
 93
        1
300
CONTENTFORMAT
  1
CONTENTFORMAT_BEGIN
 90
        0
 91
        0
 92
      512
 93
        0
300

 40
0.0
140
1.0
 94
        5
 62
     0
340
11
144
6.0
309
CONTENTFORMAT_END
171
     1
301
MARGIN
  1
CELLMARGIN_BEGIN
 40
1.5
 40
1.5
 40
1.5
 40
1.5
 40
0.18
 40
0.18
309
CELLMARGIN_END
 94
        6
 95
        1
302
GRIDFORMAT
  1
GRIDFORMAT_BEGIN
 90
        0
 91
        1
 62
     0
 92
       -2
340
0
 93
        0
 40
1.125
309
GRIDFORMAT_END
 95
        2
302
GRIDFORMAT
  1
GRIDFORMAT_BEGIN
 90
        0
 91
        1
 62
     0
 92
       -2
340
0
 93
        0
 40
1.125
309
GRIDFORMAT_END
 95
        4
302
GRIDFORMAT
  1
GRIDFORMAT_BEGIN
 90
        0
 91
        1
 62
     0
 92
       -2
340
0
 93
        0
 40
1.125
309
GRIDFORMAT_END
 95
        8
302
GRIDFORMAT
  1
GRIDFORMAT_BEGIN
 90
        0
 91
        1
 62
     0
 92
       -2
340
0
 93
        0
 40
1.125
309
GRIDFORMAT_END
 95
       16
302
GRIDFORMAT
  1
GRIDFORMAT_BEGIN
 90
        0
 91
        1
 62
     0
 92
       -2
340
0
 93
        0
 40
1.125
309
GRIDFORMAT_END
 95
       32
302
GRIDFORMAT
  1
GRIDFORMAT_BEGIN
 90
        0
 91
        1
 62
     0
 92
       -2
340
0
 93
        0
 40
1.125
309
GRIDFORMAT_END
309
TABLEFORMAT_END
  1
CELLSTYLE_BEGIN
 90
        1
 91
        1
300
_TITLE
309
CELLSTYLE_END
300
CELLSTYLE
  1
TABLEFORMAT_BEGIN
 90
        5
170
     1
 91
        0
 92
        0
 62
   257
 93
        1
300
CONTENTFORMAT
  1
CONTENTFORMAT_BEGIN
 90
        0
 91
        0
 92
      512
 93
        0
300

 40
0.0
140
1.0
 94
        5
 62
     0
340
11
144
4.5
309
CONTENTFORMAT_END
171
     1
301
MARGIN
  1
CELLMARGIN_BEGIN
 40
1.5
 40
1.5
 40
1.5
 40
1.5
 40
0.18
 40
0.18
309
CELLMARGIN_END
 94
        6
 95
        1
302
GRIDFORMAT
  1
GRIDFORMAT_BEGIN
 90
        0
 91
        1
 62
     0
 92
       -2
340
0
 93
        0
 40
1.125
309
GRIDFORMAT_END
 95
        2
302
GRIDFORMAT
  1
GRIDFORMAT_BEGIN
 90
        0
 91
        1
 62
     0
 92
       -2
340
0
 93
        0
 40
1.125
309
GRIDFORMAT_END
 95
        4
302
GRIDFORMAT
  1
GRIDFORMAT_BEGIN
 90
        0
 91
        1
 62
     0
 92
       -2
340
0
 93
        0
 40
1.125
309
GRIDFORMAT_END
 95
        8
302
GRIDFORMAT
  1
GRIDFORMAT_BEGIN
 90
        0
 91
        1
 62
     0
 92
       -2
340
0
 93
        0
 40
1.125
309
GRIDFORMAT_END
 95
       16
302
GRIDFORMAT
  1
GRIDFORMAT_BEGIN
 90
        0
 91
        1
 62
     0
 92
       -2
340
0
 93
        0
 40
1.125
309
GRIDFORMAT_END
 95
       32
302
GRIDFORMAT
  1
GRIDFORMAT_BEGIN
 90
        0
 91
        1
 62
     0
 92
       -2
340
0
 93
        0
 40
1.125
309
GRIDFORMAT_END
309
TABLEFORMAT_END
  1
CELLSTYLE_BEGIN
 90
        2
 91
        1
300
_HEADER
309
CELLSTYLE_END
300
CELLSTYLE
  1
TABLEFORMAT_BEGIN
 90
        5
170
     1
 91
        0
 92
        0
 62
   257
 93
        1
300
CONTENTFORMAT
  1
CONTENTFORMAT_BEGIN
 90
        0
 91
        0
 92
      512
 93
        0
300

 40
0.0
140
1.0
 94
        2
 62
     0
340
11
144
4.5
309
CONTENTFORMAT_END
171
     1
301
MARGIN
  1
CELLMARGIN_BEGIN
 40
1.5
 40
1.5
 40
1.5
 40
1.5
 40
0.18
 40
0.18
309
CELLMARGIN_END
 94
        6
 95
        1
302
GRIDFORMAT
  1
GRIDFORMAT_BEGIN
 90
        0
 91
        1
 62
     0
 92
       -2
340
0
 93
        0
 40
1.125
309
GRIDFORMAT_END
 95
        2
302
GRIDFORMAT
  1
GRIDFORMAT_BEGIN
 90
        0
 91
        1
 62
     0
 92
       -2
340
0
 93
        0
 40
1.125
309
GRIDFORMAT_END
 95
        4
302
GRIDFORMAT
  1
GRIDFORMAT_BEGIN
 90
        0
 91
        1
 62
     0
 92
       -2
340
0
 93
        0
 40
1.125
309
GRIDFORMAT_END
 95
        8
302
GRIDFORMAT
  1
GRIDFORMAT_BEGIN
 90
        0
 91
        1
 62
     0
 92
       -2
340
0
 93
        0
 40
1.125
309
GRIDFORMAT_END
 95
       16
302
GRIDFORMAT
  1
GRIDFORMAT_BEGIN
 90
        0
 91
        1
 62
     0
 92
       -2
340
0
 93
        0
 40
1.125
309
GRIDFORMAT_END
 95
       32
302
GRIDFORMAT
  1
GRIDFORMAT_BEGIN
 90
        0
 91
        1
 62
     0
 92
       -2
340
0
 93
        0
 40
1.125
309
GRIDFORMAT_END
309
TABLEFORMAT_END
  1
CELLSTYLE_BEGIN
 90
        3
 91
        2
300
_DATA
309
CELLSTYLE_END
  0
XRECORD
  5
3387
102
{ACAD_REACTORS
330
2EB2
102
}
330
2EB2
100
AcDbXrecord
280
     1
102
ACAD_ROUNDTRIP_PRE2007_TABLESTYLE
 90
      512
 91
        0
  1

 92
      512
 93
        0
  2

 94
      512
 95
        0
  3

  0
XRECORD
  5
3372
102
{ACAD_REACTORS
330
3371
102
}
330
3371
100
AcDbXrecord
280
     1
102
RTVSPost2010Prop28
280
     1
102
RTVSPost2010PropOp28
 70
     1
102
RTVSPost2010Prop29
280
     1
102
RTVSPost2010PropOp29
 70
     1
102
RTVSPost2010Prop30
280
     0
102
RTVSPost2010PropOp30
 70
     1
102
RTVSPost2010Prop31
280
     0
102
RTVSPost2010PropOp31
 70
     1
102
RTVSPost2010Prop32
280
     0
102
RTVSPost2010PropOp32
 70
     1
102
RTVSPost2010Prop33
280
     0
102
RTVSPost2010PropOp33
 70
     1
102
RTVSPost2010Prop34
280
     0
102
RTVSPost2010PropOp34
 70
     1
102
RTVSPost2010Prop35
280
     0
102
RTVSPost2010PropOp35
 70
     1
102
RTVSPost2010Prop36
280
     0
102
RTVSPost2010PropOp36
 70
     1
102
RTVSPost2010Prop37
 90
       50
102
RTVSPost2010PropOp37
 70
     1
102
RTVSPost2010Prop38
140
0.0
102
RTVSPost2010PropOp38
 70
     1
102
RTVSPost2010Prop39
140
1.0
102
RTVSPost2010PropOp39
 70
     1
102
RTVSPost2010Prop40
 90
        0
102
RTVSPost2010PropOp40
 70
     1
102
RTVSPost2010Prop41ColorIndex
 90
       18
102
RTVSPost2010Prop41ColorRGB
 90
        0
102
RTVSPost2010PropOp41
 70
     1
102
RTVSPost2010Prop42
 90
       50
102
RTVSPost2010PropOp42
 70
     1
102
RTVSPost2010Prop43
 90
        3
102
RTVSPost2010PropOp43
 70
     1
102
RTVSPost2010Prop44ColorIndex
 90
        5
102
RTVSPost2010Prop44ColorRGB
 90
      255
102
RTVSPost2010PropOp44
 70
     1
102
RTVSPost2010Prop45
280
     0
102
RTVSPost2010PropOp45
 70
     1
102
RTVSPost2010Prop46
 90
       50
102
RTVSPost2010PropOp46
 70
     1
102
RTVSPost2010Prop47
 90
       50
102
RTVSPost2010PropOp47
 70
     1
102
RTVSPost2010Prop48
 90
       50
102
RTVSPost2010PropOp48
 70
     1
102
RTVSPost2010Prop49
280
     0
102
RTVSPost2010PropOp49
 70
     1
102
RTVSPost2010Prop50
 90
       50
102
RTVSPost2010PropOp50
 70
     1
102
RTVSPost2010Prop51ColorIndex
 90
      256
102
RTVSPost2010Prop51ColorRGB
 90
-16777216
102
RTVSPost2010PropOp51
 70
     0
102
RTVSPost2010Prop52
140
1.0
102
RTVSPost2010PropOp52
 70
     0
102
RTVSPost2010Prop53
 90
        2
102
RTVSPost2010PropOp53
 70
     1
102
RTVSPost2010Prop54
  1
strokes_ogs.tif
102
RTVSPost2010PropOp54
 70
     1
102
RTVSPost2010Prop55
280
     0
102
RTVSPost2010PropOp55
 70
     1
102
RTVSPost2010Prop56
140
1.0
102
RTVSPost2010PropOp56
 70
     1
102
RTVSPost2010Prop57
140
1.0
102
RTVSPost2010PropOp57
 70
     1
102
RTVSPropertyOp0
 70
     1
102
RTVSPropertyOp1
 70
     1
102
RTVSPropertyOp2
 70
     1
102
RTVSPropertyOp3
 70
     1
102
RTVSPropertyOp4
 70
     1
102
RTVSPropertyOp5
 70
     1
102
RTVSPropertyOp6
 70
     1
102
RTVSPropertyOp7
 70
     1
102
RTVSPropertyOp8
 70
     1
102
RTVSPropertyOp9
 70
     1
102
RTVSPropertyOp10
 70
     1
102
RTVSPropertyOp11
 70
     1
102
RTVSPropertyOp12
 70
     1
102
RTVSPropertyOp13
 70
     1
102
RTVSPropertyOp14
 70
     1
102
RTVSPropertyOp15
 70
     1
102
RTVSPropertyOp16
 70
     1
102
RTVSPropertyOp17
 70
     1
102
RTVSPropertyOp18
 70
     1
102
RTVSPropertyOp19
 70
     1
102
RTVSPropertyOp20
 70
     1
102
RTVSPropertyOp21
 70
     1
102
RTVSPropertyOp22
 70
     1
102
RTVSPropertyOp23
 70
     1
102
RTVSPropertyOp24
 70
     1
102
RTVSPropertyOp25
 70
     1
102
RTVSPropertyOp26
 70
     1
102
RTVSPropertyOp27
 70
     1
102
RTVSPropertyOp28
 70
     1
102
RTVSPropertyOp29
 70
     1
102
RTVSPropertyOp30
 70
     1
102
RTVSPropertyOp31
 70
     1
102
RTVSPropertyOp32
 70
     1
102
RTVSPropertyOp33
 70
     1
102
RTVSPropertyOp34
 70
     1
102
RTVSPropertyOp35
 70
     1
102
RTVSPropertyOp36
 70
     1
102
RTVSPropertyOp37
 70
     1
102
RTVSPropertyOp38
 70
     1
102
RTVSPropertyOp39
 70
     1
102
RTVSPropertyOp40
 70
     1
102
RTVSPropertyOp41
 70
     1
102
RTVSPropertyOp42
 70
     1
102
RTVSPropertyOp43
 70
     1
102
RTVSPropertyOp44
 70
     1
102
RTVSPropertyOp45
 70
     1
102
RTVSPropertyOp46
 70
     1
102
RTVSPropertyOp47
 70
     1
102
RTVSPropertyOp48
 70
     1
102
RTVSPropertyOp49
 70
     1
102
RTVSPropertyOp50
 70
     1
102
RTVSPropertyOp51
 70
     0
102
RTVSPropertyOp52
 70
     0
102
RTVSPropertyOp53
 70
     1
102
RTVSPropertyOp54
 70
     1
102
RTVSPropertyOp55
 70
     1
102
RTVSPropertyOp56
 70
     1
102
RTVSPropertyOp57
 70
     1
102
RTVSPropertyOp58
 70
     1
102
RTVSPropertyOp59
 70
     1
102
RTVSPropertyOp60
 70
     1
102
RTVSPropertyOp61
 70
     1
102
RTVSPropertyOp62
 70
     1
  0
XRECORD
  5
3376
102
{ACAD_REACTORS
330
3375
102
}
330
3375
100
AcDbXrecord
280
     1
102
RTVSPost2010Prop28
280
     0
102
RTVSPost2010PropOp28
 70
     1
102
RTVSPost2010Prop29
280
     1
102
RTVSPost2010PropOp29
 70
     1
102
RTVSPost2010Prop30
280
     1
102
RTVSPost2010PropOp30
 70
     1
102
RTVSPost2010Prop31
280
     0
102
RTVSPost2010PropOp31
 70
     1
102
RTVSPost2010Prop32
280
     0
102
RTVSPost2010PropOp32
 70
     1
102
RTVSPost2010Prop33
280
     0
102
RTVSPost2010PropOp33
 70
     1
102
RTVSPost2010Prop34
280
     0
102
RTVSPost2010PropOp34
 70
     1
102
RTVSPost2010Prop35
280
     0
102
RTVSPost2010PropOp35
 70
     1
102
RTVSPost2010Prop36
280
     0
102
RTVSPost2010PropOp36
 70
     1
102
RTVSPost2010Prop37
 90
       50
102
RTVSPost2010PropOp37
 70
     1
102
RTVSPost2010Prop38
140
0.0
102
RTVSPost2010PropOp38
 70
     1
102
RTVSPost2010Prop39
140
1.0
102
RTVSPost2010PropOp39
 70
     1
102
RTVSPost2010Prop40
 90
        0
102
RTVSPost2010PropOp40
 70
     1
102
RTVSPost2010Prop41ColorIndex
 90
       18
102
RTVSPost2010Prop41ColorRGB
 90
        0
102
RTVSPost2010PropOp41
 70
     1
102
RTVSPost2010Prop42
 90
       50
102
RTVSPost2010PropOp42
 70
     1
102
RTVSPost2010Prop43
 90
        3
102
RTVSPost2010PropOp43
 70
     1
102
RTVSPost2010Prop44ColorIndex
 90
        5
102
RTVSPost2010Prop44ColorRGB
 90
      255
102
RTVSPost2010PropOp44
 70
     1
102
RTVSPost2010Prop45
280
     0
102
RTVSPost2010PropOp45
 70
     1
102
RTVSPost2010Prop46
 90
       50
102
RTVSPost2010PropOp46
 70
     1
102
RTVSPost2010Prop47
 90
       50
102
RTVSPost2010PropOp47
 70
     1
102
RTVSPost2010Prop48
 90
       50
102
RTVSPost2010PropOp48
 70
     1
102
RTVSPost2010Prop49
280
     0
102
RTVSPost2010PropOp49
 70
     1
102
RTVSPost2010Prop50
 90
       50
102
RTVSPost2010PropOp50
 70
     1
102
RTVSPost2010Prop51ColorIndex
 90
      256
102
RTVSPost2010Prop51ColorRGB
 90
-16777216
102
RTVSPost2010PropOp51
 70
     0
102
RTVSPost2010Prop52
140
1.0
102
RTVSPost2010PropOp52
 70
     0
102
RTVSPost2010Prop53
 90
        2
102
RTVSPost2010PropOp53
 70
     1
102
RTVSPost2010Prop54
  1
strokes_ogs.tif
102
RTVSPost2010PropOp54
 70
     1
102
RTVSPost2010Prop55
280
     0
102
RTVSPost2010PropOp55
 70
     1
102
RTVSPost2010Prop56
140
1.0
102
RTVSPost2010PropOp56
 70
     1
102
RTVSPost2010Prop57
140
1.0
102
RTVSPost2010PropOp57
 70
     1
102
RTVSPropertyOp0
 70
     1
102
RTVSPropertyOp1
 70
     1
102
RTVSPropertyOp2
 70
     1
102
RTVSPropertyOp3
 70
     1
102
RTVSPropertyOp4
 70
     1
102
RTVSPropertyOp5
 70
     1
102
RTVSPropertyOp6
 70
     1
102
RTVSPropertyOp7
 70
     1
102
RTVSPropertyOp8
 70
     1
102
RTVSPropertyOp9
 70
     1
102
RTVSPropertyOp10
 70
     1
102
RTVSPropertyOp11
 70
     1
102
RTVSPropertyOp12
 70
     1
102
RTVSPropertyOp13
 70
     1
102
RTVSPropertyOp14
 70
     1
102
RTVSPropertyOp15
 70
     1
102
RTVSPropertyOp16
 70
     1
102
RTVSPropertyOp17
 70
     1
102
RTVSPropertyOp18
 70
     1
102
RTVSPropertyOp19
 70
     1
102
RTVSPropertyOp20
 70
     1
102
RTVSPropertyOp21
 70
     1
102
RTVSPropertyOp22
 70
     1
102
RTVSPropertyOp23
 70
     1
102
RTVSPropertyOp24
 70
     1
102
RTVSPropertyOp25
 70
     1
102
RTVSPropertyOp26
 70
     1
102
RTVSPropertyOp27
 70
     1
102
RTVSPropertyOp28
 70
     1
102
RTVSPropertyOp29
 70
     1
102
RTVSPropertyOp30
 70
     1
102
RTVSPropertyOp31
 70
     1
102
RTVSPropertyOp32
 70
     1
102
RTVSPropertyOp33
 70
     1
102
RTVSPropertyOp34
 70
     1
102
RTVSPropertyOp35
 70
     1
102
RTVSPropertyOp36
 70
     1
102
RTVSPropertyOp37
 70
     1
102
RTVSPropertyOp38
 70
     1
102
RTVSPropertyOp39
 70
     1
102
RTVSPropertyOp40
 70
     1
102
RTVSPropertyOp41
 70
     1
102
RTVSPropertyOp42
 70
     1
102
RTVSPropertyOp43
 70
     1
102
RTVSPropertyOp44
 70
     1
102
RTVSPropertyOp45
 70
     1
102
RTVSPropertyOp46
 70
     1
102
RTVSPropertyOp47
 70
     1
102
RTVSPropertyOp48
 70
     1
102
RTVSPropertyOp49
 70
     1
102
RTVSPropertyOp50
 70
     1
102
RTVSPropertyOp51
 70
     0
102
RTVSPropertyOp52
 70
     0
102
RTVSPropertyOp53
 70
     1
102
RTVSPropertyOp54
 70
     1
102
RTVSPropertyOp55
 70
     1
102
RTVSPropertyOp56
 70
     1
102
RTVSPropertyOp57
 70
     1
102
RTVSPropertyOp58
 70
     1
102
RTVSPropertyOp59
 70
     1
102
RTVSPropertyOp60
 70
     1
102
RTVSPropertyOp61
 70
     1
102
RTVSPropertyOp62
 70
     1
  0
XRECORD
  5
3374
102
{ACAD_REACTORS
330
3373
102
}
330
3373
100
AcDbXrecord
280
     1
102
RTVSPost2010Prop28
280
     0
102
RTVSPost2010PropOp28
 70
     1
102
RTVSPost2010Prop29
280
     1
102
RTVSPost2010PropOp29
 70
     1
102
RTVSPost2010Prop30
280
     1
102
RTVSPost2010PropOp30
 70
     1
102
RTVSPost2010Prop31
280
     0
102
RTVSPost2010PropOp31
 70
     1
102
RTVSPost2010Prop32
280
     0
102
RTVSPost2010PropOp32
 70
     1
102
RTVSPost2010Prop33
280
     0
102
RTVSPost2010PropOp33
 70
     1
102
RTVSPost2010Prop34
280
     0
102
RTVSPost2010PropOp34
 70
     1
102
RTVSPost2010Prop35
280
     0
102
RTVSPost2010PropOp35
 70
     1
102
RTVSPost2010Prop36
280
     0
102
RTVSPost2010PropOp36
 70
     1
102
RTVSPost2010Prop37
 90
       50
102
RTVSPost2010PropOp37
 70
     1
102
RTVSPost2010Prop38
140
0.0
102
RTVSPost2010PropOp38
 70
     1
102
RTVSPost2010Prop39
140
1.0
102
RTVSPost2010PropOp39
 70
     1
102
RTVSPost2010Prop40
 90
        0
102
RTVSPost2010PropOp40
 70
     1
102
RTVSPost2010Prop41ColorIndex
 90
       18
102
RTVSPost2010Prop41ColorRGB
 90
        0
102
RTVSPost2010PropOp41
 70
     1
102
RTVSPost2010Prop42
 90
       50
102
RTVSPost2010PropOp42
 70
     1
102
RTVSPost2010Prop43
 90
        3
102
RTVSPost2010PropOp43
 70
     1
102
RTVSPost2010Prop44ColorIndex
 90
        5
102
RTVSPost2010Prop44ColorRGB
 90
      255
102
RTVSPost2010PropOp44
 70
     1
102
RTVSPost2010Prop45
280
     0
102
RTVSPost2010PropOp45
 70
     1
102
RTVSPost2010Prop46
 90
       50
102
RTVSPost2010PropOp46
 70
     1
102
RTVSPost2010Prop47
 90
       50
102
RTVSPost2010PropOp47
 70
     1
102
RTVSPost2010Prop48
 90
       50
102
RTVSPost2010PropOp48
 70
     1
102
RTVSPost2010Prop49
280
     0
102
RTVSPost2010PropOp49
 70
     1
102
RTVSPost2010Prop50
 90
       50
102
RTVSPost2010PropOp50
 70
     1
102
RTVSPost2010Prop51ColorIndex
 90
      256
102
RTVSPost2010Prop51ColorRGB
 90
-16777216
102
RTVSPost2010PropOp51
 70
     0
102
RTVSPost2010Prop52
140
1.0
102
RTVSPost2010PropOp52
 70
     0
102
RTVSPost2010Prop53
 90
        2
102
RTVSPost2010PropOp53
 70
     1
102
RTVSPost2010Prop54
  1
strokes_ogs.tif
102
RTVSPost2010PropOp54
 70
     1
102
RTVSPost2010Prop55
280
     0
102
RTVSPost2010PropOp55
 70
     1
102
RTVSPost2010Prop56
140
1.0
102
RTVSPost2010PropOp56
 70
     1
102
RTVSPost2010Prop57
140
1.0
102
RTVSPost2010PropOp57
 70
     1
102
RTVSPropertyOp0
 70
     1
102
RTVSPropertyOp1
 70
     1
102
RTVSPropertyOp2
 70
     1
102
RTVSPropertyOp3
 70
     1
102
RTVSPropertyOp4
 70
     1
102
RTVSPropertyOp5
 70
     1
102
RTVSPropertyOp6
 70
     1
102
RTVSPropertyOp7
 70
     1
102
RTVSPropertyOp8
 70
     1
102
RTVSPropertyOp9
 70
     1
102
RTVSPropertyOp10
 70
     1
102
RTVSPropertyOp11
 70
     1
102
RTVSPropertyOp12
 70
     1
102
RTVSPropertyOp13
 70
     1
102
RTVSPropertyOp14
 70
     1
102
RTVSPropertyOp15
 70
     1
102
RTVSPropertyOp16
 70
     1
102
RTVSPropertyOp17
 70
     1
102
RTVSPropertyOp18
 70
     1
102
RTVSPropertyOp19
 70
     1
102
RTVSPropertyOp20
 70
     1
102
RTVSPropertyOp21
 70
     1
102
RTVSPropertyOp22
 70
     1
102
RTVSPropertyOp23
 70
     1
102
RTVSPropertyOp24
 70
     1
102
RTVSPropertyOp25
 70
     1
102
RTVSPropertyOp26
 70
     1
102
RTVSPropertyOp27
 70
     1
102
RTVSPropertyOp28
 70
     1
102
RTVSPropertyOp29
 70
     1
102
RTVSPropertyOp30
 70
     1
102
RTVSPropertyOp31
 70
     1
102
RTVSPropertyOp32
 70
     1
102
RTVSPropertyOp33
 70
     1
102
RTVSPropertyOp34
 70
     1
102
RTVSPropertyOp35
 70
     1
102
RTVSPropertyOp36
 70
     1
102
RTVSPropertyOp37
 70
     1
102
RTVSPropertyOp38
 70
     1
102
RTVSPropertyOp39
 70
     1
102
RTVSPropertyOp40
 70
     1
102
RTVSPropertyOp41
 70
     1
102
RTVSPropertyOp42
 70
     1
102
RTVSPropertyOp43
 70
     1
102
RTVSPropertyOp44
 70
     1
102
RTVSPropertyOp45
 70
     1
102
RTVSPropertyOp46
 70
     1
102
RTVSPropertyOp47
 70
     1
102
RTVSPropertyOp48
 70
     1
102
RTVSPropertyOp49
 70
     1
102
RTVSPropertyOp50
 70
     1
102
RTVSPropertyOp51
 70
     0
102
RTVSPropertyOp52
 70
     0
102
RTVSPropertyOp53
 70
     1
102
RTVSPropertyOp54
 70
     1
102
RTVSPropertyOp55
 70
     1
102
RTVSPropertyOp56
 70
     1
102
RTVSPropertyOp57
 70
     1
102
RTVSPropertyOp58
 70
     1
102
RTVSPropertyOp59
 70
     1
102
RTVSPropertyOp60
 70
     1
102
RTVSPropertyOp61
 70
     1
102
RTVSPropertyOp62
 70
     1
  0
XRECORD
  5
3370
102
{ACAD_REACTORS
330
336F
102
}
330
336F
100
AcDbXrecord
280
     1
102
RTVSPost2010Prop28
280
     0
102
RTVSPost2010PropOp28
 70
     1
102
RTVSPost2010Prop29
280
     1
102
RTVSPost2010PropOp29
 70
     1
102
RTVSPost2010Prop30
280
     1
102
RTVSPost2010PropOp30
 70
     1
102
RTVSPost2010Prop31
280
     0
102
RTVSPost2010PropOp31
 70
     1
102
RTVSPost2010Prop32
280
     0
102
RTVSPost2010PropOp32
 70
     1
102
RTVSPost2010Prop33
280
     0
102
RTVSPost2010PropOp33
 70
     1
102
RTVSPost2010Prop34
280
     0
102
RTVSPost2010PropOp34
 70
     1
102
RTVSPost2010Prop35
280
     0
102
RTVSPost2010PropOp35
 70
     1
102
RTVSPost2010Prop36
280
     0
102
RTVSPost2010PropOp36
 70
     1
102
RTVSPost2010Prop37
 90
       50
102
RTVSPost2010PropOp37
 70
     1
102
RTVSPost2010Prop38
140
0.0
102
RTVSPost2010PropOp38
 70
     1
102
RTVSPost2010Prop39
140
1.0
102
RTVSPost2010PropOp39
 70
     1
102
RTVSPost2010Prop40
 90
        0
102
RTVSPost2010PropOp40
 70
     1
102
RTVSPost2010Prop41ColorIndex
 90
       18
102
RTVSPost2010Prop41ColorRGB
 90
        0
102
RTVSPost2010PropOp41
 70
     1
102
RTVSPost2010Prop42
 90
       50
102
RTVSPost2010PropOp42
 70
     1
102
RTVSPost2010Prop43
 90
        3
102
RTVSPost2010PropOp43
 70
     1
102
RTVSPost2010Prop44ColorIndex
 90
        5
102
RTVSPost2010Prop44ColorRGB
 90
      255
102
RTVSPost2010PropOp44
 70
     1
102
RTVSPost2010Prop45
280
     0
102
RTVSPost2010PropOp45
 70
     1
102
RTVSPost2010Prop46
 90
       50
102
RTVSPost2010PropOp46
 70
     1
102
RTVSPost2010Prop47
 90
       50
102
RTVSPost2010PropOp47
 70
     1
102
RTVSPost2010Prop48
 90
       50
102
RTVSPost2010PropOp48
 70
     1
102
RTVSPost2010Prop49
280
     0
102
RTVSPost2010PropOp49
 70
     1
102
RTVSPost2010Prop50
 90
       50
102
RTVSPost2010PropOp50
 70
     1
102
RTVSPost2010Prop51ColorIndex
 90
      256
102
RTVSPost2010Prop51ColorRGB
 90
-16777216
102
RTVSPost2010PropOp51
 70
     0
102
RTVSPost2010Prop52
140
1.0
102
RTVSPost2010PropOp52
 70
     0
102
RTVSPost2010Prop53
 90
        2
102
RTVSPost2010PropOp53
 70
     1
102
RTVSPost2010Prop54
  1
strokes_ogs.tif
102
RTVSPost2010PropOp54
 70
     1
102
RTVSPost2010Prop55
280
     0
102
RTVSPost2010PropOp55
 70
     1
102
RTVSPost2010Prop56
140
1.0
102
RTVSPost2010PropOp56
 70
     1
102
RTVSPost2010Prop57
140
1.0
102
RTVSPost2010PropOp57
 70
     1
102
RTVSPropertyOp0
 70
     1
102
RTVSPropertyOp1
 70
     1
102
RTVSPropertyOp2
 70
     1
102
RTVSPropertyOp3
 70
     1
102
RTVSPropertyOp4
 70
     1
102
RTVSPropertyOp5
 70
     1
102
RTVSPropertyOp6
 70
     1
102
RTVSPropertyOp7
 70
     1
102
RTVSPropertyOp8
 70
     1
102
RTVSPropertyOp9
 70
     1
102
RTVSPropertyOp10
 70
     1
102
RTVSPropertyOp11
 70
     1
102
RTVSPropertyOp12
 70
     1
102
RTVSPropertyOp13
 70
     1
102
RTVSPropertyOp14
 70
     1
102
RTVSPropertyOp15
 70
     1
102
RTVSPropertyOp16
 70
     1
102
RTVSPropertyOp17
 70
     1
102
RTVSPropertyOp18
 70
     1
102
RTVSPropertyOp19
 70
     1
102
RTVSPropertyOp20
 70
     1
102
RTVSPropertyOp21
 70
     1
102
RTVSPropertyOp22
 70
     1
102
RTVSPropertyOp23
 70
     1
102
RTVSPropertyOp24
 70
     1
102
RTVSPropertyOp25
 70
     1
102
RTVSPropertyOp26
 70
     1
102
RTVSPropertyOp27
 70
     1
102
RTVSPropertyOp28
 70
     1
102
RTVSPropertyOp29
 70
     1
102
RTVSPropertyOp30
 70
     1
102
RTVSPropertyOp31
 70
     1
102
RTVSPropertyOp32
 70
     1
102
RTVSPropertyOp33
 70
     1
102
RTVSPropertyOp34
 70
     1
102
RTVSPropertyOp35
 70
     1
102
RTVSPropertyOp36
 70
     1
102
RTVSPropertyOp37
 70
     1
102
RTVSPropertyOp38
 70
     1
102
RTVSPropertyOp39
 70
     1
102
RTVSPropertyOp40
 70
     1
102
RTVSPropertyOp41
 70
     1
102
RTVSPropertyOp42
 70
     1
102
RTVSPropertyOp43
 70
     1
102
RTVSPropertyOp44
 70
     1
102
RTVSPropertyOp45
 70
     1
102
RTVSPropertyOp46
 70
     1
102
RTVSPropertyOp47
 70
     1
102
RTVSPropertyOp48
 70
     1
102
RTVSPropertyOp49
 70
     1
102
RTVSPropertyOp50
 70
     1
102
RTVSPropertyOp51
 70
     0
102
RTVSPropertyOp52
 70
     0
102
RTVSPropertyOp53
 70
     1
102
RTVSPropertyOp54
 70
     1
102
RTVSPropertyOp55
 70
     1
102
RTVSPropertyOp56
 70
     1
102
RTVSPropertyOp57
 70
     1
102
RTVSPropertyOp58
 70
     1
102
RTVSPropertyOp59
 70
     1
102
RTVSPropertyOp60
 70
     1
102
RTVSPropertyOp61
 70
     1
102
RTVSPropertyOp62
 70
     1
  0
XRECORD
  5
337E
102
{ACAD_REACTORS
330
337D
102
}
330
337D
100
AcDbXrecord
280
     1
102
RTVSPost2010Prop28
280
     0
102
RTVSPost2010PropOp28
 70
     1
102
RTVSPost2010Prop29
280
     1
102
RTVSPost2010PropOp29
 70
     1
102
RTVSPost2010Prop30
280
     1
102
RTVSPost2010PropOp30
 70
     1
102
RTVSPost2010Prop31
280
     0
102
RTVSPost2010PropOp31
 70
     1
102
RTVSPost2010Prop32
280
     0
102
RTVSPost2010PropOp32
 70
     1
102
RTVSPost2010Prop33
280
     0
102
RTVSPost2010PropOp33
 70
     1
102
RTVSPost2010Prop34
280
     0
102
RTVSPost2010PropOp34
 70
     1
102
RTVSPost2010Prop35
280
     0
102
RTVSPost2010PropOp35
 70
     1
102
RTVSPost2010Prop36
280
     0
102
RTVSPost2010PropOp36
 70
     1
102
RTVSPost2010Prop37
 90
       50
102
RTVSPost2010PropOp37
 70
     1
102
RTVSPost2010Prop38
140
0.0
102
RTVSPost2010PropOp38
 70
     1
102
RTVSPost2010Prop39
140
1.0
102
RTVSPost2010PropOp39
 70
     1
102
RTVSPost2010Prop40
 90
        0
102
RTVSPost2010PropOp40
 70
     1
102
RTVSPost2010Prop41ColorIndex
 90
       18
102
RTVSPost2010Prop41ColorRGB
 90
        0
102
RTVSPost2010PropOp41
 70
     1
102
RTVSPost2010Prop42
 90
       50
102
RTVSPost2010PropOp42
 70
     1
102
RTVSPost2010Prop43
 90
        3
102
RTVSPost2010PropOp43
 70
     1
102
RTVSPost2010Prop44ColorIndex
 90
        5
102
RTVSPost2010Prop44ColorRGB
 90
      255
102
RTVSPost2010PropOp44
 70
     1
102
RTVSPost2010Prop45
280
     0
102
RTVSPost2010PropOp45
 70
     1
102
RTVSPost2010Prop46
 90
       50
102
RTVSPost2010PropOp46
 70
     1
102
RTVSPost2010Prop47
 90
       50
102
RTVSPost2010PropOp47
 70
     1
102
RTVSPost2010Prop48
 90
       50
102
RTVSPost2010PropOp48
 70
     1
102
RTVSPost2010Prop49
280
     0
102
RTVSPost2010PropOp49
 70
     1
102
RTVSPost2010Prop50
 90
       50
102
RTVSPost2010PropOp50
 70
     1
102
RTVSPost2010Prop51ColorIndex
 90
      256
102
RTVSPost2010Prop51ColorRGB
 90
-16777216
102
RTVSPost2010PropOp51
 70
     0
102
RTVSPost2010Prop52
140
1.0
102
RTVSPost2010PropOp52
 70
     0
102
RTVSPost2010Prop53
 90
        2
102
RTVSPost2010PropOp53
 70
     1
102
RTVSPost2010Prop54
  1
strokes_ogs.tif
102
RTVSPost2010PropOp54
 70
     1
102
RTVSPost2010Prop55
280
     0
102
RTVSPost2010PropOp55
 70
     1
102
RTVSPost2010Prop56
140
1.0
102
RTVSPost2010PropOp56
 70
     1
102
RTVSPost2010Prop57
140
1.0
102
RTVSPost2010PropOp57
 70
     1
102
RTVSPropertyOp0
 70
     1
102
RTVSPropertyOp1
 70
     1
102
RTVSPropertyOp2
 70
     1
102
RTVSPropertyOp3
 70
     1
102
RTVSPropertyOp4
 70
     1
102
RTVSPropertyOp5
 70
     1
102
RTVSPropertyOp6
 70
     1
102
RTVSPropertyOp7
 70
     1
102
RTVSPropertyOp8
 70
     1
102
RTVSPropertyOp9
 70
     1
102
RTVSPropertyOp10
 70
     1
102
RTVSPropertyOp11
 70
     1
102
RTVSPropertyOp12
 70
     1
102
RTVSPropertyOp13
 70
     1
102
RTVSPropertyOp14
 70
     1
102
RTVSPropertyOp15
 70
     1
102
RTVSPropertyOp16
 70
     1
102
RTVSPropertyOp17
 70
     1
102
RTVSPropertyOp18
 70
     1
102
RTVSPropertyOp19
 70
     1
102
RTVSPropertyOp20
 70
     1
102
RTVSPropertyOp21
 70
     1
102
RTVSPropertyOp22
 70
     1
102
RTVSPropertyOp23
 70
     1
102
RTVSPropertyOp24
 70
     1
102
RTVSPropertyOp25
 70
     1
102
RTVSPropertyOp26
 70
     1
102
RTVSPropertyOp27
 70
     1
102
RTVSPropertyOp28
 70
     1
102
RTVSPropertyOp29
 70
     1
102
RTVSPropertyOp30
 70
     1
102
RTVSPropertyOp31
 70
     1
102
RTVSPropertyOp32
 70
     1
102
RTVSPropertyOp33
 70
     1
102
RTVSPropertyOp34
 70
     1
102
RTVSPropertyOp35
 70
     1
102
RTVSPropertyOp36
 70
     1
102
RTVSPropertyOp37
 70
     1
102
RTVSPropertyOp38
 70
     1
102
RTVSPropertyOp39
 70
     1
102
RTVSPropertyOp40
 70
     1
102
RTVSPropertyOp41
 70
     1
102
RTVSPropertyOp42
 70
     1
102
RTVSPropertyOp43
 70
     1
102
RTVSPropertyOp44
 70
     1
102
RTVSPropertyOp45
 70
     1
102
RTVSPropertyOp46
 70
     1
102
RTVSPropertyOp47
 70
     1
102
RTVSPropertyOp48
 70
     1
102
RTVSPropertyOp49
 70
     1
102
RTVSPropertyOp50
 70
     1
102
RTVSPropertyOp51
 70
     0
102
RTVSPropertyOp52
 70
     0
102
RTVSPropertyOp53
 70
     1
102
RTVSPropertyOp54
 70
     1
102
RTVSPropertyOp55
 70
     1
102
RTVSPropertyOp56
 70
     1
102
RTVSPropertyOp57
 70
     1
102
RTVSPropertyOp58
 70
     1
102
RTVSPropertyOp59
 70
     1
102
RTVSPropertyOp60
 70
     1
102
RTVSPropertyOp61
 70
     1
102
RTVSPropertyOp62
 70
     1
  0
XRECORD
  5
3386
102
{ACAD_REACTORS
330
3385
102
}
330
3385
100
AcDbXrecord
280
     1
102
RTVSPost2010Prop28
280
     0
102
RTVSPost2010PropOp28
 70
     1
102
RTVSPost2010Prop29
280
     1
102
RTVSPost2010PropOp29
 70
     1
102
RTVSPost2010Prop30
280
     1
102
RTVSPost2010PropOp30
 70
     1
102
RTVSPost2010Prop31
280
     0
102
RTVSPost2010PropOp31
 70
     1
102
RTVSPost2010Prop32
280
     0
102
RTVSPost2010PropOp32
 70
     1
102
RTVSPost2010Prop33
280
     0
102
RTVSPost2010PropOp33
 70
     1
102
RTVSPost2010Prop34
280
     0
102
RTVSPost2010PropOp34
 70
     1
102
RTVSPost2010Prop35
280
     0
102
RTVSPost2010PropOp35
 70
     1
102
RTVSPost2010Prop36
280
     0
102
RTVSPost2010PropOp36
 70
     1
102
RTVSPost2010Prop37
 90
       50
102
RTVSPost2010PropOp37
 70
     1
102
RTVSPost2010Prop38
140
0.0
102
RTVSPost2010PropOp38
 70
     1
102
RTVSPost2010Prop39
140
1.0
102
RTVSPost2010PropOp39
 70
     1
102
RTVSPost2010Prop40
 90
        0
102
RTVSPost2010PropOp40
 70
     1
102
RTVSPost2010Prop41ColorIndex
 90
       18
102
RTVSPost2010Prop41ColorRGB
 90
        0
102
RTVSPost2010PropOp41
 70
     1
102
RTVSPost2010Prop42
 90
       50
102
RTVSPost2010PropOp42
 70
     1
102
RTVSPost2010Prop43
 90
        3
102
RTVSPost2010PropOp43
 70
     1
102
RTVSPost2010Prop44ColorIndex
 90
        5
102
RTVSPost2010Prop44ColorRGB
 90
      255
102
RTVSPost2010PropOp44
 70
     1
102
RTVSPost2010Prop45
280
     0
102
RTVSPost2010PropOp45
 70
     1
102
RTVSPost2010Prop46
 90
       50
102
RTVSPost2010PropOp46
 70
     1
102
RTVSPost2010Prop47
 90
       50
102
RTVSPost2010PropOp47
 70
     1
102
RTVSPost2010Prop48
 90
       50
102
RTVSPost2010PropOp48
 70
     1
102
RTVSPost2010Prop49
280
     0
102
RTVSPost2010PropOp49
 70
     1
102
RTVSPost2010Prop50
 90
       50
102
RTVSPost2010PropOp50
 70
     1
102
RTVSPost2010Prop51ColorIndex
 90
      256
102
RTVSPost2010Prop51ColorRGB
 90
-16777216
102
RTVSPost2010PropOp51
 70
     0
102
RTVSPost2010Prop52
140
1.0
102
RTVSPost2010PropOp52
 70
     0
102
RTVSPost2010Prop53
 90
        2
102
RTVSPost2010PropOp53
 70
     1
102
RTVSPost2010Prop54
  1
strokes_ogs.tif
102
RTVSPost2010PropOp54
 70
     1
102
RTVSPost2010Prop55
280
     0
102
RTVSPost2010PropOp55
 70
     1
102
RTVSPost2010Prop56
140
1.0
102
RTVSPost2010PropOp56
 70
     1
102
RTVSPost2010Prop57
140
1.0
102
RTVSPost2010PropOp57
 70
     1
102
RTVSPropertyOp0
 70
     1
102
RTVSPropertyOp1
 70
     1
102
RTVSPropertyOp2
 70
     1
102
RTVSPropertyOp3
 70
     1
102
RTVSPropertyOp4
 70
     1
102
RTVSPropertyOp5
 70
     1
102
RTVSPropertyOp6
 70
     1
102
RTVSPropertyOp7
 70
     1
102
RTVSPropertyOp8
 70
     1
102
RTVSPropertyOp9
 70
     1
102
RTVSPropertyOp10
 70
     1
102
RTVSPropertyOp11
 70
     1
102
RTVSPropertyOp12
 70
     1
102
RTVSPropertyOp13
 70
     1
102
RTVSPropertyOp14
 70
     1
102
RTVSPropertyOp15
 70
     1
102
RTVSPropertyOp16
 70
     1
102
RTVSPropertyOp17
 70
     1
102
RTVSPropertyOp18
 70
     1
102
RTVSPropertyOp19
 70
     1
102
RTVSPropertyOp20
 70
     1
102
RTVSPropertyOp21
 70
     1
102
RTVSPropertyOp22
 70
     1
102
RTVSPropertyOp23
 70
     1
102
RTVSPropertyOp24
 70
     1
102
RTVSPropertyOp25
 70
     1
102
RTVSPropertyOp26
 70
     1
102
RTVSPropertyOp27
 70
     1
102
RTVSPropertyOp28
 70
     1
102
RTVSPropertyOp29
 70
     1
102
RTVSPropertyOp30
 70
     1
102
RTVSPropertyOp31
 70
     1
102
RTVSPropertyOp32
 70
     1
102
RTVSPropertyOp33
 70
     1
102
RTVSPropertyOp34
 70
     1
102
RTVSPropertyOp35
 70
     1
102
RTVSPropertyOp36
 70
     1
102
RTVSPropertyOp37
 70
     1
102
RTVSPropertyOp38
 70
     1
102
RTVSPropertyOp39
 70
     1
102
RTVSPropertyOp40
 70
     1
102
RTVSPropertyOp41
 70
     1
102
RTVSPropertyOp42
 70
     1
102
RTVSPropertyOp43
 70
     1
102
RTVSPropertyOp44
 70
     1
102
RTVSPropertyOp45
 70
     1
102
RTVSPropertyOp46
 70
     1
102
RTVSPropertyOp47
 70
     1
102
RTVSPropertyOp48
 70
     1
102
RTVSPropertyOp49
 70
     1
102
RTVSPropertyOp50
 70
     1
102
RTVSPropertyOp51
 70
     0
102
RTVSPropertyOp52
 70
     0
102
RTVSPropertyOp53
 70
     1
102
RTVSPropertyOp54
 70
     1
102
RTVSPropertyOp55
 70
     1
102
RTVSPropertyOp56
 70
     1
102
RTVSPropertyOp57
 70
     1
102
RTVSPropertyOp58
 70
     1
102
RTVSPropertyOp59
 70
     1
102
RTVSPropertyOp60
 70
     1
102
RTVSPropertyOp61
 70
     1
102
RTVSPropertyOp62
 70
     1
  0
XRECORD
  5
3378
102
{ACAD_REACTORS
330
3377
102
}
330
3377
100
AcDbXrecord
280
     1
102
RTVSPost2010Prop28
280
     0
102
RTVSPost2010PropOp28
 70
     1
102
RTVSPost2010Prop29
280
     1
102
RTVSPost2010PropOp29
 70
     1
102
RTVSPost2010Prop30
280
     1
102
RTVSPost2010PropOp30
 70
     1
102
RTVSPost2010Prop31
280
     0
102
RTVSPost2010PropOp31
 70
     1
102
RTVSPost2010Prop32
280
     0
102
RTVSPost2010PropOp32
 70
     1
102
RTVSPost2010Prop33
280
     0
102
RTVSPost2010PropOp33
 70
     1
102
RTVSPost2010Prop34
280
     0
102
RTVSPost2010PropOp34
 70
     1
102
RTVSPost2010Prop35
280
     0
102
RTVSPost2010PropOp35
 70
     1
102
RTVSPost2010Prop36
280
     0
102
RTVSPost2010PropOp36
 70
     1
102
RTVSPost2010Prop37
 90
       50
102
RTVSPost2010PropOp37
 70
     1
102
RTVSPost2010Prop38
140
0.0
102
RTVSPost2010PropOp38
 70
     1
102
RTVSPost2010Prop39
140
1.0
102
RTVSPost2010PropOp39
 70
     1
102
RTVSPost2010Prop40
 90
        0
102
RTVSPost2010PropOp40
 70
     1
102
RTVSPost2010Prop41ColorIndex
 90
       18
102
RTVSPost2010Prop41ColorRGB
 90
        0
102
RTVSPost2010PropOp41
 70
     1
102
RTVSPost2010Prop42
 90
       50
102
RTVSPost2010PropOp42
 70
     1
102
RTVSPost2010Prop43
 90
        3
102
RTVSPost2010PropOp43
 70
     1
102
RTVSPost2010Prop44ColorIndex
 90
        5
102
RTVSPost2010Prop44ColorRGB
 90
      255
102
RTVSPost2010PropOp44
 70
     1
102
RTVSPost2010Prop45
280
     0
102
RTVSPost2010PropOp45
 70
     1
102
RTVSPost2010Prop46
 90
       50
102
RTVSPost2010PropOp46
 70
     1
102
RTVSPost2010Prop47
 90
       50
102
RTVSPost2010PropOp47
 70
     1
102
RTVSPost2010Prop48
 90
       50
102
RTVSPost2010PropOp48
 70
     1
102
RTVSPost2010Prop49
280
     0
102
RTVSPost2010PropOp49
 70
     1
102
RTVSPost2010Prop50
 90
       50
102
RTVSPost2010PropOp50
 70
     1
102
RTVSPost2010Prop51ColorIndex
 90
      256
102
RTVSPost2010Prop51ColorRGB
 90
-16777216
102
RTVSPost2010PropOp51
 70
     0
102
RTVSPost2010Prop52
140
1.0
102
RTVSPost2010PropOp52
 70
     0
102
RTVSPost2010Prop53
 90
        2
102
RTVSPost2010PropOp53
 70
     1
102
RTVSPost2010Prop54
  1
strokes_ogs.tif
102
RTVSPost2010PropOp54
 70
     1
102
RTVSPost2010Prop55
280
     0
102
RTVSPost2010PropOp55
 70
     1
102
RTVSPost2010Prop56
140
1.0
102
RTVSPost2010PropOp56
 70
     1
102
RTVSPost2010Prop57
140
1.0
102
RTVSPost2010PropOp57
 70
     1
102
RTVSPropertyOp0
 70
     1
102
RTVSPropertyOp1
 70
     1
102
RTVSPropertyOp2
 70
     1
102
RTVSPropertyOp3
 70
     1
102
RTVSPropertyOp4
 70
     1
102
RTVSPropertyOp5
 70
     1
102
RTVSPropertyOp6
 70
     1
102
RTVSPropertyOp7
 70
     1
102
RTVSPropertyOp8
 70
     1
102
RTVSPropertyOp9
 70
     1
102
RTVSPropertyOp10
 70
     1
102
RTVSPropertyOp11
 70
     1
102
RTVSPropertyOp12
 70
     1
102
RTVSPropertyOp13
 70
     1
102
RTVSPropertyOp14
 70
     1
102
RTVSPropertyOp15
 70
     1
102
RTVSPropertyOp16
 70
     1
102
RTVSPropertyOp17
 70
     1
102
RTVSPropertyOp18
 70
     1
102
RTVSPropertyOp19
 70
     1
102
RTVSPropertyOp20
 70
     1
102
RTVSPropertyOp21
 70
     1
102
RTVSPropertyOp22
 70
     1
102
RTVSPropertyOp23
 70
     1
102
RTVSPropertyOp24
 70
     1
102
RTVSPropertyOp25
 70
     1
102
RTVSPropertyOp26
 70
     1
102
RTVSPropertyOp27
 70
     1
102
RTVSPropertyOp28
 70
     1
102
RTVSPropertyOp29
 70
     1
102
RTVSPropertyOp30
 70
     1
102
RTVSPropertyOp31
 70
     1
102
RTVSPropertyOp32
 70
     1
102
RTVSPropertyOp33
 70
     1
102
RTVSPropertyOp34
 70
     1
102
RTVSPropertyOp35
 70
     1
102
RTVSPropertyOp36
 70
     1
102
RTVSPropertyOp37
 70
     1
102
RTVSPropertyOp38
 70
     1
102
RTVSPropertyOp39
 70
     1
102
RTVSPropertyOp40
 70
     1
102
RTVSPropertyOp41
 70
     1
102
RTVSPropertyOp42
 70
     1
102
RTVSPropertyOp43
 70
     1
102
RTVSPropertyOp44
 70
     1
102
RTVSPropertyOp45
 70
     1
102
RTVSPropertyOp46
 70
     1
102
RTVSPropertyOp47
 70
     1
102
RTVSPropertyOp48
 70
     1
102
RTVSPropertyOp49
 70
     1
102
RTVSPropertyOp50
 70
     1
102
RTVSPropertyOp51
 70
     0
102
RTVSPropertyOp52
 70
     0
102
RTVSPropertyOp53
 70
     1
102
RTVSPropertyOp54
 70
     1
102
RTVSPropertyOp55
 70
     1
102
RTVSPropertyOp56
 70
     1
102
RTVSPropertyOp57
 70
     1
102
RTVSPropertyOp58
 70
     1
102
RTVSPropertyOp59
 70
     1
102
RTVSPropertyOp60
 70
     1
102
RTVSPropertyOp61
 70
     1
102
RTVSPropertyOp62
 70
     1
  0
XRECORD
  5
337C
102
{ACAD_REACTORS
330
337B
102
}
330
337B
100
AcDbXrecord
280
     1
102
RTVSPost2010Prop28
280
     0
102
RTVSPost2010PropOp28
 70
     1
102
RTVSPost2010Prop29
280
     1
102
RTVSPost2010PropOp29
 70
     1
102
RTVSPost2010Prop30
280
     1
102
RTVSPost2010PropOp30
 70
     1
102
RTVSPost2010Prop31
280
     0
102
RTVSPost2010PropOp31
 70
     1
102
RTVSPost2010Prop32
280
     0
102
RTVSPost2010PropOp32
 70
     1
102
RTVSPost2010Prop33
280
     0
102
RTVSPost2010PropOp33
 70
     1
102
RTVSPost2010Prop34
280
     0
102
RTVSPost2010PropOp34
 70
     1
102
RTVSPost2010Prop35
280
     0
102
RTVSPost2010PropOp35
 70
     1
102
RTVSPost2010Prop36
280
     0
102
RTVSPost2010PropOp36
 70
     1
102
RTVSPost2010Prop37
 90
       50
102
RTVSPost2010PropOp37
 70
     1
102
RTVSPost2010Prop38
140
0.0
102
RTVSPost2010PropOp38
 70
     1
102
RTVSPost2010Prop39
140
1.0
102
RTVSPost2010PropOp39
 70
     1
102
RTVSPost2010Prop40
 90
        0
102
RTVSPost2010PropOp40
 70
     1
102
RTVSPost2010Prop41ColorIndex
 90
       18
102
RTVSPost2010Prop41ColorRGB
 90
        0
102
RTVSPost2010PropOp41
 70
     1
102
RTVSPost2010Prop42
 90
       50
102
RTVSPost2010PropOp42
 70
     1
102
RTVSPost2010Prop43
 90
        3
102
RTVSPost2010PropOp43
 70
     1
102
RTVSPost2010Prop44ColorIndex
 90
        5
102
RTVSPost2010Prop44ColorRGB
 90
      255
102
RTVSPost2010PropOp44
 70
     1
102
RTVSPost2010Prop45
280
     0
102
RTVSPost2010PropOp45
 70
     1
102
RTVSPost2010Prop46
 90
       50
102
RTVSPost2010PropOp46
 70
     1
102
RTVSPost2010Prop47
 90
       50
102
RTVSPost2010PropOp47
 70
     1
102
RTVSPost2010Prop48
 90
       50
102
RTVSPost2010PropOp48
 70
     1
102
RTVSPost2010Prop49
280
     0
102
RTVSPost2010PropOp49
 70
     1
102
RTVSPost2010Prop50
 90
       50
102
RTVSPost2010PropOp50
 70
     1
102
RTVSPost2010Prop51ColorIndex
 90
      256
102
RTVSPost2010Prop51ColorRGB
 90
-16777216
102
RTVSPost2010PropOp51
 70
     0
102
RTVSPost2010Prop52
140
1.0
102
RTVSPost2010PropOp52
 70
     0
102
RTVSPost2010Prop53
 90
        2
102
RTVSPost2010PropOp53
 70
     1
102
RTVSPost2010Prop54
  1
strokes_ogs.tif
102
RTVSPost2010PropOp54
 70
     1
102
RTVSPost2010Prop55
280
     0
102
RTVSPost2010PropOp55
 70
     1
102
RTVSPost2010Prop56
140
1.0
102
RTVSPost2010PropOp56
 70
     1
102
RTVSPost2010Prop57
140
1.0
102
RTVSPost2010PropOp57
 70
     1
102
RTVSPropertyOp0
 70
     1
102
RTVSPropertyOp1
 70
     1
102
RTVSPropertyOp2
 70
     1
102
RTVSPropertyOp3
 70
     1
102
RTVSPropertyOp4
 70
     1
102
RTVSPropertyOp5
 70
     1
102
RTVSPropertyOp6
 70
     1
102
RTVSPropertyOp7
 70
     1
102
RTVSPropertyOp8
 70
     1
102
RTVSPropertyOp9
 70
     1
102
RTVSPropertyOp10
 70
     1
102
RTVSPropertyOp11
 70
     1
102
RTVSPropertyOp12
 70
     1
102
RTVSPropertyOp13
 70
     1
102
RTVSPropertyOp14
 70
     1
102
RTVSPropertyOp15
 70
     1
102
RTVSPropertyOp16
 70
     1
102
RTVSPropertyOp17
 70
     1
102
RTVSPropertyOp18
 70
     1
102
RTVSPropertyOp19
 70
     1
102
RTVSPropertyOp20
 70
     1
102
RTVSPropertyOp21
 70
     1
102
RTVSPropertyOp22
 70
     1
102
RTVSPropertyOp23
 70
     1
102
RTVSPropertyOp24
 70
     1
102
RTVSPropertyOp25
 70
     1
102
RTVSPropertyOp26
 70
     1
102
RTVSPropertyOp27
 70
     1
102
RTVSPropertyOp28
 70
     1
102
RTVSPropertyOp29
 70
     1
102
RTVSPropertyOp30
 70
     1
102
RTVSPropertyOp31
 70
     1
102
RTVSPropertyOp32
 70
     1
102
RTVSPropertyOp33
 70
     1
102
RTVSPropertyOp34
 70
     1
102
RTVSPropertyOp35
 70
     1
102
RTVSPropertyOp36
 70
     1
102
RTVSPropertyOp37
 70
     1
102
RTVSPropertyOp38
 70
     1
102
RTVSPropertyOp39
 70
     1
102
RTVSPropertyOp40
 70
     1
102
RTVSPropertyOp41
 70
     1
102
RTVSPropertyOp42
 70
     1
102
RTVSPropertyOp43
 70
     1
102
RTVSPropertyOp44
 70
     1
102
RTVSPropertyOp45
 70
     1
102
RTVSPropertyOp46
 70
     1
102
RTVSPropertyOp47
 70
     1
102
RTVSPropertyOp48
 70
     1
102
RTVSPropertyOp49
 70
     1
102
RTVSPropertyOp50
 70
     1
102
RTVSPropertyOp51
 70
     0
102
RTVSPropertyOp52
 70
     0
102
RTVSPropertyOp53
 70
     1
102
RTVSPropertyOp54
 70
     1
102
RTVSPropertyOp55
 70
     1
102
RTVSPropertyOp56
 70
     1
102
RTVSPropertyOp57
 70
     1
102
RTVSPropertyOp58
 70
     1
102
RTVSPropertyOp59
 70
     1
102
RTVSPropertyOp60
 70
     1
102
RTVSPropertyOp61
 70
     1
102
RTVSPropertyOp62
 70
     1
  0
XRECORD
  5
339B
102
{ACAD_REACTORS
330
339A
102
}
330
339A
100
AcDbXrecord
280
     1
102
RTVSPost2010Prop28
280
     0
102
RTVSPost2010PropOp28
 70
     0
102
RTVSPost2010Prop29
280
     1
102
RTVSPost2010PropOp29
 70
     0
102
RTVSPost2010Prop30
280
     1
102
RTVSPost2010PropOp30
 70
     0
102
RTVSPost2010Prop31
280
     0
102
RTVSPost2010PropOp31
 70
     0
102
RTVSPost2010Prop32
280
     0
102
RTVSPost2010PropOp32
 70
     0
102
RTVSPost2010Prop33
280
     0
102
RTVSPost2010PropOp33
 70
     0
102
RTVSPost2010Prop34
280
     0
102
RTVSPost2010PropOp34
 70
     0
102
RTVSPost2010Prop35
280
     0
102
RTVSPost2010PropOp35
 70
     0
102
RTVSPost2010Prop36
280
     0
102
RTVSPost2010PropOp36
 70
     0
102
RTVSPost2010Prop37
 90
       50
102
RTVSPost2010PropOp37
 70
     0
102
RTVSPost2010Prop38
140
0.0
102
RTVSPost2010PropOp38
 70
     0
102
RTVSPost2010Prop39
140
1.0
102
RTVSPost2010PropOp39
 70
     0
102
RTVSPost2010Prop40
 90
        0
102
RTVSPost2010PropOp40
 70
     0
102
RTVSPost2010Prop41ColorIndex
 90
       18
102
RTVSPost2010Prop41ColorRGB
 90
        0
102
RTVSPost2010PropOp41
 70
     0
102
RTVSPost2010Prop42
 90
       50
102
RTVSPost2010PropOp42
 70
     0
102
RTVSPost2010Prop43
 90
        3
102
RTVSPost2010PropOp43
 70
     0
102
RTVSPost2010Prop44ColorIndex
 90
        5
102
RTVSPost2010Prop44ColorRGB
 90
      255
102
RTVSPost2010PropOp44
 70
     0
102
RTVSPost2010Prop45
280
     0
102
RTVSPost2010PropOp45
 70
     0
102
RTVSPost2010Prop46
 90
       50
102
RTVSPost2010PropOp46
 70
     0
102
RTVSPost2010Prop47
 90
       50
102
RTVSPost2010PropOp47
 70
     0
102
RTVSPost2010Prop48
 90
       50
102
RTVSPost2010PropOp48
 70
     0
102
RTVSPost2010Prop49
280
     0
102
RTVSPost2010PropOp49
 70
     0
102
RTVSPost2010Prop50
 90
       50
102
RTVSPost2010PropOp50
 70
     0
102
RTVSPost2010Prop51ColorIndex
 90
      256
102
RTVSPost2010Prop51ColorRGB
 90
-16777216
102
RTVSPost2010PropOp51
 70
     0
102
RTVSPost2010Prop52
140
1.0
102
RTVSPost2010PropOp52
 70
     0
102
RTVSPost2010Prop53
 90
        2
102
RTVSPost2010PropOp53
 70
     0
102
RTVSPost2010Prop54
  1
strokes_ogs.tif
102
RTVSPost2010PropOp54
 70
     0
102
RTVSPost2010Prop55
280
     0
102
RTVSPost2010PropOp55
 70
     0
102
RTVSPost2010Prop56
140
1.0
102
RTVSPost2010PropOp56
 70
     0
102
RTVSPost2010Prop57
140
1.0
102
RTVSPost2010PropOp57
 70
     0
102
RTVSPropertyOp0
 70
     0
102
RTVSPropertyOp1
 70
     0
102
RTVSPropertyOp2
 70
     0
102
RTVSPropertyOp3
 70
     0
102
RTVSPropertyOp4
 70
     0
102
RTVSPropertyOp5
 70
     0
102
RTVSPropertyOp6
 70
     0
102
RTVSPropertyOp7
 70
     0
102
RTVSPropertyOp8
 70
     0
102
RTVSPropertyOp9
 70
     0
102
RTVSPropertyOp10
 70
     0
102
RTVSPropertyOp11
 70
     0
102
RTVSPropertyOp12
 70
     0
102
RTVSPropertyOp13
 70
     0
102
RTVSPropertyOp14
 70
     2
102
RTVSPropertyOp15
 70
     0
102
RTVSPropertyOp16
 70
     0
102
RTVSPropertyOp17
 70
     0
102
RTVSPropertyOp18
 70
     0
102
RTVSPropertyOp19
 70
     0
102
RTVSPropertyOp20
 70
     0
102
RTVSPropertyOp21
 70
     0
102
RTVSPropertyOp22
 70
     0
102
RTVSPropertyOp23
 70
     0
102
RTVSPropertyOp24
 70
     0
102
RTVSPropertyOp25
 70
     0
102
RTVSPropertyOp26
 70
     0
102
RTVSPropertyOp27
 70
     0
102
RTVSPropertyOp28
 70
     0
102
RTVSPropertyOp29
 70
     0
102
RTVSPropertyOp30
 70
     0
102
RTVSPropertyOp31
 70
     0
102
RTVSPropertyOp32
 70
     0
102
RTVSPropertyOp33
 70
     0
102
RTVSPropertyOp34
 70
     0
102
RTVSPropertyOp35
 70
     0
102
RTVSPropertyOp36
 70
     0
102
RTVSPropertyOp37
 70
     0
102
RTVSPropertyOp38
 70
     0
102
RTVSPropertyOp39
 70
     0
102
RTVSPropertyOp40
 70
     0
102
RTVSPropertyOp41
 70
     0
102
RTVSPropertyOp42
 70
     0
102
RTVSPropertyOp43
 70
     0
102
RTVSPropertyOp44
 70
     0
102
RTVSPropertyOp45
 70
     0
102
RTVSPropertyOp46
 70
     0
102
RTVSPropertyOp47
 70
     0
102
RTVSPropertyOp48
 70
     0
102
RTVSPropertyOp49
 70
     0
102
RTVSPropertyOp50
 70
     0
102
RTVSPropertyOp51
 70
     0
102
RTVSPropertyOp52
 70
     0
102
RTVSPropertyOp53
 70
     0
102
RTVSPropertyOp54
 70
     0
102
RTVSPropertyOp55
 70
     0
102
RTVSPropertyOp56
 70
     0
102
RTVSPropertyOp57
 70
     0
102
RTVSPropertyOp58
 70
     0
102
RTVSPropertyOp59
 70
     0
102
RTVSPropertyOp60
 70
     0
102
RTVSPropertyOp61
 70
     0
102
RTVSPropertyOp62
 70
     0
  0
XRECORD
  5
3384
102
{ACAD_REACTORS
330
3383
102
}
330
3383
100
AcDbXrecord
280
     1
102
RTVSPost2010Prop28
280
     0
102
RTVSPost2010PropOp28
 70
     1
102
RTVSPost2010Prop29
280
     1
102
RTVSPost2010PropOp29
 70
     1
102
RTVSPost2010Prop30
280
     1
102
RTVSPost2010PropOp30
 70
     1
102
RTVSPost2010Prop31
280
     0
102
RTVSPost2010PropOp31
 70
     1
102
RTVSPost2010Prop32
280
     0
102
RTVSPost2010PropOp32
 70
     1
102
RTVSPost2010Prop33
280
     0
102
RTVSPost2010PropOp33
 70
     1
102
RTVSPost2010Prop34
280
     0
102
RTVSPost2010PropOp34
 70
     1
102
RTVSPost2010Prop35
280
     0
102
RTVSPost2010PropOp35
 70
     1
102
RTVSPost2010Prop36
280
     0
102
RTVSPost2010PropOp36
 70
     1
102
RTVSPost2010Prop37
 90
       50
102
RTVSPost2010PropOp37
 70
     1
102
RTVSPost2010Prop38
140
0.0
102
RTVSPost2010PropOp38
 70
     1
102
RTVSPost2010Prop39
140
1.0
102
RTVSPost2010PropOp39
 70
     1
102
RTVSPost2010Prop40
 90
        0
102
RTVSPost2010PropOp40
 70
     1
102
RTVSPost2010Prop41ColorIndex
 90
       18
102
RTVSPost2010Prop41ColorRGB
 90
        0
102
RTVSPost2010PropOp41
 70
     1
102
RTVSPost2010Prop42
 90
       50
102
RTVSPost2010PropOp42
 70
     1
102
RTVSPost2010Prop43
 90
        3
102
RTVSPost2010PropOp43
 70
     1
102
RTVSPost2010Prop44ColorIndex
 90
        5
102
RTVSPost2010Prop44ColorRGB
 90
      255
102
RTVSPost2010PropOp44
 70
     1
102
RTVSPost2010Prop45
280
     0
102
RTVSPost2010PropOp45
 70
     1
102
RTVSPost2010Prop46
 90
       50
102
RTVSPost2010PropOp46
 70
     1
102
RTVSPost2010Prop47
 90
       50
102
RTVSPost2010PropOp47
 70
     1
102
RTVSPost2010Prop48
 90
       50
102
RTVSPost2010PropOp48
 70
     1
102
RTVSPost2010Prop49
280
     0
102
RTVSPost2010PropOp49
 70
     1
102
RTVSPost2010Prop50
 90
       50
102
RTVSPost2010PropOp50
 70
     1
102
RTVSPost2010Prop51ColorIndex
 90
      256
102
RTVSPost2010Prop51ColorRGB
 90
-16777216
102
RTVSPost2010PropOp51
 70
     0
102
RTVSPost2010Prop52
140
1.0
102
RTVSPost2010PropOp52
 70
     0
102
RTVSPost2010Prop53
 90
        2
102
RTVSPost2010PropOp53
 70
     1
102
RTVSPost2010Prop54
  1
strokes_ogs.tif
102
RTVSPost2010PropOp54
 70
     1
102
RTVSPost2010Prop55
280
     0
102
RTVSPost2010PropOp55
 70
     1
102
RTVSPost2010Prop56
140
1.0
102
RTVSPost2010PropOp56
 70
     1
102
RTVSPost2010Prop57
140
1.0
102
RTVSPost2010PropOp57
 70
     1
102
RTVSPropertyOp0
 70
     1
102
RTVSPropertyOp1
 70
     1
102
RTVSPropertyOp2
 70
     1
102
RTVSPropertyOp3
 70
     1
102
RTVSPropertyOp4
 70
     1
102
RTVSPropertyOp5
 70
     1
102
RTVSPropertyOp6
 70
     1
102
RTVSPropertyOp7
 70
     1
102
RTVSPropertyOp8
 70
     1
102
RTVSPropertyOp9
 70
     1
102
RTVSPropertyOp10
 70
     1
102
RTVSPropertyOp11
 70
     1
102
RTVSPropertyOp12
 70
     1
102
RTVSPropertyOp13
 70
     1
102
RTVSPropertyOp14
 70
     1
102
RTVSPropertyOp15
 70
     1
102
RTVSPropertyOp16
 70
     1
102
RTVSPropertyOp17
 70
     1
102
RTVSPropertyOp18
 70
     1
102
RTVSPropertyOp19
 70
     1
102
RTVSPropertyOp20
 70
     1
102
RTVSPropertyOp21
 70
     1
102
RTVSPropertyOp22
 70
     1
102
RTVSPropertyOp23
 70
     1
102
RTVSPropertyOp24
 70
     1
102
RTVSPropertyOp25
 70
     1
102
RTVSPropertyOp26
 70
     1
102
RTVSPropertyOp27
 70
     1
102
RTVSPropertyOp28
 70
     1
102
RTVSPropertyOp29
 70
     1
102
RTVSPropertyOp30
 70
     1
102
RTVSPropertyOp31
 70
     1
102
RTVSPropertyOp32
 70
     1
102
RTVSPropertyOp33
 70
     1
102
RTVSPropertyOp34
 70
     1
102
RTVSPropertyOp35
 70
     1
102
RTVSPropertyOp36
 70
     1
102
RTVSPropertyOp37
 70
     1
102
RTVSPropertyOp38
 70
     1
102
RTVSPropertyOp39
 70
     1
102
RTVSPropertyOp40
 70
     1
102
RTVSPropertyOp41
 70
     1
102
RTVSPropertyOp42
 70
     1
102
RTVSPropertyOp43
 70
     1
102
RTVSPropertyOp44
 70
     1
102
RTVSPropertyOp45
 70
     1
102
RTVSPropertyOp46
 70
     1
102
RTVSPropertyOp47
 70
     1
102
RTVSPropertyOp48
 70
     1
102
RTVSPropertyOp49
 70
     1
102
RTVSPropertyOp50
 70
     1
102
RTVSPropertyOp51
 70
     0
102
RTVSPropertyOp52
 70
     0
102
RTVSPropertyOp53
 70
     1
102
RTVSPropertyOp54
 70
     1
102
RTVSPropertyOp55
 70
     1
102
RTVSPropertyOp56
 70
     1
102
RTVSPropertyOp57
 70
     1
102
RTVSPropertyOp58
 70
     1
102
RTVSPropertyOp59
 70
     1
102
RTVSPropertyOp60
 70
     1
102
RTVSPropertyOp61
 70
     1
102
RTVSPropertyOp62
 70
     1
  0
XRECORD
  5
3368
102
{ACAD_REACTORS
330
3367
102
}
330
3367
100
AcDbXrecord
280
     1
102
RTVSPost2010Prop28
280
     0
102
RTVSPost2010PropOp28
 70
     1
102
RTVSPost2010Prop29
280
     1
102
RTVSPost2010PropOp29
 70
     1
102
RTVSPost2010Prop30
280
     1
102
RTVSPost2010PropOp30
 70
     1
102
RTVSPost2010Prop31
280
     0
102
RTVSPost2010PropOp31
 70
     1
102
RTVSPost2010Prop32
280
     0
102
RTVSPost2010PropOp32
 70
     1
102
RTVSPost2010Prop33
280
     0
102
RTVSPost2010PropOp33
 70
     1
102
RTVSPost2010Prop34
280
     0
102
RTVSPost2010PropOp34
 70
     1
102
RTVSPost2010Prop35
280
     0
102
RTVSPost2010PropOp35
 70
     1
102
RTVSPost2010Prop36
280
     0
102
RTVSPost2010PropOp36
 70
     1
102
RTVSPost2010Prop37
 90
       50
102
RTVSPost2010PropOp37
 70
     1
102
RTVSPost2010Prop38
140
0.0
102
RTVSPost2010PropOp38
 70
     1
102
RTVSPost2010Prop39
140
1.0
102
RTVSPost2010PropOp39
 70
     1
102
RTVSPost2010Prop40
 90
        0
102
RTVSPost2010PropOp40
 70
     1
102
RTVSPost2010Prop41ColorIndex
 90
       18
102
RTVSPost2010Prop41ColorRGB
 90
        0
102
RTVSPost2010PropOp41
 70
     1
102
RTVSPost2010Prop42
 90
       50
102
RTVSPost2010PropOp42
 70
     1
102
RTVSPost2010Prop43
 90
        3
102
RTVSPost2010PropOp43
 70
     1
102
RTVSPost2010Prop44ColorIndex
 90
        5
102
RTVSPost2010Prop44ColorRGB
 90
      255
102
RTVSPost2010PropOp44
 70
     1
102
RTVSPost2010Prop45
280
     0
102
RTVSPost2010PropOp45
 70
     1
102
RTVSPost2010Prop46
 90
       50
102
RTVSPost2010PropOp46
 70
     1
102
RTVSPost2010Prop47
 90
       50
102
RTVSPost2010PropOp47
 70
     1
102
RTVSPost2010Prop48
 90
       50
102
RTVSPost2010PropOp48
 70
     1
102
RTVSPost2010Prop49
280
     0
102
RTVSPost2010PropOp49
 70
     1
102
RTVSPost2010Prop50
 90
       50
102
RTVSPost2010PropOp50
 70
     1
102
RTVSPost2010Prop51ColorIndex
 90
      256
102
RTVSPost2010Prop51ColorRGB
 90
-16777216
102
RTVSPost2010PropOp51
 70
     0
102
RTVSPost2010Prop52
140
1.0
102
RTVSPost2010PropOp52
 70
     0
102
RTVSPost2010Prop53
 90
        2
102
RTVSPost2010PropOp53
 70
     1
102
RTVSPost2010Prop54
  1
strokes_ogs.tif
102
RTVSPost2010PropOp54
 70
     1
102
RTVSPost2010Prop55
280
     0
102
RTVSPost2010PropOp55
 70
     1
102
RTVSPost2010Prop56
140
1.0
102
RTVSPost2010PropOp56
 70
     1
102
RTVSPost2010Prop57
140
1.0
102
RTVSPost2010PropOp57
 70
     1
102
RTVSPropertyOp0
 70
     1
102
RTVSPropertyOp1
 70
     1
102
RTVSPropertyOp2
 70
     1
102
RTVSPropertyOp3
 70
     1
102
RTVSPropertyOp4
 70
     1
102
RTVSPropertyOp5
 70
     1
102
RTVSPropertyOp6
 70
     1
102
RTVSPropertyOp7
 70
     1
102
RTVSPropertyOp8
 70
     1
102
RTVSPropertyOp9
 70
     1
102
RTVSPropertyOp10
 70
     1
102
RTVSPropertyOp11
 70
     1
102
RTVSPropertyOp12
 70
     1
102
RTVSPropertyOp13
 70
     1
102
RTVSPropertyOp14
 70
     1
102
RTVSPropertyOp15
 70
     1
102
RTVSPropertyOp16
 70
     1
102
RTVSPropertyOp17
 70
     1
102
RTVSPropertyOp18
 70
     1
102
RTVSPropertyOp19
 70
     1
102
RTVSPropertyOp20
 70
     1
102
RTVSPropertyOp21
 70
     1
102
RTVSPropertyOp22
 70
     1
102
RTVSPropertyOp23
 70
     1
102
RTVSPropertyOp24
 70
     1
102
RTVSPropertyOp25
 70
     1
102
RTVSPropertyOp26
 70
     1
102
RTVSPropertyOp27
 70
     1
102
RTVSPropertyOp28
 70
     1
102
RTVSPropertyOp29
 70
     1
102
RTVSPropertyOp30
 70
     1
102
RTVSPropertyOp31
 70
     1
102
RTVSPropertyOp32
 70
     1
102
RTVSPropertyOp33
 70
     1
102
RTVSPropertyOp34
 70
     1
102
RTVSPropertyOp35
 70
     1
102
RTVSPropertyOp36
 70
     1
102
RTVSPropertyOp37
 70
     1
102
RTVSPropertyOp38
 70
     1
102
RTVSPropertyOp39
 70
     1
102
RTVSPropertyOp40
 70
     1
102
RTVSPropertyOp41
 70
     1
102
RTVSPropertyOp42
 70
     1
102
RTVSPropertyOp43
 70
     1
102
RTVSPropertyOp44
 70
     1
102
RTVSPropertyOp45
 70
     1
102
RTVSPropertyOp46
 70
     1
102
RTVSPropertyOp47
 70
     1
102
RTVSPropertyOp48
 70
     1
102
RTVSPropertyOp49
 70
     1
102
RTVSPropertyOp50
 70
     1
102
RTVSPropertyOp51
 70
     0
102
RTVSPropertyOp52
 70
     0
102
RTVSPropertyOp53
 70
     1
102
RTVSPropertyOp54
 70
     1
102
RTVSPropertyOp55
 70
     1
102
RTVSPropertyOp56
 70
     1
102
RTVSPropertyOp57
 70
     1
102
RTVSPropertyOp58
 70
     1
102
RTVSPropertyOp59
 70
     1
102
RTVSPropertyOp60
 70
     1
102
RTVSPropertyOp61
 70
     1
102
RTVSPropertyOp62
 70
     1
  0
XRECORD
  5
336A
102
{ACAD_REACTORS
330
3369
102
}
330
3369
100
AcDbXrecord
280
     1
102
RTVSPost2010Prop28
280
     0
102
RTVSPost2010PropOp28
 70
     1
102
RTVSPost2010Prop29
280
     1
102
RTVSPost2010PropOp29
 70
     1
102
RTVSPost2010Prop30
280
     1
102
RTVSPost2010PropOp30
 70
     1
102
RTVSPost2010Prop31
280
     0
102
RTVSPost2010PropOp31
 70
     1
102
RTVSPost2010Prop32
280
     0
102
RTVSPost2010PropOp32
 70
     1
102
RTVSPost2010Prop33
280
     0
102
RTVSPost2010PropOp33
 70
     1
102
RTVSPost2010Prop34
280
     0
102
RTVSPost2010PropOp34
 70
     1
102
RTVSPost2010Prop35
280
     0
102
RTVSPost2010PropOp35
 70
     1
102
RTVSPost2010Prop36
280
     0
102
RTVSPost2010PropOp36
 70
     1
102
RTVSPost2010Prop37
 90
       50
102
RTVSPost2010PropOp37
 70
     1
102
RTVSPost2010Prop38
140
0.0
102
RTVSPost2010PropOp38
 70
     1
102
RTVSPost2010Prop39
140
1.0
102
RTVSPost2010PropOp39
 70
     1
102
RTVSPost2010Prop40
 90
        0
102
RTVSPost2010PropOp40
 70
     1
102
RTVSPost2010Prop41ColorIndex
 90
       18
102
RTVSPost2010Prop41ColorRGB
 90
        0
102
RTVSPost2010PropOp41
 70
     1
102
RTVSPost2010Prop42
 90
       50
102
RTVSPost2010PropOp42
 70
     1
102
RTVSPost2010Prop43
 90
        3
102
RTVSPost2010PropOp43
 70
     1
102
RTVSPost2010Prop44ColorIndex
 90
        5
102
RTVSPost2010Prop44ColorRGB
 90
      255
102
RTVSPost2010PropOp44
 70
     1
102
RTVSPost2010Prop45
280
     0
102
RTVSPost2010PropOp45
 70
     1
102
RTVSPost2010Prop46
 90
       50
102
RTVSPost2010PropOp46
 70
     1
102
RTVSPost2010Prop47
 90
       50
102
RTVSPost2010PropOp47
 70
     1
102
RTVSPost2010Prop48
 90
       50
102
RTVSPost2010PropOp48
 70
     1
102
RTVSPost2010Prop49
280
     0
102
RTVSPost2010PropOp49
 70
     1
102
RTVSPost2010Prop50
 90
       50
102
RTVSPost2010PropOp50
 70
     1
102
RTVSPost2010Prop51ColorIndex
 90
      256
102
RTVSPost2010Prop51ColorRGB
 90
-16777216
102
RTVSPost2010PropOp51
 70
     0
102
RTVSPost2010Prop52
140
1.0
102
RTVSPost2010PropOp52
 70
     0
102
RTVSPost2010Prop53
 90
        2
102
RTVSPost2010PropOp53
 70
     1
102
RTVSPost2010Prop54
  1
strokes_ogs.tif
102
RTVSPost2010PropOp54
 70
     1
102
RTVSPost2010Prop55
280
     0
102
RTVSPost2010PropOp55
 70
     1
102
RTVSPost2010Prop56
140
1.0
102
RTVSPost2010PropOp56
 70
     1
102
RTVSPost2010Prop57
140
1.0
102
RTVSPost2010PropOp57
 70
     1
102
RTVSPropertyOp0
 70
     1
102
RTVSPropertyOp1
 70
     1
102
RTVSPropertyOp2
 70
     1
102
RTVSPropertyOp3
 70
     1
102
RTVSPropertyOp4
 70
     1
102
RTVSPropertyOp5
 70
     1
102
RTVSPropertyOp6
 70
     1
102
RTVSPropertyOp7
 70
     1
102
RTVSPropertyOp8
 70
     1
102
RTVSPropertyOp9
 70
     1
102
RTVSPropertyOp10
 70
     1
102
RTVSPropertyOp11
 70
     1
102
RTVSPropertyOp12
 70
     1
102
RTVSPropertyOp13
 70
     1
102
RTVSPropertyOp14
 70
     1
102
RTVSPropertyOp15
 70
     1
102
RTVSPropertyOp16
 70
     1
102
RTVSPropertyOp17
 70
     1
102
RTVSPropertyOp18
 70
     1
102
RTVSPropertyOp19
 70
     1
102
RTVSPropertyOp20
 70
     1
102
RTVSPropertyOp21
 70
     1
102
RTVSPropertyOp22
 70
     1
102
RTVSPropertyOp23
 70
     1
102
RTVSPropertyOp24
 70
     1
102
RTVSPropertyOp25
 70
     1
102
RTVSPropertyOp26
 70
     1
102
RTVSPropertyOp27
 70
     1
102
RTVSPropertyOp28
 70
     1
102
RTVSPropertyOp29
 70
     1
102
RTVSPropertyOp30
 70
     1
102
RTVSPropertyOp31
 70
     1
102
RTVSPropertyOp32
 70
     1
102
RTVSPropertyOp33
 70
     1
102
RTVSPropertyOp34
 70
     1
102
RTVSPropertyOp35
 70
     1
102
RTVSPropertyOp36
 70
     1
102
RTVSPropertyOp37
 70
     1
102
RTVSPropertyOp38
 70
     1
102
RTVSPropertyOp39
 70
     1
102
RTVSPropertyOp40
 70
     1
102
RTVSPropertyOp41
 70
     1
102
RTVSPropertyOp42
 70
     1
102
RTVSPropertyOp43
 70
     1
102
RTVSPropertyOp44
 70
     1
102
RTVSPropertyOp45
 70
     1
102
RTVSPropertyOp46
 70
     1
102
RTVSPropertyOp47
 70
     1
102
RTVSPropertyOp48
 70
     1
102
RTVSPropertyOp49
 70
     1
102
RTVSPropertyOp50
 70
     1
102
RTVSPropertyOp51
 70
     0
102
RTVSPropertyOp52
 70
     0
102
RTVSPropertyOp53
 70
     1
102
RTVSPropertyOp54
 70
     1
102
RTVSPropertyOp55
 70
     1
102
RTVSPropertyOp56
 70
     1
102
RTVSPropertyOp57
 70
     1
102
RTVSPropertyOp58
 70
     1
102
RTVSPropertyOp59
 70
     1
102
RTVSPropertyOp60
 70
     1
102
RTVSPropertyOp61
 70
     1
102
RTVSPropertyOp62
 70
     1
  0
XRECORD
  5
336C
102
{ACAD_REACTORS
330
336B
102
}
330
336B
100
AcDbXrecord
280
     1
102
RTVSPost2010Prop28
280
     0
102
RTVSPost2010PropOp28
 70
     1
102
RTVSPost2010Prop29
280
     1
102
RTVSPost2010PropOp29
 70
     1
102
RTVSPost2010Prop30
280
     1
102
RTVSPost2010PropOp30
 70
     1
102
RTVSPost2010Prop31
280
     0
102
RTVSPost2010PropOp31
 70
     1
102
RTVSPost2010Prop32
280
     0
102
RTVSPost2010PropOp32
 70
     1
102
RTVSPost2010Prop33
280
     0
102
RTVSPost2010PropOp33
 70
     1
102
RTVSPost2010Prop34
280
     0
102
RTVSPost2010PropOp34
 70
     1
102
RTVSPost2010Prop35
280
     0
102
RTVSPost2010PropOp35
 70
     1
102
RTVSPost2010Prop36
280
     0
102
RTVSPost2010PropOp36
 70
     1
102
RTVSPost2010Prop37
 90
       50
102
RTVSPost2010PropOp37
 70
     1
102
RTVSPost2010Prop38
140
0.0
102
RTVSPost2010PropOp38
 70
     1
102
RTVSPost2010Prop39
140
1.0
102
RTVSPost2010PropOp39
 70
     1
102
RTVSPost2010Prop40
 90
        0
102
RTVSPost2010PropOp40
 70
     1
102
RTVSPost2010Prop41ColorIndex
 90
       18
102
RTVSPost2010Prop41ColorRGB
 90
        0
102
RTVSPost2010PropOp41
 70
     1
102
RTVSPost2010Prop42
 90
       50
102
RTVSPost2010PropOp42
 70
     1
102
RTVSPost2010Prop43
 90
        3
102
RTVSPost2010PropOp43
 70
     1
102
RTVSPost2010Prop44ColorIndex
 90
        5
102
RTVSPost2010Prop44ColorRGB
 90
      255
102
RTVSPost2010PropOp44
 70
     1
102
RTVSPost2010Prop45
280
     0
102
RTVSPost2010PropOp45
 70
     1
102
RTVSPost2010Prop46
 90
       50
102
RTVSPost2010PropOp46
 70
     1
102
RTVSPost2010Prop47
 90
       50
102
RTVSPost2010PropOp47
 70
     1
102
RTVSPost2010Prop48
 90
       50
102
RTVSPost2010PropOp48
 70
     1
102
RTVSPost2010Prop49
280
     0
102
RTVSPost2010PropOp49
 70
     1
102
RTVSPost2010Prop50
 90
       50
102
RTVSPost2010PropOp50
 70
     1
102
RTVSPost2010Prop51ColorIndex
 90
      256
102
RTVSPost2010Prop51ColorRGB
 90
-16777216
102
RTVSPost2010PropOp51
 70
     0
102
RTVSPost2010Prop52
140
1.0
102
RTVSPost2010PropOp52
 70
     0
102
RTVSPost2010Prop53
 90
        2
102
RTVSPost2010PropOp53
 70
     1
102
RTVSPost2010Prop54
  1
strokes_ogs.tif
102
RTVSPost2010PropOp54
 70
     1
102
RTVSPost2010Prop55
280
     0
102
RTVSPost2010PropOp55
 70
     1
102
RTVSPost2010Prop56
140
1.0
102
RTVSPost2010PropOp56
 70
     1
102
RTVSPost2010Prop57
140
1.0
102
RTVSPost2010PropOp57
 70
     1
102
RTVSPropertyOp0
 70
     1
102
RTVSPropertyOp1
 70
     1
102
RTVSPropertyOp2
 70
     1
102
RTVSPropertyOp3
 70
     1
102
RTVSPropertyOp4
 70
     1
102
RTVSPropertyOp5
 70
     1
102
RTVSPropertyOp6
 70
     1
102
RTVSPropertyOp7
 70
     1
102
RTVSPropertyOp8
 70
     1
102
RTVSPropertyOp9
 70
     1
102
RTVSPropertyOp10
 70
     1
102
RTVSPropertyOp11
 70
     1
102
RTVSPropertyOp12
 70
     1
102
RTVSPropertyOp13
 70
     1
102
RTVSPropertyOp14
 70
     1
102
RTVSPropertyOp15
 70
     1
102
RTVSPropertyOp16
 70
     1
102
RTVSPropertyOp17
 70
     1
102
RTVSPropertyOp18
 70
     1
102
RTVSPropertyOp19
 70
     1
102
RTVSPropertyOp20
 70
     1
102
RTVSPropertyOp21
 70
     1
102
RTVSPropertyOp22
 70
     1
102
RTVSPropertyOp23
 70
     1
102
RTVSPropertyOp24
 70
     1
102
RTVSPropertyOp25
 70
     1
102
RTVSPropertyOp26
 70
     1
102
RTVSPropertyOp27
 70
     1
102
RTVSPropertyOp28
 70
     1
102
RTVSPropertyOp29
 70
     1
102
RTVSPropertyOp30
 70
     1
102
RTVSPropertyOp31
 70
     1
102
RTVSPropertyOp32
 70
     1
102
RTVSPropertyOp33
 70
     1
102
RTVSPropertyOp34
 70
     1
102
RTVSPropertyOp35
 70
     1
102
RTVSPropertyOp36
 70
     1
102
RTVSPropertyOp37
 70
     1
102
RTVSPropertyOp38
 70
     1
102
RTVSPropertyOp39
 70
     1
102
RTVSPropertyOp40
 70
     1
102
RTVSPropertyOp41
 70
     1
102
RTVSPropertyOp42
 70
     1
102
RTVSPropertyOp43
 70
     1
102
RTVSPropertyOp44
 70
     1
102
RTVSPropertyOp45
 70
     1
102
RTVSPropertyOp46
 70
     1
102
RTVSPropertyOp47
 70
     1
102
RTVSPropertyOp48
 70
     1
102
RTVSPropertyOp49
 70
     1
102
RTVSPropertyOp50
 70
     1
102
RTVSPropertyOp51
 70
     0
102
RTVSPropertyOp52
 70
     0
102
RTVSPropertyOp53
 70
     1
102
RTVSPropertyOp54
 70
     1
102
RTVSPropertyOp55
 70
     1
102
RTVSPropertyOp56
 70
     1
102
RTVSPropertyOp57
 70
     1
102
RTVSPropertyOp58
 70
     1
102
RTVSPropertyOp59
 70
     1
102
RTVSPropertyOp60
 70
     1
102
RTVSPropertyOp61
 70
     1
102
RTVSPropertyOp62
 70
     1
  0
XRECORD
  5
336E
102
{ACAD_REACTORS
330
336D
102
}
330
336D
100
AcDbXrecord
280
     1
102
RTVSPost2010Prop28
280
     0
102
RTVSPost2010PropOp28
 70
     1
102
RTVSPost2010Prop29
280
     1
102
RTVSPost2010PropOp29
 70
     1
102
RTVSPost2010Prop30
280
     1
102
RTVSPost2010PropOp30
 70
     1
102
RTVSPost2010Prop31
280
     0
102
RTVSPost2010PropOp31
 70
     1
102
RTVSPost2010Prop32
280
     0
102
RTVSPost2010PropOp32
 70
     1
102
RTVSPost2010Prop33
280
     0
102
RTVSPost2010PropOp33
 70
     1
102
RTVSPost2010Prop34
280
     0
102
RTVSPost2010PropOp34
 70
     1
102
RTVSPost2010Prop35
280
     0
102
RTVSPost2010PropOp35
 70
     1
102
RTVSPost2010Prop36
280
     0
102
RTVSPost2010PropOp36
 70
     1
102
RTVSPost2010Prop37
 90
       50
102
RTVSPost2010PropOp37
 70
     1
102
RTVSPost2010Prop38
140
0.0
102
RTVSPost2010PropOp38
 70
     1
102
RTVSPost2010Prop39
140
1.0
102
RTVSPost2010PropOp39
 70
     1
102
RTVSPost2010Prop40
 90
        0
102
RTVSPost2010PropOp40
 70
     1
102
RTVSPost2010Prop41ColorIndex
 90
       18
102
RTVSPost2010Prop41ColorRGB
 90
        0
102
RTVSPost2010PropOp41
 70
     1
102
RTVSPost2010Prop42
 90
       50
102
RTVSPost2010PropOp42
 70
     1
102
RTVSPost2010Prop43
 90
        3
102
RTVSPost2010PropOp43
 70
     1
102
RTVSPost2010Prop44ColorIndex
 90
        5
102
RTVSPost2010Prop44ColorRGB
 90
      255
102
RTVSPost2010PropOp44
 70
     1
102
RTVSPost2010Prop45
280
     0
102
RTVSPost2010PropOp45
 70
     1
102
RTVSPost2010Prop46
 90
       50
102
RTVSPost2010PropOp46
 70
     1
102
RTVSPost2010Prop47
 90
       50
102
RTVSPost2010PropOp47
 70
     1
102
RTVSPost2010Prop48
 90
       50
102
RTVSPost2010PropOp48
 70
     1
102
RTVSPost2010Prop49
280
     0
102
RTVSPost2010PropOp49
 70
     1
102
RTVSPost2010Prop50
 90
       50
102
RTVSPost2010PropOp50
 70
     1
102
RTVSPost2010Prop51ColorIndex
 90
      256
102
RTVSPost2010Prop51ColorRGB
 90
-16777216
102
RTVSPost2010PropOp51
 70
     0
102
RTVSPost2010Prop52
140
1.0
102
RTVSPost2010PropOp52
 70
     0
102
RTVSPost2010Prop53
 90
        2
102
RTVSPost2010PropOp53
 70
     1
102
RTVSPost2010Prop54
  1
strokes_ogs.tif
102
RTVSPost2010PropOp54
 70
     1
102
RTVSPost2010Prop55
280
     0
102
RTVSPost2010PropOp55
 70
     1
102
RTVSPost2010Prop56
140
1.0
102
RTVSPost2010PropOp56
 70
     1
102
RTVSPost2010Prop57
140
1.0
102
RTVSPost2010PropOp57
 70
     1
102
RTVSPropertyOp0
 70
     1
102
RTVSPropertyOp1
 70
     1
102
RTVSPropertyOp2
 70
     1
102
RTVSPropertyOp3
 70
     1
102
RTVSPropertyOp4
 70
     1
102
RTVSPropertyOp5
 70
     1
102
RTVSPropertyOp6
 70
     1
102
RTVSPropertyOp7
 70
     1
102
RTVSPropertyOp8
 70
     1
102
RTVSPropertyOp9
 70
     1
102
RTVSPropertyOp10
 70
     1
102
RTVSPropertyOp11
 70
     1
102
RTVSPropertyOp12
 70
     1
102
RTVSPropertyOp13
 70
     1
102
RTVSPropertyOp14
 70
     1
102
RTVSPropertyOp15
 70
     1
102
RTVSPropertyOp16
 70
     1
102
RTVSPropertyOp17
 70
     1
102
RTVSPropertyOp18
 70
     1
102
RTVSPropertyOp19
 70
     1
102
RTVSPropertyOp20
 70
     1
102
RTVSPropertyOp21
 70
     1
102
RTVSPropertyOp22
 70
     1
102
RTVSPropertyOp23
 70
     1
102
RTVSPropertyOp24
 70
     1
102
RTVSPropertyOp25
 70
     1
102
RTVSPropertyOp26
 70
     1
102
RTVSPropertyOp27
 70
     1
102
RTVSPropertyOp28
 70
     1
102
RTVSPropertyOp29
 70
     1
102
RTVSPropertyOp30
 70
     1
102
RTVSPropertyOp31
 70
     1
102
RTVSPropertyOp32
 70
     1
102
RTVSPropertyOp33
 70
     1
102
RTVSPropertyOp34
 70
     1
102
RTVSPropertyOp35
 70
     1
102
RTVSPropertyOp36
 70
     1
102
RTVSPropertyOp37
 70
     1
102
RTVSPropertyOp38
 70
     1
102
RTVSPropertyOp39
 70
     1
102
RTVSPropertyOp40
 70
     1
102
RTVSPropertyOp41
 70
     1
102
RTVSPropertyOp42
 70
     1
102
RTVSPropertyOp43
 70
     1
102
RTVSPropertyOp44
 70
     1
102
RTVSPropertyOp45
 70
     1
102
RTVSPropertyOp46
 70
     1
102
RTVSPropertyOp47
 70
     1
102
RTVSPropertyOp48
 70
     1
102
RTVSPropertyOp49
 70
     1
102
RTVSPropertyOp50
 70
     1
102
RTVSPropertyOp51
 70
     0
102
RTVSPropertyOp52
 70
     0
102
RTVSPropertyOp53
 70
     1
102
RTVSPropertyOp54
 70
     1
102
RTVSPropertyOp55
 70
     1
102
RTVSPropertyOp56
 70
     1
102
RTVSPropertyOp57
 70
     1
102
RTVSPropertyOp58
 70
     1
102
RTVSPropertyOp59
 70
     1
102
RTVSPropertyOp60
 70
     1
102
RTVSPropertyOp61
 70
     1
102
RTVSPropertyOp62
 70
     1
  0
XRECORD
  5
338B
102
{ACAD_REACTORS
330
338A
102
}
330
338A
100
AcDbXrecord
280
     1
102
RTVSPost2010Prop28
280
     0
102
RTVSPost2010PropOp28
 70
     1
102
RTVSPost2010Prop29
280
     1
102
RTVSPost2010PropOp29
 70
     1
102
RTVSPost2010Prop30
280
     1
102
RTVSPost2010PropOp30
 70
     1
102
RTVSPost2010Prop31
280
     0
102
RTVSPost2010PropOp31
 70
     1
102
RTVSPost2010Prop32
280
     0
102
RTVSPost2010PropOp32
 70
     1
102
RTVSPost2010Prop33
280
     0
102
RTVSPost2010PropOp33
 70
     1
102
RTVSPost2010Prop34
280
     0
102
RTVSPost2010PropOp34
 70
     1
102
RTVSPost2010Prop35
280
     0
102
RTVSPost2010PropOp35
 70
     1
102
RTVSPost2010Prop36
280
     0
102
RTVSPost2010PropOp36
 70
     1
102
RTVSPost2010Prop37
 90
       50
102
RTVSPost2010PropOp37
 70
     1
102
RTVSPost2010Prop38
140
0.0
102
RTVSPost2010PropOp38
 70
     1
102
RTVSPost2010Prop39
140
1.0
102
RTVSPost2010PropOp39
 70
     1
102
RTVSPost2010Prop40
 90
        0
102
RTVSPost2010PropOp40
 70
     1
102
RTVSPost2010Prop41ColorIndex
 90
       18
102
RTVSPost2010Prop41ColorRGB
 90
        0
102
RTVSPost2010PropOp41
 70
     1
102
RTVSPost2010Prop42
 90
       50
102
RTVSPost2010PropOp42
 70
     1
102
RTVSPost2010Prop43
 90
        3
102
RTVSPost2010PropOp43
 70
     1
102
RTVSPost2010Prop44ColorIndex
 90
        5
102
RTVSPost2010Prop44ColorRGB
 90
      255
102
RTVSPost2010PropOp44
 70
     1
102
RTVSPost2010Prop45
280
     0
102
RTVSPost2010PropOp45
 70
     1
102
RTVSPost2010Prop46
 90
       50
102
RTVSPost2010PropOp46
 70
     1
102
RTVSPost2010Prop47
 90
       50
102
RTVSPost2010PropOp47
 70
     1
102
RTVSPost2010Prop48
 90
       50
102
RTVSPost2010PropOp48
 70
     1
102
RTVSPost2010Prop49
280
     0
102
RTVSPost2010PropOp49
 70
     1
102
RTVSPost2010Prop50
 90
       50
102
RTVSPost2010PropOp50
 70
     1
102
RTVSPost2010Prop51ColorIndex
 90
      256
102
RTVSPost2010Prop51ColorRGB
 90
-16777216
102
RTVSPost2010PropOp51
 70
     0
102
RTVSPost2010Prop52
140
1.0
102
RTVSPost2010PropOp52
 70
     0
102
RTVSPost2010Prop53
 90
        2
102
RTVSPost2010PropOp53
 70
     1
102
RTVSPost2010Prop54
  1
strokes_ogs.tif
102
RTVSPost2010PropOp54
 70
     1
102
RTVSPost2010Prop55
280
     0
102
RTVSPost2010PropOp55
 70
     1
102
RTVSPost2010Prop56
140
1.0
102
RTVSPost2010PropOp56
 70
     1
102
RTVSPost2010Prop57
140
1.0
102
RTVSPost2010PropOp57
 70
     1
102
RTVSPropertyOp0
 70
     1
102
RTVSPropertyOp1
 70
     1
102
RTVSPropertyOp2
 70
     1
102
RTVSPropertyOp3
 70
     1
102
RTVSPropertyOp4
 70
     1
102
RTVSPropertyOp5
 70
     1
102
RTVSPropertyOp6
 70
     1
102
RTVSPropertyOp7
 70
     1
102
RTVSPropertyOp8
 70
     1
102
RTVSPropertyOp9
 70
     1
102
RTVSPropertyOp10
 70
     1
102
RTVSPropertyOp11
 70
     1
102
RTVSPropertyOp12
 70
     1
102
RTVSPropertyOp13
 70
     1
102
RTVSPropertyOp14
 70
     1
102
RTVSPropertyOp15
 70
     1
102
RTVSPropertyOp16
 70
     1
102
RTVSPropertyOp17
 70
     1
102
RTVSPropertyOp18
 70
     1
102
RTVSPropertyOp19
 70
     1
102
RTVSPropertyOp20
 70
     1
102
RTVSPropertyOp21
 70
     1
102
RTVSPropertyOp22
 70
     1
102
RTVSPropertyOp23
 70
     1
102
RTVSPropertyOp24
 70
     1
102
RTVSPropertyOp25
 70
     1
102
RTVSPropertyOp26
 70
     1
102
RTVSPropertyOp27
 70
     1
102
RTVSPropertyOp28
 70
     1
102
RTVSPropertyOp29
 70
     1
102
RTVSPropertyOp30
 70
     1
102
RTVSPropertyOp31
 70
     1
102
RTVSPropertyOp32
 70
     1
102
RTVSPropertyOp33
 70
     1
102
RTVSPropertyOp34
 70
     1
102
RTVSPropertyOp35
 70
     1
102
RTVSPropertyOp36
 70
     1
102
RTVSPropertyOp37
 70
     1
102
RTVSPropertyOp38
 70
     1
102
RTVSPropertyOp39
 70
     1
102
RTVSPropertyOp40
 70
     1
102
RTVSPropertyOp41
 70
     1
102
RTVSPropertyOp42
 70
     1
102
RTVSPropertyOp43
 70
     1
102
RTVSPropertyOp44
 70
     1
102
RTVSPropertyOp45
 70
     1
102
RTVSPropertyOp46
 70
     1
102
RTVSPropertyOp47
 70
     1
102
RTVSPropertyOp48
 70
     1
102
RTVSPropertyOp49
 70
     1
102
RTVSPropertyOp50
 70
     1
102
RTVSPropertyOp51
 70
     0
102
RTVSPropertyOp52
 70
     0
102
RTVSPropertyOp53
 70
     1
102
RTVSPropertyOp54
 70
     1
102
RTVSPropertyOp55
 70
     1
102
RTVSPropertyOp56
 70
     1
102
RTVSPropertyOp57
 70
     1
102
RTVSPropertyOp58
 70
     1
102
RTVSPropertyOp59
 70
     1
102
RTVSPropertyOp60
 70
     1
102
RTVSPropertyOp61
 70
     1
102
RTVSPropertyOp62
 70
     1
  0
XRECORD
  5
3397
102
{ACAD_REACTORS
330
3396
102
}
330
3396
100
AcDbXrecord
280
     1
102
RTVSPost2010Prop28
280
     0
102
RTVSPost2010PropOp28
 70
     0
102
RTVSPost2010Prop29
280
     1
102
RTVSPost2010PropOp29
 70
     0
102
RTVSPost2010Prop30
280
     1
102
RTVSPost2010PropOp30
 70
     0
102
RTVSPost2010Prop31
280
     0
102
RTVSPost2010PropOp31
 70
     0
102
RTVSPost2010Prop32
280
     0
102
RTVSPost2010PropOp32
 70
     0
102
RTVSPost2010Prop33
280
     0
102
RTVSPost2010PropOp33
 70
     0
102
RTVSPost2010Prop34
280
     0
102
RTVSPost2010PropOp34
 70
     0
102
RTVSPost2010Prop35
280
     0
102
RTVSPost2010PropOp35
 70
     0
102
RTVSPost2010Prop36
280
     0
102
RTVSPost2010PropOp36
 70
     0
102
RTVSPost2010Prop37
 90
       50
102
RTVSPost2010PropOp37
 70
     0
102
RTVSPost2010Prop38
140
0.0
102
RTVSPost2010PropOp38
 70
     0
102
RTVSPost2010Prop39
140
1.0
102
RTVSPost2010PropOp39
 70
     0
102
RTVSPost2010Prop40
 90
        0
102
RTVSPost2010PropOp40
 70
     0
102
RTVSPost2010Prop41ColorIndex
 90
       18
102
RTVSPost2010Prop41ColorRGB
 90
        0
102
RTVSPost2010PropOp41
 70
     0
102
RTVSPost2010Prop42
 90
       50
102
RTVSPost2010PropOp42
 70
     0
102
RTVSPost2010Prop43
 90
        3
102
RTVSPost2010PropOp43
 70
     0
102
RTVSPost2010Prop44ColorIndex
 90
        5
102
RTVSPost2010Prop44ColorRGB
 90
      255
102
RTVSPost2010PropOp44
 70
     0
102
RTVSPost2010Prop45
280
     0
102
RTVSPost2010PropOp45
 70
     0
102
RTVSPost2010Prop46
 90
       50
102
RTVSPost2010PropOp46
 70
     0
102
RTVSPost2010Prop47
 90
       50
102
RTVSPost2010PropOp47
 70
     0
102
RTVSPost2010Prop48
 90
       50
102
RTVSPost2010PropOp48
 70
     0
102
RTVSPost2010Prop49
280
     0
102
RTVSPost2010PropOp49
 70
     0
102
RTVSPost2010Prop50
 90
       50
102
RTVSPost2010PropOp50
 70
     0
102
RTVSPost2010Prop51ColorIndex
 90
      256
102
RTVSPost2010Prop51ColorRGB
 90
-16777216
102
RTVSPost2010PropOp51
 70
     0
102
RTVSPost2010Prop52
140
1.0
102
RTVSPost2010PropOp52
 70
     0
102
RTVSPost2010Prop53
 90
        2
102
RTVSPost2010PropOp53
 70
     0
102
RTVSPost2010Prop54
  1
strokes_ogs.tif
102
RTVSPost2010PropOp54
 70
     0
102
RTVSPost2010Prop55
280
     0
102
RTVSPost2010PropOp55
 70
     0
102
RTVSPost2010Prop56
140
1.0
102
RTVSPost2010PropOp56
 70
     0
102
RTVSPost2010Prop57
140
1.0
102
RTVSPost2010PropOp57
 70
     0
102
RTVSPropertyOp0
 70
     0
102
RTVSPropertyOp1
 70
     0
102
RTVSPropertyOp2
 70
     0
102
RTVSPropertyOp3
 70
     0
102
RTVSPropertyOp4
 70
     0
102
RTVSPropertyOp5
 70
     0
102
RTVSPropertyOp6
 70
     0
102
RTVSPropertyOp7
 70
     0
102
RTVSPropertyOp8
 70
     0
102
RTVSPropertyOp9
 70
     0
102
RTVSPropertyOp10
 70
     0
102
RTVSPropertyOp11
 70
     0
102
RTVSPropertyOp12
 70
     0
102
RTVSPropertyOp13
 70
     0
102
RTVSPropertyOp14
 70
     2
102
RTVSPropertyOp15
 70
     0
102
RTVSPropertyOp16
 70
     0
102
RTVSPropertyOp17
 70
     0
102
RTVSPropertyOp18
 70
     0
102
RTVSPropertyOp19
 70
     0
102
RTVSPropertyOp20
 70
     0
102
RTVSPropertyOp21
 70
     0
102
RTVSPropertyOp22
 70
     0
102
RTVSPropertyOp23
 70
     0
102
RTVSPropertyOp24
 70
     0
102
RTVSPropertyOp25
 70
     0
102
RTVSPropertyOp26
 70
     0
102
RTVSPropertyOp27
 70
     0
102
RTVSPropertyOp28
 70
     0
102
RTVSPropertyOp29
 70
     0
102
RTVSPropertyOp30
 70
     0
102
RTVSPropertyOp31
 70
     0
102
RTVSPropertyOp32
 70
     0
102
RTVSPropertyOp33
 70
     0
102
RTVSPropertyOp34
 70
     0
102
RTVSPropertyOp35
 70
     0
102
RTVSPropertyOp36
 70
     0
102
RTVSPropertyOp37
 70
     0
102
RTVSPropertyOp38
 70
     0
102
RTVSPropertyOp39
 70
     0
102
RTVSPropertyOp40
 70
     0
102
RTVSPropertyOp41
 70
     0
102
RTVSPropertyOp42
 70
     0
102
RTVSPropertyOp43
 70
     0
102
RTVSPropertyOp44
 70
     0
102
RTVSPropertyOp45
 70
     0
102
RTVSPropertyOp46
 70
     0
102
RTVSPropertyOp47
 70
     0
102
RTVSPropertyOp48
 70
     0
102
RTVSPropertyOp49
 70
     0
102
RTVSPropertyOp50
 70
     0
102
RTVSPropertyOp51
 70
     0
102
RTVSPropertyOp52
 70
     0
102
RTVSPropertyOp53
 70
     0
102
RTVSPropertyOp54
 70
     0
102
RTVSPropertyOp55
 70
     0
102
RTVSPropertyOp56
 70
     0
102
RTVSPropertyOp57
 70
     0
102
RTVSPropertyOp58
 70
     0
102
RTVSPropertyOp59
 70
     0
102
RTVSPropertyOp60
 70
     0
102
RTVSPropertyOp61
 70
     0
102
RTVSPropertyOp62
 70
     0
  0
XRECORD
  5
3382
102
{ACAD_REACTORS
330
3381
102
}
330
3381
100
AcDbXrecord
280
     1
102
RTVSPost2010Prop28
280
     0
102
RTVSPost2010PropOp28
 70
     1
102
RTVSPost2010Prop29
280
     1
102
RTVSPost2010PropOp29
 70
     1
102
RTVSPost2010Prop30
280
     1
102
RTVSPost2010PropOp30
 70
     1
102
RTVSPost2010Prop31
280
     0
102
RTVSPost2010PropOp31
 70
     1
102
RTVSPost2010Prop32
280
     0
102
RTVSPost2010PropOp32
 70
     1
102
RTVSPost2010Prop33
280
     0
102
RTVSPost2010PropOp33
 70
     1
102
RTVSPost2010Prop34
280
     0
102
RTVSPost2010PropOp34
 70
     1
102
RTVSPost2010Prop35
280
     0
102
RTVSPost2010PropOp35
 70
     1
102
RTVSPost2010Prop36
280
     0
102
RTVSPost2010PropOp36
 70
     1
102
RTVSPost2010Prop37
 90
       50
102
RTVSPost2010PropOp37
 70
     1
102
RTVSPost2010Prop38
140
0.0
102
RTVSPost2010PropOp38
 70
     1
102
RTVSPost2010Prop39
140
1.0
102
RTVSPost2010PropOp39
 70
     1
102
RTVSPost2010Prop40
 90
        0
102
RTVSPost2010PropOp40
 70
     1
102
RTVSPost2010Prop41ColorIndex
 90
       18
102
RTVSPost2010Prop41ColorRGB
 90
        0
102
RTVSPost2010PropOp41
 70
     1
102
RTVSPost2010Prop42
 90
       50
102
RTVSPost2010PropOp42
 70
     1
102
RTVSPost2010Prop43
 90
        3
102
RTVSPost2010PropOp43
 70
     1
102
RTVSPost2010Prop44ColorIndex
 90
        5
102
RTVSPost2010Prop44ColorRGB
 90
      255
102
RTVSPost2010PropOp44
 70
     1
102
RTVSPost2010Prop45
280
     0
102
RTVSPost2010PropOp45
 70
     1
102
RTVSPost2010Prop46
 90
       50
102
RTVSPost2010PropOp46
 70
     1
102
RTVSPost2010Prop47
 90
       50
102
RTVSPost2010PropOp47
 70
     1
102
RTVSPost2010Prop48
 90
       50
102
RTVSPost2010PropOp48
 70
     1
102
RTVSPost2010Prop49
280
     0
102
RTVSPost2010PropOp49
 70
     1
102
RTVSPost2010Prop50
 90
       50
102
RTVSPost2010PropOp50
 70
     1
102
RTVSPost2010Prop51ColorIndex
 90
      256
102
RTVSPost2010Prop51ColorRGB
 90
-16777216
102
RTVSPost2010PropOp51
 70
     0
102
RTVSPost2010Prop52
140
1.0
102
RTVSPost2010PropOp52
 70
     0
102
RTVSPost2010Prop53
 90
        2
102
RTVSPost2010PropOp53
 70
     1
102
RTVSPost2010Prop54
  1
strokes_ogs.tif
102
RTVSPost2010PropOp54
 70
     1
102
RTVSPost2010Prop55
280
     0
102
RTVSPost2010PropOp55
 70
     1
102
RTVSPost2010Prop56
140
1.0
102
RTVSPost2010PropOp56
 70
     1
102
RTVSPost2010Prop57
140
1.0
102
RTVSPost2010PropOp57
 70
     1
102
RTVSPropertyOp0
 70
     1
102
RTVSPropertyOp1
 70
     1
102
RTVSPropertyOp2
 70
     1
102
RTVSPropertyOp3
 70
     1
102
RTVSPropertyOp4
 70
     1
102
RTVSPropertyOp5
 70
     1
102
RTVSPropertyOp6
 70
     1
102
RTVSPropertyOp7
 70
     1
102
RTVSPropertyOp8
 70
     1
102
RTVSPropertyOp9
 70
     1
102
RTVSPropertyOp10
 70
     1
102
RTVSPropertyOp11
 70
     1
102
RTVSPropertyOp12
 70
     1
102
RTVSPropertyOp13
 70
     1
102
RTVSPropertyOp14
 70
     1
102
RTVSPropertyOp15
 70
     1
102
RTVSPropertyOp16
 70
     1
102
RTVSPropertyOp17
 70
     1
102
RTVSPropertyOp18
 70
     1
102
RTVSPropertyOp19
 70
     1
102
RTVSPropertyOp20
 70
     1
102
RTVSPropertyOp21
 70
     1
102
RTVSPropertyOp22
 70
     1
102
RTVSPropertyOp23
 70
     1
102
RTVSPropertyOp24
 70
     1
102
RTVSPropertyOp25
 70
     1
102
RTVSPropertyOp26
 70
     1
102
RTVSPropertyOp27
 70
     1
102
RTVSPropertyOp28
 70
     1
102
RTVSPropertyOp29
 70
     1
102
RTVSPropertyOp30
 70
     1
102
RTVSPropertyOp31
 70
     1
102
RTVSPropertyOp32
 70
     1
102
RTVSPropertyOp33
 70
     1
102
RTVSPropertyOp34
 70
     1
102
RTVSPropertyOp35
 70
     1
102
RTVSPropertyOp36
 70
     1
102
RTVSPropertyOp37
 70
     1
102
RTVSPropertyOp38
 70
     1
102
RTVSPropertyOp39
 70
     1
102
RTVSPropertyOp40
 70
     1
102
RTVSPropertyOp41
 70
     1
102
RTVSPropertyOp42
 70
     1
102
RTVSPropertyOp43
 70
     1
102
RTVSPropertyOp44
 70
     1
102
RTVSPropertyOp45
 70
     1
102
RTVSPropertyOp46
 70
     1
102
RTVSPropertyOp47
 70
     1
102
RTVSPropertyOp48
 70
     1
102
RTVSPropertyOp49
 70
     1
102
RTVSPropertyOp50
 70
     1
102
RTVSPropertyOp51
 70
     0
102
RTVSPropertyOp52
 70
     0
102
RTVSPropertyOp53
 70
     1
102
RTVSPropertyOp54
 70
     1
102
RTVSPropertyOp55
 70
     1
102
RTVSPropertyOp56
 70
     1
102
RTVSPropertyOp57
 70
     1
102
RTVSPropertyOp58
 70
     1
102
RTVSPropertyOp59
 70
     1
102
RTVSPropertyOp60
 70
     1
102
RTVSPropertyOp61
 70
     1
102
RTVSPropertyOp62
 70
     1
  0
XRECORD
  5
3399
102
{ACAD_REACTORS
330
3398
102
}
330
3398
100
AcDbXrecord
280
     1
102
RTVSPost2010Prop28
280
     0
102
RTVSPost2010PropOp28
 70
     0
102
RTVSPost2010Prop29
280
     1
102
RTVSPost2010PropOp29
 70
     0
102
RTVSPost2010Prop30
280
     1
102
RTVSPost2010PropOp30
 70
     0
102
RTVSPost2010Prop31
280
     0
102
RTVSPost2010PropOp31
 70
     0
102
RTVSPost2010Prop32
280
     0
102
RTVSPost2010PropOp32
 70
     0
102
RTVSPost2010Prop33
280
     0
102
RTVSPost2010PropOp33
 70
     0
102
RTVSPost2010Prop34
280
     0
102
RTVSPost2010PropOp34
 70
     0
102
RTVSPost2010Prop35
280
     0
102
RTVSPost2010PropOp35
 70
     0
102
RTVSPost2010Prop36
280
     0
102
RTVSPost2010PropOp36
 70
     0
102
RTVSPost2010Prop37
 90
       50
102
RTVSPost2010PropOp37
 70
     0
102
RTVSPost2010Prop38
140
0.0
102
RTVSPost2010PropOp38
 70
     0
102
RTVSPost2010Prop39
140
1.0
102
RTVSPost2010PropOp39
 70
     0
102
RTVSPost2010Prop40
 90
        0
102
RTVSPost2010PropOp40
 70
     0
102
RTVSPost2010Prop41ColorIndex
 90
       18
102
RTVSPost2010Prop41ColorRGB
 90
        0
102
RTVSPost2010PropOp41
 70
     0
102
RTVSPost2010Prop42
 90
       50
102
RTVSPost2010PropOp42
 70
     0
102
RTVSPost2010Prop43
 90
        3
102
RTVSPost2010PropOp43
 70
     0
102
RTVSPost2010Prop44ColorIndex
 90
        5
102
RTVSPost2010Prop44ColorRGB
 90
      255
102
RTVSPost2010PropOp44
 70
     0
102
RTVSPost2010Prop45
280
     0
102
RTVSPost2010PropOp45
 70
     0
102
RTVSPost2010Prop46
 90
       50
102
RTVSPost2010PropOp46
 70
     0
102
RTVSPost2010Prop47
 90
       50
102
RTVSPost2010PropOp47
 70
     0
102
RTVSPost2010Prop48
 90
       50
102
RTVSPost2010PropOp48
 70
     0
102
RTVSPost2010Prop49
280
     0
102
RTVSPost2010PropOp49
 70
     0
102
RTVSPost2010Prop50
 90
       50
102
RTVSPost2010PropOp50
 70
     0
102
RTVSPost2010Prop51ColorIndex
 90
      256
102
RTVSPost2010Prop51ColorRGB
 90
-16777216
102
RTVSPost2010PropOp51
 70
     0
102
RTVSPost2010Prop52
140
1.0
102
RTVSPost2010PropOp52
 70
     0
102
RTVSPost2010Prop53
 90
        2
102
RTVSPost2010PropOp53
 70
     0
102
RTVSPost2010Prop54
  1
strokes_ogs.tif
102
RTVSPost2010PropOp54
 70
     0
102
RTVSPost2010Prop55
280
     0
102
RTVSPost2010PropOp55
 70
     0
102
RTVSPost2010Prop56
140
1.0
102
RTVSPost2010PropOp56
 70
     0
102
RTVSPost2010Prop57
140
1.0
102
RTVSPost2010PropOp57
 70
     0
102
RTVSPropertyOp0
 70
     0
102
RTVSPropertyOp1
 70
     0
102
RTVSPropertyOp2
 70
     0
102
RTVSPropertyOp3
 70
     0
102
RTVSPropertyOp4
 70
     0
102
RTVSPropertyOp5
 70
     0
102
RTVSPropertyOp6
 70
     0
102
RTVSPropertyOp7
 70
     0
102
RTVSPropertyOp8
 70
     0
102
RTVSPropertyOp9
 70
     0
102
RTVSPropertyOp10
 70
     0
102
RTVSPropertyOp11
 70
     0
102
RTVSPropertyOp12
 70
     0
102
RTVSPropertyOp13
 70
     0
102
RTVSPropertyOp14
 70
     2
102
RTVSPropertyOp15
 70
     0
102
RTVSPropertyOp16
 70
     0
102
RTVSPropertyOp17
 70
     0
102
RTVSPropertyOp18
 70
     0
102
RTVSPropertyOp19
 70
     0
102
RTVSPropertyOp20
 70
     0
102
RTVSPropertyOp21
 70
     0
102
RTVSPropertyOp22
 70
     0
102
RTVSPropertyOp23
 70
     0
102
RTVSPropertyOp24
 70
     0
102
RTVSPropertyOp25
 70
     0
102
RTVSPropertyOp26
 70
     0
102
RTVSPropertyOp27
 70
     0
102
RTVSPropertyOp28
 70
     0
102
RTVSPropertyOp29
 70
     0
102
RTVSPropertyOp30
 70
     0
102
RTVSPropertyOp31
 70
     0
102
RTVSPropertyOp32
 70
     0
102
RTVSPropertyOp33
 70
     0
102
RTVSPropertyOp34
 70
     0
102
RTVSPropertyOp35
 70
     0
102
RTVSPropertyOp36
 70
     0
102
RTVSPropertyOp37
 70
     0
102
RTVSPropertyOp38
 70
     0
102
RTVSPropertyOp39
 70
     0
102
RTVSPropertyOp40
 70
     0
102
RTVSPropertyOp41
 70
     0
102
RTVSPropertyOp42
 70
     0
102
RTVSPropertyOp43
 70
     0
102
RTVSPropertyOp44
 70
     0
102
RTVSPropertyOp45
 70
     0
102
RTVSPropertyOp46
 70
     0
102
RTVSPropertyOp47
 70
     0
102
RTVSPropertyOp48
 70
     0
102
RTVSPropertyOp49
 70
     0
102
RTVSPropertyOp50
 70
     0
102
RTVSPropertyOp51
 70
     0
102
RTVSPropertyOp52
 70
     0
102
RTVSPropertyOp53
 70
     0
102
RTVSPropertyOp54
 70
     0
102
RTVSPropertyOp55
 70
     0
102
RTVSPropertyOp56
 70
     0
102
RTVSPropertyOp57
 70
     0
102
RTVSPropertyOp58
 70
     0
102
RTVSPropertyOp59
 70
     0
102
RTVSPropertyOp60
 70
     0
102
RTVSPropertyOp61
 70
     0
102
RTVSPropertyOp62
 70
     0
  0
XRECORD
  5
337A
102
{ACAD_REACTORS
330
3379
102
}
330
3379
100
AcDbXrecord
280
     1
102
RTVSPost2010Prop28
280
     0
102
RTVSPost2010PropOp28
 70
     1
102
RTVSPost2010Prop29
280
     1
102
RTVSPost2010PropOp29
 70
     1
102
RTVSPost2010Prop30
280
     1
102
RTVSPost2010PropOp30
 70
     1
102
RTVSPost2010Prop31
280
     0
102
RTVSPost2010PropOp31
 70
     1
102
RTVSPost2010Prop32
280
     0
102
RTVSPost2010PropOp32
 70
     1
102
RTVSPost2010Prop33
280
     0
102
RTVSPost2010PropOp33
 70
     1
102
RTVSPost2010Prop34
280
     0
102
RTVSPost2010PropOp34
 70
     1
102
RTVSPost2010Prop35
280
     0
102
RTVSPost2010PropOp35
 70
     1
102
RTVSPost2010Prop36
280
     0
102
RTVSPost2010PropOp36
 70
     1
102
RTVSPost2010Prop37
 90
       50
102
RTVSPost2010PropOp37
 70
     1
102
RTVSPost2010Prop38
140
0.0
102
RTVSPost2010PropOp38
 70
     1
102
RTVSPost2010Prop39
140
1.0
102
RTVSPost2010PropOp39
 70
     1
102
RTVSPost2010Prop40
 90
        0
102
RTVSPost2010PropOp40
 70
     1
102
RTVSPost2010Prop41ColorIndex
 90
       18
102
RTVSPost2010Prop41ColorRGB
 90
        0
102
RTVSPost2010PropOp41
 70
     1
102
RTVSPost2010Prop42
 90
       50
102
RTVSPost2010PropOp42
 70
     1
102
RTVSPost2010Prop43
 90
        3
102
RTVSPost2010PropOp43
 70
     1
102
RTVSPost2010Prop44ColorIndex
 90
        5
102
RTVSPost2010Prop44ColorRGB
 90
      255
102
RTVSPost2010PropOp44
 70
     1
102
RTVSPost2010Prop45
280
     0
102
RTVSPost2010PropOp45
 70
     1
102
RTVSPost2010Prop46
 90
       50
102
RTVSPost2010PropOp46
 70
     1
102
RTVSPost2010Prop47
 90
       50
102
RTVSPost2010PropOp47
 70
     1
102
RTVSPost2010Prop48
 90
       50
102
RTVSPost2010PropOp48
 70
     1
102
RTVSPost2010Prop49
280
     0
102
RTVSPost2010PropOp49
 70
     1
102
RTVSPost2010Prop50
 90
       50
102
RTVSPost2010PropOp50
 70
     1
102
RTVSPost2010Prop51ColorIndex
 90
      256
102
RTVSPost2010Prop51ColorRGB
 90
-16777216
102
RTVSPost2010PropOp51
 70
     0
102
RTVSPost2010Prop52
140
1.0
102
RTVSPost2010PropOp52
 70
     0
102
RTVSPost2010Prop53
 90
        2
102
RTVSPost2010PropOp53
 70
     1
102
RTVSPost2010Prop54
  1
strokes_ogs.tif
102
RTVSPost2010PropOp54
 70
     1
102
RTVSPost2010Prop55
280
     0
102
RTVSPost2010PropOp55
 70
     1
102
RTVSPost2010Prop56
140
1.0
102
RTVSPost2010PropOp56
 70
     1
102
RTVSPost2010Prop57
140
1.0
102
RTVSPost2010PropOp57
 70
     1
102
RTVSPropertyOp0
 70
     1
102
RTVSPropertyOp1
 70
     1
102
RTVSPropertyOp2
 70
     1
102
RTVSPropertyOp3
 70
     1
102
RTVSPropertyOp4
 70
     1
102
RTVSPropertyOp5
 70
     1
102
RTVSPropertyOp6
 70
     1
102
RTVSPropertyOp7
 70
     1
102
RTVSPropertyOp8
 70
     1
102
RTVSPropertyOp9
 70
     1
102
RTVSPropertyOp10
 70
     1
102
RTVSPropertyOp11
 70
     1
102
RTVSPropertyOp12
 70
     1
102
RTVSPropertyOp13
 70
     1
102
RTVSPropertyOp14
 70
     1
102
RTVSPropertyOp15
 70
     1
102
RTVSPropertyOp16
 70
     1
102
RTVSPropertyOp17
 70
     1
102
RTVSPropertyOp18
 70
     1
102
RTVSPropertyOp19
 70
     1
102
RTVSPropertyOp20
 70
     1
102
RTVSPropertyOp21
 70
     1
102
RTVSPropertyOp22
 70
     1
102
RTVSPropertyOp23
 70
     1
102
RTVSPropertyOp24
 70
     1
102
RTVSPropertyOp25
 70
     1
102
RTVSPropertyOp26
 70
     1
102
RTVSPropertyOp27
 70
     1
102
RTVSPropertyOp28
 70
     1
102
RTVSPropertyOp29
 70
     1
102
RTVSPropertyOp30
 70
     1
102
RTVSPropertyOp31
 70
     1
102
RTVSPropertyOp32
 70
     1
102
RTVSPropertyOp33
 70
     1
102
RTVSPropertyOp34
 70
     1
102
RTVSPropertyOp35
 70
     1
102
RTVSPropertyOp36
 70
     1
102
RTVSPropertyOp37
 70
     1
102
RTVSPropertyOp38
 70
     1
102
RTVSPropertyOp39
 70
     1
102
RTVSPropertyOp40
 70
     1
102
RTVSPropertyOp41
 70
     1
102
RTVSPropertyOp42
 70
     1
102
RTVSPropertyOp43
 70
     1
102
RTVSPropertyOp44
 70
     1
102
RTVSPropertyOp45
 70
     1
102
RTVSPropertyOp46
 70
     1
102
RTVSPropertyOp47
 70
     1
102
RTVSPropertyOp48
 70
     1
102
RTVSPropertyOp49
 70
     1
102
RTVSPropertyOp50
 70
     1
102
RTVSPropertyOp51
 70
     0
102
RTVSPropertyOp52
 70
     0
102
RTVSPropertyOp53
 70
     1
102
RTVSPropertyOp54
 70
     1
102
RTVSPropertyOp55
 70
     1
102
RTVSPropertyOp56
 70
     1
102
RTVSPropertyOp57
 70
     1
102
RTVSPropertyOp58
 70
     1
102
RTVSPropertyOp59
 70
     1
102
RTVSPropertyOp60
 70
     1
102
RTVSPropertyOp61
 70
     1
102
RTVSPropertyOp62
 70
     1
  0
XRECORD
  5
3395
102
{ACAD_REACTORS
330
3394
102
}
330
3394
100
AcDbXrecord
280
     1
102
RTVSPost2010Prop28
280
     0
102
RTVSPost2010PropOp28
 70
     1
102
RTVSPost2010Prop29
280
     1
102
RTVSPost2010PropOp29
 70
     1
102
RTVSPost2010Prop30
280
     1
102
RTVSPost2010PropOp30
 70
     1
102
RTVSPost2010Prop31
280
     0
102
RTVSPost2010PropOp31
 70
     1
102
RTVSPost2010Prop32
280
     0
102
RTVSPost2010PropOp32
 70
     1
102
RTVSPost2010Prop33
280
     0
102
RTVSPost2010PropOp33
 70
     1
102
RTVSPost2010Prop34
280
     0
102
RTVSPost2010PropOp34
 70
     1
102
RTVSPost2010Prop35
280
     0
102
RTVSPost2010PropOp35
 70
     1
102
RTVSPost2010Prop36
280
     0
102
RTVSPost2010PropOp36
 70
     1
102
RTVSPost2010Prop37
 90
       50
102
RTVSPost2010PropOp37
 70
     1
102
RTVSPost2010Prop38
140
0.0
102
RTVSPost2010PropOp38
 70
     1
102
RTVSPost2010Prop39
140
1.0
102
RTVSPost2010PropOp39
 70
     1
102
RTVSPost2010Prop40
 90
        0
102
RTVSPost2010PropOp40
 70
     1
102
RTVSPost2010Prop41ColorIndex
 90
       18
102
RTVSPost2010Prop41ColorRGB
 90
        0
102
RTVSPost2010PropOp41
 70
     1
102
RTVSPost2010Prop42
 90
       50
102
RTVSPost2010PropOp42
 70
     1
102
RTVSPost2010Prop43
 90
        3
102
RTVSPost2010PropOp43
 70
     1
102
RTVSPost2010Prop44ColorIndex
 90
        5
102
RTVSPost2010Prop44ColorRGB
 90
      255
102
RTVSPost2010PropOp44
 70
     1
102
RTVSPost2010Prop45
280
     0
102
RTVSPost2010PropOp45
 70
     1
102
RTVSPost2010Prop46
 90
       50
102
RTVSPost2010PropOp46
 70
     1
102
RTVSPost2010Prop47
 90
       50
102
RTVSPost2010PropOp47
 70
     1
102
RTVSPost2010Prop48
 90
       50
102
RTVSPost2010PropOp48
 70
     1
102
RTVSPost2010Prop49
280
     0
102
RTVSPost2010PropOp49
 70
     1
102
RTVSPost2010Prop50
 90
       50
102
RTVSPost2010PropOp50
 70
     1
102
RTVSPost2010Prop51ColorIndex
 90
      256
102
RTVSPost2010Prop51ColorRGB
 90
-16777216
102
RTVSPost2010PropOp51
 70
     0
102
RTVSPost2010Prop52
140
1.0
102
RTVSPost2010PropOp52
 70
     0
102
RTVSPost2010Prop53
 90
        2
102
RTVSPost2010PropOp53
 70
     1
102
RTVSPost2010Prop54
  1
strokes_ogs.tif
102
RTVSPost2010PropOp54
 70
     1
102
RTVSPost2010Prop55
280
     0
102
RTVSPost2010PropOp55
 70
     1
102
RTVSPost2010Prop56
140
1.0
102
RTVSPost2010PropOp56
 70
     1
102
RTVSPost2010Prop57
140
1.0
102
RTVSPost2010PropOp57
 70
     1
102
RTVSPropertyOp0
 70
     1
102
RTVSPropertyOp1
 70
     1
102
RTVSPropertyOp2
 70
     1
102
RTVSPropertyOp3
 70
     1
102
RTVSPropertyOp4
 70
     1
102
RTVSPropertyOp5
 70
     1
102
RTVSPropertyOp6
 70
     1
102
RTVSPropertyOp7
 70
     1
102
RTVSPropertyOp8
 70
     1
102
RTVSPropertyOp9
 70
     1
102
RTVSPropertyOp10
 70
     1
102
RTVSPropertyOp11
 70
     1
102
RTVSPropertyOp12
 70
     1
102
RTVSPropertyOp13
 70
     1
102
RTVSPropertyOp14
 70
     1
102
RTVSPropertyOp15
 70
     1
102
RTVSPropertyOp16
 70
     1
102
RTVSPropertyOp17
 70
     1
102
RTVSPropertyOp18
 70
     1
102
RTVSPropertyOp19
 70
     1
102
RTVSPropertyOp20
 70
     1
102
RTVSPropertyOp21
 70
     1
102
RTVSPropertyOp22
 70
     1
102
RTVSPropertyOp23
 70
     1
102
RTVSPropertyOp24
 70
     1
102
RTVSPropertyOp25
 70
     1
102
RTVSPropertyOp26
 70
     1
102
RTVSPropertyOp27
 70
     1
102
RTVSPropertyOp28
 70
     1
102
RTVSPropertyOp29
 70
     1
102
RTVSPropertyOp30
 70
     1
102
RTVSPropertyOp31
 70
     1
102
RTVSPropertyOp32
 70
     1
102
RTVSPropertyOp33
 70
     1
102
RTVSPropertyOp34
 70
     1
102
RTVSPropertyOp35
 70
     1
102
RTVSPropertyOp36
 70
     1
102
RTVSPropertyOp37
 70
     1
102
RTVSPropertyOp38
 70
     1
102
RTVSPropertyOp39
 70
     1
102
RTVSPropertyOp40
 70
     1
102
RTVSPropertyOp41
 70
     1
102
RTVSPropertyOp42
 70
     1
102
RTVSPropertyOp43
 70
     1
102
RTVSPropertyOp44
 70
     1
102
RTVSPropertyOp45
 70
     1
102
RTVSPropertyOp46
 70
     1
102
RTVSPropertyOp47
 70
     1
102
RTVSPropertyOp48
 70
     1
102
RTVSPropertyOp49
 70
     1
102
RTVSPropertyOp50
 70
     1
102
RTVSPropertyOp51
 70
     0
102
RTVSPropertyOp52
 70
     0
102
RTVSPropertyOp53
 70
     1
102
RTVSPropertyOp54
 70
     1
102
RTVSPropertyOp55
 70
     1
102
RTVSPropertyOp56
 70
     1
102
RTVSPropertyOp57
 70
     1
102
RTVSPropertyOp58
 70
     1
102
RTVSPropertyOp59
 70
     1
102
RTVSPropertyOp60
 70
     1
102
RTVSPropertyOp61
 70
     1
102
RTVSPropertyOp62
 70
     1
  0
XRECORD
  5
3393
102
{ACAD_REACTORS
330
3392
102
}
330
3392
100
AcDbXrecord
280
     1
102
RTVSPost2010Prop28
280
     0
102
RTVSPost2010PropOp28
 70
     1
102
RTVSPost2010Prop29
280
     1
102
RTVSPost2010PropOp29
 70
     1
102
RTVSPost2010Prop30
280
     1
102
RTVSPost2010PropOp30
 70
     1
102
RTVSPost2010Prop31
280
     0
102
RTVSPost2010PropOp31
 70
     1
102
RTVSPost2010Prop32
280
     0
102
RTVSPost2010PropOp32
 70
     1
102
RTVSPost2010Prop33
280
     0
102
RTVSPost2010PropOp33
 70
     1
102
RTVSPost2010Prop34
280
     0
102
RTVSPost2010PropOp34
 70
     1
102
RTVSPost2010Prop35
280
     0
102
RTVSPost2010PropOp35
 70
     1
102
RTVSPost2010Prop36
280
     0
102
RTVSPost2010PropOp36
 70
     1
102
RTVSPost2010Prop37
 90
       50
102
RTVSPost2010PropOp37
 70
     1
102
RTVSPost2010Prop38
140
0.0
102
RTVSPost2010PropOp38
 70
     1
102
RTVSPost2010Prop39
140
1.0
102
RTVSPost2010PropOp39
 70
     1
102
RTVSPost2010Prop40
 90
        0
102
RTVSPost2010PropOp40
 70
     1
102
RTVSPost2010Prop41ColorIndex
 90
       18
102
RTVSPost2010Prop41ColorRGB
 90
        0
102
RTVSPost2010PropOp41
 70
     1
102
RTVSPost2010Prop42
 90
       50
102
RTVSPost2010PropOp42
 70
     1
102
RTVSPost2010Prop43
 90
        3
102
RTVSPost2010PropOp43
 70
     1
102
RTVSPost2010Prop44ColorIndex
 90
        5
102
RTVSPost2010Prop44ColorRGB
 90
      255
102
RTVSPost2010PropOp44
 70
     1
102
RTVSPost2010Prop45
280
     0
102
RTVSPost2010PropOp45
 70
     1
102
RTVSPost2010Prop46
 90
       50
102
RTVSPost2010PropOp46
 70
     1
102
RTVSPost2010Prop47
 90
       50
102
RTVSPost2010PropOp47
 70
     1
102
RTVSPost2010Prop48
 90
       50
102
RTVSPost2010PropOp48
 70
     1
102
RTVSPost2010Prop49
280
     0
102
RTVSPost2010PropOp49
 70
     1
102
RTVSPost2010Prop50
 90
       50
102
RTVSPost2010PropOp50
 70
     1
102
RTVSPost2010Prop51ColorIndex
 90
      256
102
RTVSPost2010Prop51ColorRGB
 90
-16777216
102
RTVSPost2010PropOp51
 70
     0
102
RTVSPost2010Prop52
140
1.0
102
RTVSPost2010PropOp52
 70
     0
102
RTVSPost2010Prop53
 90
        2
102
RTVSPost2010PropOp53
 70
     1
102
RTVSPost2010Prop54
  1
strokes_ogs.tif
102
RTVSPost2010PropOp54
 70
     1
102
RTVSPost2010Prop55
280
     0
102
RTVSPost2010PropOp55
 70
     1
102
RTVSPost2010Prop56
140
1.0
102
RTVSPost2010PropOp56
 70
     1
102
RTVSPost2010Prop57
140
1.0
102
RTVSPost2010PropOp57
 70
     1
102
RTVSPropertyOp0
 70
     1
102
RTVSPropertyOp1
 70
     1
102
RTVSPropertyOp2
 70
     1
102
RTVSPropertyOp3
 70
     1
102
RTVSPropertyOp4
 70
     1
102
RTVSPropertyOp5
 70
     1
102
RTVSPropertyOp6
 70
     1
102
RTVSPropertyOp7
 70
     1
102
RTVSPropertyOp8
 70
     1
102
RTVSPropertyOp9
 70
     1
102
RTVSPropertyOp10
 70
     1
102
RTVSPropertyOp11
 70
     1
102
RTVSPropertyOp12
 70
     1
102
RTVSPropertyOp13
 70
     1
102
RTVSPropertyOp14
 70
     1
102
RTVSPropertyOp15
 70
     1
102
RTVSPropertyOp16
 70
     1
102
RTVSPropertyOp17
 70
     1
102
RTVSPropertyOp18
 70
     1
102
RTVSPropertyOp19
 70
     1
102
RTVSPropertyOp20
 70
     1
102
RTVSPropertyOp21
 70
     1
102
RTVSPropertyOp22
 70
     1
102
RTVSPropertyOp23
 70
     1
102
RTVSPropertyOp24
 70
     1
102
RTVSPropertyOp25
 70
     1
102
RTVSPropertyOp26
 70
     1
102
RTVSPropertyOp27
 70
     1
102
RTVSPropertyOp28
 70
     1
102
RTVSPropertyOp29
 70
     1
102
RTVSPropertyOp30
 70
     1
102
RTVSPropertyOp31
 70
     1
102
RTVSPropertyOp32
 70
     1
102
RTVSPropertyOp33
 70
     1
102
RTVSPropertyOp34
 70
     1
102
RTVSPropertyOp35
 70
     1
102
RTVSPropertyOp36
 70
     1
102
RTVSPropertyOp37
 70
     1
102
RTVSPropertyOp38
 70
     1
102
RTVSPropertyOp39
 70
     1
102
RTVSPropertyOp40
 70
     1
102
RTVSPropertyOp41
 70
     1
102
RTVSPropertyOp42
 70
     1
102
RTVSPropertyOp43
 70
     1
102
RTVSPropertyOp44
 70
     1
102
RTVSPropertyOp45
 70
     1
102
RTVSPropertyOp46
 70
     1
102
RTVSPropertyOp47
 70
     1
102
RTVSPropertyOp48
 70
     1
102
RTVSPropertyOp49
 70
     1
102
RTVSPropertyOp50
 70
     1
102
RTVSPropertyOp51
 70
     0
102
RTVSPropertyOp52
 70
     0
102
RTVSPropertyOp53
 70
     1
102
RTVSPropertyOp54
 70
     1
102
RTVSPropertyOp55
 70
     1
102
RTVSPropertyOp56
 70
     1
102
RTVSPropertyOp57
 70
     1
102
RTVSPropertyOp58
 70
     1
102
RTVSPropertyOp59
 70
     1
102
RTVSPropertyOp60
 70
     1
102
RTVSPropertyOp61
 70
     1
102
RTVSPropertyOp62
 70
     1
  0
XRECORD
  5
338D
102
{ACAD_REACTORS
330
338C
102
}
330
338C
100
AcDbXrecord
280
     1
102
RTVSPost2010Prop28
280
     0
102
RTVSPost2010PropOp28
 70
     1
102
RTVSPost2010Prop29
280
     1
102
RTVSPost2010PropOp29
 70
     1
102
RTVSPost2010Prop30
280
     1
102
RTVSPost2010PropOp30
 70
     1
102
RTVSPost2010Prop31
280
     0
102
RTVSPost2010PropOp31
 70
     1
102
RTVSPost2010Prop32
280
     0
102
RTVSPost2010PropOp32
 70
     1
102
RTVSPost2010Prop33
280
     0
102
RTVSPost2010PropOp33
 70
     1
102
RTVSPost2010Prop34
280
     0
102
RTVSPost2010PropOp34
 70
     1
102
RTVSPost2010Prop35
280
     0
102
RTVSPost2010PropOp35
 70
     1
102
RTVSPost2010Prop36
280
     0
102
RTVSPost2010PropOp36
 70
     1
102
RTVSPost2010Prop37
 90
       50
102
RTVSPost2010PropOp37
 70
     1
102
RTVSPost2010Prop38
140
0.0
102
RTVSPost2010PropOp38
 70
     1
102
RTVSPost2010Prop39
140
1.0
102
RTVSPost2010PropOp39
 70
     1
102
RTVSPost2010Prop40
 90
        0
102
RTVSPost2010PropOp40
 70
     1
102
RTVSPost2010Prop41ColorIndex
 90
       18
102
RTVSPost2010Prop41ColorRGB
 90
        0
102
RTVSPost2010PropOp41
 70
     1
102
RTVSPost2010Prop42
 90
       50
102
RTVSPost2010PropOp42
 70
     1
102
RTVSPost2010Prop43
 90
        3
102
RTVSPost2010PropOp43
 70
     1
102
RTVSPost2010Prop44ColorIndex
 90
        5
102
RTVSPost2010Prop44ColorRGB
 90
      255
102
RTVSPost2010PropOp44
 70
     1
102
RTVSPost2010Prop45
280
     0
102
RTVSPost2010PropOp45
 70
     1
102
RTVSPost2010Prop46
 90
       50
102
RTVSPost2010PropOp46
 70
     1
102
RTVSPost2010Prop47
 90
       50
102
RTVSPost2010PropOp47
 70
     1
102
RTVSPost2010Prop48
 90
       50
102
RTVSPost2010PropOp48
 70
     1
102
RTVSPost2010Prop49
280
     0
102
RTVSPost2010PropOp49
 70
     1
102
RTVSPost2010Prop50
 90
       50
102
RTVSPost2010PropOp50
 70
     1
102
RTVSPost2010Prop51ColorIndex
 90
      256
102
RTVSPost2010Prop51ColorRGB
 90
-16777216
102
RTVSPost2010PropOp51
 70
     0
102
RTVSPost2010Prop52
140
1.0
102
RTVSPost2010PropOp52
 70
     0
102
RTVSPost2010Prop53
 90
        2
102
RTVSPost2010PropOp53
 70
     1
102
RTVSPost2010Prop54
  1
strokes_ogs.tif
102
RTVSPost2010PropOp54
 70
     1
102
RTVSPost2010Prop55
280
     0
102
RTVSPost2010PropOp55
 70
     1
102
RTVSPost2010Prop56
140
1.0
102
RTVSPost2010PropOp56
 70
     1
102
RTVSPost2010Prop57
140
1.0
102
RTVSPost2010PropOp57
 70
     1
102
RTVSPropertyOp0
 70
     1
102
RTVSPropertyOp1
 70
     1
102
RTVSPropertyOp2
 70
     1
102
RTVSPropertyOp3
 70
     1
102
RTVSPropertyOp4
 70
     1
102
RTVSPropertyOp5
 70
     1
102
RTVSPropertyOp6
 70
     1
102
RTVSPropertyOp7
 70
     1
102
RTVSPropertyOp8
 70
     1
102
RTVSPropertyOp9
 70
     1
102
RTVSPropertyOp10
 70
     1
102
RTVSPropertyOp11
 70
     1
102
RTVSPropertyOp12
 70
     1
102
RTVSPropertyOp13
 70
     1
102
RTVSPropertyOp14
 70
     1
102
RTVSPropertyOp15
 70
     1
102
RTVSPropertyOp16
 70
     1
102
RTVSPropertyOp17
 70
     1
102
RTVSPropertyOp18
 70
     1
102
RTVSPropertyOp19
 70
     1
102
RTVSPropertyOp20
 70
     1
102
RTVSPropertyOp21
 70
     1
102
RTVSPropertyOp22
 70
     1
102
RTVSPropertyOp23
 70
     1
102
RTVSPropertyOp24
 70
     1
102
RTVSPropertyOp25
 70
     1
102
RTVSPropertyOp26
 70
     1
102
RTVSPropertyOp27
 70
     1
102
RTVSPropertyOp28
 70
     1
102
RTVSPropertyOp29
 70
     1
102
RTVSPropertyOp30
 70
     1
102
RTVSPropertyOp31
 70
     1
102
RTVSPropertyOp32
 70
     1
102
RTVSPropertyOp33
 70
     1
102
RTVSPropertyOp34
 70
     1
102
RTVSPropertyOp35
 70
     1
102
RTVSPropertyOp36
 70
     1
102
RTVSPropertyOp37
 70
     1
102
RTVSPropertyOp38
 70
     1
102
RTVSPropertyOp39
 70
     1
102
RTVSPropertyOp40
 70
     1
102
RTVSPropertyOp41
 70
     1
102
RTVSPropertyOp42
 70
     1
102
RTVSPropertyOp43
 70
     1
102
RTVSPropertyOp44
 70
     1
102
RTVSPropertyOp45
 70
     1
102
RTVSPropertyOp46
 70
     1
102
RTVSPropertyOp47
 70
     1
102
RTVSPropertyOp48
 70
     1
102
RTVSPropertyOp49
 70
     1
102
RTVSPropertyOp50
 70
     1
102
RTVSPropertyOp51
 70
     0
102
RTVSPropertyOp52
 70
     0
102
RTVSPropertyOp53
 70
     1
102
RTVSPropertyOp54
 70
     1
102
RTVSPropertyOp55
 70
     1
102
RTVSPropertyOp56
 70
     1
102
RTVSPropertyOp57
 70
     1
102
RTVSPropertyOp58
 70
     1
102
RTVSPropertyOp59
 70
     1
102
RTVSPropertyOp60
 70
     1
102
RTVSPropertyOp61
 70
     1
102
RTVSPropertyOp62
 70
     1
  0
XRECORD
  5
338F
102
{ACAD_REACTORS
330
338E
102
}
330
338E
100
AcDbXrecord
280
     1
102
RTVSPost2010Prop28
280
     0
102
RTVSPost2010PropOp28
 70
     1
102
RTVSPost2010Prop29
280
     1
102
RTVSPost2010PropOp29
 70
     1
102
RTVSPost2010Prop30
280
     1
102
RTVSPost2010PropOp30
 70
     1
102
RTVSPost2010Prop31
280
     0
102
RTVSPost2010PropOp31
 70
     1
102
RTVSPost2010Prop32
280
     0
102
RTVSPost2010PropOp32
 70
     1
102
RTVSPost2010Prop33
280
     0
102
RTVSPost2010PropOp33
 70
     1
102
RTVSPost2010Prop34
280
     0
102
RTVSPost2010PropOp34
 70
     1
102
RTVSPost2010Prop35
280
     0
102
RTVSPost2010PropOp35
 70
     1
102
RTVSPost2010Prop36
280
     0
102
RTVSPost2010PropOp36
 70
     1
102
RTVSPost2010Prop37
 90
       50
102
RTVSPost2010PropOp37
 70
     1
102
RTVSPost2010Prop38
140
0.0
102
RTVSPost2010PropOp38
 70
     1
102
RTVSPost2010Prop39
140
1.0
102
RTVSPost2010PropOp39
 70
     1
102
RTVSPost2010Prop40
 90
        0
102
RTVSPost2010PropOp40
 70
     1
102
RTVSPost2010Prop41ColorIndex
 90
       18
102
RTVSPost2010Prop41ColorRGB
 90
        0
102
RTVSPost2010PropOp41
 70
     1
102
RTVSPost2010Prop42
 90
       50
102
RTVSPost2010PropOp42
 70
     1
102
RTVSPost2010Prop43
 90
        3
102
RTVSPost2010PropOp43
 70
     1
102
RTVSPost2010Prop44ColorIndex
 90
        5
102
RTVSPost2010Prop44ColorRGB
 90
      255
102
RTVSPost2010PropOp44
 70
     1
102
RTVSPost2010Prop45
280
     0
102
RTVSPost2010PropOp45
 70
     1
102
RTVSPost2010Prop46
 90
       50
102
RTVSPost2010PropOp46
 70
     1
102
RTVSPost2010Prop47
 90
       50
102
RTVSPost2010PropOp47
 70
     1
102
RTVSPost2010Prop48
 90
       50
102
RTVSPost2010PropOp48
 70
     1
102
RTVSPost2010Prop49
280
     0
102
RTVSPost2010PropOp49
 70
     1
102
RTVSPost2010Prop50
 90
       50
102
RTVSPost2010PropOp50
 70
     1
102
RTVSPost2010Prop51ColorIndex
 90
      256
102
RTVSPost2010Prop51ColorRGB
 90
-16777216
102
RTVSPost2010PropOp51
 70
     0
102
RTVSPost2010Prop52
140
1.0
102
RTVSPost2010PropOp52
 70
     0
102
RTVSPost2010Prop53
 90
        2
102
RTVSPost2010PropOp53
 70
     1
102
RTVSPost2010Prop54
  1
strokes_ogs.tif
102
RTVSPost2010PropOp54
 70
     1
102
RTVSPost2010Prop55
280
     0
102
RTVSPost2010PropOp55
 70
     1
102
RTVSPost2010Prop56
140
1.0
102
RTVSPost2010PropOp56
 70
     1
102
RTVSPost2010Prop57
140
1.0
102
RTVSPost2010PropOp57
 70
     1
102
RTVSPropertyOp0
 70
     1
102
RTVSPropertyOp1
 70
     1
102
RTVSPropertyOp2
 70
     1
102
RTVSPropertyOp3
 70
     1
102
RTVSPropertyOp4
 70
     1
102
RTVSPropertyOp5
 70
     1
102
RTVSPropertyOp6
 70
     1
102
RTVSPropertyOp7
 70
     1
102
RTVSPropertyOp8
 70
     1
102
RTVSPropertyOp9
 70
     1
102
RTVSPropertyOp10
 70
     1
102
RTVSPropertyOp11
 70
     1
102
RTVSPropertyOp12
 70
     1
102
RTVSPropertyOp13
 70
     1
102
RTVSPropertyOp14
 70
     1
102
RTVSPropertyOp15
 70
     1
102
RTVSPropertyOp16
 70
     1
102
RTVSPropertyOp17
 70
     1
102
RTVSPropertyOp18
 70
     1
102
RTVSPropertyOp19
 70
     1
102
RTVSPropertyOp20
 70
     1
102
RTVSPropertyOp21
 70
     1
102
RTVSPropertyOp22
 70
     1
102
RTVSPropertyOp23
 70
     1
102
RTVSPropertyOp24
 70
     1
102
RTVSPropertyOp25
 70
     1
102
RTVSPropertyOp26
 70
     1
102
RTVSPropertyOp27
 70
     1
102
RTVSPropertyOp28
 70
     1
102
RTVSPropertyOp29
 70
     1
102
RTVSPropertyOp30
 70
     1
102
RTVSPropertyOp31
 70
     1
102
RTVSPropertyOp32
 70
     1
102
RTVSPropertyOp33
 70
     1
102
RTVSPropertyOp34
 70
     1
102
RTVSPropertyOp35
 70
     1
102
RTVSPropertyOp36
 70
     1
102
RTVSPropertyOp37
 70
     1
102
RTVSPropertyOp38
 70
     1
102
RTVSPropertyOp39
 70
     1
102
RTVSPropertyOp40
 70
     1
102
RTVSPropertyOp41
 70
     1
102
RTVSPropertyOp42
 70
     1
102
RTVSPropertyOp43
 70
     1
102
RTVSPropertyOp44
 70
     1
102
RTVSPropertyOp45
 70
     1
102
RTVSPropertyOp46
 70
     1
102
RTVSPropertyOp47
 70
     1
102
RTVSPropertyOp48
 70
     1
102
RTVSPropertyOp49
 70
     1
102
RTVSPropertyOp50
 70
     1
102
RTVSPropertyOp51
 70
     0
102
RTVSPropertyOp52
 70
     0
102
RTVSPropertyOp53
 70
     1
102
RTVSPropertyOp54
 70
     1
102
RTVSPropertyOp55
 70
     1
102
RTVSPropertyOp56
 70
     1
102
RTVSPropertyOp57
 70
     1
102
RTVSPropertyOp58
 70
     1
102
RTVSPropertyOp59
 70
     1
102
RTVSPropertyOp60
 70
     1
102
RTVSPropertyOp61
 70
     1
102
RTVSPropertyOp62
 70
     1
  0
XRECORD
  5
3380
102
{ACAD_REACTORS
330
337F
102
}
330
337F
100
AcDbXrecord
280
     1
102
RTVSPost2010Prop28
280
     0
102
RTVSPost2010PropOp28
 70
     1
102
RTVSPost2010Prop29
280
     1
102
RTVSPost2010PropOp29
 70
     1
102
RTVSPost2010Prop30
280
     1
102
RTVSPost2010PropOp30
 70
     1
102
RTVSPost2010Prop31
280
     0
102
RTVSPost2010PropOp31
 70
     1
102
RTVSPost2010Prop32
280
     0
102
RTVSPost2010PropOp32
 70
     1
102
RTVSPost2010Prop33
280
     0
102
RTVSPost2010PropOp33
 70
     1
102
RTVSPost2010Prop34
280
     0
102
RTVSPost2010PropOp34
 70
     1
102
RTVSPost2010Prop35
280
     0
102
RTVSPost2010PropOp35
 70
     1
102
RTVSPost2010Prop36
280
     0
102
RTVSPost2010PropOp36
 70
     1
102
RTVSPost2010Prop37
 90
       50
102
RTVSPost2010PropOp37
 70
     1
102
RTVSPost2010Prop38
140
0.0
102
RTVSPost2010PropOp38
 70
     1
102
RTVSPost2010Prop39
140
1.0
102
RTVSPost2010PropOp39
 70
     1
102
RTVSPost2010Prop40
 90
        0
102
RTVSPost2010PropOp40
 70
     1
102
RTVSPost2010Prop41ColorIndex
 90
       18
102
RTVSPost2010Prop41ColorRGB
 90
        0
102
RTVSPost2010PropOp41
 70
     1
102
RTVSPost2010Prop42
 90
       50
102
RTVSPost2010PropOp42
 70
     1
102
RTVSPost2010Prop43
 90
        3
102
RTVSPost2010PropOp43
 70
     1
102
RTVSPost2010Prop44ColorIndex
 90
        5
102
RTVSPost2010Prop44ColorRGB
 90
      255
102
RTVSPost2010PropOp44
 70
     1
102
RTVSPost2010Prop45
280
     0
102
RTVSPost2010PropOp45
 70
     1
102
RTVSPost2010Prop46
 90
       50
102
RTVSPost2010PropOp46
 70
     1
102
RTVSPost2010Prop47
 90
       50
102
RTVSPost2010PropOp47
 70
     1
102
RTVSPost2010Prop48
 90
       50
102
RTVSPost2010PropOp48
 70
     1
102
RTVSPost2010Prop49
280
     0
102
RTVSPost2010PropOp49
 70
     1
102
RTVSPost2010Prop50
 90
       50
102
RTVSPost2010PropOp50
 70
     1
102
RTVSPost2010Prop51ColorIndex
 90
      256
102
RTVSPost2010Prop51ColorRGB
 90
-16777216
102
RTVSPost2010PropOp51
 70
     0
102
RTVSPost2010Prop52
140
1.0
102
RTVSPost2010PropOp52
 70
     0
102
RTVSPost2010Prop53
 90
        2
102
RTVSPost2010PropOp53
 70
     1
102
RTVSPost2010Prop54
  1
strokes_ogs.tif
102
RTVSPost2010PropOp54
 70
     1
102
RTVSPost2010Prop55
280
     0
102
RTVSPost2010PropOp55
 70
     1
102
RTVSPost2010Prop56
140
1.0
102
RTVSPost2010PropOp56
 70
     1
102
RTVSPost2010Prop57
140
1.0
102
RTVSPost2010PropOp57
 70
     1
102
RTVSPropertyOp0
 70
     1
102
RTVSPropertyOp1
 70
     1
102
RTVSPropertyOp2
 70
     1
102
RTVSPropertyOp3
 70
     1
102
RTVSPropertyOp4
 70
     1
102
RTVSPropertyOp5
 70
     1
102
RTVSPropertyOp6
 70
     1
102
RTVSPropertyOp7
 70
     1
102
RTVSPropertyOp8
 70
     1
102
RTVSPropertyOp9
 70
     1
102
RTVSPropertyOp10
 70
     1
102
RTVSPropertyOp11
 70
     1
102
RTVSPropertyOp12
 70
     1
102
RTVSPropertyOp13
 70
     1
102
RTVSPropertyOp14
 70
     1
102
RTVSPropertyOp15
 70
     1
102
RTVSPropertyOp16
 70
     1
102
RTVSPropertyOp17
 70
     1
102
RTVSPropertyOp18
 70
     1
102
RTVSPropertyOp19
 70
     1
102
RTVSPropertyOp20
 70
     1
102
RTVSPropertyOp21
 70
     1
102
RTVSPropertyOp22
 70
     1
102
RTVSPropertyOp23
 70
     1
102
RTVSPropertyOp24
 70
     1
102
RTVSPropertyOp25
 70
     1
102
RTVSPropertyOp26
 70
     1
102
RTVSPropertyOp27
 70
     1
102
RTVSPropertyOp28
 70
     1
102
RTVSPropertyOp29
 70
     1
102
RTVSPropertyOp30
 70
     1
102
RTVSPropertyOp31
 70
     1
102
RTVSPropertyOp32
 70
     1
102
RTVSPropertyOp33
 70
     1
102
RTVSPropertyOp34
 70
     1
102
RTVSPropertyOp35
 70
     1
102
RTVSPropertyOp36
 70
     1
102
RTVSPropertyOp37
 70
     1
102
RTVSPropertyOp38
 70
     1
102
RTVSPropertyOp39
 70
     1
102
RTVSPropertyOp40
 70
     1
102
RTVSPropertyOp41
 70
     1
102
RTVSPropertyOp42
 70
     1
102
RTVSPropertyOp43
 70
     1
102
RTVSPropertyOp44
 70
     1
102
RTVSPropertyOp45
 70
     1
102
RTVSPropertyOp46
 70
     1
102
RTVSPropertyOp47
 70
     1
102
RTVSPropertyOp48
 70
     1
102
RTVSPropertyOp49
 70
     1
102
RTVSPropertyOp50
 70
     1
102
RTVSPropertyOp51
 70
     0
102
RTVSPropertyOp52
 70
     0
102
RTVSPropertyOp53
 70
     1
102
RTVSPropertyOp54
 70
     1
102
RTVSPropertyOp55
 70
     1
102
RTVSPropertyOp56
 70
     1
102
RTVSPropertyOp57
 70
     1
102
RTVSPropertyOp58
 70
     1
102
RTVSPropertyOp59
 70
     1
102
RTVSPropertyOp60
 70
     1
102
RTVSPropertyOp61
 70
     1
102
RTVSPropertyOp62
 70
     1
  0
XRECORD
  5
3389
102
{ACAD_REACTORS
330
3388
102
}
330
3388
100
AcDbXrecord
280
     1
102
RTVSPost2010Prop28
280
     0
102
RTVSPost2010PropOp28
 70
     1
102
RTVSPost2010Prop29
280
     1
102
RTVSPost2010PropOp29
 70
     1
102
RTVSPost2010Prop30
280
     1
102
RTVSPost2010PropOp30
 70
     1
102
RTVSPost2010Prop31
280
     0
102
RTVSPost2010PropOp31
 70
     1
102
RTVSPost2010Prop32
280
     0
102
RTVSPost2010PropOp32
 70
     1
102
RTVSPost2010Prop33
280
     0
102
RTVSPost2010PropOp33
 70
     1
102
RTVSPost2010Prop34
280
     0
102
RTVSPost2010PropOp34
 70
     1
102
RTVSPost2010Prop35
280
     0
102
RTVSPost2010PropOp35
 70
     1
102
RTVSPost2010Prop36
280
     0
102
RTVSPost2010PropOp36
 70
     1
102
RTVSPost2010Prop37
 90
       50
102
RTVSPost2010PropOp37
 70
     1
102
RTVSPost2010Prop38
140
0.0
102
RTVSPost2010PropOp38
 70
     1
102
RTVSPost2010Prop39
140
1.0
102
RTVSPost2010PropOp39
 70
     1
102
RTVSPost2010Prop40
 90
        0
102
RTVSPost2010PropOp40
 70
     1
102
RTVSPost2010Prop41ColorIndex
 90
       18
102
RTVSPost2010Prop41ColorRGB
 90
        0
102
RTVSPost2010PropOp41
 70
     1
102
RTVSPost2010Prop42
 90
       50
102
RTVSPost2010PropOp42
 70
     1
102
RTVSPost2010Prop43
 90
        3
102
RTVSPost2010PropOp43
 70
     1
102
RTVSPost2010Prop44ColorIndex
 90
        5
102
RTVSPost2010Prop44ColorRGB
 90
      255
102
RTVSPost2010PropOp44
 70
     1
102
RTVSPost2010Prop45
280
     0
102
RTVSPost2010PropOp45
 70
     1
102
RTVSPost2010Prop46
 90
       50
102
RTVSPost2010PropOp46
 70
     1
102
RTVSPost2010Prop47
 90
       50
102
RTVSPost2010PropOp47
 70
     1
102
RTVSPost2010Prop48
 90
       50
102
RTVSPost2010PropOp48
 70
     1
102
RTVSPost2010Prop49
280
     0
102
RTVSPost2010PropOp49
 70
     1
102
RTVSPost2010Prop50
 90
       50
102
RTVSPost2010PropOp50
 70
     1
102
RTVSPost2010Prop51ColorIndex
 90
      256
102
RTVSPost2010Prop51ColorRGB
 90
-16777216
102
RTVSPost2010PropOp51
 70
     0
102
RTVSPost2010Prop52
140
1.0
102
RTVSPost2010PropOp52
 70
     0
102
RTVSPost2010Prop53
 90
        2
102
RTVSPost2010PropOp53
 70
     1
102
RTVSPost2010Prop54
  1
strokes_ogs.tif
102
RTVSPost2010PropOp54
 70
     1
102
RTVSPost2010Prop55
280
     0
102
RTVSPost2010PropOp55
 70
     1
102
RTVSPost2010Prop56
140
1.0
102
RTVSPost2010PropOp56
 70
     1
102
RTVSPost2010Prop57
140
1.0
102
RTVSPost2010PropOp57
 70
     1
102
RTVSPropertyOp0
 70
     1
102
RTVSPropertyOp1
 70
     1
102
RTVSPropertyOp2
 70
     1
102
RTVSPropertyOp3
 70
     1
102
RTVSPropertyOp4
 70
     1
102
RTVSPropertyOp5
 70
     1
102
RTVSPropertyOp6
 70
     1
102
RTVSPropertyOp7
 70
     1
102
RTVSPropertyOp8
 70
     1
102
RTVSPropertyOp9
 70
     1
102
RTVSPropertyOp10
 70
     1
102
RTVSPropertyOp11
 70
     1
102
RTVSPropertyOp12
 70
     1
102
RTVSPropertyOp13
 70
     1
102
RTVSPropertyOp14
 70
     1
102
RTVSPropertyOp15
 70
     1
102
RTVSPropertyOp16
 70
     1
102
RTVSPropertyOp17
 70
     1
102
RTVSPropertyOp18
 70
     1
102
RTVSPropertyOp19
 70
     1
102
RTVSPropertyOp20
 70
     1
102
RTVSPropertyOp21
 70
     1
102
RTVSPropertyOp22
 70
     1
102
RTVSPropertyOp23
 70
     1
102
RTVSPropertyOp24
 70
     1
102
RTVSPropertyOp25
 70
     1
102
RTVSPropertyOp26
 70
     1
102
RTVSPropertyOp27
 70
     1
102
RTVSPropertyOp28
 70
     1
102
RTVSPropertyOp29
 70
     1
102
RTVSPropertyOp30
 70
     1
102
RTVSPropertyOp31
 70
     1
102
RTVSPropertyOp32
 70
     1
102
RTVSPropertyOp33
 70
     1
102
RTVSPropertyOp34
 70
     1
102
RTVSPropertyOp35
 70
     1
102
RTVSPropertyOp36
 70
     1
102
RTVSPropertyOp37
 70
     1
102
RTVSPropertyOp38
 70
     1
102
RTVSPropertyOp39
 70
     1
102
RTVSPropertyOp40
 70
     1
102
RTVSPropertyOp41
 70
     1
102
RTVSPropertyOp42
 70
     1
102
RTVSPropertyOp43
 70
     1
102
RTVSPropertyOp44
 70
     1
102
RTVSPropertyOp45
 70
     1
102
RTVSPropertyOp46
 70
     1
102
RTVSPropertyOp47
 70
     1
102
RTVSPropertyOp48
 70
     1
102
RTVSPropertyOp49
 70
     1
102
RTVSPropertyOp50
 70
     1
102
RTVSPropertyOp51
 70
     0
102
RTVSPropertyOp52
 70
     0
102
RTVSPropertyOp53
 70
     1
102
RTVSPropertyOp54
 70
     1
102
RTVSPropertyOp55
 70
     1
102
RTVSPropertyOp56
 70
     1
102
RTVSPropertyOp57
 70
     1
102
RTVSPropertyOp58
 70
     1
102
RTVSPropertyOp59
 70
     1
102
RTVSPropertyOp60
 70
     1
102
RTVSPropertyOp61
 70
     1
102
RTVSPropertyOp62
 70
     1
  0
XRECORD
  5
3391
102
{ACAD_REACTORS
330
3390
102
}
330
3390
100
AcDbXrecord
280
     1
102
RTVSPost2010Prop28
280
     0
102
RTVSPost2010PropOp28
 70
     1
102
RTVSPost2010Prop29
280
     1
102
RTVSPost2010PropOp29
 70
     1
102
RTVSPost2010Prop30
280
     1
102
RTVSPost2010PropOp30
 70
     1
102
RTVSPost2010Prop31
280
     0
102
RTVSPost2010PropOp31
 70
     1
102
RTVSPost2010Prop32
280
     0
102
RTVSPost2010PropOp32
 70
     1
102
RTVSPost2010Prop33
280
     0
102
RTVSPost2010PropOp33
 70
     1
102
RTVSPost2010Prop34
280
     0
102
RTVSPost2010PropOp34
 70
     1
102
RTVSPost2010Prop35
280
     0
102
RTVSPost2010PropOp35
 70
     1
102
RTVSPost2010Prop36
280
     0
102
RTVSPost2010PropOp36
 70
     1
102
RTVSPost2010Prop37
 90
       50
102
RTVSPost2010PropOp37
 70
     1
102
RTVSPost2010Prop38
140
0.0
102
RTVSPost2010PropOp38
 70
     1
102
RTVSPost2010Prop39
140
1.0
102
RTVSPost2010PropOp39
 70
     1
102
RTVSPost2010Prop40
 90
        0
102
RTVSPost2010PropOp40
 70
     1
102
RTVSPost2010Prop41ColorIndex
 90
       18
102
RTVSPost2010Prop41ColorRGB
 90
        0
102
RTVSPost2010PropOp41
 70
     1
102
RTVSPost2010Prop42
 90
       50
102
RTVSPost2010PropOp42
 70
     1
102
RTVSPost2010Prop43
 90
        3
102
RTVSPost2010PropOp43
 70
     1
102
RTVSPost2010Prop44ColorIndex
 90
        5
102
RTVSPost2010Prop44ColorRGB
 90
      255
102
RTVSPost2010PropOp44
 70
     1
102
RTVSPost2010Prop45
280
     0
102
RTVSPost2010PropOp45
 70
     1
102
RTVSPost2010Prop46
 90
       50
102
RTVSPost2010PropOp46
 70
     1
102
RTVSPost2010Prop47
 90
       50
102
RTVSPost2010PropOp47
 70
     1
102
RTVSPost2010Prop48
 90
       50
102
RTVSPost2010PropOp48
 70
     1
102
RTVSPost2010Prop49
280
     0
102
RTVSPost2010PropOp49
 70
     1
102
RTVSPost2010Prop50
 90
       50
102
RTVSPost2010PropOp50
 70
     1
102
RTVSPost2010Prop51ColorIndex
 90
      256
102
RTVSPost2010Prop51ColorRGB
 90
-16777216
102
RTVSPost2010PropOp51
 70
     0
102
RTVSPost2010Prop52
140
1.0
102
RTVSPost2010PropOp52
 70
     0
102
RTVSPost2010Prop53
 90
        2
102
RTVSPost2010PropOp53
 70
     1
102
RTVSPost2010Prop54
  1
strokes_ogs.tif
102
RTVSPost2010PropOp54
 70
     1
102
RTVSPost2010Prop55
280
     0
102
RTVSPost2010PropOp55
 70
     1
102
RTVSPost2010Prop56
140
1.0
102
RTVSPost2010PropOp56
 70
     1
102
RTVSPost2010Prop57
140
1.0
102
RTVSPost2010PropOp57
 70
     1
102
RTVSPropertyOp0
 70
     1
102
RTVSPropertyOp1
 70
     1
102
RTVSPropertyOp2
 70
     1
102
RTVSPropertyOp3
 70
     1
102
RTVSPropertyOp4
 70
     1
102
RTVSPropertyOp5
 70
     1
102
RTVSPropertyOp6
 70
     1
102
RTVSPropertyOp7
 70
     1
102
RTVSPropertyOp8
 70
     1
102
RTVSPropertyOp9
 70
     1
102
RTVSPropertyOp10
 70
     1
102
RTVSPropertyOp11
 70
     1
102
RTVSPropertyOp12
 70
     1
102
RTVSPropertyOp13
 70
     1
102
RTVSPropertyOp14
 70
     1
102
RTVSPropertyOp15
 70
     1
102
RTVSPropertyOp16
 70
     1
102
RTVSPropertyOp17
 70
     1
102
RTVSPropertyOp18
 70
     1
102
RTVSPropertyOp19
 70
     1
102
RTVSPropertyOp20
 70
     1
102
RTVSPropertyOp21
 70
     1
102
RTVSPropertyOp22
 70
     1
102
RTVSPropertyOp23
 70
     1
102
RTVSPropertyOp24
 70
     1
102
RTVSPropertyOp25
 70
     1
102
RTVSPropertyOp26
 70
     1
102
RTVSPropertyOp27
 70
     1
102
RTVSPropertyOp28
 70
     1
102
RTVSPropertyOp29
 70
     1
102
RTVSPropertyOp30
 70
     1
102
RTVSPropertyOp31
 70
     1
102
RTVSPropertyOp32
 70
     1
102
RTVSPropertyOp33
 70
     1
102
RTVSPropertyOp34
 70
     1
102
RTVSPropertyOp35
 70
     1
102
RTVSPropertyOp36
 70
     1
102
RTVSPropertyOp37
 70
     1
102
RTVSPropertyOp38
 70
     1
102
RTVSPropertyOp39
 70
     1
102
RTVSPropertyOp40
 70
     1
102
RTVSPropertyOp41
 70
     1
102
RTVSPropertyOp42
 70
     1
102
RTVSPropertyOp43
 70
     1
102
RTVSPropertyOp44
 70
     1
102
RTVSPropertyOp45
 70
     1
102
RTVSPropertyOp46
 70
     1
102
RTVSPropertyOp47
 70
     1
102
RTVSPropertyOp48
 70
     1
102
RTVSPropertyOp49
 70
     1
102
RTVSPropertyOp50
 70
     1
102
RTVSPropertyOp51
 70
     0
102
RTVSPropertyOp52
 70
     0
102
RTVSPropertyOp53
 70
     1
102
RTVSPropertyOp54
 70
     1
102
RTVSPropertyOp55
 70
     1
102
RTVSPropertyOp56
 70
     1
102
RTVSPropertyOp57
 70
     1
102
RTVSPropertyOp58
 70
     1
102
RTVSPropertyOp59
 70
     1
102
RTVSPropertyOp60
 70
     1
102
RTVSPropertyOp61
 70
     1
102
RTVSPropertyOp62
 70
     1
  0
ENDSEC
  0
EOF
