  0
SECTION
  2
HEADER
  9
$ACADVER
  1
AC1009
  9
$INSBASE
 10
0.0
 20
0.0
 30
0.0
  9
$EXTMIN
 10
-0.0000008078504834
 20
0.0000001108869583
 30
0.0
  9
$EXTMAX
 10
353.99999919214952
 20
482.0000001108869
 30
0.0
  9
$LIMMIN
 10
0.0
 20
0.0
  9
$LIMMAX
 10
353.99999919214952
 20
482.0000001108869
  9
$ORTHOMODE
 70
     0
  9
$REGENMODE
 70
     1
  9
$FILLMODE
 70
     1
  9
$QTEXTMODE
 70
     0
  9
$MIRRTEXT
 70
     0
  9
$DRAGMODE
 70
     2
  9
$LTSCALE
 40
1.0
  9
$OSMODE
 70
    39
  9
$ATTMODE
 70
     1
  9
$TEXTSIZE
 40
5.0
  9
$TRACEWID
 40
1.0
  9
$TEXTSTYLE
  7
ARIAL-BOLD
  9
$CLAYER
  8
APL_JOINERY
  9
$CELTYPE
  6
BYLAYER
  9
$CECOLOR
 62
   256
  9
$DIMSCALE
 40
1.0
  9
$DIMASZ
 40
3.0
  9
$DIMEXO
 40
1.5
  9
$DIMDLI
 40
3.75
  9
$DIMRND
 40
0.0
  9
$DIMDLE
 40
0.0
  9
$DIMEXE
 40
1.5
  9
$DIMTP
 40
0.0
  9
$DIMTM
 40
0.0
  9
$DIMTXT
 40
2.5
  9
$DIMCEN
 40
-2.5
  9
$DIMTSZ
 40
0.0
  9
$DIMTOL
 70
     0
  9
$DIMLIM
 70
     0
  9
$DIMTIH
 70
     0
  9
$DIMTOH
 70
     0
  9
$DIMSE1
 70
     0
  9
$DIMSE2
 70
     0
  9
$DIMTAD
 70
     1
  9
$DIMZIN
 70
     1
  9
$DIMBLK
  1

  9
$DIMASO
 70
     1
  9
$DIMSHO
 70
     1
  9
$DIMPOST
  1

  9
$DIMAPOST
  1

  9
$DIMALT
 70
     0
  9
$DIMALTD
 70
     3
  9
$DIMALTF
 40
0.03937007874016
  9
$DIMLFAC
 40
1.0
  9
$DIMTOFL
 70
     1
  9
$DIMTVP
 40
0.0
  9
$DIMTIX
 70
     0
  9
$DIMSOXD
 70
     0
  9
$DIMSAH
 70
     0
  9
$DIMBLK1
  1

  9
$DIMBLK2
  1

  9
$DIMSTYLE
  2
JASE_01
  9
$DIMCLRD
 70
     9
  9
$DIMCLRE
 70
     9
  9
$DIMCLRT
 70
     7
  9
$DIMTFAC
 40
1.0
  9
$DIMGAP
 40
1.0
  9
$LUNITS
 70
     2
  9
$LUPREC
 70
     4
  9
$SKETCHINC
 40
1.0
  9
$FILLETRAD
 40
10.0
  9
$AUNITS
 70
     0
  9
$AUPREC
 70
     0
  9
$MENU
  1
.
  9
$ELEVATION
 40
0.0
  9
$PELEVATION
 40
0.0
  9
$THICKNESS
 40
0.0
  9
$LIMCHECK
 70
     0
  9
$BLIPMODE
 70
     0
  9
$CHAMFERA
 40
10.0
  9
$CHAMFERB
 40
10.0
  9
$SKPOLY
 70
     0
  9
$TDCREATE
 40
2452286.6319917012
  9
$TDUPDATE
 40
2454851.5231276392
  9
$TDINDWG
 40
2.8292702778000001
  9
$TDUSRTIMER
 40
2.8292702778000001
  9
$USRTIMER
 70
     1
  9
$ANGBASE
 50
0.0
  9
$ANGDIR
 70
     0
  9
$PDMODE
 70
     3
  9
$PDSIZE
 40
3.0
  9
$PLINEWID
 40
0.0
  9
$COORDS
 70
     1
  9
$SPLFRAME
 70
     0
  9
$SPLINETYPE
 70
     6
  9
$SPLINESEGS
 70
     8
  9
$ATTDIA
 70
     1
  9
$ATTREQ
 70
     1
  9
$HANDLING
 70
     1
  9
$HANDSEED
  5
8A4E
  9
$SURFTAB1
 70
     6
  9
$SURFTAB2
 70
     6
  9
$SURFTYPE
 70
     6
  9
$SURFU
 70
     6
  9
$SURFV
 70
     6
  9
$UCSNAME
  2

  9
$UCSORG
 10
0.0
 20
0.0
 30
0.0
  9
$UCSXDIR
 10
1.0
 20
0.0
 30
0.0
  9
$UCSYDIR
 10
0.0
 20
1.0
 30
0.0
  9
$PUCSNAME
  2

  9
$PUCSORG
 10
0.0
 20
0.0
 30
0.0
  9
$PUCSXDIR
 10
1.0
 20
0.0
 30
0.0
  9
$PUCSYDIR
 10
0.0
 20
1.0
 30
0.0
  9
$USERI1
 70
     0
  9
$USERI2
 70
     0
  9
$USERI3
 70
     0
  9
$USERI4
 70
     0
  9
$USERI5
 70
     0
  9
$USERR1
 40
0.0
  9
$USERR2
 40
0.0
  9
$USERR3
 40
0.0
  9
$USERR4
 40
0.0
  9
$USERR5
 40
0.0
  9
$WORLDVIEW
 70
     1
  9
$SHADEDGE
 70
     3
  9
$SHADEDIF
 70
    70
  9
$TILEMODE
 70
     0
  9
$MAXACTVP
 70
    64
  9
$PLIMCHECK
 70
     0
  9
$PEXTMIN
 10
11.588248864273391
 20
1.1778846619324661
 30
-0.0015258207003583
  9
$PEXTMAX
 10
189.60736775435871
 20
282.20337536682428
 30
0.0000000349246037
  9
$PLIMMIN
 10
-5.027082920074462
 20
-5.4080843925476074
  9
$PLIMMAX
 10
204.86157369613639
 20
291.64492464065552
  9
$UNITMODE
 70
     0
  9
$VISRETAIN
 70
     1
  9
$PLINEGEN
 70
     0
  9
$PSLTSCALE
 70
     1
  0
ENDSEC
  0
SECTION
  2
TABLES
  0
TABLE
  2
VPORT
 70
     1
  0
VPORT
  2
*ACTIVE
 70
     0
 10
0.0
 20
0.0
 11
1.0
 21
1.0
 12
185.48573915820219
 22
241.0000011776871
 13
0.0
 23
0.0
 14
1.0
 24
1.0
 15
1.0
 25
1.0
 16
0.0
 26
0.0
 36
1.0
 17
0.0
 27
0.0
 37
0.0
 40
486.06313804415868
 41
2.2430167597765358
 42
50.0
 43
0.0
 44
0.0
 50
0.0
 51
0.0
 71
     0
 72
 20000
 73
     1
 74
     3
 75
     0
 76
     0
 77
     0
 78
     0
  0
ENDTAB
  0
TABLE
  2
LTYPE
 70
     2
  0
LTYPE
  2
CONTINUOUS
 70
     0
  3
Solid line
 72
    65
 73
     0
 40
0.0
  0
LTYPE
  2
DASHED
 70
     0
  3
_ _ _ _ _ _ _ _ _ _ _ _ _ _ _ _
 72
    65
 73
     2
 40
0.2
 49
0.1
 49
-0.1
  0
ENDTAB
  0
TABLE
  2
LAYER
 70
    28
  0
LAYER
  2
0
 70
     4
 62
     7
  6
CONTINUOUS
  0
LAYER
  2
APL_JOINERY
 70
     0
 62
     2
  6
CONTINUOUS
  0
LAYER
  2
APL_NOTES
 70
     0
 62
     7
  6
CONTINUOUS
  0
LAYER
  2
APL_BORDER
 70
     0
 62
     7
  6
CONTINUOUS
  0
LAYER
  2
92030|DIE
 70
    48
 62
     2
  6
CONTINUOUS
  0
LAYER
  2
9010100|APL_JOINERY
 70
    48
 62
     2
  6
CONTINUOUS
  0
LAYER
  2
ALTH|APL_BORDER
 70
    48
 62
     7
  6
CONTINUOUS
  0
LAYER
  2
FIRS|APL_BORDER
 70
    48
 62
     7
  6
CONTINUOUS
  0
LAYER
  2
VANT|APL_BORDER
 70
    48
 62
     7
  6
CONTINUOUS
  0
LAYER
  2
9010250L|APL_JOINERY
 70
    48
 62
     2
  6
CONTINUOUS
  0
LAYER
  2
92000|APL_JOINERY
 70
    48
 62
     2
  6
CONTINUOUS
  0
LAYER
  2
92000|APL_HATCH
 70
    48
 62
   253
  6
CONTINUOUS
  0
LAYER
  2
92060|APL_JOINERY
 70
    48
 62
     2
  6
CONTINUOUS
  0
LAYER
  2
92060|APL_HATCH
 70
    48
 62
   253
  6
CONTINUOUS
  0
LAYER
  2
92185|APL_JOINERY
 70
    48
 62
     2
  6
CONTINUOUS
  0
LAYER
  2
92185|APL_HATCH
 70
    48
 62
   253
  6
CONTINUOUS
  0
LAYER
  2
92030|APL_JOINERY
 70
    48
 62
     2
  6
CONTINUOUS
  0
LAYER
  2
92030|APL_HATCH
 70
    48
 62
   253
  6
CONTINUOUS
  0
LAYER
  2
92080|APL_JOINERY
 70
    48
 62
     2
  6
CONTINUOUS
  0
LAYER
  2
92080|APL_HATCH
 70
    48
 62
   253
  6
CONTINUOUS
  0
LAYER
  2
92195|APL_JOINERY
 70
    48
 62
     2
  6
CONTINUOUS
  0
LAYER
  2
92195|APL_HATCH
 70
    48
 62
   253
  6
CONTINUOUS
  0
LAYER
  2
APL_BUILDING
 70
     0
 62
     3
  6
CONTINUOUS
  0
LAYER
  2
01002|APL_JOINERY
 70
    48
 62
     2
  6
CONTINUOUS
  0
LAYER
  2
01002|APL_HATCH
 70
    48
 62
   253
  6
CONTINUOUS
  0
LAYER
  2
92070|APL_JOINERY
 70
    48
 62
     2
  6
CONTINUOUS
  0
LAYER
  2
92070|APL_HATCH
 70
    48
 62
   253
  6
CONTINUOUS
  0
ENDTAB
  0
TABLE
  2
STYLE
 70
    32
  0
STYLE
  2
STANDARD
 70
     0
 40
2.0
 41
1.0
 50
0.0
 71
     0
 42
3.0
  3
txt.shx
  4

  0
STYLE
  2
ARIAL-BOLD
 70
     0
 40
0.0
 41
1.0
 50
0.0
 71
     0
 42
5.0
  3
txt
  4

  0
STYLE
  2
ARIAL-REGULAR
 70
     0
 40
0.0
 41
1.0
 50
0.0
 71
     0
 42
2.5
  3
txt
  4

  0
ENDTAB
  0
TABLE
  2
VIEW
 70
     0
  0
ENDTAB
  0
TABLE
  2
UCS
 70
     0
  0
ENDTAB
  0
TABLE
  2
APPID
 70
    12
  0
APPID
  2
ACAD
 70
     0
  0
APPID
  2
DCO15
 70
     0
  0
APPID
  2
ACAD_PSEXT
 70
     0
  0
APPID
  2
ACAD_MLEADERVER
 70
     0
  0
APPID
  2
ACADSTRINGINFO
 70
     0
  0
APPID
  2
ACAD_EXEMPT_FROM_CAD_STANDARDS
 70
     0
  0
APPID
  2
ACAUTHENVIRON
 70
     0
  0
APPID
  2
ACDBDYNAMICBLOCKTRUENAME
 70
     0
  0
APPID
  2
ACDBDYNAMICBLOCKGUID
 70
     0
  0
APPID
  2
ACDBBLOCKREPETAG
 70
     0
  0
APPID
  2
ACDBBLOCKREPBTAG
 70
     0
  0
APPID
  2
CONTENTBLOCKICON
 70
     0
  0
ENDTAB
  0
TABLE
  2
DIMSTYLE
 70
    17
  0
DIMSTYLE
  2
JASE_01
 70
     0
  3

  4

  5

  6

  7

 40
1.0
 41
3.0
 42
1.5
 43
3.75
 44
1.5
 45
0.0
 46
0.0
 47
0.0
 48
0.0
140
2.5
141
-2.5
142
0.0
143
0.03937007874016
144
1.0
145
0.0
146
1.0
147
1.0
 71
     0
 72
     0
 73
     0
 74
     0
 75
     0
 76
     0
 77
     1
 78
     1
170
     0
171
     3
172
     1
173
     0
174
     0
175
     0
176
     9
177
     9
178
     7
  0
DIMSTYLE
  2
ISO-25
 70
     0
  3

  4

  5

  6

  7

 40
1.0
 41
4.0
 42
0.625
 43
3.75
 44
1.25
 45
0.0
 46
0.0
 47
0.0
 48
0.0
140
2.5
141
2.5
142
0.0
143
0.03937007874016
144
1.0
145
0.0
146
1.0
147
0.625
 71
     0
 72
     0
 73
     0
 74
     0
 75
     0
 76
     0
 77
     1
 78
     8
170
     0
171
     3
172
     1
173
     0
174
     0
175
     0
176
     0
177
     0
178
     0
  0
ENDTAB
  0
ENDSEC
  0
SECTION
  2
BLOCKS
  0
BLOCK
  8
0
  2
$MODEL_SPACE
 70
     0
 10
0.0
 20
0.0
 30
0.0
  3
$MODEL_SPACE
  1

  0
ENDBLK
  5
21
  8
0
  0
BLOCK
 67
     1
  8
0
  2
$PAPER_SPACE
 70
     0
 10
0.0
 20
0.0
 30
0.0
  3
$PAPER_SPACE
  1

  0
ENDBLK
  5
4906
 67
     1
  8
0
  0
BLOCK
  8
0
  2
_DOT
 70
     0
 10
0.0
 20
0.0
 30
0.0
  3
_DOT
  1

  0
POLYLINE
  5
3750
  8
0
  6
BYBLOCK
 62
     0
 66
     1
 10
0.0
 20
0.0
 30
0.0
 70
     1
 40
0.5
 41
0.5
  0
VERTEX
  5
83FF
  8
0
  6
BYBLOCK
 62
     0
 10
-0.25
 20
0.0
 30
0.0
 42
1.0
  0
VERTEX
  5
8400
  8
0
  6
BYBLOCK
 62
     0
 10
0.25
 20
0.0
 30
0.0
 42
1.0
  0
SEQEND
  5
8401
  8
0
  6
BYBLOCK
 62
     0
  0
LINE
  5
3751
  8
0
  6
BYBLOCK
 62
     0
 10
-0.5
 20
0.0
 30
0.0
 11
-1.0
 21
0.0
 31
0.0
  0
ENDBLK
  5
3753
  8
0
  0
BLOCK
  8
0
  2
9010100
 70
    36
 10
-698.04122570188417
 20
103.92394218237879
 30
0.0
  3
9010100
  1
9010100.dwg
  0
ENDBLK
  5
3C23
  8
0
  0
BLOCK
  8
0
  2
A4_SPECIFIERS_MANUAL
 70
     0
 10
0.0
 20
0.0
 30
0.0
  3
A4_SPECIFIERS_MANUAL
  1

  0
LINE
  5
3E9B
  8
0
 10
-0.0000008078504834
 20
0.0000001108869583
 30
0.0
 11
353.99999919214952
 21
0.0000001108869583
 31
0.0
  0
LINE
  5
3E9C
  8
0
 10
353.99999919214952
 20
482.0000001108869
 30
0.0
 11
-0.0000008078504834
 21
482.0000001108869
 31
0.0
  0
LINE
  5
3E9D
  8
0
 10
-0.0000008078504834
 20
482.0000001108869
 30
0.0
 11
-0.0000008078504834
 21
0.0000001108869583
 31
0.0
  0
LINE
  5
3E9E
  8
0
 10
353.99999919214952
 20
0.0000001108869583
 30
0.0
 11
353.99999919214952
 21
482.0000001108869
 31
0.0
  0
ENDBLK
  5
3EA0
  8
0
  0
BLOCK
  8
0
  2
19MMLINER
 70
     0
 10
110.7399515078629
 20
355.76235108304837
 30
0.0
  3
19MMLINER
  1
G:\Blocks\19mmliner.dwg
  0
LINE
  5
498A
  8
APL_JOINERY
 62
     3
 10
110.7399515078629
 20
336.76235108304837
 30
0.0
 11
160.73995150786311
 21
336.76235108304849
 31
0.0
  0
LINE
  5
498B
  8
APL_JOINERY
 62
     3
 10
110.7399515078629
 20
355.76235108304837
 30
0.0
 11
177.73995150786311
 21
355.76235108304837
 31
0.0
  0
LINE
  5
498C
  8
APL_JOINERY
 62
     8
 10
136.93048146156349
 20
338.51947645025848
 30
0.0
 11
148.15885223254071
 21
350.76511841928988
 31
0.0
  0
POLYLINE
  8
APL_JOINERY
  5
8492
  62
8
  66
     1
 10
0.000000
 20
0.000000
 30
0.000000
  70
     8
  0
VERTEX
  8
APL_JOINERY
  5
8493
 10
112.962
 20
352.442
 30
0.000000
  70
    32
  0
VERTEX
  8
APL_JOINERY
  5
8494
 10
113.134
 20
352.455
 30
0.000000
  70
    32
  0
VERTEX
  8
APL_JOINERY
  5
8495
 10
113.306
 20
352.468
 30
0.000000
  70
    32
  0
VERTEX
  8
APL_JOINERY
  5
8496
 10
113.478
 20
352.482
 30
0.000000
  70
    32
  0
VERTEX
  8
APL_JOINERY
  5
8497
 10
113.650
 20
352.495
 30
0.000000
  70
    32
  0
VERTEX
  8
APL_JOINERY
  5
8498
 10
113.823
 20
352.508
 30
0.000000
  70
    32
  0
VERTEX
  8
APL_JOINERY
  5
8499
 10
113.995
 20
352.522
 30
0.000000
  70
    32
  0
VERTEX
  8
APL_JOINERY
  5
849A
 10
114.167
 20
352.535
 30
0.000000
  70
    32
  0
VERTEX
  8
APL_JOINERY
  5
849B
 10
114.339
 20
352.548
 30
0.000000
  70
    32
  0
VERTEX
  8
APL_JOINERY
  5
849C
 10
114.511
 20
352.561
 30
0.000000
  70
    32
  0
VERTEX
  8
APL_JOINERY
  5
849D
 10
114.683
 20
352.574
 30
0.000000
  70
    32
  0
VERTEX
  8
APL_JOINERY
  5
849E
 10
114.855
 20
352.587
 30
0.000000
  70
    32
  0
VERTEX
  8
APL_JOINERY
  5
849F
 10
115.027
 20
352.600
 30
0.000000
  70
    32
  0
VERTEX
  8
APL_JOINERY
  5
84A0
 10
115.199
 20
352.613
 30
0.000000
  70
    32
  0
VERTEX
  8
APL_JOINERY
  5
84A1
 10
115.372
 20
352.626
 30
0.000000
  70
    32
  0
VERTEX
  8
APL_JOINERY
  5
84A2
 10
115.544
 20
352.639
 30
0.000000
  70
    32
  0
VERTEX
  8
APL_JOINERY
  5
84A3
 10
115.716
 20
352.652
 30
0.000000
  70
    32
  0
VERTEX
  8
APL_JOINERY
  5
84A4
 10
115.888
 20
352.665
 30
0.000000
  70
    32
  0
VERTEX
  8
APL_JOINERY
  5
84A5
 10
116.060
 20
352.677
 30
0.000000
  70
    32
  0
VERTEX
  8
APL_JOINERY
  5
84A6
 10
116.232
 20
352.690
 30
0.000000
  70
    32
  0
VERTEX
  8
APL_JOINERY
  5
84A7
 10
116.404
 20
352.702
 30
0.000000
  70
    32
  0
VERTEX
  8
APL_JOINERY
  5
84A8
 10
116.576
 20
352.714
 30
0.000000
  70
    32
  0
VERTEX
  8
APL_JOINERY
  5
84A9
 10
116.749
 20
352.727
 30
0.000000
  70
    32
  0
VERTEX
  8
APL_JOINERY
  5
84AA
 10
116.921
 20
352.739
 30
0.000000
  70
    32
  0
VERTEX
  8
APL_JOINERY
  5
84AB
 10
117.093
 20
352.751
 30
0.000000
  70
    32
  0
VERTEX
  8
APL_JOINERY
  5
84AC
 10
117.265
 20
352.763
 30
0.000000
  70
    32
  0
VERTEX
  8
APL_JOINERY
  5
84AD
 10
117.437
 20
352.774
 30
0.000000
  70
    32
  0
VERTEX
  8
APL_JOINERY
  5
84AE
 10
117.609
 20
352.786
 30
0.000000
  70
    32
  0
VERTEX
  8
APL_JOINERY
  5
84AF
 10
117.782
 20
352.797
 30
0.000000
  70
    32
  0
VERTEX
  8
APL_JOINERY
  5
84B0
 10
117.954
 20
352.809
 30
0.000000
  70
    32
  0
VERTEX
  8
APL_JOINERY
  5
84B1
 10
118.126
 20
352.820
 30
0.000000
  70
    32
  0
VERTEX
  8
APL_JOINERY
  5
84B2
 10
118.298
 20
352.831
 30
0.000000
  70
    32
  0
VERTEX
  8
APL_JOINERY
  5
84B3
 10
118.470
 20
352.842
 30
0.000000
  70
    32
  0
VERTEX
  8
APL_JOINERY
  5
84B4
 10
118.643
 20
352.853
 30
0.000000
  70
    32
  0
VERTEX
  8
APL_JOINERY
  5
84B5
 10
118.815
 20
352.863
 30
0.000000
  70
    32
  0
VERTEX
  8
APL_JOINERY
  5
84B6
 10
118.987
 20
352.874
 30
0.000000
  70
    32
  0
VERTEX
  8
APL_JOINERY
  5
84B7
 10
119.159
 20
352.884
 30
0.000000
  70
    32
  0
VERTEX
  8
APL_JOINERY
  5
84B8
 10
119.331
 20
352.894
 30
0.000000
  70
    32
  0
VERTEX
  8
APL_JOINERY
  5
84B9
 10
119.504
 20
352.904
 30
0.000000
  70
    32
  0
VERTEX
  8
APL_JOINERY
  5
84BA
 10
119.676
 20
352.914
 30
0.000000
  70
    32
  0
VERTEX
  8
APL_JOINERY
  5
84BB
 10
119.848
 20
352.923
 30
0.000000
  70
    32
  0
VERTEX
  8
APL_JOINERY
  5
84BC
 10
120.020
 20
352.933
 30
0.000000
  70
    32
  0
VERTEX
  8
APL_JOINERY
  5
84BD
 10
120.193
 20
352.942
 30
0.000000
  70
    32
  0
VERTEX
  8
APL_JOINERY
  5
84BE
 10
120.365
 20
352.951
 30
0.000000
  70
    32
  0
VERTEX
  8
APL_JOINERY
  5
84BF
 10
120.537
 20
352.960
 30
0.000000
  70
    32
  0
VERTEX
  8
APL_JOINERY
  5
84C0
 10
120.710
 20
352.968
 30
0.000000
  70
    32
  0
VERTEX
  8
APL_JOINERY
  5
84C1
 10
120.882
 20
352.976
 30
0.000000
  70
    32
  0
VERTEX
  8
APL_JOINERY
  5
84C2
 10
121.054
 20
352.984
 30
0.000000
  70
    32
  0
VERTEX
  8
APL_JOINERY
  5
84C3
 10
121.226
 20
352.992
 30
0.000000
  70
    32
  0
VERTEX
  8
APL_JOINERY
  5
84C4
 10
121.399
 20
353.000
 30
0.000000
  70
    32
  0
VERTEX
  8
APL_JOINERY
  5
84C5
 10
121.571
 20
353.007
 30
0.000000
  70
    32
  0
VERTEX
  8
APL_JOINERY
  5
84C6
 10
121.743
 20
353.014
 30
0.000000
  70
    32
  0
VERTEX
  8
APL_JOINERY
  5
84C7
 10
121.916
 20
353.021
 30
0.000000
  70
    32
  0
VERTEX
  8
APL_JOINERY
  5
84C8
 10
122.088
 20
353.028
 30
0.000000
  70
    32
  0
VERTEX
  8
APL_JOINERY
  5
84C9
 10
122.261
 20
353.035
 30
0.000000
  70
    32
  0
VERTEX
  8
APL_JOINERY
  5
84CA
 10
122.433
 20
353.041
 30
0.000000
  70
    32
  0
VERTEX
  8
APL_JOINERY
  5
84CB
 10
122.605
 20
353.047
 30
0.000000
  70
    32
  0
VERTEX
  8
APL_JOINERY
  5
84CC
 10
122.778
 20
353.053
 30
0.000000
  70
    32
  0
VERTEX
  8
APL_JOINERY
  5
84CD
 10
122.950
 20
353.059
 30
0.000000
  70
    32
  0
VERTEX
  8
APL_JOINERY
  5
84CE
 10
123.123
 20
353.064
 30
0.000000
  70
    32
  0
VERTEX
  8
APL_JOINERY
  5
84CF
 10
123.295
 20
353.070
 30
0.000000
  70
    32
  0
VERTEX
  8
APL_JOINERY
  5
84D0
 10
123.467
 20
353.075
 30
0.000000
  70
    32
  0
VERTEX
  8
APL_JOINERY
  5
84D1
 10
123.640
 20
353.080
 30
0.000000
  70
    32
  0
VERTEX
  8
APL_JOINERY
  5
84D2
 10
123.812
 20
353.085
 30
0.000000
  70
    32
  0
VERTEX
  8
APL_JOINERY
  5
84D3
 10
123.985
 20
353.090
 30
0.000000
  70
    32
  0
VERTEX
  8
APL_JOINERY
  5
84D4
 10
124.157
 20
353.094
 30
0.000000
  70
    32
  0
VERTEX
  8
APL_JOINERY
  5
84D5
 10
124.330
 20
353.099
 30
0.000000
  70
    32
  0
VERTEX
  8
APL_JOINERY
  5
84D6
 10
124.502
 20
353.103
 30
0.000000
  70
    32
  0
VERTEX
  8
APL_JOINERY
  5
84D7
 10
124.675
 20
353.107
 30
0.000000
  70
    32
  0
VERTEX
  8
APL_JOINERY
  5
84D8
 10
124.847
 20
353.111
 30
0.000000
  70
    32
  0
VERTEX
  8
APL_JOINERY
  5
84D9
 10
125.020
 20
353.115
 30
0.000000
  70
    32
  0
VERTEX
  8
APL_JOINERY
  5
84DA
 10
125.192
 20
353.119
 30
0.000000
  70
    32
  0
VERTEX
  8
APL_JOINERY
  5
84DB
 10
125.365
 20
353.122
 30
0.000000
  70
    32
  0
VERTEX
  8
APL_JOINERY
  5
84DC
 10
125.537
 20
353.126
 30
0.000000
  70
    32
  0
VERTEX
  8
APL_JOINERY
  5
84DD
 10
125.710
 20
353.129
 30
0.000000
  70
    32
  0
VERTEX
  8
APL_JOINERY
  5
84DE
 10
125.882
 20
353.133
 30
0.000000
  70
    32
  0
VERTEX
  8
APL_JOINERY
  5
84DF
 10
126.055
 20
353.136
 30
0.000000
  70
    32
  0
VERTEX
  8
APL_JOINERY
  5
84E0
 10
126.227
 20
353.139
 30
0.000000
  70
    32
  0
VERTEX
  8
APL_JOINERY
  5
84E1
 10
126.400
 20
353.142
 30
0.000000
  70
    32
  0
VERTEX
  8
APL_JOINERY
  5
84E2
 10
126.572
 20
353.145
 30
0.000000
  70
    32
  0
VERTEX
  8
APL_JOINERY
  5
84E3
 10
126.745
 20
353.148
 30
0.000000
  70
    32
  0
VERTEX
  8
APL_JOINERY
  5
84E4
 10
126.917
 20
353.151
 30
0.000000
  70
    32
  0
VERTEX
  8
APL_JOINERY
  5
84E5
 10
127.090
 20
353.154
 30
0.000000
  70
    32
  0
VERTEX
  8
APL_JOINERY
  5
84E6
 10
127.262
 20
353.157
 30
0.000000
  70
    32
  0
VERTEX
  8
APL_JOINERY
  5
84E7
 10
127.435
 20
353.159
 30
0.000000
  70
    32
  0
VERTEX
  8
APL_JOINERY
  5
84E8
 10
127.607
 20
353.162
 30
0.000000
  70
    32
  0
VERTEX
  8
APL_JOINERY
  5
84E9
 10
127.780
 20
353.165
 30
0.000000
  70
    32
  0
VERTEX
  8
APL_JOINERY
  5
84EA
 10
127.952
 20
353.167
 30
0.000000
  70
    32
  0
VERTEX
  8
APL_JOINERY
  5
84EB
 10
128.125
 20
353.170
 30
0.000000
  70
    32
  0
VERTEX
  8
APL_JOINERY
  5
84EC
 10
128.298
 20
353.172
 30
0.000000
  70
    32
  0
VERTEX
  8
APL_JOINERY
  5
84ED
 10
128.470
 20
353.175
 30
0.000000
  70
    32
  0
VERTEX
  8
APL_JOINERY
  5
84EE
 10
128.643
 20
353.177
 30
0.000000
  70
    32
  0
VERTEX
  8
APL_JOINERY
  5
84EF
 10
128.815
 20
353.180
 30
0.000000
  70
    32
  0
VERTEX
  8
APL_JOINERY
  5
84F0
 10
128.988
 20
353.182
 30
0.000000
  70
    32
  0
VERTEX
  8
APL_JOINERY
  5
84F1
 10
129.160
 20
353.185
 30
0.000000
  70
    32
  0
VERTEX
  8
APL_JOINERY
  5
84F2
 10
129.333
 20
353.187
 30
0.000000
  70
    32
  0
VERTEX
  8
APL_JOINERY
  5
84F3
 10
129.506
 20
353.189
 30
0.000000
  70
    32
  0
VERTEX
  8
APL_JOINERY
  5
84F4
 10
129.678
 20
353.192
 30
0.000000
  70
    32
  0
VERTEX
  8
APL_JOINERY
  5
84F5
 10
129.851
 20
353.194
 30
0.000000
  70
    32
  0
VERTEX
  8
APL_JOINERY
  5
84F6
 10
130.023
 20
353.197
 30
0.000000
  70
    32
  0
VERTEX
  8
APL_JOINERY
  5
84F7
 10
130.196
 20
353.200
 30
0.000000
  70
    32
  0
VERTEX
  8
APL_JOINERY
  5
84F8
 10
130.369
 20
353.202
 30
0.000000
  70
    32
  0
VERTEX
  8
APL_JOINERY
  5
84F9
 10
130.541
 20
353.205
 30
0.000000
  70
    32
  0
VERTEX
  8
APL_JOINERY
  5
84FA
 10
130.714
 20
353.207
 30
0.000000
  70
    32
  0
VERTEX
  8
APL_JOINERY
  5
84FB
 10
130.886
 20
353.210
 30
0.000000
  70
    32
  0
VERTEX
  8
APL_JOINERY
  5
84FC
 10
131.059
 20
353.213
 30
0.000000
  70
    32
  0
VERTEX
  8
APL_JOINERY
  5
84FD
 10
131.231
 20
353.216
 30
0.000000
  70
    32
  0
VERTEX
  8
APL_JOINERY
  5
84FE
 10
131.404
 20
353.219
 30
0.000000
  70
    32
  0
VERTEX
  8
APL_JOINERY
  5
84FF
 10
131.577
 20
353.222
 30
0.000000
  70
    32
  0
VERTEX
  8
APL_JOINERY
  5
8500
 10
131.749
 20
353.225
 30
0.000000
  70
    32
  0
VERTEX
  8
APL_JOINERY
  5
8501
 10
131.922
 20
353.228
 30
0.000000
  70
    32
  0
VERTEX
  8
APL_JOINERY
  5
8502
 10
132.094
 20
353.231
 30
0.000000
  70
    32
  0
VERTEX
  8
APL_JOINERY
  5
8503
 10
132.267
 20
353.234
 30
0.000000
  70
    32
  0
VERTEX
  8
APL_JOINERY
  5
8504
 10
132.440
 20
353.238
 30
0.000000
  70
    32
  0
VERTEX
  8
APL_JOINERY
  5
8505
 10
132.612
 20
353.241
 30
0.000000
  70
    32
  0
VERTEX
  8
APL_JOINERY
  5
8506
 10
132.785
 20
353.245
 30
0.000000
  70
    32
  0
VERTEX
  8
APL_JOINERY
  5
8507
 10
132.957
 20
353.249
 30
0.000000
  70
    32
  0
VERTEX
  8
APL_JOINERY
  5
8508
 10
133.130
 20
353.253
 30
0.000000
  70
    32
  0
VERTEX
  8
APL_JOINERY
  5
8509
 10
133.302
 20
353.257
 30
0.000000
  70
    32
  0
VERTEX
  8
APL_JOINERY
  5
850A
 10
133.475
 20
353.261
 30
0.000000
  70
    32
  0
VERTEX
  8
APL_JOINERY
  5
850B
 10
133.648
 20
353.265
 30
0.000000
  70
    32
  0
VERTEX
  8
APL_JOINERY
  5
850C
 10
133.820
 20
353.269
 30
0.000000
  70
    32
  0
VERTEX
  8
APL_JOINERY
  5
850D
 10
133.993
 20
353.274
 30
0.000000
  70
    32
  0
VERTEX
  8
APL_JOINERY
  5
850E
 10
134.165
 20
353.279
 30
0.000000
  70
    32
  0
VERTEX
  8
APL_JOINERY
  5
850F
 10
134.338
 20
353.283
 30
0.000000
  70
    32
  0
VERTEX
  8
APL_JOINERY
  5
8510
 10
134.510
 20
353.288
 30
0.000000
  70
    32
  0
VERTEX
  8
APL_JOINERY
  5
8511
 10
134.683
 20
353.293
 30
0.000000
  70
    32
  0
VERTEX
  8
APL_JOINERY
  5
8512
 10
134.856
 20
353.298
 30
0.000000
  70
    32
  0
VERTEX
  8
APL_JOINERY
  5
8513
 10
135.028
 20
353.303
 30
0.000000
  70
    32
  0
VERTEX
  8
APL_JOINERY
  5
8514
 10
135.201
 20
353.309
 30
0.000000
  70
    32
  0
VERTEX
  8
APL_JOINERY
  5
8515
 10
135.373
 20
353.314
 30
0.000000
  70
    32
  0
VERTEX
  8
APL_JOINERY
  5
8516
 10
135.546
 20
353.319
 30
0.000000
  70
    32
  0
VERTEX
  8
APL_JOINERY
  5
8517
 10
135.718
 20
353.324
 30
0.000000
  70
    32
  0
VERTEX
  8
APL_JOINERY
  5
8518
 10
135.891
 20
353.330
 30
0.000000
  70
    32
  0
VERTEX
  8
APL_JOINERY
  5
8519
 10
136.063
 20
353.335
 30
0.000000
  70
    32
  0
VERTEX
  8
APL_JOINERY
  5
851A
 10
136.236
 20
353.340
 30
0.000000
  70
    32
  0
VERTEX
  8
APL_JOINERY
  5
851B
 10
136.408
 20
353.345
 30
0.000000
  70
    32
  0
VERTEX
  8
APL_JOINERY
  5
851C
 10
136.581
 20
353.350
 30
0.000000
  70
    32
  0
VERTEX
  8
APL_JOINERY
  5
851D
 10
136.754
 20
353.356
 30
0.000000
  70
    32
  0
VERTEX
  8
APL_JOINERY
  5
851E
 10
136.926
 20
353.361
 30
0.000000
  70
    32
  0
VERTEX
  8
APL_JOINERY
  5
851F
 10
137.099
 20
353.366
 30
0.000000
  70
    32
  0
VERTEX
  8
APL_JOINERY
  5
8520
 10
137.271
 20
353.370
 30
0.000000
  70
    32
  0
VERTEX
  8
APL_JOINERY
  5
8521
 10
137.444
 20
353.375
 30
0.000000
  70
    32
  0
VERTEX
  8
APL_JOINERY
  5
8522
 10
137.616
 20
353.380
 30
0.000000
  70
    32
  0
VERTEX
  8
APL_JOINERY
  5
8523
 10
137.789
 20
353.384
 30
0.000000
  70
    32
  0
VERTEX
  8
APL_JOINERY
  5
8524
 10
137.961
 20
353.389
 30
0.000000
  70
    32
  0
VERTEX
  8
APL_JOINERY
  5
8525
 10
138.134
 20
353.393
 30
0.000000
  70
    32
  0
VERTEX
  8
APL_JOINERY
  5
8526
 10
138.306
 20
353.397
 30
0.000000
  70
    32
  0
VERTEX
  8
APL_JOINERY
  5
8527
 10
138.479
 20
353.401
 30
0.000000
  70
    32
  0
VERTEX
  8
APL_JOINERY
  5
8528
 10
138.652
 20
353.404
 30
0.000000
  70
    32
  0
VERTEX
  8
APL_JOINERY
  5
8529
 10
138.824
 20
353.408
 30
0.000000
  70
    32
  0
VERTEX
  8
APL_JOINERY
  5
852A
 10
138.997
 20
353.411
 30
0.000000
  70
    32
  0
VERTEX
  8
APL_JOINERY
  5
852B
 10
139.169
 20
353.414
 30
0.000000
  70
    32
  0
VERTEX
  8
APL_JOINERY
  5
852C
 10
139.342
 20
353.416
 30
0.000000
  70
    32
  0
VERTEX
  8
APL_JOINERY
  5
852D
 10
139.514
 20
353.419
 30
0.000000
  70
    32
  0
VERTEX
  8
APL_JOINERY
  5
852E
 10
139.687
 20
353.421
 30
0.000000
  70
    32
  0
VERTEX
  8
APL_JOINERY
  5
852F
 10
139.859
 20
353.423
 30
0.000000
  70
    32
  0
VERTEX
  8
APL_JOINERY
  5
8530
 10
140.032
 20
353.424
 30
0.000000
  70
    32
  0
VERTEX
  8
APL_JOINERY
  5
8531
 10
140.204
 20
353.426
 30
0.000000
  70
    32
  0
VERTEX
  8
APL_JOINERY
  5
8532
 10
140.377
 20
353.426
 30
0.000000
  70
    32
  0
VERTEX
  8
APL_JOINERY
  5
8533
 10
140.549
 20
353.427
 30
0.000000
  70
    32
  0
VERTEX
  8
APL_JOINERY
  5
8534
 10
140.722
 20
353.427
 30
0.000000
  70
    32
  0
VERTEX
  8
APL_JOINERY
  5
8535
 10
140.895
 20
353.427
 30
0.000000
  70
    32
  0
VERTEX
  8
APL_JOINERY
  5
8536
 10
141.067
 20
353.427
 30
0.000000
  70
    32
  0
VERTEX
  8
APL_JOINERY
  5
8537
 10
141.240
 20
353.426
 30
0.000000
  70
    32
  0
VERTEX
  8
APL_JOINERY
  5
8538
 10
141.412
 20
353.424
 30
0.000000
  70
    32
  0
VERTEX
  8
APL_JOINERY
  5
8539
 10
141.585
 20
353.422
 30
0.000000
  70
    32
  0
VERTEX
  8
APL_JOINERY
  5
853A
 10
141.757
 20
353.420
 30
0.000000
  70
    32
  0
VERTEX
  8
APL_JOINERY
  5
853B
 10
141.930
 20
353.418
 30
0.000000
  70
    32
  0
VERTEX
  8
APL_JOINERY
  5
853C
 10
142.102
 20
353.414
 30
0.000000
  70
    32
  0
VERTEX
  8
APL_JOINERY
  5
853D
 10
142.275
 20
353.411
 30
0.000000
  70
    32
  0
VERTEX
  8
APL_JOINERY
  5
853E
 10
142.448
 20
353.407
 30
0.000000
  70
    32
  0
VERTEX
  8
APL_JOINERY
  5
853F
 10
142.620
 20
353.402
 30
0.000000
  70
    32
  0
VERTEX
  8
APL_JOINERY
  5
8540
 10
142.793
 20
353.397
 30
0.000000
  70
    32
  0
VERTEX
  8
APL_JOINERY
  5
8541
 10
142.965
 20
353.392
 30
0.000000
  70
    32
  0
VERTEX
  8
APL_JOINERY
  5
8542
 10
143.138
 20
353.386
 30
0.000000
  70
    32
  0
VERTEX
  8
APL_JOINERY
  5
8543
 10
143.310
 20
353.379
 30
0.000000
  70
    32
  0
VERTEX
  8
APL_JOINERY
  5
8544
 10
143.483
 20
353.372
 30
0.000000
  70
    32
  0
VERTEX
  8
APL_JOINERY
  5
8545
 10
143.656
 20
353.364
 30
0.000000
  70
    32
  0
VERTEX
  8
APL_JOINERY
  5
8546
 10
143.828
 20
353.355
 30
0.000000
  70
    32
  0
VERTEX
  8
APL_JOINERY
  5
8547
 10
144.001
 20
353.346
 30
0.000000
  70
    32
  0
VERTEX
  8
APL_JOINERY
  5
8548
 10
144.173
 20
353.337
 30
0.000000
  70
    32
  0
VERTEX
  8
APL_JOINERY
  5
8549
 10
144.346
 20
353.327
 30
0.000000
  70
    32
  0
VERTEX
  8
APL_JOINERY
  5
854A
 10
144.519
 20
353.316
 30
0.000000
  70
    32
  0
VERTEX
  8
APL_JOINERY
  5
854B
 10
144.691
 20
353.304
 30
0.000000
  70
    32
  0
VERTEX
  8
APL_JOINERY
  5
854C
 10
144.864
 20
353.292
 30
0.000000
  70
    32
  0
VERTEX
  8
APL_JOINERY
  5
854D
 10
145.036
 20
353.279
 30
0.000000
  70
    32
  0
VERTEX
  8
APL_JOINERY
  5
854E
 10
145.209
 20
353.266
 30
0.000000
  70
    32
  0
VERTEX
  8
APL_JOINERY
  5
854F
 10
145.381
 20
353.252
 30
0.000000
  70
    32
  0
VERTEX
  8
APL_JOINERY
  5
8550
 10
145.554
 20
353.237
 30
0.000000
  70
    32
  0
VERTEX
  8
APL_JOINERY
  5
8551
 10
145.726
 20
353.222
 30
0.000000
  70
    32
  0
VERTEX
  8
APL_JOINERY
  5
8552
 10
145.899
 20
353.206
 30
0.000000
  70
    32
  0
VERTEX
  8
APL_JOINERY
  5
8553
 10
146.071
 20
353.189
 30
0.000000
  70
    32
  0
VERTEX
  8
APL_JOINERY
  5
8554
 10
146.243
 20
353.172
 30
0.000000
  70
    32
  0
VERTEX
  8
APL_JOINERY
  5
8555
 10
146.416
 20
353.154
 30
0.000000
  70
    32
  0
VERTEX
  8
APL_JOINERY
  5
8556
 10
146.588
 20
353.135
 30
0.000000
  70
    32
  0
VERTEX
  8
APL_JOINERY
  5
8557
 10
146.760
 20
353.115
 30
0.000000
  70
    32
  0
VERTEX
  8
APL_JOINERY
  5
8558
 10
146.932
 20
353.095
 30
0.000000
  70
    32
  0
VERTEX
  8
APL_JOINERY
  5
8559
 10
147.104
 20
353.074
 30
0.000000
  70
    32
  0
VERTEX
  8
APL_JOINERY
  5
855A
 10
147.276
 20
353.053
 30
0.000000
  70
    32
  0
VERTEX
  8
APL_JOINERY
  5
855B
 10
147.447
 20
353.031
 30
0.000000
  70
    32
  0
VERTEX
  8
APL_JOINERY
  5
855C
 10
147.619
 20
353.008
 30
0.000000
  70
    32
  0
VERTEX
  8
APL_JOINERY
  5
855D
 10
147.790
 20
352.984
 30
0.000000
  70
    32
  0
VERTEX
  8
APL_JOINERY
  5
855E
 10
147.962
 20
352.959
 30
0.000000
  70
    32
  0
VERTEX
  8
APL_JOINERY
  5
855F
 10
148.133
 20
352.934
 30
0.000000
  70
    32
  0
VERTEX
  8
APL_JOINERY
  5
8560
 10
148.305
 20
352.908
 30
0.000000
  70
    32
  0
VERTEX
  8
APL_JOINERY
  5
8561
 10
148.476
 20
352.882
 30
0.000000
  70
    32
  0
VERTEX
  8
APL_JOINERY
  5
8562
 10
148.647
 20
352.854
 30
0.000000
  70
    32
  0
VERTEX
  8
APL_JOINERY
  5
8563
 10
148.817
 20
352.826
 30
0.000000
  70
    32
  0
VERTEX
  8
APL_JOINERY
  5
8564
 10
148.988
 20
352.797
 30
0.000000
  70
    32
  0
VERTEX
  8
APL_JOINERY
  5
8565
 10
149.159
 20
352.767
 30
0.000000
  70
    32
  0
VERTEX
  8
APL_JOINERY
  5
8566
 10
149.329
 20
352.737
 30
0.000000
  70
    32
  0
VERTEX
  8
APL_JOINERY
  5
8567
 10
149.499
 20
352.706
 30
0.000000
  70
    32
  0
VERTEX
  8
APL_JOINERY
  5
8568
 10
149.669
 20
352.674
 30
0.000000
  70
    32
  0
VERTEX
  8
APL_JOINERY
  5
8569
 10
149.839
 20
352.641
 30
0.000000
  70
    32
  0
VERTEX
  8
APL_JOINERY
  5
856A
 10
150.009
 20
352.607
 30
0.000000
  70
    32
  0
VERTEX
  8
APL_JOINERY
  5
856B
 10
150.179
 20
352.573
 30
0.000000
  70
    32
  0
VERTEX
  8
APL_JOINERY
  5
856C
 10
150.348
 20
352.538
 30
0.000000
  70
    32
  0
VERTEX
  8
APL_JOINERY
  5
856D
 10
150.517
 20
352.502
 30
0.000000
  70
    32
  0
VERTEX
  8
APL_JOINERY
  5
856E
 10
150.687
 20
352.465
 30
0.000000
  70
    32
  0
VERTEX
  8
APL_JOINERY
  5
856F
 10
150.855
 20
352.428
 30
0.000000
  70
    32
  0
VERTEX
  8
APL_JOINERY
  5
8570
 10
151.024
 20
352.389
 30
0.000000
  70
    32
  0
VERTEX
  8
APL_JOINERY
  5
8571
 10
151.193
 20
352.350
 30
0.000000
  70
    32
  0
VERTEX
  8
APL_JOINERY
  5
8572
 10
151.361
 20
352.310
 30
0.000000
  70
    32
  0
VERTEX
  8
APL_JOINERY
  5
8573
 10
151.529
 20
352.269
 30
0.000000
  70
    32
  0
VERTEX
  8
APL_JOINERY
  5
8574
 10
151.697
 20
352.227
 30
0.000000
  70
    32
  0
VERTEX
  8
APL_JOINERY
  5
8575
 10
151.864
 20
352.185
 30
0.000000
  70
    32
  0
VERTEX
  8
APL_JOINERY
  5
8576
 10
152.032
 20
352.141
 30
0.000000
  70
    32
  0
VERTEX
  8
APL_JOINERY
  5
8577
 10
152.199
 20
352.097
 30
0.000000
  70
    32
  0
VERTEX
  8
APL_JOINERY
  5
8578
 10
152.366
 20
352.052
 30
0.000000
  70
    32
  0
VERTEX
  8
APL_JOINERY
  5
8579
 10
152.532
 20
352.006
 30
0.000000
  70
    32
  0
VERTEX
  8
APL_JOINERY
  5
857A
 10
152.699
 20
351.959
 30
0.000000
  70
    32
  0
VERTEX
  8
APL_JOINERY
  5
857B
 10
152.865
 20
351.911
 30
0.000000
  70
    32
  0
VERTEX
  8
APL_JOINERY
  5
857C
 10
153.031
 20
351.863
 30
0.000000
  70
    32
  0
VERTEX
  8
APL_JOINERY
  5
857D
 10
153.196
 20
351.813
 30
0.000000
  70
    32
  0
VERTEX
  8
APL_JOINERY
  5
857E
 10
153.362
 20
351.763
 30
0.000000
  70
    32
  0
VERTEX
  8
APL_JOINERY
  5
857F
 10
153.527
 20
351.712
 30
0.000000
  70
    32
  0
VERTEX
  8
APL_JOINERY
  5
8580
 10
153.691
 20
351.660
 30
0.000000
  70
    32
  0
VERTEX
  8
APL_JOINERY
  5
8581
 10
153.856
 20
351.607
 30
0.000000
  70
    32
  0
VERTEX
  8
APL_JOINERY
  5
8582
 10
154.020
 20
351.553
 30
0.000000
  70
    32
  0
VERTEX
  8
APL_JOINERY
  5
8583
 10
154.184
 20
351.498
 30
0.000000
  70
    32
  0
VERTEX
  8
APL_JOINERY
  5
8584
 10
154.348
 20
351.442
 30
0.000000
  70
    32
  0
VERTEX
  8
APL_JOINERY
  5
8585
 10
154.511
 20
351.385
 30
0.000000
  70
    32
  0
VERTEX
  8
APL_JOINERY
  5
8586
 10
154.674
 20
351.328
 30
0.000000
  70
    32
  0
VERTEX
  8
APL_JOINERY
  5
8587
 10
154.837
 20
351.269
 30
0.000000
  70
    32
  0
VERTEX
  8
APL_JOINERY
  5
8588
 10
154.999
 20
351.210
 30
0.000000
  70
    32
  0
VERTEX
  8
APL_JOINERY
  5
8589
 10
155.161
 20
351.150
 30
0.000000
  70
    32
  0
VERTEX
  8
APL_JOINERY
  5
858A
 10
155.323
 20
351.088
 30
0.000000
  70
    32
  0
VERTEX
  8
APL_JOINERY
  5
858B
 10
155.484
 20
351.026
 30
0.000000
  70
    32
  0
VERTEX
  8
APL_JOINERY
  5
858C
 10
155.645
 20
350.964
 30
0.000000
  70
    32
  0
VERTEX
  8
APL_JOINERY
  5
858D
 10
155.806
 20
350.900
 30
0.000000
  70
    32
  0
VERTEX
  8
APL_JOINERY
  5
858E
 10
155.966
 20
350.835
 30
0.000000
  70
    32
  0
VERTEX
  8
APL_JOINERY
  5
858F
 10
156.126
 20
350.770
 30
0.000000
  70
    32
  0
VERTEX
  8
APL_JOINERY
  5
8590
 10
156.286
 20
350.703
 30
0.000000
  70
    32
  0
VERTEX
  8
APL_JOINERY
  5
8591
 10
156.445
 20
350.636
 30
0.000000
  70
    32
  0
VERTEX
  8
APL_JOINERY
  5
8592
 10
156.604
 20
350.568
 30
0.000000
  70
    32
  0
VERTEX
  8
APL_JOINERY
  5
8593
 10
156.762
 20
350.499
 30
0.000000
  70
    32
  0
VERTEX
  8
APL_JOINERY
  5
8594
 10
156.920
 20
350.429
 30
0.000000
  70
    32
  0
VERTEX
  8
APL_JOINERY
  5
8595
 10
157.078
 20
350.358
 30
0.000000
  70
    32
  0
VERTEX
  8
APL_JOINERY
  5
8596
 10
157.235
 20
350.286
 30
0.000000
  70
    32
  0
VERTEX
  8
APL_JOINERY
  5
8597
 10
157.392
 20
350.214
 30
0.000000
  70
    32
  0
VERTEX
  8
APL_JOINERY
  5
8598
 10
157.549
 20
350.141
 30
0.000000
  70
    32
  0
VERTEX
  8
APL_JOINERY
  5
8599
 10
157.705
 20
350.066
 30
0.000000
  70
    32
  0
VERTEX
  8
APL_JOINERY
  5
859A
 10
157.861
 20
349.991
 30
0.000000
  70
    32
  0
VERTEX
  8
APL_JOINERY
  5
859B
 10
158.016
 20
349.915
 30
0.000000
  70
    32
  0
VERTEX
  8
APL_JOINERY
  5
859C
 10
158.171
 20
349.839
 30
0.000000
  70
    32
  0
VERTEX
  8
APL_JOINERY
  5
859D
 10
158.325
 20
349.761
 30
0.000000
  70
    32
  0
VERTEX
  8
APL_JOINERY
  5
859E
 10
158.479
 20
349.683
 30
0.000000
  70
    32
  0
VERTEX
  8
APL_JOINERY
  5
859F
 10
158.633
 20
349.603
 30
0.000000
  70
    32
  0
VERTEX
  8
APL_JOINERY
  5
85A0
 10
158.786
 20
349.523
 30
0.000000
  70
    32
  0
VERTEX
  8
APL_JOINERY
  5
85A1
 10
158.939
 20
349.442
 30
0.000000
  70
    32
  0
VERTEX
  8
APL_JOINERY
  5
85A2
 10
159.091
 20
349.361
 30
0.000000
  70
    32
  0
VERTEX
  8
APL_JOINERY
  5
85A3
 10
159.243
 20
349.278
 30
0.000000
  70
    32
  0
VERTEX
  8
APL_JOINERY
  5
85A4
 10
159.394
 20
349.195
 30
0.000000
  70
    32
  0
VERTEX
  8
APL_JOINERY
  5
85A5
 10
159.545
 20
349.110
 30
0.000000
  70
    32
  0
VERTEX
  8
APL_JOINERY
  5
85A6
 10
159.695
 20
349.025
 30
0.000000
  70
    32
  0
VERTEX
  8
APL_JOINERY
  5
85A7
 10
159.845
 20
348.939
 30
0.000000
  70
    32
  0
VERTEX
  8
APL_JOINERY
  5
85A8
 10
159.995
 20
348.853
 30
0.000000
  70
    32
  0
VERTEX
  8
APL_JOINERY
  5
85A9
 10
160.144
 20
348.765
 30
0.000000
  70
    32
  0
VERTEX
  8
APL_JOINERY
  5
85AA
 10
160.292
 20
348.677
 30
0.000000
  70
    32
  0
VERTEX
  8
APL_JOINERY
  5
85AB
 10
160.440
 20
348.588
 30
0.000000
  70
    32
  0
VERTEX
  8
APL_JOINERY
  5
85AC
 10
160.588
 20
348.498
 30
0.000000
  70
    32
  0
VERTEX
  8
APL_JOINERY
  5
85AD
 10
160.735
 20
348.407
 30
0.000000
  70
    32
  0
VERTEX
  8
APL_JOINERY
  5
85AE
 10
160.881
 20
348.316
 30
0.000000
  70
    32
  0
VERTEX
  8
APL_JOINERY
  5
85AF
 10
161.027
 20
348.223
 30
0.000000
  70
    32
  0
VERTEX
  8
APL_JOINERY
  5
85B0
 10
161.173
 20
348.131
 30
0.000000
  70
    32
  0
VERTEX
  8
APL_JOINERY
  5
85B1
 10
161.318
 20
348.037
 30
0.000000
  70
    32
  0
VERTEX
  8
APL_JOINERY
  5
85B2
 10
161.463
 20
347.942
 30
0.000000
  70
    32
  0
VERTEX
  8
APL_JOINERY
  5
85B3
 10
161.607
 20
347.847
 30
0.000000
  70
    32
  0
VERTEX
  8
APL_JOINERY
  5
85B4
 10
161.751
 20
347.751
 30
0.000000
  70
    32
  0
VERTEX
  8
APL_JOINERY
  5
85B5
 10
161.894
 20
347.655
 30
0.000000
  70
    32
  0
VERTEX
  8
APL_JOINERY
  5
85B6
 10
162.036
 20
347.558
 30
0.000000
  70
    32
  0
VERTEX
  8
APL_JOINERY
  5
85B7
 10
162.179
 20
347.460
 30
0.000000
  70
    32
  0
VERTEX
  8
APL_JOINERY
  5
85B8
 10
162.321
 20
347.361
 30
0.000000
  70
    32
  0
VERTEX
  8
APL_JOINERY
  5
85B9
 10
162.462
 20
347.262
 30
0.000000
  70
    32
  0
VERTEX
  8
APL_JOINERY
  5
85BA
 10
162.603
 20
347.162
 30
0.000000
  70
    32
  0
VERTEX
  8
APL_JOINERY
  5
85BB
 10
162.743
 20
347.061
 30
0.000000
  70
    32
  0
VERTEX
  8
APL_JOINERY
  5
85BC
 10
162.883
 20
346.960
 30
0.000000
  70
    32
  0
VERTEX
  8
APL_JOINERY
  5
85BD
 10
163.022
 20
346.858
 30
0.000000
  70
    32
  0
VERTEX
  8
APL_JOINERY
  5
85BE
 10
163.161
 20
346.755
 30
0.000000
  70
    32
  0
VERTEX
  8
APL_JOINERY
  5
85BF
 10
163.300
 20
346.652
 30
0.000000
  70
    32
  0
VERTEX
  8
APL_JOINERY
  5
85C0
 10
163.437
 20
346.548
 30
0.000000
  70
    32
  0
VERTEX
  8
APL_JOINERY
  5
85C1
 10
163.575
 20
346.443
 30
0.000000
  70
    32
  0
VERTEX
  8
APL_JOINERY
  5
85C2
 10
163.712
 20
346.338
 30
0.000000
  70
    32
  0
VERTEX
  8
APL_JOINERY
  5
85C3
 10
163.848
 20
346.233
 30
0.000000
  70
    32
  0
VERTEX
  8
APL_JOINERY
  5
85C4
 10
163.984
 20
346.126
 30
0.000000
  70
    32
  0
VERTEX
  8
APL_JOINERY
  5
85C5
 10
164.120
 20
346.019
 30
0.000000
  70
    32
  0
VERTEX
  8
APL_JOINERY
  5
85C6
 10
164.255
 20
345.912
 30
0.000000
  70
    32
  0
VERTEX
  8
APL_JOINERY
  5
85C7
 10
164.389
 20
345.804
 30
0.000000
  70
    32
  0
VERTEX
  8
APL_JOINERY
  5
85C8
 10
164.524
 20
345.695
 30
0.000000
  70
    32
  0
VERTEX
  8
APL_JOINERY
  5
85C9
 10
164.658
 20
345.587
 30
0.000000
  70
    32
  0
VERTEX
  8
APL_JOINERY
  5
85CA
 10
164.791
 20
345.477
 30
0.000000
  70
    32
  0
VERTEX
  8
APL_JOINERY
  5
85CB
 10
164.925
 20
345.368
 30
0.000000
  70
    32
  0
VERTEX
  8
APL_JOINERY
  5
85CC
 10
165.058
 20
345.258
 30
0.000000
  70
    32
  0
VERTEX
  8
APL_JOINERY
  5
85CD
 10
165.190
 20
345.148
 30
0.000000
  70
    32
  0
VERTEX
  8
APL_JOINERY
  5
85CE
 10
165.323
 20
345.038
 30
0.000000
  70
    32
  0
VERTEX
  8
APL_JOINERY
  5
85CF
 10
165.456
 20
344.927
 30
0.000000
  70
    32
  0
VERTEX
  8
APL_JOINERY
  5
85D0
 10
165.588
 20
344.817
 30
0.000000
  70
    32
  0
VERTEX
  8
APL_JOINERY
  5
85D1
 10
165.721
 20
344.706
 30
0.000000
  70
    32
  0
VERTEX
  8
APL_JOINERY
  5
85D2
 10
165.853
 20
344.595
 30
0.000000
  70
    32
  0
SEQEND
  8
APL_JOINERY
  5
85D3
  0
POLYLINE
  8
APL_JOINERY
  5
85D4
  62
8
  66
     1
 10
0.000000
 20
0.000000
 30
0.000000
  70
     8
  0
VERTEX
  8
APL_JOINERY
  5
85D5
 10
117.234
 20
346.478
 30
0.000000
  70
    32
  0
VERTEX
  8
APL_JOINERY
  5
85D6
 10
117.391
 20
346.497
 30
0.000000
  70
    32
  0
VERTEX
  8
APL_JOINERY
  5
85D7
 10
117.549
 20
346.517
 30
0.000000
  70
    32
  0
VERTEX
  8
APL_JOINERY
  5
85D8
 10
117.707
 20
346.536
 30
0.000000
  70
    32
  0
VERTEX
  8
APL_JOINERY
  5
85D9
 10
117.864
 20
346.556
 30
0.000000
  70
    32
  0
VERTEX
  8
APL_JOINERY
  5
85DA
 10
118.022
 20
346.575
 30
0.000000
  70
    32
  0
VERTEX
  8
APL_JOINERY
  5
85DB
 10
118.180
 20
346.594
 30
0.000000
  70
    32
  0
VERTEX
  8
APL_JOINERY
  5
85DC
 10
118.337
 20
346.614
 30
0.000000
  70
    32
  0
VERTEX
  8
APL_JOINERY
  5
85DD
 10
118.495
 20
346.633
 30
0.000000
  70
    32
  0
VERTEX
  8
APL_JOINERY
  5
85DE
 10
118.653
 20
346.652
 30
0.000000
  70
    32
  0
VERTEX
  8
APL_JOINERY
  5
85DF
 10
118.810
 20
346.671
 30
0.000000
  70
    32
  0
VERTEX
  8
APL_JOINERY
  5
85E0
 10
118.968
 20
346.690
 30
0.000000
  70
    32
  0
VERTEX
  8
APL_JOINERY
  5
85E1
 10
119.126
 20
346.709
 30
0.000000
  70
    32
  0
VERTEX
  8
APL_JOINERY
  5
85E2
 10
119.283
 20
346.727
 30
0.000000
  70
    32
  0
VERTEX
  8
APL_JOINERY
  5
85E3
 10
119.441
 20
346.746
 30
0.000000
  70
    32
  0
VERTEX
  8
APL_JOINERY
  5
85E4
 10
119.599
 20
346.764
 30
0.000000
  70
    32
  0
VERTEX
  8
APL_JOINERY
  5
85E5
 10
119.756
 20
346.783
 30
0.000000
  70
    32
  0
VERTEX
  8
APL_JOINERY
  5
85E6
 10
119.914
 20
346.801
 30
0.000000
  70
    32
  0
VERTEX
  8
APL_JOINERY
  5
85E7
 10
120.072
 20
346.819
 30
0.000000
  70
    32
  0
VERTEX
  8
APL_JOINERY
  5
85E8
 10
120.230
 20
346.836
 30
0.000000
  70
    32
  0
VERTEX
  8
APL_JOINERY
  5
85E9
 10
120.387
 20
346.854
 30
0.000000
  70
    32
  0
VERTEX
  8
APL_JOINERY
  5
85EA
 10
120.545
 20
346.871
 30
0.000000
  70
    32
  0
VERTEX
  8
APL_JOINERY
  5
85EB
 10
120.703
 20
346.889
 30
0.000000
  70
    32
  0
VERTEX
  8
APL_JOINERY
  5
85EC
 10
120.861
 20
346.905
 30
0.000000
  70
    32
  0
VERTEX
  8
APL_JOINERY
  5
85ED
 10
121.019
 20
346.922
 30
0.000000
  70
    32
  0
VERTEX
  8
APL_JOINERY
  5
85EE
 10
121.176
 20
346.939
 30
0.000000
  70
    32
  0
VERTEX
  8
APL_JOINERY
  5
85EF
 10
121.334
 20
346.955
 30
0.000000
  70
    32
  0
VERTEX
  8
APL_JOINERY
  5
85F0
 10
121.492
 20
346.971
 30
0.000000
  70
    32
  0
VERTEX
  8
APL_JOINERY
  5
85F1
 10
121.650
 20
346.987
 30
0.000000
  70
    32
  0
VERTEX
  8
APL_JOINERY
  5
85F2
 10
121.808
 20
347.002
 30
0.000000
  70
    32
  0
VERTEX
  8
APL_JOINERY
  5
85F3
 10
121.966
 20
347.017
 30
0.000000
  70
    32
  0
VERTEX
  8
APL_JOINERY
  5
85F4
 10
122.124
 20
347.032
 30
0.000000
  70
    32
  0
VERTEX
  8
APL_JOINERY
  5
85F5
 10
122.281
 20
347.046
 30
0.000000
  70
    32
  0
VERTEX
  8
APL_JOINERY
  5
85F6
 10
122.439
 20
347.061
 30
0.000000
  70
    32
  0
VERTEX
  8
APL_JOINERY
  5
85F7
 10
122.597
 20
347.074
 30
0.000000
  70
    32
  0
VERTEX
  8
APL_JOINERY
  5
85F8
 10
122.755
 20
347.088
 30
0.000000
  70
    32
  0
VERTEX
  8
APL_JOINERY
  5
85F9
 10
122.913
 20
347.101
 30
0.000000
  70
    32
  0
VERTEX
  8
APL_JOINERY
  5
85FA
 10
123.071
 20
347.114
 30
0.000000
  70
    32
  0
VERTEX
  8
APL_JOINERY
  5
85FB
 10
123.229
 20
347.126
 30
0.000000
  70
    32
  0
VERTEX
  8
APL_JOINERY
  5
85FC
 10
123.387
 20
347.139
 30
0.000000
  70
    32
  0
VERTEX
  8
APL_JOINERY
  5
85FD
 10
123.545
 20
347.150
 30
0.000000
  70
    32
  0
VERTEX
  8
APL_JOINERY
  5
85FE
 10
123.703
 20
347.161
 30
0.000000
  70
    32
  0
VERTEX
  8
APL_JOINERY
  5
85FF
 10
123.862
 20
347.172
 30
0.000000
  70
    32
  0
VERTEX
  8
APL_JOINERY
  5
8600
 10
124.020
 20
347.183
 30
0.000000
  70
    32
  0
VERTEX
  8
APL_JOINERY
  5
8601
 10
124.178
 20
347.193
 30
0.000000
  70
    32
  0
VERTEX
  8
APL_JOINERY
  5
8602
 10
124.336
 20
347.202
 30
0.000000
  70
    32
  0
VERTEX
  8
APL_JOINERY
  5
8603
 10
124.494
 20
347.212
 30
0.000000
  70
    32
  0
VERTEX
  8
APL_JOINERY
  5
8604
 10
124.652
 20
347.220
 30
0.000000
  70
    32
  0
VERTEX
  8
APL_JOINERY
  5
8605
 10
124.811
 20
347.228
 30
0.000000
  70
    32
  0
VERTEX
  8
APL_JOINERY
  5
8606
 10
124.969
 20
347.236
 30
0.000000
  70
    32
  0
VERTEX
  8
APL_JOINERY
  5
8607
 10
125.127
 20
347.243
 30
0.000000
  70
    32
  0
VERTEX
  8
APL_JOINERY
  5
8608
 10
125.286
 20
347.250
 30
0.000000
  70
    32
  0
VERTEX
  8
APL_JOINERY
  5
8609
 10
125.444
 20
347.256
 30
0.000000
  70
    32
  0
VERTEX
  8
APL_JOINERY
  5
860A
 10
125.602
 20
347.262
 30
0.000000
  70
    32
  0
VERTEX
  8
APL_JOINERY
  5
860B
 10
125.761
 20
347.267
 30
0.000000
  70
    32
  0
VERTEX
  8
APL_JOINERY
  5
860C
 10
125.919
 20
347.272
 30
0.000000
  70
    32
  0
VERTEX
  8
APL_JOINERY
  5
860D
 10
126.078
 20
347.277
 30
0.000000
  70
    32
  0
VERTEX
  8
APL_JOINERY
  5
860E
 10
126.236
 20
347.281
 30
0.000000
  70
    32
  0
VERTEX
  8
APL_JOINERY
  5
860F
 10
126.395
 20
347.284
 30
0.000000
  70
    32
  0
VERTEX
  8
APL_JOINERY
  5
8610
 10
126.553
 20
347.287
 30
0.000000
  70
    32
  0
VERTEX
  8
APL_JOINERY
  5
8611
 10
126.712
 20
347.290
 30
0.000000
  70
    32
  0
VERTEX
  8
APL_JOINERY
  5
8612
 10
126.870
 20
347.292
 30
0.000000
  70
    32
  0
VERTEX
  8
APL_JOINERY
  5
8613
 10
127.029
 20
347.294
 30
0.000000
  70
    32
  0
VERTEX
  8
APL_JOINERY
  5
8614
 10
127.187
 20
347.295
 30
0.000000
  70
    32
  0
VERTEX
  8
APL_JOINERY
  5
8615
 10
127.346
 20
347.296
 30
0.000000
  70
    32
  0
VERTEX
  8
APL_JOINERY
  5
8616
 10
127.504
 20
347.297
 30
0.000000
  70
    32
  0
VERTEX
  8
APL_JOINERY
  5
8617
 10
127.663
 20
347.297
 30
0.000000
  70
    32
  0
VERTEX
  8
APL_JOINERY
  5
8618
 10
127.822
 20
347.297
 30
0.000000
  70
    32
  0
VERTEX
  8
APL_JOINERY
  5
8619
 10
127.980
 20
347.296
 30
0.000000
  70
    32
  0
VERTEX
  8
APL_JOINERY
  5
861A
 10
128.139
 20
347.295
 30
0.000000
  70
    32
  0
VERTEX
  8
APL_JOINERY
  5
861B
 10
128.298
 20
347.294
 30
0.000000
  70
    32
  0
VERTEX
  8
APL_JOINERY
  5
861C
 10
128.456
 20
347.292
 30
0.000000
  70
    32
  0
VERTEX
  8
APL_JOINERY
  5
861D
 10
128.615
 20
347.290
 30
0.000000
  70
    32
  0
VERTEX
  8
APL_JOINERY
  5
861E
 10
128.774
 20
347.288
 30
0.000000
  70
    32
  0
VERTEX
  8
APL_JOINERY
  5
861F
 10
128.932
 20
347.285
 30
0.000000
  70
    32
  0
VERTEX
  8
APL_JOINERY
  5
8620
 10
129.091
 20
347.283
 30
0.000000
  70
    32
  0
VERTEX
  8
APL_JOINERY
  5
8621
 10
129.250
 20
347.279
 30
0.000000
  70
    32
  0
VERTEX
  8
APL_JOINERY
  5
8622
 10
129.408
 20
347.276
 30
0.000000
  70
    32
  0
VERTEX
  8
APL_JOINERY
  5
8623
 10
129.567
 20
347.272
 30
0.000000
  70
    32
  0
VERTEX
  8
APL_JOINERY
  5
8624
 10
129.726
 20
347.268
 30
0.000000
  70
    32
  0
VERTEX
  8
APL_JOINERY
  5
8625
 10
129.884
 20
347.263
 30
0.000000
  70
    32
  0
VERTEX
  8
APL_JOINERY
  5
8626
 10
130.043
 20
347.259
 30
0.000000
  70
    32
  0
VERTEX
  8
APL_JOINERY
  5
8627
 10
130.202
 20
347.254
 30
0.000000
  70
    32
  0
VERTEX
  8
APL_JOINERY
  5
8628
 10
130.361
 20
347.249
 30
0.000000
  70
    32
  0
VERTEX
  8
APL_JOINERY
  5
8629
 10
130.519
 20
347.243
 30
0.000000
  70
    32
  0
VERTEX
  8
APL_JOINERY
  5
862A
 10
130.678
 20
347.237
 30
0.000000
  70
    32
  0
VERTEX
  8
APL_JOINERY
  5
862B
 10
130.837
 20
347.231
 30
0.000000
  70
    32
  0
VERTEX
  8
APL_JOINERY
  5
862C
 10
130.995
 20
347.225
 30
0.000000
  70
    32
  0
VERTEX
  8
APL_JOINERY
  5
862D
 10
131.154
 20
347.219
 30
0.000000
  70
    32
  0
VERTEX
  8
APL_JOINERY
  5
862E
 10
131.313
 20
347.212
 30
0.000000
  70
    32
  0
VERTEX
  8
APL_JOINERY
  5
862F
 10
131.471
 20
347.205
 30
0.000000
  70
    32
  0
VERTEX
  8
APL_JOINERY
  5
8630
 10
131.630
 20
347.198
 30
0.000000
  70
    32
  0
VERTEX
  8
APL_JOINERY
  5
8631
 10
131.789
 20
347.191
 30
0.000000
  70
    32
  0
VERTEX
  8
APL_JOINERY
  5
8632
 10
131.947
 20
347.184
 30
0.000000
  70
    32
  0
VERTEX
  8
APL_JOINERY
  5
8633
 10
132.106
 20
347.176
 30
0.000000
  70
    32
  0
VERTEX
  8
APL_JOINERY
  5
8634
 10
132.265
 20
347.168
 30
0.000000
  70
    32
  0
VERTEX
  8
APL_JOINERY
  5
8635
 10
132.423
 20
347.160
 30
0.000000
  70
    32
  0
VERTEX
  8
APL_JOINERY
  5
8636
 10
132.582
 20
347.152
 30
0.000000
  70
    32
  0
VERTEX
  8
APL_JOINERY
  5
8637
 10
132.740
 20
347.144
 30
0.000000
  70
    32
  0
VERTEX
  8
APL_JOINERY
  5
8638
 10
132.899
 20
347.136
 30
0.000000
  70
    32
  0
VERTEX
  8
APL_JOINERY
  5
8639
 10
133.057
 20
347.127
 30
0.000000
  70
    32
  0
VERTEX
  8
APL_JOINERY
  5
863A
 10
133.216
 20
347.118
 30
0.000000
  70
    32
  0
VERTEX
  8
APL_JOINERY
  5
863B
 10
133.374
 20
347.110
 30
0.000000
  70
    32
  0
VERTEX
  8
APL_JOINERY
  5
863C
 10
133.533
 20
347.101
 30
0.000000
  70
    32
  0
VERTEX
  8
APL_JOINERY
  5
863D
 10
133.691
 20
347.092
 30
0.000000
  70
    32
  0
VERTEX
  8
APL_JOINERY
  5
863E
 10
133.850
 20
347.083
 30
0.000000
  70
    32
  0
VERTEX
  8
APL_JOINERY
  5
863F
 10
134.008
 20
347.074
 30
0.000000
  70
    32
  0
VERTEX
  8
APL_JOINERY
  5
8640
 10
134.167
 20
347.064
 30
0.000000
  70
    32
  0
VERTEX
  8
APL_JOINERY
  5
8641
 10
134.325
 20
347.055
 30
0.000000
  70
    32
  0
VERTEX
  8
APL_JOINERY
  5
8642
 10
134.484
 20
347.045
 30
0.000000
  70
    32
  0
VERTEX
  8
APL_JOINERY
  5
8643
 10
134.642
 20
347.036
 30
0.000000
  70
    32
  0
VERTEX
  8
APL_JOINERY
  5
8644
 10
134.800
 20
347.026
 30
0.000000
  70
    32
  0
VERTEX
  8
APL_JOINERY
  5
8645
 10
134.959
 20
347.017
 30
0.000000
  70
    32
  0
VERTEX
  8
APL_JOINERY
  5
8646
 10
135.117
 20
347.007
 30
0.000000
  70
    32
  0
VERTEX
  8
APL_JOINERY
  5
8647
 10
135.275
 20
346.997
 30
0.000000
  70
    32
  0
VERTEX
  8
APL_JOINERY
  5
8648
 10
135.433
 20
346.987
 30
0.000000
  70
    32
  0
VERTEX
  8
APL_JOINERY
  5
8649
 10
135.592
 20
346.977
 30
0.000000
  70
    32
  0
VERTEX
  8
APL_JOINERY
  5
864A
 10
135.750
 20
346.967
 30
0.000000
  70
    32
  0
VERTEX
  8
APL_JOINERY
  5
864B
 10
135.908
 20
346.956
 30
0.000000
  70
    32
  0
VERTEX
  8
APL_JOINERY
  5
864C
 10
136.066
 20
346.946
 30
0.000000
  70
    32
  0
VERTEX
  8
APL_JOINERY
  5
864D
 10
136.224
 20
346.935
 30
0.000000
  70
    32
  0
VERTEX
  8
APL_JOINERY
  5
864E
 10
136.382
 20
346.924
 30
0.000000
  70
    32
  0
VERTEX
  8
APL_JOINERY
  5
864F
 10
136.541
 20
346.913
 30
0.000000
  70
    32
  0
VERTEX
  8
APL_JOINERY
  5
8650
 10
136.699
 20
346.902
 30
0.000000
  70
    32
  0
VERTEX
  8
APL_JOINERY
  5
8651
 10
136.857
 20
346.891
 30
0.000000
  70
    32
  0
VERTEX
  8
APL_JOINERY
  5
8652
 10
137.015
 20
346.879
 30
0.000000
  70
    32
  0
VERTEX
  8
APL_JOINERY
  5
8653
 10
137.173
 20
346.868
 30
0.000000
  70
    32
  0
VERTEX
  8
APL_JOINERY
  5
8654
 10
137.331
 20
346.856
 30
0.000000
  70
    32
  0
VERTEX
  8
APL_JOINERY
  5
8655
 10
137.489
 20
346.844
 30
0.000000
  70
    32
  0
VERTEX
  8
APL_JOINERY
  5
8656
 10
137.647
 20
346.831
 30
0.000000
  70
    32
  0
VERTEX
  8
APL_JOINERY
  5
8657
 10
137.805
 20
346.819
 30
0.000000
  70
    32
  0
VERTEX
  8
APL_JOINERY
  5
8658
 10
137.963
 20
346.806
 30
0.000000
  70
    32
  0
VERTEX
  8
APL_JOINERY
  5
8659
 10
138.121
 20
346.793
 30
0.000000
  70
    32
  0
VERTEX
  8
APL_JOINERY
  5
865A
 10
138.279
 20
346.780
 30
0.000000
  70
    32
  0
VERTEX
  8
APL_JOINERY
  5
865B
 10
138.437
 20
346.767
 30
0.000000
  70
    32
  0
VERTEX
  8
APL_JOINERY
  5
865C
 10
138.595
 20
346.753
 30
0.000000
  70
    32
  0
VERTEX
  8
APL_JOINERY
  5
865D
 10
138.753
 20
346.740
 30
0.000000
  70
    32
  0
VERTEX
  8
APL_JOINERY
  5
865E
 10
138.911
 20
346.726
 30
0.000000
  70
    32
  0
VERTEX
  8
APL_JOINERY
  5
865F
 10
139.069
 20
346.711
 30
0.000000
  70
    32
  0
VERTEX
  8
APL_JOINERY
  5
8660
 10
139.227
 20
346.697
 30
0.000000
  70
    32
  0
VERTEX
  8
APL_JOINERY
  5
8661
 10
139.385
 20
346.682
 30
0.000000
  70
    32
  0
VERTEX
  8
APL_JOINERY
  5
8662
 10
139.542
 20
346.667
 30
0.000000
  70
    32
  0
VERTEX
  8
APL_JOINERY
  5
8663
 10
139.700
 20
346.651
 30
0.000000
  70
    32
  0
VERTEX
  8
APL_JOINERY
  5
8664
 10
139.858
 20
346.636
 30
0.000000
  70
    32
  0
VERTEX
  8
APL_JOINERY
  5
8665
 10
140.016
 20
346.620
 30
0.000000
  70
    32
  0
VERTEX
  8
APL_JOINERY
  5
8666
 10
140.174
 20
346.603
 30
0.000000
  70
    32
  0
VERTEX
  8
APL_JOINERY
  5
8667
 10
140.332
 20
346.587
 30
0.000000
  70
    32
  0
VERTEX
  8
APL_JOINERY
  5
8668
 10
140.490
 20
346.570
 30
0.000000
  70
    32
  0
VERTEX
  8
APL_JOINERY
  5
8669
 10
140.648
 20
346.553
 30
0.000000
  70
    32
  0
VERTEX
  8
APL_JOINERY
  5
866A
 10
140.806
 20
346.535
 30
0.000000
  70
    32
  0
VERTEX
  8
APL_JOINERY
  5
866B
 10
140.963
 20
346.517
 30
0.000000
  70
    32
  0
VERTEX
  8
APL_JOINERY
  5
866C
 10
141.121
 20
346.499
 30
0.000000
  70
    32
  0
VERTEX
  8
APL_JOINERY
  5
866D
 10
141.279
 20
346.480
 30
0.000000
  70
    32
  0
VERTEX
  8
APL_JOINERY
  5
866E
 10
141.437
 20
346.461
 30
0.000000
  70
    32
  0
VERTEX
  8
APL_JOINERY
  5
866F
 10
141.595
 20
346.442
 30
0.000000
  70
    32
  0
VERTEX
  8
APL_JOINERY
  5
8670
 10
141.753
 20
346.423
 30
0.000000
  70
    32
  0
VERTEX
  8
APL_JOINERY
  5
8671
 10
141.911
 20
346.403
 30
0.000000
  70
    32
  0
VERTEX
  8
APL_JOINERY
  5
8672
 10
142.069
 20
346.382
 30
0.000000
  70
    32
  0
VERTEX
  8
APL_JOINERY
  5
8673
 10
142.226
 20
346.361
 30
0.000000
  70
    32
  0
VERTEX
  8
APL_JOINERY
  5
8674
 10
142.384
 20
346.340
 30
0.000000
  70
    32
  0
VERTEX
  8
APL_JOINERY
  5
8675
 10
142.542
 20
346.319
 30
0.000000
  70
    32
  0
VERTEX
  8
APL_JOINERY
  5
8676
 10
142.700
 20
346.297
 30
0.000000
  70
    32
  0
VERTEX
  8
APL_JOINERY
  5
8677
 10
142.858
 20
346.274
 30
0.000000
  70
    32
  0
VERTEX
  8
APL_JOINERY
  5
8678
 10
143.015
 20
346.251
 30
0.000000
  70
    32
  0
VERTEX
  8
APL_JOINERY
  5
8679
 10
143.173
 20
346.228
 30
0.000000
  70
    32
  0
VERTEX
  8
APL_JOINERY
  5
867A
 10
143.331
 20
346.204
 30
0.000000
  70
    32
  0
VERTEX
  8
APL_JOINERY
  5
867B
 10
143.488
 20
346.180
 30
0.000000
  70
    32
  0
VERTEX
  8
APL_JOINERY
  5
867C
 10
143.646
 20
346.155
 30
0.000000
  70
    32
  0
VERTEX
  8
APL_JOINERY
  5
867D
 10
143.803
 20
346.130
 30
0.000000
  70
    32
  0
VERTEX
  8
APL_JOINERY
  5
867E
 10
143.960
 20
346.104
 30
0.000000
  70
    32
  0
VERTEX
  8
APL_JOINERY
  5
867F
 10
144.118
 20
346.077
 30
0.000000
  70
    32
  0
VERTEX
  8
APL_JOINERY
  5
8680
 10
144.275
 20
346.050
 30
0.000000
  70
    32
  0
VERTEX
  8
APL_JOINERY
  5
8681
 10
144.432
 20
346.023
 30
0.000000
  70
    32
  0
VERTEX
  8
APL_JOINERY
  5
8682
 10
144.589
 20
345.995
 30
0.000000
  70
    32
  0
VERTEX
  8
APL_JOINERY
  5
8683
 10
144.745
 20
345.966
 30
0.000000
  70
    32
  0
VERTEX
  8
APL_JOINERY
  5
8684
 10
144.902
 20
345.936
 30
0.000000
  70
    32
  0
VERTEX
  8
APL_JOINERY
  5
8685
 10
145.059
 20
345.906
 30
0.000000
  70
    32
  0
VERTEX
  8
APL_JOINERY
  5
8686
 10
145.215
 20
345.876
 30
0.000000
  70
    32
  0
VERTEX
  8
APL_JOINERY
  5
8687
 10
145.371
 20
345.844
 30
0.000000
  70
    32
  0
VERTEX
  8
APL_JOINERY
  5
8688
 10
145.527
 20
345.812
 30
0.000000
  70
    32
  0
VERTEX
  8
APL_JOINERY
  5
8689
 10
145.683
 20
345.780
 30
0.000000
  70
    32
  0
VERTEX
  8
APL_JOINERY
  5
868A
 10
145.839
 20
345.746
 30
0.000000
  70
    32
  0
VERTEX
  8
APL_JOINERY
  5
868B
 10
145.994
 20
345.712
 30
0.000000
  70
    32
  0
VERTEX
  8
APL_JOINERY
  5
868C
 10
146.149
 20
345.677
 30
0.000000
  70
    32
  0
VERTEX
  8
APL_JOINERY
  5
868D
 10
146.304
 20
345.642
 30
0.000000
  70
    32
  0
VERTEX
  8
APL_JOINERY
  5
868E
 10
146.459
 20
345.605
 30
0.000000
  70
    32
  0
VERTEX
  8
APL_JOINERY
  5
868F
 10
146.614
 20
345.568
 30
0.000000
  70
    32
  0
VERTEX
  8
APL_JOINERY
  5
8690
 10
146.768
 20
345.530
 30
0.000000
  70
    32
  0
VERTEX
  8
APL_JOINERY
  5
8691
 10
146.923
 20
345.491
 30
0.000000
  70
    32
  0
VERTEX
  8
APL_JOINERY
  5
8692
 10
147.076
 20
345.452
 30
0.000000
  70
    32
  0
VERTEX
  8
APL_JOINERY
  5
8693
 10
147.230
 20
345.411
 30
0.000000
  70
    32
  0
VERTEX
  8
APL_JOINERY
  5
8694
 10
147.384
 20
345.370
 30
0.000000
  70
    32
  0
VERTEX
  8
APL_JOINERY
  5
8695
 10
147.537
 20
345.328
 30
0.000000
  70
    32
  0
VERTEX
  8
APL_JOINERY
  5
8696
 10
147.690
 20
345.285
 30
0.000000
  70
    32
  0
VERTEX
  8
APL_JOINERY
  5
8697
 10
147.842
 20
345.241
 30
0.000000
  70
    32
  0
VERTEX
  8
APL_JOINERY
  5
8698
 10
147.995
 20
345.197
 30
0.000000
  70
    32
  0
VERTEX
  8
APL_JOINERY
  5
8699
 10
148.147
 20
345.151
 30
0.000000
  70
    32
  0
VERTEX
  8
APL_JOINERY
  5
869A
 10
148.298
 20
345.105
 30
0.000000
  70
    32
  0
VERTEX
  8
APL_JOINERY
  5
869B
 10
148.450
 20
345.057
 30
0.000000
  70
    32
  0
VERTEX
  8
APL_JOINERY
  5
869C
 10
148.601
 20
345.009
 30
0.000000
  70
    32
  0
VERTEX
  8
APL_JOINERY
  5
869D
 10
148.752
 20
344.959
 30
0.000000
  70
    32
  0
VERTEX
  8
APL_JOINERY
  5
869E
 10
148.902
 20
344.909
 30
0.000000
  70
    32
  0
VERTEX
  8
APL_JOINERY
  5
869F
 10
149.052
 20
344.857
 30
0.000000
  70
    32
  0
VERTEX
  8
APL_JOINERY
  5
86A0
 10
149.202
 20
344.805
 30
0.000000
  70
    32
  0
VERTEX
  8
APL_JOINERY
  5
86A1
 10
149.352
 20
344.752
 30
0.000000
  70
    32
  0
VERTEX
  8
APL_JOINERY
  5
86A2
 10
149.501
 20
344.697
 30
0.000000
  70
    32
  0
VERTEX
  8
APL_JOINERY
  5
86A3
 10
149.649
 20
344.642
 30
0.000000
  70
    32
  0
VERTEX
  8
APL_JOINERY
  5
86A4
 10
149.798
 20
344.585
 30
0.000000
  70
    32
  0
VERTEX
  8
APL_JOINERY
  5
86A5
 10
149.946
 20
344.528
 30
0.000000
  70
    32
  0
VERTEX
  8
APL_JOINERY
  5
86A6
 10
150.093
 20
344.469
 30
0.000000
  70
    32
  0
VERTEX
  8
APL_JOINERY
  5
86A7
 10
150.240
 20
344.409
 30
0.000000
  70
    32
  0
VERTEX
  8
APL_JOINERY
  5
86A8
 10
150.387
 20
344.348
 30
0.000000
  70
    32
  0
VERTEX
  8
APL_JOINERY
  5
86A9
 10
150.533
 20
344.286
 30
0.000000
  70
    32
  0
VERTEX
  8
APL_JOINERY
  5
86AA
 10
150.679
 20
344.223
 30
0.000000
  70
    32
  0
VERTEX
  8
APL_JOINERY
  5
86AB
 10
150.825
 20
344.159
 30
0.000000
  70
    32
  0
VERTEX
  8
APL_JOINERY
  5
86AC
 10
150.970
 20
344.094
 30
0.000000
  70
    32
  0
VERTEX
  8
APL_JOINERY
  5
86AD
 10
151.114
 20
344.027
 30
0.000000
  70
    32
  0
VERTEX
  8
APL_JOINERY
  5
86AE
 10
151.258
 20
343.960
 30
0.000000
  70
    32
  0
VERTEX
  8
APL_JOINERY
  5
86AF
 10
151.402
 20
343.891
 30
0.000000
  70
    32
  0
VERTEX
  8
APL_JOINERY
  5
86B0
 10
151.545
 20
343.822
 30
0.000000
  70
    32
  0
VERTEX
  8
APL_JOINERY
  5
86B1
 10
151.688
 20
343.751
 30
0.000000
  70
    32
  0
VERTEX
  8
APL_JOINERY
  5
86B2
 10
151.830
 20
343.679
 30
0.000000
  70
    32
  0
VERTEX
  8
APL_JOINERY
  5
86B3
 10
151.972
 20
343.607
 30
0.000000
  70
    32
  0
VERTEX
  8
APL_JOINERY
  5
86B4
 10
152.113
 20
343.533
 30
0.000000
  70
    32
  0
VERTEX
  8
APL_JOINERY
  5
86B5
 10
152.254
 20
343.458
 30
0.000000
  70
    32
  0
VERTEX
  8
APL_JOINERY
  5
86B6
 10
152.394
 20
343.383
 30
0.000000
  70
    32
  0
VERTEX
  8
APL_JOINERY
  5
86B7
 10
152.533
 20
343.306
 30
0.000000
  70
    32
  0
VERTEX
  8
APL_JOINERY
  5
86B8
 10
152.673
 20
343.228
 30
0.000000
  70
    32
  0
VERTEX
  8
APL_JOINERY
  5
86B9
 10
152.811
 20
343.149
 30
0.000000
  70
    32
  0
VERTEX
  8
APL_JOINERY
  5
86BA
 10
152.949
 20
343.070
 30
0.000000
  70
    32
  0
VERTEX
  8
APL_JOINERY
  5
86BB
 10
153.087
 20
342.989
 30
0.000000
  70
    32
  0
VERTEX
  8
APL_JOINERY
  5
86BC
 10
153.223
 20
342.907
 30
0.000000
  70
    32
  0
VERTEX
  8
APL_JOINERY
  5
86BD
 10
153.360
 20
342.825
 30
0.000000
  70
    32
  0
VERTEX
  8
APL_JOINERY
  5
86BE
 10
153.496
 20
342.741
 30
0.000000
  70
    32
  0
VERTEX
  8
APL_JOINERY
  5
86BF
 10
153.631
 20
342.657
 30
0.000000
  70
    32
  0
VERTEX
  8
APL_JOINERY
  5
86C0
 10
153.765
 20
342.571
 30
0.000000
  70
    32
  0
VERTEX
  8
APL_JOINERY
  5
86C1
 10
153.899
 20
342.485
 30
0.000000
  70
    32
  0
VERTEX
  8
APL_JOINERY
  5
86C2
 10
154.032
 20
342.398
 30
0.000000
  70
    32
  0
VERTEX
  8
APL_JOINERY
  5
86C3
 10
154.165
 20
342.309
 30
0.000000
  70
    32
  0
VERTEX
  8
APL_JOINERY
  5
86C4
 10
154.297
 20
342.220
 30
0.000000
  70
    32
  0
VERTEX
  8
APL_JOINERY
  5
86C5
 10
154.429
 20
342.130
 30
0.000000
  70
    32
  0
VERTEX
  8
APL_JOINERY
  5
86C6
 10
154.559
 20
342.039
 30
0.000000
  70
    32
  0
VERTEX
  8
APL_JOINERY
  5
86C7
 10
154.689
 20
341.947
 30
0.000000
  70
    32
  0
VERTEX
  8
APL_JOINERY
  5
86C8
 10
154.819
 20
341.855
 30
0.000000
  70
    32
  0
VERTEX
  8
APL_JOINERY
  5
86C9
 10
154.948
 20
341.761
 30
0.000000
  70
    32
  0
VERTEX
  8
APL_JOINERY
  5
86CA
 10
155.076
 20
341.667
 30
0.000000
  70
    32
  0
VERTEX
  8
APL_JOINERY
  5
86CB
 10
155.203
 20
341.571
 30
0.000000
  70
    32
  0
VERTEX
  8
APL_JOINERY
  5
86CC
 10
155.330
 20
341.475
 30
0.000000
  70
    32
  0
VERTEX
  8
APL_JOINERY
  5
86CD
 10
155.456
 20
341.378
 30
0.000000
  70
    32
  0
VERTEX
  8
APL_JOINERY
  5
86CE
 10
155.581
 20
341.280
 30
0.000000
  70
    32
  0
VERTEX
  8
APL_JOINERY
  5
86CF
 10
155.706
 20
341.182
 30
0.000000
  70
    32
  0
VERTEX
  8
APL_JOINERY
  5
86D0
 10
155.829
 20
341.082
 30
0.000000
  70
    32
  0
VERTEX
  8
APL_JOINERY
  5
86D1
 10
155.952
 20
340.982
 30
0.000000
  70
    32
  0
VERTEX
  8
APL_JOINERY
  5
86D2
 10
156.075
 20
340.881
 30
0.000000
  70
    32
  0
VERTEX
  8
APL_JOINERY
  5
86D3
 10
156.196
 20
340.779
 30
0.000000
  70
    32
  0
VERTEX
  8
APL_JOINERY
  5
86D4
 10
156.317
 20
340.676
 30
0.000000
  70
    32
  0
VERTEX
  8
APL_JOINERY
  5
86D5
 10
156.438
 20
340.573
 30
0.000000
  70
    32
  0
VERTEX
  8
APL_JOINERY
  5
86D6
 10
156.557
 20
340.469
 30
0.000000
  70
    32
  0
VERTEX
  8
APL_JOINERY
  5
86D7
 10
156.676
 20
340.364
 30
0.000000
  70
    32
  0
VERTEX
  8
APL_JOINERY
  5
86D8
 10
156.795
 20
340.258
 30
0.000000
  70
    32
  0
VERTEX
  8
APL_JOINERY
  5
86D9
 10
156.913
 20
340.152
 30
0.000000
  70
    32
  0
VERTEX
  8
APL_JOINERY
  5
86DA
 10
157.030
 20
340.045
 30
0.000000
  70
    32
  0
VERTEX
  8
APL_JOINERY
  5
86DB
 10
157.147
 20
339.938
 30
0.000000
  70
    32
  0
VERTEX
  8
APL_JOINERY
  5
86DC
 10
157.263
 20
339.830
 30
0.000000
  70
    32
  0
VERTEX
  8
APL_JOINERY
  5
86DD
 10
157.378
 20
339.722
 30
0.000000
  70
    32
  0
VERTEX
  8
APL_JOINERY
  5
86DE
 10
157.494
 20
339.613
 30
0.000000
  70
    32
  0
VERTEX
  8
APL_JOINERY
  5
86DF
 10
157.608
 20
339.503
 30
0.000000
  70
    32
  0
VERTEX
  8
APL_JOINERY
  5
86E0
 10
157.723
 20
339.393
 30
0.000000
  70
    32
  0
VERTEX
  8
APL_JOINERY
  5
86E1
 10
157.837
 20
339.283
 30
0.000000
  70
    32
  0
VERTEX
  8
APL_JOINERY
  5
86E2
 10
157.950
 20
339.172
 30
0.000000
  70
    32
  0
VERTEX
  8
APL_JOINERY
  5
86E3
 10
158.063
 20
339.061
 30
0.000000
  70
    32
  0
VERTEX
  8
APL_JOINERY
  5
86E4
 10
158.176
 20
338.949
 30
0.000000
  70
    32
  0
VERTEX
  8
APL_JOINERY
  5
86E5
 10
158.288
 20
338.837
 30
0.000000
  70
    32
  0
VERTEX
  8
APL_JOINERY
  5
86E6
 10
158.400
 20
338.725
 30
0.000000
  70
    32
  0
VERTEX
  8
APL_JOINERY
  5
86E7
 10
158.512
 20
338.612
 30
0.000000
  70
    32
  0
VERTEX
  8
APL_JOINERY
  5
86E8
 10
158.624
 20
338.499
 30
0.000000
  70
    32
  0
VERTEX
  8
APL_JOINERY
  5
86E9
 10
158.735
 20
338.386
 30
0.000000
  70
    32
  0
VERTEX
  8
APL_JOINERY
  5
86EA
 10
158.846
 20
338.272
 30
0.000000
  70
    32
  0
VERTEX
  8
APL_JOINERY
  5
86EB
 10
158.957
 20
338.158
 30
0.000000
  70
    32
  0
VERTEX
  8
APL_JOINERY
  5
86EC
 10
159.068
 20
338.044
 30
0.000000
  70
    32
  0
VERTEX
  8
APL_JOINERY
  5
86ED
 10
159.178
 20
337.930
 30
0.000000
  70
    32
  0
VERTEX
  8
APL_JOINERY
  5
86EE
 10
159.288
 20
337.816
 30
0.000000
  70
    32
  0
VERTEX
  8
APL_JOINERY
  5
86EF
 10
159.399
 20
337.701
 30
0.000000
  70
    32
  0
VERTEX
  8
APL_JOINERY
  5
86F0
 10
159.509
 20
337.587
 30
0.000000
  70
    32
  0
VERTEX
  8
APL_JOINERY
  5
86F1
 10
159.619
 20
337.472
 30
0.000000
  70
    32
  0
VERTEX
  8
APL_JOINERY
  5
86F2
 10
159.729
 20
337.357
 30
0.000000
  70
    32
  0
VERTEX
  8
APL_JOINERY
  5
86F3
 10
159.839
 20
337.243
 30
0.000000
  70
    32
  0
VERTEX
  8
APL_JOINERY
  5
86F4
 10
159.949
 20
337.128
 30
0.000000
  70
    32
  0
SEQEND
  8
APL_JOINERY
  5
86F5
  0
LINE
  5
498F
  8
APL_JOINERY
 62
     3
 10
110.7399515078629
 20
336.76235108304837
 30
0.0
 11
110.7399515078629
 21
355.76235108304837
 31
0.0
  0
LINE
  5
4990
  8
APL_JOINERY
 62
     8
 10
130.19345899897721
 20
339.07609653975982
 30
0.0
 11
127.6670755755074
 21
350.20849832978848
 31
0.0
  0
POLYLINE
  8
APL_JOINERY
  5
86F6
  62
8
  66
     1
 10
0.000000
 20
0.000000
 30
0.000000
  70
     8
  0
VERTEX
  8
APL_JOINERY
  5
86F7
 10
115.877
 20
337.055
 30
0.000000
  70
    32
  0
VERTEX
  8
APL_JOINERY
  5
86F8
 10
115.945
 20
337.112
 30
0.000000
  70
    32
  0
VERTEX
  8
APL_JOINERY
  5
86F9
 10
116.013
 20
337.168
 30
0.000000
  70
    32
  0
VERTEX
  8
APL_JOINERY
  5
86FA
 10
116.081
 20
337.224
 30
0.000000
  70
    32
  0
VERTEX
  8
APL_JOINERY
  5
86FB
 10
116.148
 20
337.280
 30
0.000000
  70
    32
  0
VERTEX
  8
APL_JOINERY
  5
86FC
 10
116.216
 20
337.336
 30
0.000000
  70
    32
  0
VERTEX
  8
APL_JOINERY
  5
86FD
 10
116.284
 20
337.392
 30
0.000000
  70
    32
  0
VERTEX
  8
APL_JOINERY
  5
86FE
 10
116.352
 20
337.448
 30
0.000000
  70
    32
  0
VERTEX
  8
APL_JOINERY
  5
86FF
 10
116.420
 20
337.504
 30
0.000000
  70
    32
  0
VERTEX
  8
APL_JOINERY
  5
8700
 10
116.488
 20
337.560
 30
0.000000
  70
    32
  0
VERTEX
  8
APL_JOINERY
  5
8701
 10
116.557
 20
337.616
 30
0.000000
  70
    32
  0
VERTEX
  8
APL_JOINERY
  5
8702
 10
116.625
 20
337.671
 30
0.000000
  70
    32
  0
VERTEX
  8
APL_JOINERY
  5
8703
 10
116.693
 20
337.726
 30
0.000000
  70
    32
  0
VERTEX
  8
APL_JOINERY
  5
8704
 10
116.761
 20
337.781
 30
0.000000
  70
    32
  0
VERTEX
  8
APL_JOINERY
  5
8705
 10
116.830
 20
337.836
 30
0.000000
  70
    32
  0
VERTEX
  8
APL_JOINERY
  5
8706
 10
116.898
 20
337.891
 30
0.000000
  70
    32
  0
VERTEX
  8
APL_JOINERY
  5
8707
 10
116.967
 20
337.946
 30
0.000000
  70
    32
  0
VERTEX
  8
APL_JOINERY
  5
8708
 10
117.035
 20
338.000
 30
0.000000
  70
    32
  0
VERTEX
  8
APL_JOINERY
  5
8709
 10
117.104
 20
338.054
 30
0.000000
  70
    32
  0
VERTEX
  8
APL_JOINERY
  5
870A
 10
117.173
 20
338.108
 30
0.000000
  70
    32
  0
VERTEX
  8
APL_JOINERY
  5
870B
 10
117.242
 20
338.161
 30
0.000000
  70
    32
  0
VERTEX
  8
APL_JOINERY
  5
870C
 10
117.311
 20
338.214
 30
0.000000
  70
    32
  0
VERTEX
  8
APL_JOINERY
  5
870D
 10
117.381
 20
338.267
 30
0.000000
  70
    32
  0
VERTEX
  8
APL_JOINERY
  5
870E
 10
117.450
 20
338.320
 30
0.000000
  70
    32
  0
VERTEX
  8
APL_JOINERY
  5
870F
 10
117.520
 20
338.372
 30
0.000000
  70
    32
  0
VERTEX
  8
APL_JOINERY
  5
8710
 10
117.589
 20
338.424
 30
0.000000
  70
    32
  0
VERTEX
  8
APL_JOINERY
  5
8711
 10
117.659
 20
338.476
 30
0.000000
  70
    32
  0
VERTEX
  8
APL_JOINERY
  5
8712
 10
117.729
 20
338.527
 30
0.000000
  70
    32
  0
VERTEX
  8
APL_JOINERY
  5
8713
 10
117.799
 20
338.578
 30
0.000000
  70
    32
  0
VERTEX
  8
APL_JOINERY
  5
8714
 10
117.870
 20
338.628
 30
0.000000
  70
    32
  0
VERTEX
  8
APL_JOINERY
  5
8715
 10
117.940
 20
338.678
 30
0.000000
  70
    32
  0
VERTEX
  8
APL_JOINERY
  5
8716
 10
118.011
 20
338.728
 30
0.000000
  70
    32
  0
VERTEX
  8
APL_JOINERY
  5
8717
 10
118.082
 20
338.777
 30
0.000000
  70
    32
  0
VERTEX
  8
APL_JOINERY
  5
8718
 10
118.153
 20
338.825
 30
0.000000
  70
    32
  0
VERTEX
  8
APL_JOINERY
  5
8719
 10
118.224
 20
338.873
 30
0.000000
  70
    32
  0
VERTEX
  8
APL_JOINERY
  5
871A
 10
118.296
 20
338.921
 30
0.000000
  70
    32
  0
VERTEX
  8
APL_JOINERY
  5
871B
 10
118.367
 20
338.968
 30
0.000000
  70
    32
  0
VERTEX
  8
APL_JOINERY
  5
871C
 10
118.439
 20
339.015
 30
0.000000
  70
    32
  0
VERTEX
  8
APL_JOINERY
  5
871D
 10
118.512
 20
339.061
 30
0.000000
  70
    32
  0
VERTEX
  8
APL_JOINERY
  5
871E
 10
118.584
 20
339.107
 30
0.000000
  70
    32
  0
VERTEX
  8
APL_JOINERY
  5
871F
 10
118.657
 20
339.152
 30
0.000000
  70
    32
  0
VERTEX
  8
APL_JOINERY
  5
8720
 10
118.729
 20
339.196
 30
0.000000
  70
    32
  0
VERTEX
  8
APL_JOINERY
  5
8721
 10
118.803
 20
339.240
 30
0.000000
  70
    32
  0
VERTEX
  8
APL_JOINERY
  5
8722
 10
118.876
 20
339.283
 30
0.000000
  70
    32
  0
VERTEX
  8
APL_JOINERY
  5
8723
 10
118.950
 20
339.326
 30
0.000000
  70
    32
  0
VERTEX
  8
APL_JOINERY
  5
8724
 10
119.024
 20
339.368
 30
0.000000
  70
    32
  0
VERTEX
  8
APL_JOINERY
  5
8725
 10
119.098
 20
339.409
 30
0.000000
  70
    32
  0
VERTEX
  8
APL_JOINERY
  5
8726
 10
119.172
 20
339.450
 30
0.000000
  70
    32
  0
VERTEX
  8
APL_JOINERY
  5
8727
 10
119.247
 20
339.490
 30
0.000000
  70
    32
  0
VERTEX
  8
APL_JOINERY
  5
8728
 10
119.322
 20
339.529
 30
0.000000
  70
    32
  0
VERTEX
  8
APL_JOINERY
  5
8729
 10
119.398
 20
339.568
 30
0.000000
  70
    32
  0
VERTEX
  8
APL_JOINERY
  5
872A
 10
119.473
 20
339.606
 30
0.000000
  70
    32
  0
VERTEX
  8
APL_JOINERY
  5
872B
 10
119.549
 20
339.643
 30
0.000000
  70
    32
  0
VERTEX
  8
APL_JOINERY
  5
872C
 10
119.626
 20
339.679
 30
0.000000
  70
    32
  0
VERTEX
  8
APL_JOINERY
  5
872D
 10
119.702
 20
339.715
 30
0.000000
  70
    32
  0
VERTEX
  8
APL_JOINERY
  5
872E
 10
119.779
 20
339.750
 30
0.000000
  70
    32
  0
VERTEX
  8
APL_JOINERY
  5
872F
 10
119.857
 20
339.784
 30
0.000000
  70
    32
  0
VERTEX
  8
APL_JOINERY
  5
8730
 10
119.934
 20
339.817
 30
0.000000
  70
    32
  0
VERTEX
  8
APL_JOINERY
  5
8731
 10
120.012
 20
339.849
 30
0.000000
  70
    32
  0
VERTEX
  8
APL_JOINERY
  5
8732
 10
120.091
 20
339.881
 30
0.000000
  70
    32
  0
VERTEX
  8
APL_JOINERY
  5
8733
 10
120.169
 20
339.912
 30
0.000000
  70
    32
  0
VERTEX
  8
APL_JOINERY
  5
8734
 10
120.248
 20
339.942
 30
0.000000
  70
    32
  0
VERTEX
  8
APL_JOINERY
  5
8735
 10
120.328
 20
339.971
 30
0.000000
  70
    32
  0
VERTEX
  8
APL_JOINERY
  5
8736
 10
120.407
 20
340.000
 30
0.000000
  70
    32
  0
VERTEX
  8
APL_JOINERY
  5
8737
 10
120.487
 20
340.028
 30
0.000000
  70
    32
  0
VERTEX
  8
APL_JOINERY
  5
8738
 10
120.568
 20
340.055
 30
0.000000
  70
    32
  0
VERTEX
  8
APL_JOINERY
  5
8739
 10
120.648
 20
340.082
 30
0.000000
  70
    32
  0
VERTEX
  8
APL_JOINERY
  5
873A
 10
120.729
 20
340.108
 30
0.000000
  70
    32
  0
VERTEX
  8
APL_JOINERY
  5
873B
 10
120.810
 20
340.133
 30
0.000000
  70
    32
  0
VERTEX
  8
APL_JOINERY
  5
873C
 10
120.891
 20
340.158
 30
0.000000
  70
    32
  0
VERTEX
  8
APL_JOINERY
  5
873D
 10
120.973
 20
340.182
 30
0.000000
  70
    32
  0
VERTEX
  8
APL_JOINERY
  5
873E
 10
121.055
 20
340.205
 30
0.000000
  70
    32
  0
VERTEX
  8
APL_JOINERY
  5
873F
 10
121.137
 20
340.228
 30
0.000000
  70
    32
  0
VERTEX
  8
APL_JOINERY
  5
8740
 10
121.219
 20
340.250
 30
0.000000
  70
    32
  0
VERTEX
  8
APL_JOINERY
  5
8741
 10
121.302
 20
340.272
 30
0.000000
  70
    32
  0
VERTEX
  8
APL_JOINERY
  5
8742
 10
121.385
 20
340.293
 30
0.000000
  70
    32
  0
VERTEX
  8
APL_JOINERY
  5
8743
 10
121.468
 20
340.313
 30
0.000000
  70
    32
  0
VERTEX
  8
APL_JOINERY
  5
8744
 10
121.551
 20
340.333
 30
0.000000
  70
    32
  0
VERTEX
  8
APL_JOINERY
  5
8745
 10
121.635
 20
340.353
 30
0.000000
  70
    32
  0
VERTEX
  8
APL_JOINERY
  5
8746
 10
121.718
 20
340.372
 30
0.000000
  70
    32
  0
VERTEX
  8
APL_JOINERY
  5
8747
 10
121.802
 20
340.390
 30
0.000000
  70
    32
  0
VERTEX
  8
APL_JOINERY
  5
8748
 10
121.887
 20
340.408
 30
0.000000
  70
    32
  0
VERTEX
  8
APL_JOINERY
  5
8749
 10
121.971
 20
340.426
 30
0.000000
  70
    32
  0
VERTEX
  8
APL_JOINERY
  5
874A
 10
122.055
 20
340.443
 30
0.000000
  70
    32
  0
VERTEX
  8
APL_JOINERY
  5
874B
 10
122.140
 20
340.460
 30
0.000000
  70
    32
  0
VERTEX
  8
APL_JOINERY
  5
874C
 10
122.225
 20
340.476
 30
0.000000
  70
    32
  0
VERTEX
  8
APL_JOINERY
  5
874D
 10
122.310
 20
340.492
 30
0.000000
  70
    32
  0
VERTEX
  8
APL_JOINERY
  5
874E
 10
122.395
 20
340.508
 30
0.000000
  70
    32
  0
VERTEX
  8
APL_JOINERY
  5
874F
 10
122.480
 20
340.523
 30
0.000000
  70
    32
  0
VERTEX
  8
APL_JOINERY
  5
8750
 10
122.566
 20
340.538
 30
0.000000
  70
    32
  0
VERTEX
  8
APL_JOINERY
  5
8751
 10
122.651
 20
340.552
 30
0.000000
  70
    32
  0
VERTEX
  8
APL_JOINERY
  5
8752
 10
122.737
 20
340.566
 30
0.000000
  70
    32
  0
VERTEX
  8
APL_JOINERY
  5
8753
 10
122.823
 20
340.580
 30
0.000000
  70
    32
  0
VERTEX
  8
APL_JOINERY
  5
8754
 10
122.909
 20
340.594
 30
0.000000
  70
    32
  0
VERTEX
  8
APL_JOINERY
  5
8755
 10
122.995
 20
340.607
 30
0.000000
  70
    32
  0
VERTEX
  8
APL_JOINERY
  5
8756
 10
123.081
 20
340.620
 30
0.000000
  70
    32
  0
VERTEX
  8
APL_JOINERY
  5
8757
 10
123.168
 20
340.633
 30
0.000000
  70
    32
  0
VERTEX
  8
APL_JOINERY
  5
8758
 10
123.254
 20
340.645
 30
0.000000
  70
    32
  0
VERTEX
  8
APL_JOINERY
  5
8759
 10
123.340
 20
340.658
 30
0.000000
  70
    32
  0
VERTEX
  8
APL_JOINERY
  5
875A
 10
123.427
 20
340.670
 30
0.000000
  70
    32
  0
VERTEX
  8
APL_JOINERY
  5
875B
 10
123.514
 20
340.682
 30
0.000000
  70
    32
  0
VERTEX
  8
APL_JOINERY
  5
875C
 10
123.600
 20
340.693
 30
0.000000
  70
    32
  0
VERTEX
  8
APL_JOINERY
  5
875D
 10
123.687
 20
340.705
 30
0.000000
  70
    32
  0
VERTEX
  8
APL_JOINERY
  5
875E
 10
123.774
 20
340.716
 30
0.000000
  70
    32
  0
VERTEX
  8
APL_JOINERY
  5
875F
 10
123.861
 20
340.728
 30
0.000000
  70
    32
  0
VERTEX
  8
APL_JOINERY
  5
8760
 10
123.948
 20
340.739
 30
0.000000
  70
    32
  0
VERTEX
  8
APL_JOINERY
  5
8761
 10
124.035
 20
340.750
 30
0.000000
  70
    32
  0
VERTEX
  8
APL_JOINERY
  5
8762
 10
124.122
 20
340.761
 30
0.000000
  70
    32
  0
VERTEX
  8
APL_JOINERY
  5
8763
 10
124.209
 20
340.772
 30
0.000000
  70
    32
  0
VERTEX
  8
APL_JOINERY
  5
8764
 10
124.296
 20
340.783
 30
0.000000
  70
    32
  0
VERTEX
  8
APL_JOINERY
  5
8765
 10
124.383
 20
340.793
 30
0.000000
  70
    32
  0
VERTEX
  8
APL_JOINERY
  5
8766
 10
124.470
 20
340.804
 30
0.000000
  70
    32
  0
VERTEX
  8
APL_JOINERY
  5
8767
 10
124.557
 20
340.815
 30
0.000000
  70
    32
  0
VERTEX
  8
APL_JOINERY
  5
8768
 10
124.644
 20
340.825
 30
0.000000
  70
    32
  0
VERTEX
  8
APL_JOINERY
  5
8769
 10
124.731
 20
340.836
 30
0.000000
  70
    32
  0
VERTEX
  8
APL_JOINERY
  5
876A
 10
124.818
 20
340.847
 30
0.000000
  70
    32
  0
VERTEX
  8
APL_JOINERY
  5
876B
 10
124.905
 20
340.858
 30
0.000000
  70
    32
  0
VERTEX
  8
APL_JOINERY
  5
876C
 10
124.992
 20
340.868
 30
0.000000
  70
    32
  0
VERTEX
  8
APL_JOINERY
  5
876D
 10
125.079
 20
340.879
 30
0.000000
  70
    32
  0
VERTEX
  8
APL_JOINERY
  5
876E
 10
125.166
 20
340.890
 30
0.000000
  70
    32
  0
VERTEX
  8
APL_JOINERY
  5
876F
 10
125.252
 20
340.901
 30
0.000000
  70
    32
  0
VERTEX
  8
APL_JOINERY
  5
8770
 10
125.339
 20
340.912
 30
0.000000
  70
    32
  0
VERTEX
  8
APL_JOINERY
  5
8771
 10
125.426
 20
340.924
 30
0.000000
  70
    32
  0
VERTEX
  8
APL_JOINERY
  5
8772
 10
125.512
 20
340.935
 30
0.000000
  70
    32
  0
VERTEX
  8
APL_JOINERY
  5
8773
 10
125.599
 20
340.947
 30
0.000000
  70
    32
  0
VERTEX
  8
APL_JOINERY
  5
8774
 10
125.685
 20
340.958
 30
0.000000
  70
    32
  0
VERTEX
  8
APL_JOINERY
  5
8775
 10
125.772
 20
340.970
 30
0.000000
  70
    32
  0
VERTEX
  8
APL_JOINERY
  5
8776
 10
125.858
 20
340.982
 30
0.000000
  70
    32
  0
VERTEX
  8
APL_JOINERY
  5
8777
 10
125.944
 20
340.994
 30
0.000000
  70
    32
  0
VERTEX
  8
APL_JOINERY
  5
8778
 10
126.031
 20
341.006
 30
0.000000
  70
    32
  0
VERTEX
  8
APL_JOINERY
  5
8779
 10
126.117
 20
341.018
 30
0.000000
  70
    32
  0
VERTEX
  8
APL_JOINERY
  5
877A
 10
126.203
 20
341.030
 30
0.000000
  70
    32
  0
VERTEX
  8
APL_JOINERY
  5
877B
 10
126.289
 20
341.043
 30
0.000000
  70
    32
  0
VERTEX
  8
APL_JOINERY
  5
877C
 10
126.375
 20
341.055
 30
0.000000
  70
    32
  0
VERTEX
  8
APL_JOINERY
  5
877D
 10
126.461
 20
341.067
 30
0.000000
  70
    32
  0
VERTEX
  8
APL_JOINERY
  5
877E
 10
126.547
 20
341.080
 30
0.000000
  70
    32
  0
VERTEX
  8
APL_JOINERY
  5
877F
 10
126.633
 20
341.092
 30
0.000000
  70
    32
  0
VERTEX
  8
APL_JOINERY
  5
8780
 10
126.718
 20
341.105
 30
0.000000
  70
    32
  0
VERTEX
  8
APL_JOINERY
  5
8781
 10
126.804
 20
341.117
 30
0.000000
  70
    32
  0
VERTEX
  8
APL_JOINERY
  5
8782
 10
126.890
 20
341.130
 30
0.000000
  70
    32
  0
VERTEX
  8
APL_JOINERY
  5
8783
 10
126.975
 20
341.142
 30
0.000000
  70
    32
  0
VERTEX
  8
APL_JOINERY
  5
8784
 10
127.061
 20
341.155
 30
0.000000
  70
    32
  0
VERTEX
  8
APL_JOINERY
  5
8785
 10
127.147
 20
341.167
 30
0.000000
  70
    32
  0
VERTEX
  8
APL_JOINERY
  5
8786
 10
127.232
 20
341.180
 30
0.000000
  70
    32
  0
VERTEX
  8
APL_JOINERY
  5
8787
 10
127.318
 20
341.192
 30
0.000000
  70
    32
  0
VERTEX
  8
APL_JOINERY
  5
8788
 10
127.403
 20
341.204
 30
0.000000
  70
    32
  0
VERTEX
  8
APL_JOINERY
  5
8789
 10
127.489
 20
341.217
 30
0.000000
  70
    32
  0
VERTEX
  8
APL_JOINERY
  5
878A
 10
127.574
 20
341.229
 30
0.000000
  70
    32
  0
VERTEX
  8
APL_JOINERY
  5
878B
 10
127.659
 20
341.241
 30
0.000000
  70
    32
  0
VERTEX
  8
APL_JOINERY
  5
878C
 10
127.745
 20
341.253
 30
0.000000
  70
    32
  0
VERTEX
  8
APL_JOINERY
  5
878D
 10
127.830
 20
341.265
 30
0.000000
  70
    32
  0
VERTEX
  8
APL_JOINERY
  5
878E
 10
127.916
 20
341.277
 30
0.000000
  70
    32
  0
VERTEX
  8
APL_JOINERY
  5
878F
 10
128.001
 20
341.289
 30
0.000000
  70
    32
  0
VERTEX
  8
APL_JOINERY
  5
8790
 10
128.086
 20
341.300
 30
0.000000
  70
    32
  0
VERTEX
  8
APL_JOINERY
  5
8791
 10
128.171
 20
341.312
 30
0.000000
  70
    32
  0
VERTEX
  8
APL_JOINERY
  5
8792
 10
128.257
 20
341.323
 30
0.000000
  70
    32
  0
VERTEX
  8
APL_JOINERY
  5
8793
 10
128.342
 20
341.334
 30
0.000000
  70
    32
  0
VERTEX
  8
APL_JOINERY
  5
8794
 10
128.427
 20
341.345
 30
0.000000
  70
    32
  0
VERTEX
  8
APL_JOINERY
  5
8795
 10
128.512
 20
341.356
 30
0.000000
  70
    32
  0
VERTEX
  8
APL_JOINERY
  5
8796
 10
128.598
 20
341.367
 30
0.000000
  70
    32
  0
VERTEX
  8
APL_JOINERY
  5
8797
 10
128.683
 20
341.377
 30
0.000000
  70
    32
  0
VERTEX
  8
APL_JOINERY
  5
8798
 10
128.768
 20
341.388
 30
0.000000
  70
    32
  0
VERTEX
  8
APL_JOINERY
  5
8799
 10
128.853
 20
341.398
 30
0.000000
  70
    32
  0
VERTEX
  8
APL_JOINERY
  5
879A
 10
128.938
 20
341.408
 30
0.000000
  70
    32
  0
VERTEX
  8
APL_JOINERY
  5
879B
 10
129.024
 20
341.417
 30
0.000000
  70
    32
  0
VERTEX
  8
APL_JOINERY
  5
879C
 10
129.109
 20
341.427
 30
0.000000
  70
    32
  0
VERTEX
  8
APL_JOINERY
  5
879D
 10
129.194
 20
341.436
 30
0.000000
  70
    32
  0
VERTEX
  8
APL_JOINERY
  5
879E
 10
129.279
 20
341.445
 30
0.000000
  70
    32
  0
VERTEX
  8
APL_JOINERY
  5
879F
 10
129.365
 20
341.453
 30
0.000000
  70
    32
  0
VERTEX
  8
APL_JOINERY
  5
87A0
 10
129.450
 20
341.462
 30
0.000000
  70
    32
  0
VERTEX
  8
APL_JOINERY
  5
87A1
 10
129.535
 20
341.470
 30
0.000000
  70
    32
  0
VERTEX
  8
APL_JOINERY
  5
87A2
 10
129.621
 20
341.478
 30
0.000000
  70
    32
  0
VERTEX
  8
APL_JOINERY
  5
87A3
 10
129.706
 20
341.485
 30
0.000000
  70
    32
  0
VERTEX
  8
APL_JOINERY
  5
87A4
 10
129.791
 20
341.493
 30
0.000000
  70
    32
  0
VERTEX
  8
APL_JOINERY
  5
87A5
 10
129.877
 20
341.500
 30
0.000000
  70
    32
  0
VERTEX
  8
APL_JOINERY
  5
87A6
 10
129.962
 20
341.506
 30
0.000000
  70
    32
  0
VERTEX
  8
APL_JOINERY
  5
87A7
 10
130.048
 20
341.513
 30
0.000000
  70
    32
  0
VERTEX
  8
APL_JOINERY
  5
87A8
 10
130.133
 20
341.519
 30
0.000000
  70
    32
  0
VERTEX
  8
APL_JOINERY
  5
87A9
 10
130.218
 20
341.524
 30
0.000000
  70
    32
  0
VERTEX
  8
APL_JOINERY
  5
87AA
 10
130.304
 20
341.529
 30
0.000000
  70
    32
  0
VERTEX
  8
APL_JOINERY
  5
87AB
 10
130.390
 20
341.534
 30
0.000000
  70
    32
  0
VERTEX
  8
APL_JOINERY
  5
87AC
 10
130.475
 20
341.539
 30
0.000000
  70
    32
  0
VERTEX
  8
APL_JOINERY
  5
87AD
 10
130.561
 20
341.543
 30
0.000000
  70
    32
  0
VERTEX
  8
APL_JOINERY
  5
87AE
 10
130.646
 20
341.547
 30
0.000000
  70
    32
  0
VERTEX
  8
APL_JOINERY
  5
87AF
 10
130.732
 20
341.550
 30
0.000000
  70
    32
  0
VERTEX
  8
APL_JOINERY
  5
87B0
 10
130.818
 20
341.553
 30
0.000000
  70
    32
  0
VERTEX
  8
APL_JOINERY
  5
87B1
 10
130.904
 20
341.556
 30
0.000000
  70
    32
  0
VERTEX
  8
APL_JOINERY
  5
87B2
 10
130.990
 20
341.558
 30
0.000000
  70
    32
  0
VERTEX
  8
APL_JOINERY
  5
87B3
 10
131.075
 20
341.559
 30
0.000000
  70
    32
  0
VERTEX
  8
APL_JOINERY
  5
87B4
 10
131.161
 20
341.561
 30
0.000000
  70
    32
  0
VERTEX
  8
APL_JOINERY
  5
87B5
 10
131.247
 20
341.561
 30
0.000000
  70
    32
  0
VERTEX
  8
APL_JOINERY
  5
87B6
 10
131.333
 20
341.562
 30
0.000000
  70
    32
  0
VERTEX
  8
APL_JOINERY
  5
87B7
 10
131.419
 20
341.562
 30
0.000000
  70
    32
  0
VERTEX
  8
APL_JOINERY
  5
87B8
 10
131.506
 20
341.561
 30
0.000000
  70
    32
  0
VERTEX
  8
APL_JOINERY
  5
87B9
 10
131.592
 20
341.560
 30
0.000000
  70
    32
  0
VERTEX
  8
APL_JOINERY
  5
87BA
 10
131.678
 20
341.559
 30
0.000000
  70
    32
  0
VERTEX
  8
APL_JOINERY
  5
87BB
 10
131.764
 20
341.557
 30
0.000000
  70
    32
  0
VERTEX
  8
APL_JOINERY
  5
87BC
 10
131.850
 20
341.555
 30
0.000000
  70
    32
  0
VERTEX
  8
APL_JOINERY
  5
87BD
 10
131.936
 20
341.553
 30
0.000000
  70
    32
  0
VERTEX
  8
APL_JOINERY
  5
87BE
 10
132.023
 20
341.550
 30
0.000000
  70
    32
  0
VERTEX
  8
APL_JOINERY
  5
87BF
 10
132.109
 20
341.546
 30
0.000000
  70
    32
  0
VERTEX
  8
APL_JOINERY
  5
87C0
 10
132.195
 20
341.542
 30
0.000000
  70
    32
  0
VERTEX
  8
APL_JOINERY
  5
87C1
 10
132.281
 20
341.538
 30
0.000000
  70
    32
  0
VERTEX
  8
APL_JOINERY
  5
87C2
 10
132.367
 20
341.533
 30
0.000000
  70
    32
  0
VERTEX
  8
APL_JOINERY
  5
87C3
 10
132.454
 20
341.528
 30
0.000000
  70
    32
  0
VERTEX
  8
APL_JOINERY
  5
87C4
 10
132.540
 20
341.523
 30
0.000000
  70
    32
  0
VERTEX
  8
APL_JOINERY
  5
87C5
 10
132.626
 20
341.517
 30
0.000000
  70
    32
  0
VERTEX
  8
APL_JOINERY
  5
87C6
 10
132.712
 20
341.511
 30
0.000000
  70
    32
  0
VERTEX
  8
APL_JOINERY
  5
87C7
 10
132.798
 20
341.504
 30
0.000000
  70
    32
  0
VERTEX
  8
APL_JOINERY
  5
87C8
 10
132.884
 20
341.497
 30
0.000000
  70
    32
  0
VERTEX
  8
APL_JOINERY
  5
87C9
 10
132.970
 20
341.490
 30
0.000000
  70
    32
  0
VERTEX
  8
APL_JOINERY
  5
87CA
 10
133.056
 20
341.482
 30
0.000000
  70
    32
  0
VERTEX
  8
APL_JOINERY
  5
87CB
 10
133.142
 20
341.473
 30
0.000000
  70
    32
  0
VERTEX
  8
APL_JOINERY
  5
87CC
 10
133.228
 20
341.465
 30
0.000000
  70
    32
  0
VERTEX
  8
APL_JOINERY
  5
87CD
 10
133.314
 20
341.456
 30
0.000000
  70
    32
  0
VERTEX
  8
APL_JOINERY
  5
87CE
 10
133.400
 20
341.446
 30
0.000000
  70
    32
  0
VERTEX
  8
APL_JOINERY
  5
87CF
 10
133.486
 20
341.436
 30
0.000000
  70
    32
  0
VERTEX
  8
APL_JOINERY
  5
87D0
 10
133.572
 20
341.426
 30
0.000000
  70
    32
  0
VERTEX
  8
APL_JOINERY
  5
87D1
 10
133.658
 20
341.415
 30
0.000000
  70
    32
  0
VERTEX
  8
APL_JOINERY
  5
87D2
 10
133.743
 20
341.404
 30
0.000000
  70
    32
  0
VERTEX
  8
APL_JOINERY
  5
87D3
 10
133.829
 20
341.393
 30
0.000000
  70
    32
  0
VERTEX
  8
APL_JOINERY
  5
87D4
 10
133.914
 20
341.381
 30
0.000000
  70
    32
  0
VERTEX
  8
APL_JOINERY
  5
87D5
 10
134.000
 20
341.369
 30
0.000000
  70
    32
  0
VERTEX
  8
APL_JOINERY
  5
87D6
 10
134.085
 20
341.356
 30
0.000000
  70
    32
  0
VERTEX
  8
APL_JOINERY
  5
87D7
 10
134.171
 20
341.343
 30
0.000000
  70
    32
  0
VERTEX
  8
APL_JOINERY
  5
87D8
 10
134.256
 20
341.330
 30
0.000000
  70
    32
  0
VERTEX
  8
APL_JOINERY
  5
87D9
 10
134.341
 20
341.316
 30
0.000000
  70
    32
  0
VERTEX
  8
APL_JOINERY
  5
87DA
 10
134.426
 20
341.302
 30
0.000000
  70
    32
  0
VERTEX
  8
APL_JOINERY
  5
87DB
 10
134.511
 20
341.288
 30
0.000000
  70
    32
  0
VERTEX
  8
APL_JOINERY
  5
87DC
 10
134.596
 20
341.273
 30
0.000000
  70
    32
  0
VERTEX
  8
APL_JOINERY
  5
87DD
 10
134.681
 20
341.258
 30
0.000000
  70
    32
  0
VERTEX
  8
APL_JOINERY
  5
87DE
 10
134.766
 20
341.242
 30
0.000000
  70
    32
  0
VERTEX
  8
APL_JOINERY
  5
87DF
 10
134.850
 20
341.227
 30
0.000000
  70
    32
  0
VERTEX
  8
APL_JOINERY
  5
87E0
 10
134.935
 20
341.211
 30
0.000000
  70
    32
  0
VERTEX
  8
APL_JOINERY
  5
87E1
 10
135.020
 20
341.195
 30
0.000000
  70
    32
  0
VERTEX
  8
APL_JOINERY
  5
87E2
 10
135.104
 20
341.179
 30
0.000000
  70
    32
  0
VERTEX
  8
APL_JOINERY
  5
87E3
 10
135.189
 20
341.162
 30
0.000000
  70
    32
  0
VERTEX
  8
APL_JOINERY
  5
87E4
 10
135.273
 20
341.146
 30
0.000000
  70
    32
  0
VERTEX
  8
APL_JOINERY
  5
87E5
 10
135.358
 20
341.129
 30
0.000000
  70
    32
  0
VERTEX
  8
APL_JOINERY
  5
87E6
 10
135.442
 20
341.112
 30
0.000000
  70
    32
  0
VERTEX
  8
APL_JOINERY
  5
87E7
 10
135.527
 20
341.096
 30
0.000000
  70
    32
  0
VERTEX
  8
APL_JOINERY
  5
87E8
 10
135.611
 20
341.079
 30
0.000000
  70
    32
  0
VERTEX
  8
APL_JOINERY
  5
87E9
 10
135.696
 20
341.062
 30
0.000000
  70
    32
  0
VERTEX
  8
APL_JOINERY
  5
87EA
 10
135.780
 20
341.045
 30
0.000000
  70
    32
  0
VERTEX
  8
APL_JOINERY
  5
87EB
 10
135.865
 20
341.029
 30
0.000000
  70
    32
  0
VERTEX
  8
APL_JOINERY
  5
87EC
 10
135.949
 20
341.012
 30
0.000000
  70
    32
  0
VERTEX
  8
APL_JOINERY
  5
87ED
 10
136.034
 20
340.996
 30
0.000000
  70
    32
  0
VERTEX
  8
APL_JOINERY
  5
87EE
 10
136.118
 20
340.979
 30
0.000000
  70
    32
  0
VERTEX
  8
APL_JOINERY
  5
87EF
 10
136.203
 20
340.963
 30
0.000000
  70
    32
  0
VERTEX
  8
APL_JOINERY
  5
87F0
 10
136.287
 20
340.947
 30
0.000000
  70
    32
  0
VERTEX
  8
APL_JOINERY
  5
87F1
 10
136.372
 20
340.932
 30
0.000000
  70
    32
  0
VERTEX
  8
APL_JOINERY
  5
87F2
 10
136.457
 20
340.916
 30
0.000000
  70
    32
  0
VERTEX
  8
APL_JOINERY
  5
87F3
 10
136.542
 20
340.901
 30
0.000000
  70
    32
  0
VERTEX
  8
APL_JOINERY
  5
87F4
 10
136.627
 20
340.886
 30
0.000000
  70
    32
  0
VERTEX
  8
APL_JOINERY
  5
87F5
 10
136.711
 20
340.871
 30
0.000000
  70
    32
  0
VERTEX
  8
APL_JOINERY
  5
87F6
 10
136.797
 20
340.857
 30
0.000000
  70
    32
  0
VERTEX
  8
APL_JOINERY
  5
87F7
 10
136.882
 20
340.843
 30
0.000000
  70
    32
  0
VERTEX
  8
APL_JOINERY
  5
87F8
 10
136.967
 20
340.830
 30
0.000000
  70
    32
  0
VERTEX
  8
APL_JOINERY
  5
87F9
 10
137.052
 20
340.817
 30
0.000000
  70
    32
  0
VERTEX
  8
APL_JOINERY
  5
87FA
 10
137.138
 20
340.805
 30
0.000000
  70
    32
  0
VERTEX
  8
APL_JOINERY
  5
87FB
 10
137.223
 20
340.793
 30
0.000000
  70
    32
  0
VERTEX
  8
APL_JOINERY
  5
87FC
 10
137.309
 20
340.781
 30
0.000000
  70
    32
  0
VERTEX
  8
APL_JOINERY
  5
87FD
 10
137.394
 20
340.770
 30
0.000000
  70
    32
  0
VERTEX
  8
APL_JOINERY
  5
87FE
 10
137.480
 20
340.759
 30
0.000000
  70
    32
  0
VERTEX
  8
APL_JOINERY
  5
87FF
 10
137.566
 20
340.748
 30
0.000000
  70
    32
  0
VERTEX
  8
APL_JOINERY
  5
8800
 10
137.652
 20
340.738
 30
0.000000
  70
    32
  0
VERTEX
  8
APL_JOINERY
  5
8801
 10
137.738
 20
340.728
 30
0.000000
  70
    32
  0
VERTEX
  8
APL_JOINERY
  5
8802
 10
137.824
 20
340.718
 30
0.000000
  70
    32
  0
VERTEX
  8
APL_JOINERY
  5
8803
 10
137.910
 20
340.708
 30
0.000000
  70
    32
  0
VERTEX
  8
APL_JOINERY
  5
8804
 10
137.996
 20
340.698
 30
0.000000
  70
    32
  0
VERTEX
  8
APL_JOINERY
  5
8805
 10
138.082
 20
340.688
 30
0.000000
  70
    32
  0
VERTEX
  8
APL_JOINERY
  5
8806
 10
138.168
 20
340.678
 30
0.000000
  70
    32
  0
VERTEX
  8
APL_JOINERY
  5
8807
 10
138.254
 20
340.668
 30
0.000000
  70
    32
  0
VERTEX
  8
APL_JOINERY
  5
8808
 10
138.340
 20
340.658
 30
0.000000
  70
    32
  0
VERTEX
  8
APL_JOINERY
  5
8809
 10
138.426
 20
340.647
 30
0.000000
  70
    32
  0
VERTEX
  8
APL_JOINERY
  5
880A
 10
138.512
 20
340.637
 30
0.000000
  70
    32
  0
VERTEX
  8
APL_JOINERY
  5
880B
 10
138.597
 20
340.626
 30
0.000000
  70
    32
  0
VERTEX
  8
APL_JOINERY
  5
880C
 10
138.683
 20
340.615
 30
0.000000
  70
    32
  0
VERTEX
  8
APL_JOINERY
  5
880D
 10
138.769
 20
340.603
 30
0.000000
  70
    32
  0
VERTEX
  8
APL_JOINERY
  5
880E
 10
138.854
 20
340.591
 30
0.000000
  70
    32
  0
VERTEX
  8
APL_JOINERY
  5
880F
 10
138.940
 20
340.579
 30
0.000000
  70
    32
  0
VERTEX
  8
APL_JOINERY
  5
8810
 10
139.025
 20
340.566
 30
0.000000
  70
    32
  0
VERTEX
  8
APL_JOINERY
  5
8811
 10
139.110
 20
340.552
 30
0.000000
  70
    32
  0
VERTEX
  8
APL_JOINERY
  5
8812
 10
139.195
 20
340.538
 30
0.000000
  70
    32
  0
VERTEX
  8
APL_JOINERY
  5
8813
 10
139.280
 20
340.524
 30
0.000000
  70
    32
  0
VERTEX
  8
APL_JOINERY
  5
8814
 10
139.365
 20
340.508
 30
0.000000
  70
    32
  0
VERTEX
  8
APL_JOINERY
  5
8815
 10
139.449
 20
340.492
 30
0.000000
  70
    32
  0
VERTEX
  8
APL_JOINERY
  5
8816
 10
139.534
 20
340.475
 30
0.000000
  70
    32
  0
VERTEX
  8
APL_JOINERY
  5
8817
 10
139.618
 20
340.458
 30
0.000000
  70
    32
  0
VERTEX
  8
APL_JOINERY
  5
8818
 10
139.702
 20
340.439
 30
0.000000
  70
    32
  0
VERTEX
  8
APL_JOINERY
  5
8819
 10
139.786
 20
340.420
 30
0.000000
  70
    32
  0
VERTEX
  8
APL_JOINERY
  5
881A
 10
139.869
 20
340.399
 30
0.000000
  70
    32
  0
VERTEX
  8
APL_JOINERY
  5
881B
 10
139.953
 20
340.378
 30
0.000000
  70
    32
  0
VERTEX
  8
APL_JOINERY
  5
881C
 10
140.036
 20
340.355
 30
0.000000
  70
    32
  0
VERTEX
  8
APL_JOINERY
  5
881D
 10
140.118
 20
340.332
 30
0.000000
  70
    32
  0
VERTEX
  8
APL_JOINERY
  5
881E
 10
140.201
 20
340.307
 30
0.000000
  70
    32
  0
VERTEX
  8
APL_JOINERY
  5
881F
 10
140.283
 20
340.281
 30
0.000000
  70
    32
  0
VERTEX
  8
APL_JOINERY
  5
8820
 10
140.365
 20
340.254
 30
0.000000
  70
    32
  0
VERTEX
  8
APL_JOINERY
  5
8821
 10
140.447
 20
340.226
 30
0.000000
  70
    32
  0
VERTEX
  8
APL_JOINERY
  5
8822
 10
140.528
 20
340.196
 30
0.000000
  70
    32
  0
VERTEX
  8
APL_JOINERY
  5
8823
 10
140.609
 20
340.165
 30
0.000000
  70
    32
  0
VERTEX
  8
APL_JOINERY
  5
8824
 10
140.690
 20
340.132
 30
0.000000
  70
    32
  0
VERTEX
  8
APL_JOINERY
  5
8825
 10
140.770
 20
340.099
 30
0.000000
  70
    32
  0
VERTEX
  8
APL_JOINERY
  5
8826
 10
140.850
 20
340.064
 30
0.000000
  70
    32
  0
VERTEX
  8
APL_JOINERY
  5
8827
 10
140.929
 20
340.028
 30
0.000000
  70
    32
  0
VERTEX
  8
APL_JOINERY
  5
8828
 10
141.008
 20
339.990
 30
0.000000
  70
    32
  0
VERTEX
  8
APL_JOINERY
  5
8829
 10
141.086
 20
339.951
 30
0.000000
  70
    32
  0
VERTEX
  8
APL_JOINERY
  5
882A
 10
141.164
 20
339.911
 30
0.000000
  70
    32
  0
VERTEX
  8
APL_JOINERY
  5
882B
 10
141.241
 20
339.870
 30
0.000000
  70
    32
  0
VERTEX
  8
APL_JOINERY
  5
882C
 10
141.317
 20
339.827
 30
0.000000
  70
    32
  0
VERTEX
  8
APL_JOINERY
  5
882D
 10
141.392
 20
339.784
 30
0.000000
  70
    32
  0
VERTEX
  8
APL_JOINERY
  5
882E
 10
141.467
 20
339.739
 30
0.000000
  70
    32
  0
VERTEX
  8
APL_JOINERY
  5
882F
 10
141.541
 20
339.692
 30
0.000000
  70
    32
  0
VERTEX
  8
APL_JOINERY
  5
8830
 10
141.614
 20
339.645
 30
0.000000
  70
    32
  0
VERTEX
  8
APL_JOINERY
  5
8831
 10
141.686
 20
339.596
 30
0.000000
  70
    32
  0
VERTEX
  8
APL_JOINERY
  5
8832
 10
141.758
 20
339.546
 30
0.000000
  70
    32
  0
VERTEX
  8
APL_JOINERY
  5
8833
 10
141.828
 20
339.495
 30
0.000000
  70
    32
  0
VERTEX
  8
APL_JOINERY
  5
8834
 10
141.897
 20
339.443
 30
0.000000
  70
    32
  0
VERTEX
  8
APL_JOINERY
  5
8835
 10
141.966
 20
339.390
 30
0.000000
  70
    32
  0
VERTEX
  8
APL_JOINERY
  5
8836
 10
142.033
 20
339.335
 30
0.000000
  70
    32
  0
VERTEX
  8
APL_JOINERY
  5
8837
 10
142.099
 20
339.280
 30
0.000000
  70
    32
  0
VERTEX
  8
APL_JOINERY
  5
8838
 10
142.164
 20
339.223
 30
0.000000
  70
    32
  0
VERTEX
  8
APL_JOINERY
  5
8839
 10
142.228
 20
339.165
 30
0.000000
  70
    32
  0
VERTEX
  8
APL_JOINERY
  5
883A
 10
142.291
 20
339.106
 30
0.000000
  70
    32
  0
VERTEX
  8
APL_JOINERY
  5
883B
 10
142.352
 20
339.045
 30
0.000000
  70
    32
  0
VERTEX
  8
APL_JOINERY
  5
883C
 10
142.412
 20
338.984
 30
0.000000
  70
    32
  0
VERTEX
  8
APL_JOINERY
  5
883D
 10
142.471
 20
338.921
 30
0.000000
  70
    32
  0
VERTEX
  8
APL_JOINERY
  5
883E
 10
142.528
 20
338.858
 30
0.000000
  70
    32
  0
VERTEX
  8
APL_JOINERY
  5
883F
 10
142.585
 20
338.793
 30
0.000000
  70
    32
  0
VERTEX
  8
APL_JOINERY
  5
8840
 10
142.640
 20
338.728
 30
0.000000
  70
    32
  0
VERTEX
  8
APL_JOINERY
  5
8841
 10
142.694
 20
338.661
 30
0.000000
  70
    32
  0
VERTEX
  8
APL_JOINERY
  5
8842
 10
142.747
 20
338.594
 30
0.000000
  70
    32
  0
VERTEX
  8
APL_JOINERY
  5
8843
 10
142.799
 20
338.526
 30
0.000000
  70
    32
  0
VERTEX
  8
APL_JOINERY
  5
8844
 10
142.851
 20
338.457
 30
0.000000
  70
    32
  0
VERTEX
  8
APL_JOINERY
  5
8845
 10
142.901
 20
338.387
 30
0.000000
  70
    32
  0
VERTEX
  8
APL_JOINERY
  5
8846
 10
142.950
 20
338.317
 30
0.000000
  70
    32
  0
VERTEX
  8
APL_JOINERY
  5
8847
 10
142.999
 20
338.246
 30
0.000000
  70
    32
  0
VERTEX
  8
APL_JOINERY
  5
8848
 10
143.047
 20
338.174
 30
0.000000
  70
    32
  0
VERTEX
  8
APL_JOINERY
  5
8849
 10
143.094
 20
338.102
 30
0.000000
  70
    32
  0
VERTEX
  8
APL_JOINERY
  5
884A
 10
143.141
 20
338.029
 30
0.000000
  70
    32
  0
VERTEX
  8
APL_JOINERY
  5
884B
 10
143.187
 20
337.956
 30
0.000000
  70
    32
  0
VERTEX
  8
APL_JOINERY
  5
884C
 10
143.232
 20
337.882
 30
0.000000
  70
    32
  0
VERTEX
  8
APL_JOINERY
  5
884D
 10
143.277
 20
337.808
 30
0.000000
  70
    32
  0
VERTEX
  8
APL_JOINERY
  5
884E
 10
143.322
 20
337.733
 30
0.000000
  70
    32
  0
VERTEX
  8
APL_JOINERY
  5
884F
 10
143.366
 20
337.658
 30
0.000000
  70
    32
  0
VERTEX
  8
APL_JOINERY
  5
8850
 10
143.409
 20
337.583
 30
0.000000
  70
    32
  0
VERTEX
  8
APL_JOINERY
  5
8851
 10
143.453
 20
337.508
 30
0.000000
  70
    32
  0
VERTEX
  8
APL_JOINERY
  5
8852
 10
143.496
 20
337.432
 30
0.000000
  70
    32
  0
VERTEX
  8
APL_JOINERY
  5
8853
 10
143.539
 20
337.356
 30
0.000000
  70
    32
  0
VERTEX
  8
APL_JOINERY
  5
8854
 10
143.582
 20
337.280
 30
0.000000
  70
    32
  0
VERTEX
  8
APL_JOINERY
  5
8855
 10
143.625
 20
337.204
 30
0.000000
  70
    32
  0
VERTEX
  8
APL_JOINERY
  5
8856
 10
143.668
 20
337.128
 30
0.000000
  70
    32
  0
SEQEND
  8
APL_JOINERY
  5
8857
  0
LINE
  5
4992
  8
APL_JOINERY
 62
     8
 10
122.8950179978421
 20
338.24116640550761
 30
0.0
 11
112.44540775874221
 21
345.19014632269102
 31
0.0
  0
LINE
  5
4993
  8
APL_JOINERY
 62
     3
 10
177.73995150786311
 20
336.76235108304849
 30
0.0
 11
170.73995150786311
 21
336.76235108304849
 31
0.0
  0
POLYLINE
  8
APL_JOINERY
  5
8858
  62
8
  66
     1
 10
0.000000
 20
0.000000
 30
0.000000
  70
     8
  0
VERTEX
  8
APL_JOINERY
  5
8859
 10
165.282
 20
355.218
 30
0.000000
  70
    32
  0
VERTEX
  8
APL_JOINERY
  5
885A
 10
165.346
 20
355.197
 30
0.000000
  70
    32
  0
VERTEX
  8
APL_JOINERY
  5
885B
 10
165.409
 20
355.175
 30
0.000000
  70
    32
  0
VERTEX
  8
APL_JOINERY
  5
885C
 10
165.473
 20
355.154
 30
0.000000
  70
    32
  0
VERTEX
  8
APL_JOINERY
  5
885D
 10
165.536
 20
355.132
 30
0.000000
  70
    32
  0
VERTEX
  8
APL_JOINERY
  5
885E
 10
165.599
 20
355.111
 30
0.000000
  70
    32
  0
VERTEX
  8
APL_JOINERY
  5
885F
 10
165.663
 20
355.089
 30
0.000000
  70
    32
  0
VERTEX
  8
APL_JOINERY
  5
8860
 10
165.726
 20
355.068
 30
0.000000
  70
    32
  0
VERTEX
  8
APL_JOINERY
  5
8861
 10
165.790
 20
355.046
 30
0.000000
  70
    32
  0
VERTEX
  8
APL_JOINERY
  5
8862
 10
165.853
 20
355.025
 30
0.000000
  70
    32
  0
VERTEX
  8
APL_JOINERY
  5
8863
 10
165.916
 20
355.003
 30
0.000000
  70
    32
  0
VERTEX
  8
APL_JOINERY
  5
8864
 10
165.980
 20
354.981
 30
0.000000
  70
    32
  0
VERTEX
  8
APL_JOINERY
  5
8865
 10
166.043
 20
354.960
 30
0.000000
  70
    32
  0
VERTEX
  8
APL_JOINERY
  5
8866
 10
166.107
 20
354.938
 30
0.000000
  70
    32
  0
VERTEX
  8
APL_JOINERY
  5
8867
 10
166.170
 20
354.916
 30
0.000000
  70
    32
  0
VERTEX
  8
APL_JOINERY
  5
8868
 10
166.233
 20
354.894
 30
0.000000
  70
    32
  0
VERTEX
  8
APL_JOINERY
  5
8869
 10
166.296
 20
354.872
 30
0.000000
  70
    32
  0
VERTEX
  8
APL_JOINERY
  5
886A
 10
166.360
 20
354.850
 30
0.000000
  70
    32
  0
VERTEX
  8
APL_JOINERY
  5
886B
 10
166.423
 20
354.828
 30
0.000000
  70
    32
  0
VERTEX
  8
APL_JOINERY
  5
886C
 10
166.486
 20
354.806
 30
0.000000
  70
    32
  0
VERTEX
  8
APL_JOINERY
  5
886D
 10
166.549
 20
354.784
 30
0.000000
  70
    32
  0
VERTEX
  8
APL_JOINERY
  5
886E
 10
166.612
 20
354.761
 30
0.000000
  70
    32
  0
VERTEX
  8
APL_JOINERY
  5
886F
 10
166.675
 20
354.739
 30
0.000000
  70
    32
  0
VERTEX
  8
APL_JOINERY
  5
8870
 10
166.738
 20
354.717
 30
0.000000
  70
    32
  0
VERTEX
  8
APL_JOINERY
  5
8871
 10
166.801
 20
354.694
 30
0.000000
  70
    32
  0
VERTEX
  8
APL_JOINERY
  5
8872
 10
166.864
 20
354.671
 30
0.000000
  70
    32
  0
VERTEX
  8
APL_JOINERY
  5
8873
 10
166.927
 20
354.649
 30
0.000000
  70
    32
  0
VERTEX
  8
APL_JOINERY
  5
8874
 10
166.990
 20
354.626
 30
0.000000
  70
    32
  0
VERTEX
  8
APL_JOINERY
  5
8875
 10
167.053
 20
354.603
 30
0.000000
  70
    32
  0
VERTEX
  8
APL_JOINERY
  5
8876
 10
167.116
 20
354.580
 30
0.000000
  70
    32
  0
VERTEX
  8
APL_JOINERY
  5
8877
 10
167.178
 20
354.557
 30
0.000000
  70
    32
  0
VERTEX
  8
APL_JOINERY
  5
8878
 10
167.241
 20
354.533
 30
0.000000
  70
    32
  0
VERTEX
  8
APL_JOINERY
  5
8879
 10
167.304
 20
354.510
 30
0.000000
  70
    32
  0
VERTEX
  8
APL_JOINERY
  5
887A
 10
167.366
 20
354.486
 30
0.000000
  70
    32
  0
VERTEX
  8
APL_JOINERY
  5
887B
 10
167.429
 20
354.463
 30
0.000000
  70
    32
  0
VERTEX
  8
APL_JOINERY
  5
887C
 10
167.491
 20
354.439
 30
0.000000
  70
    32
  0
VERTEX
  8
APL_JOINERY
  5
887D
 10
167.554
 20
354.415
 30
0.000000
  70
    32
  0
VERTEX
  8
APL_JOINERY
  5
887E
 10
167.616
 20
354.391
 30
0.000000
  70
    32
  0
VERTEX
  8
APL_JOINERY
  5
887F
 10
167.678
 20
354.367
 30
0.000000
  70
    32
  0
VERTEX
  8
APL_JOINERY
  5
8880
 10
167.740
 20
354.342
 30
0.000000
  70
    32
  0
VERTEX
  8
APL_JOINERY
  5
8881
 10
167.803
 20
354.318
 30
0.000000
  70
    32
  0
VERTEX
  8
APL_JOINERY
  5
8882
 10
167.865
 20
354.293
 30
0.000000
  70
    32
  0
VERTEX
  8
APL_JOINERY
  5
8883
 10
167.927
 20
354.268
 30
0.000000
  70
    32
  0
VERTEX
  8
APL_JOINERY
  5
8884
 10
167.988
 20
354.243
 30
0.000000
  70
    32
  0
VERTEX
  8
APL_JOINERY
  5
8885
 10
168.050
 20
354.218
 30
0.000000
  70
    32
  0
VERTEX
  8
APL_JOINERY
  5
8886
 10
168.112
 20
354.192
 30
0.000000
  70
    32
  0
VERTEX
  8
APL_JOINERY
  5
8887
 10
168.174
 20
354.167
 30
0.000000
  70
    32
  0
VERTEX
  8
APL_JOINERY
  5
8888
 10
168.235
 20
354.141
 30
0.000000
  70
    32
  0
VERTEX
  8
APL_JOINERY
  5
8889
 10
168.297
 20
354.115
 30
0.000000
  70
    32
  0
VERTEX
  8
APL_JOINERY
  5
888A
 10
168.358
 20
354.089
 30
0.000000
  70
    32
  0
VERTEX
  8
APL_JOINERY
  5
888B
 10
168.420
 20
354.063
 30
0.000000
  70
    32
  0
VERTEX
  8
APL_JOINERY
  5
888C
 10
168.481
 20
354.036
 30
0.000000
  70
    32
  0
VERTEX
  8
APL_JOINERY
  5
888D
 10
168.542
 20
354.010
 30
0.000000
  70
    32
  0
VERTEX
  8
APL_JOINERY
  5
888E
 10
168.603
 20
353.983
 30
0.000000
  70
    32
  0
VERTEX
  8
APL_JOINERY
  5
888F
 10
168.664
 20
353.955
 30
0.000000
  70
    32
  0
VERTEX
  8
APL_JOINERY
  5
8890
 10
168.725
 20
353.928
 30
0.000000
  70
    32
  0
VERTEX
  8
APL_JOINERY
  5
8891
 10
168.786
 20
353.901
 30
0.000000
  70
    32
  0
VERTEX
  8
APL_JOINERY
  5
8892
 10
168.847
 20
353.873
 30
0.000000
  70
    32
  0
VERTEX
  8
APL_JOINERY
  5
8893
 10
168.908
 20
353.845
 30
0.000000
  70
    32
  0
VERTEX
  8
APL_JOINERY
  5
8894
 10
168.968
 20
353.817
 30
0.000000
  70
    32
  0
VERTEX
  8
APL_JOINERY
  5
8895
 10
169.029
 20
353.788
 30
0.000000
  70
    32
  0
VERTEX
  8
APL_JOINERY
  5
8896
 10
169.089
 20
353.759
 30
0.000000
  70
    32
  0
VERTEX
  8
APL_JOINERY
  5
8897
 10
169.149
 20
353.730
 30
0.000000
  70
    32
  0
VERTEX
  8
APL_JOINERY
  5
8898
 10
169.209
 20
353.701
 30
0.000000
  70
    32
  0
VERTEX
  8
APL_JOINERY
  5
8899
 10
169.269
 20
353.672
 30
0.000000
  70
    32
  0
VERTEX
  8
APL_JOINERY
  5
889A
 10
169.329
 20
353.642
 30
0.000000
  70
    32
  0
VERTEX
  8
APL_JOINERY
  5
889B
 10
169.389
 20
353.612
 30
0.000000
  70
    32
  0
VERTEX
  8
APL_JOINERY
  5
889C
 10
169.449
 20
353.582
 30
0.000000
  70
    32
  0
VERTEX
  8
APL_JOINERY
  5
889D
 10
169.508
 20
353.551
 30
0.000000
  70
    32
  0
VERTEX
  8
APL_JOINERY
  5
889E
 10
169.568
 20
353.521
 30
0.000000
  70
    32
  0
VERTEX
  8
APL_JOINERY
  5
889F
 10
169.627
 20
353.490
 30
0.000000
  70
    32
  0
VERTEX
  8
APL_JOINERY
  5
88A0
 10
169.686
 20
353.459
 30
0.000000
  70
    32
  0
VERTEX
  8
APL_JOINERY
  5
88A1
 10
169.746
 20
353.427
 30
0.000000
  70
    32
  0
VERTEX
  8
APL_JOINERY
  5
88A2
 10
169.805
 20
353.396
 30
0.000000
  70
    32
  0
VERTEX
  8
APL_JOINERY
  5
88A3
 10
169.863
 20
353.364
 30
0.000000
  70
    32
  0
VERTEX
  8
APL_JOINERY
  5
88A4
 10
169.922
 20
353.332
 30
0.000000
  70
    32
  0
VERTEX
  8
APL_JOINERY
  5
88A5
 10
169.981
 20
353.300
 30
0.000000
  70
    32
  0
VERTEX
  8
APL_JOINERY
  5
88A6
 10
170.039
 20
353.267
 30
0.000000
  70
    32
  0
VERTEX
  8
APL_JOINERY
  5
88A7
 10
170.098
 20
353.234
 30
0.000000
  70
    32
  0
VERTEX
  8
APL_JOINERY
  5
88A8
 10
170.156
 20
353.201
 30
0.000000
  70
    32
  0
VERTEX
  8
APL_JOINERY
  5
88A9
 10
170.214
 20
353.168
 30
0.000000
  70
    32
  0
VERTEX
  8
APL_JOINERY
  5
88AA
 10
170.272
 20
353.134
 30
0.000000
  70
    32
  0
VERTEX
  8
APL_JOINERY
  5
88AB
 10
170.330
 20
353.101
 30
0.000000
  70
    32
  0
VERTEX
  8
APL_JOINERY
  5
88AC
 10
170.388
 20
353.067
 30
0.000000
  70
    32
  0
VERTEX
  8
APL_JOINERY
  5
88AD
 10
170.445
 20
353.033
 30
0.000000
  70
    32
  0
VERTEX
  8
APL_JOINERY
  5
88AE
 10
170.503
 20
352.998
 30
0.000000
  70
    32
  0
VERTEX
  8
APL_JOINERY
  5
88AF
 10
170.560
 20
352.963
 30
0.000000
  70
    32
  0
VERTEX
  8
APL_JOINERY
  5
88B0
 10
170.617
 20
352.929
 30
0.000000
  70
    32
  0
VERTEX
  8
APL_JOINERY
  5
88B1
 10
170.674
 20
352.893
 30
0.000000
  70
    32
  0
VERTEX
  8
APL_JOINERY
  5
88B2
 10
170.731
 20
352.858
 30
0.000000
  70
    32
  0
VERTEX
  8
APL_JOINERY
  5
88B3
 10
170.788
 20
352.822
 30
0.000000
  70
    32
  0
VERTEX
  8
APL_JOINERY
  5
88B4
 10
170.844
 20
352.787
 30
0.000000
  70
    32
  0
VERTEX
  8
APL_JOINERY
  5
88B5
 10
170.901
 20
352.750
 30
0.000000
  70
    32
  0
VERTEX
  8
APL_JOINERY
  5
88B6
 10
170.957
 20
352.714
 30
0.000000
  70
    32
  0
VERTEX
  8
APL_JOINERY
  5
88B7
 10
171.013
 20
352.678
 30
0.000000
  70
    32
  0
VERTEX
  8
APL_JOINERY
  5
88B8
 10
171.069
 20
352.641
 30
0.000000
  70
    32
  0
VERTEX
  8
APL_JOINERY
  5
88B9
 10
171.125
 20
352.604
 30
0.000000
  70
    32
  0
VERTEX
  8
APL_JOINERY
  5
88BA
 10
171.181
 20
352.567
 30
0.000000
  70
    32
  0
VERTEX
  8
APL_JOINERY
  5
88BB
 10
171.236
 20
352.529
 30
0.000000
  70
    32
  0
VERTEX
  8
APL_JOINERY
  5
88BC
 10
171.292
 20
352.492
 30
0.000000
  70
    32
  0
VERTEX
  8
APL_JOINERY
  5
88BD
 10
171.347
 20
352.454
 30
0.000000
  70
    32
  0
VERTEX
  8
APL_JOINERY
  5
88BE
 10
171.402
 20
352.415
 30
0.000000
  70
    32
  0
VERTEX
  8
APL_JOINERY
  5
88BF
 10
171.457
 20
352.377
 30
0.000000
  70
    32
  0
VERTEX
  8
APL_JOINERY
  5
88C0
 10
171.511
 20
352.338
 30
0.000000
  70
    32
  0
VERTEX
  8
APL_JOINERY
  5
88C1
 10
171.566
 20
352.300
 30
0.000000
  70
    32
  0
VERTEX
  8
APL_JOINERY
  5
88C2
 10
171.620
 20
352.261
 30
0.000000
  70
    32
  0
VERTEX
  8
APL_JOINERY
  5
88C3
 10
171.675
 20
352.221
 30
0.000000
  70
    32
  0
VERTEX
  8
APL_JOINERY
  5
88C4
 10
171.729
 20
352.182
 30
0.000000
  70
    32
  0
VERTEX
  8
APL_JOINERY
  5
88C5
 10
171.782
 20
352.142
 30
0.000000
  70
    32
  0
VERTEX
  8
APL_JOINERY
  5
88C6
 10
171.836
 20
352.102
 30
0.000000
  70
    32
  0
VERTEX
  8
APL_JOINERY
  5
88C7
 10
171.890
 20
352.062
 30
0.000000
  70
    32
  0
VERTEX
  8
APL_JOINERY
  5
88C8
 10
171.943
 20
352.022
 30
0.000000
  70
    32
  0
VERTEX
  8
APL_JOINERY
  5
88C9
 10
171.996
 20
351.981
 30
0.000000
  70
    32
  0
VERTEX
  8
APL_JOINERY
  5
88CA
 10
172.049
 20
351.940
 30
0.000000
  70
    32
  0
VERTEX
  8
APL_JOINERY
  5
88CB
 10
172.102
 20
351.899
 30
0.000000
  70
    32
  0
VERTEX
  8
APL_JOINERY
  5
88CC
 10
172.155
 20
351.858
 30
0.000000
  70
    32
  0
VERTEX
  8
APL_JOINERY
  5
88CD
 10
172.207
 20
351.816
 30
0.000000
  70
    32
  0
VERTEX
  8
APL_JOINERY
  5
88CE
 10
172.259
 20
351.774
 30
0.000000
  70
    32
  0
VERTEX
  8
APL_JOINERY
  5
88CF
 10
172.312
 20
351.733
 30
0.000000
  70
    32
  0
VERTEX
  8
APL_JOINERY
  5
88D0
 10
172.363
 20
351.690
 30
0.000000
  70
    32
  0
VERTEX
  8
APL_JOINERY
  5
88D1
 10
172.415
 20
351.648
 30
0.000000
  70
    32
  0
VERTEX
  8
APL_JOINERY
  5
88D2
 10
172.467
 20
351.606
 30
0.000000
  70
    32
  0
VERTEX
  8
APL_JOINERY
  5
88D3
 10
172.518
 20
351.563
 30
0.000000
  70
    32
  0
VERTEX
  8
APL_JOINERY
  5
88D4
 10
172.570
 20
351.520
 30
0.000000
  70
    32
  0
VERTEX
  8
APL_JOINERY
  5
88D5
 10
172.621
 20
351.477
 30
0.000000
  70
    32
  0
VERTEX
  8
APL_JOINERY
  5
88D6
 10
172.672
 20
351.433
 30
0.000000
  70
    32
  0
VERTEX
  8
APL_JOINERY
  5
88D7
 10
172.723
 20
351.390
 30
0.000000
  70
    32
  0
VERTEX
  8
APL_JOINERY
  5
88D8
 10
172.773
 20
351.346
 30
0.000000
  70
    32
  0
VERTEX
  8
APL_JOINERY
  5
88D9
 10
172.824
 20
351.302
 30
0.000000
  70
    32
  0
VERTEX
  8
APL_JOINERY
  5
88DA
 10
172.874
 20
351.258
 30
0.000000
  70
    32
  0
VERTEX
  8
APL_JOINERY
  5
88DB
 10
172.924
 20
351.214
 30
0.000000
  70
    32
  0
VERTEX
  8
APL_JOINERY
  5
88DC
 10
172.974
 20
351.169
 30
0.000000
  70
    32
  0
VERTEX
  8
APL_JOINERY
  5
88DD
 10
173.024
 20
351.125
 30
0.000000
  70
    32
  0
VERTEX
  8
APL_JOINERY
  5
88DE
 10
173.074
 20
351.080
 30
0.000000
  70
    32
  0
VERTEX
  8
APL_JOINERY
  5
88DF
 10
173.123
 20
351.035
 30
0.000000
  70
    32
  0
VERTEX
  8
APL_JOINERY
  5
88E0
 10
173.173
 20
350.990
 30
0.000000
  70
    32
  0
VERTEX
  8
APL_JOINERY
  5
88E1
 10
173.222
 20
350.944
 30
0.000000
  70
    32
  0
VERTEX
  8
APL_JOINERY
  5
88E2
 10
173.271
 20
350.899
 30
0.000000
  70
    32
  0
VERTEX
  8
APL_JOINERY
  5
88E3
 10
173.320
 20
350.853
 30
0.000000
  70
    32
  0
VERTEX
  8
APL_JOINERY
  5
88E4
 10
173.369
 20
350.807
 30
0.000000
  70
    32
  0
VERTEX
  8
APL_JOINERY
  5
88E5
 10
173.417
 20
350.761
 30
0.000000
  70
    32
  0
VERTEX
  8
APL_JOINERY
  5
88E6
 10
173.466
 20
350.715
 30
0.000000
  70
    32
  0
VERTEX
  8
APL_JOINERY
  5
88E7
 10
173.514
 20
350.669
 30
0.000000
  70
    32
  0
VERTEX
  8
APL_JOINERY
  5
88E8
 10
173.562
 20
350.623
 30
0.000000
  70
    32
  0
VERTEX
  8
APL_JOINERY
  5
88E9
 10
173.610
 20
350.576
 30
0.000000
  70
    32
  0
VERTEX
  8
APL_JOINERY
  5
88EA
 10
173.658
 20
350.529
 30
0.000000
  70
    32
  0
VERTEX
  8
APL_JOINERY
  5
88EB
 10
173.706
 20
350.482
 30
0.000000
  70
    32
  0
VERTEX
  8
APL_JOINERY
  5
88EC
 10
173.754
 20
350.435
 30
0.000000
  70
    32
  0
VERTEX
  8
APL_JOINERY
  5
88ED
 10
173.801
 20
350.388
 30
0.000000
  70
    32
  0
VERTEX
  8
APL_JOINERY
  5
88EE
 10
173.849
 20
350.341
 30
0.000000
  70
    32
  0
VERTEX
  8
APL_JOINERY
  5
88EF
 10
173.896
 20
350.293
 30
0.000000
  70
    32
  0
VERTEX
  8
APL_JOINERY
  5
88F0
 10
173.943
 20
350.246
 30
0.000000
  70
    32
  0
VERTEX
  8
APL_JOINERY
  5
88F1
 10
173.990
 20
350.198
 30
0.000000
  70
    32
  0
VERTEX
  8
APL_JOINERY
  5
88F2
 10
174.037
 20
350.150
 30
0.000000
  70
    32
  0
VERTEX
  8
APL_JOINERY
  5
88F3
 10
174.083
 20
350.102
 30
0.000000
  70
    32
  0
VERTEX
  8
APL_JOINERY
  5
88F4
 10
174.130
 20
350.054
 30
0.000000
  70
    32
  0
VERTEX
  8
APL_JOINERY
  5
88F5
 10
174.176
 20
350.006
 30
0.000000
  70
    32
  0
VERTEX
  8
APL_JOINERY
  5
88F6
 10
174.222
 20
349.957
 30
0.000000
  70
    32
  0
VERTEX
  8
APL_JOINERY
  5
88F7
 10
174.269
 20
349.909
 30
0.000000
  70
    32
  0
VERTEX
  8
APL_JOINERY
  5
88F8
 10
174.315
 20
349.860
 30
0.000000
  70
    32
  0
VERTEX
  8
APL_JOINERY
  5
88F9
 10
174.360
 20
349.812
 30
0.000000
  70
    32
  0
VERTEX
  8
APL_JOINERY
  5
88FA
 10
174.406
 20
349.763
 30
0.000000
  70
    32
  0
VERTEX
  8
APL_JOINERY
  5
88FB
 10
174.452
 20
349.714
 30
0.000000
  70
    32
  0
VERTEX
  8
APL_JOINERY
  5
88FC
 10
174.497
 20
349.665
 30
0.000000
  70
    32
  0
VERTEX
  8
APL_JOINERY
  5
88FD
 10
174.543
 20
349.616
 30
0.000000
  70
    32
  0
VERTEX
  8
APL_JOINERY
  5
88FE
 10
174.588
 20
349.566
 30
0.000000
  70
    32
  0
VERTEX
  8
APL_JOINERY
  5
88FF
 10
174.633
 20
349.517
 30
0.000000
  70
    32
  0
VERTEX
  8
APL_JOINERY
  5
8900
 10
174.678
 20
349.467
 30
0.000000
  70
    32
  0
VERTEX
  8
APL_JOINERY
  5
8901
 10
174.723
 20
349.418
 30
0.000000
  70
    32
  0
VERTEX
  8
APL_JOINERY
  5
8902
 10
174.768
 20
349.368
 30
0.000000
  70
    32
  0
VERTEX
  8
APL_JOINERY
  5
8903
 10
174.812
 20
349.318
 30
0.000000
  70
    32
  0
VERTEX
  8
APL_JOINERY
  5
8904
 10
174.857
 20
349.269
 30
0.000000
  70
    32
  0
VERTEX
  8
APL_JOINERY
  5
8905
 10
174.901
 20
349.219
 30
0.000000
  70
    32
  0
VERTEX
  8
APL_JOINERY
  5
8906
 10
174.946
 20
349.169
 30
0.000000
  70
    32
  0
VERTEX
  8
APL_JOINERY
  5
8907
 10
174.990
 20
349.118
 30
0.000000
  70
    32
  0
VERTEX
  8
APL_JOINERY
  5
8908
 10
175.034
 20
349.068
 30
0.000000
  70
    32
  0
VERTEX
  8
APL_JOINERY
  5
8909
 10
175.078
 20
349.018
 30
0.000000
  70
    32
  0
VERTEX
  8
APL_JOINERY
  5
890A
 10
175.122
 20
348.968
 30
0.000000
  70
    32
  0
VERTEX
  8
APL_JOINERY
  5
890B
 10
175.166
 20
348.917
 30
0.000000
  70
    32
  0
VERTEX
  8
APL_JOINERY
  5
890C
 10
175.209
 20
348.866
 30
0.000000
  70
    32
  0
VERTEX
  8
APL_JOINERY
  5
890D
 10
175.253
 20
348.816
 30
0.000000
  70
    32
  0
VERTEX
  8
APL_JOINERY
  5
890E
 10
175.297
 20
348.765
 30
0.000000
  70
    32
  0
VERTEX
  8
APL_JOINERY
  5
890F
 10
175.340
 20
348.714
 30
0.000000
  70
    32
  0
VERTEX
  8
APL_JOINERY
  5
8910
 10
175.383
 20
348.664
 30
0.000000
  70
    32
  0
VERTEX
  8
APL_JOINERY
  5
8911
 10
175.427
 20
348.613
 30
0.000000
  70
    32
  0
VERTEX
  8
APL_JOINERY
  5
8912
 10
175.470
 20
348.562
 30
0.000000
  70
    32
  0
VERTEX
  8
APL_JOINERY
  5
8913
 10
175.513
 20
348.511
 30
0.000000
  70
    32
  0
VERTEX
  8
APL_JOINERY
  5
8914
 10
175.556
 20
348.459
 30
0.000000
  70
    32
  0
VERTEX
  8
APL_JOINERY
  5
8915
 10
175.599
 20
348.408
 30
0.000000
  70
    32
  0
VERTEX
  8
APL_JOINERY
  5
8916
 10
175.642
 20
348.357
 30
0.000000
  70
    32
  0
VERTEX
  8
APL_JOINERY
  5
8917
 10
175.685
 20
348.306
 30
0.000000
  70
    32
  0
VERTEX
  8
APL_JOINERY
  5
8918
 10
175.728
 20
348.254
 30
0.000000
  70
    32
  0
VERTEX
  8
APL_JOINERY
  5
8919
 10
175.770
 20
348.203
 30
0.000000
  70
    32
  0
VERTEX
  8
APL_JOINERY
  5
891A
 10
175.813
 20
348.151
 30
0.000000
  70
    32
  0
VERTEX
  8
APL_JOINERY
  5
891B
 10
175.855
 20
348.100
 30
0.000000
  70
    32
  0
VERTEX
  8
APL_JOINERY
  5
891C
 10
175.898
 20
348.048
 30
0.000000
  70
    32
  0
VERTEX
  8
APL_JOINERY
  5
891D
 10
175.940
 20
347.997
 30
0.000000
  70
    32
  0
VERTEX
  8
APL_JOINERY
  5
891E
 10
175.983
 20
347.945
 30
0.000000
  70
    32
  0
VERTEX
  8
APL_JOINERY
  5
891F
 10
176.025
 20
347.893
 30
0.000000
  70
    32
  0
VERTEX
  8
APL_JOINERY
  5
8920
 10
176.067
 20
347.842
 30
0.000000
  70
    32
  0
VERTEX
  8
APL_JOINERY
  5
8921
 10
176.110
 20
347.790
 30
0.000000
  70
    32
  0
VERTEX
  8
APL_JOINERY
  5
8922
 10
176.152
 20
347.738
 30
0.000000
  70
    32
  0
VERTEX
  8
APL_JOINERY
  5
8923
 10
176.194
 20
347.686
 30
0.000000
  70
    32
  0
VERTEX
  8
APL_JOINERY
  5
8924
 10
176.236
 20
347.634
 30
0.000000
  70
    32
  0
VERTEX
  8
APL_JOINERY
  5
8925
 10
176.278
 20
347.582
 30
0.000000
  70
    32
  0
VERTEX
  8
APL_JOINERY
  5
8926
 10
176.320
 20
347.530
 30
0.000000
  70
    32
  0
VERTEX
  8
APL_JOINERY
  5
8927
 10
176.362
 20
347.478
 30
0.000000
  70
    32
  0
VERTEX
  8
APL_JOINERY
  5
8928
 10
176.404
 20
347.426
 30
0.000000
  70
    32
  0
VERTEX
  8
APL_JOINERY
  5
8929
 10
176.446
 20
347.374
 30
0.000000
  70
    32
  0
VERTEX
  8
APL_JOINERY
  5
892A
 10
176.488
 20
347.322
 30
0.000000
  70
    32
  0
VERTEX
  8
APL_JOINERY
  5
892B
 10
176.530
 20
347.270
 30
0.000000
  70
    32
  0
VERTEX
  8
APL_JOINERY
  5
892C
 10
176.571
 20
347.218
 30
0.000000
  70
    32
  0
VERTEX
  8
APL_JOINERY
  5
892D
 10
176.613
 20
347.165
 30
0.000000
  70
    32
  0
VERTEX
  8
APL_JOINERY
  5
892E
 10
176.655
 20
347.113
 30
0.000000
  70
    32
  0
VERTEX
  8
APL_JOINERY
  5
892F
 10
176.697
 20
347.061
 30
0.000000
  70
    32
  0
VERTEX
  8
APL_JOINERY
  5
8930
 10
176.739
 20
347.009
 30
0.000000
  70
    32
  0
VERTEX
  8
APL_JOINERY
  5
8931
 10
176.780
 20
346.956
 30
0.000000
  70
    32
  0
VERTEX
  8
APL_JOINERY
  5
8932
 10
176.822
 20
346.904
 30
0.000000
  70
    32
  0
VERTEX
  8
APL_JOINERY
  5
8933
 10
176.864
 20
346.852
 30
0.000000
  70
    32
  0
VERTEX
  8
APL_JOINERY
  5
8934
 10
176.905
 20
346.800
 30
0.000000
  70
    32
  0
VERTEX
  8
APL_JOINERY
  5
8935
 10
176.947
 20
346.747
 30
0.000000
  70
    32
  0
VERTEX
  8
APL_JOINERY
  5
8936
 10
176.989
 20
346.695
 30
0.000000
  70
    32
  0
VERTEX
  8
APL_JOINERY
  5
8937
 10
177.030
 20
346.643
 30
0.000000
  70
    32
  0
VERTEX
  8
APL_JOINERY
  5
8938
 10
177.072
 20
346.590
 30
0.000000
  70
    32
  0
SEQEND
  8
APL_JOINERY
  5
8939
  0
LINE
  5
4995
  8
APL_JOINERY
 62
     3
 10
160.73995150786311
 20
343.76235108304837
 30
0.0
 11
170.73995150786311
 21
343.76235108304837
 31
0.0
  0
LINE
  5
4996
  8
APL_JOINERY
 62
     8
 10
145.91317807834531
 20
339.63271662926121
 30
0.0
 11
175.10694208288589
 21
352.71328873254492
 31
0.0
  0
LINE
  5
4997
  8
APL_JOINERY
 62
     3
 10
160.73995150786311
 20
336.76235108304849
 30
0.0
 11
160.73995150786311
 21
343.76235108304837
 31
0.0
  0
LINE
  5
4998
  8
APL_JOINERY
 62
     3
 10
170.73995150786311
 20
336.76235108304849
 30
0.0
 11
170.73995150786311
 21
343.76235108304837
 31
0.0
  0
LINE
  5
4999
  8
APL_JOINERY
 62
     3
 10
177.73995150786311
 20
336.76235108304849
 30
0.0
 11
177.73995150786311
 21
355.76235108304837
 31
0.0
  0
ENDBLK
  5
3F28
  8
0
  0
BLOCK
  8
0
  2
6GLASS
 70
     0
 10
101.8368839708302
 20
399.41113487330011
 30
0.0
  3
6GLASS
  1
6Glass.dwg
  0
LINE
  5
499B
  8
APL_JOINERY
 62
     7
 10
95.336883970830286
 20
412.41113487329989
 30
0.0
 11
95.336883970830286
 21
392.41113487329989
 31
0.0
  0
LINE
  5
499C
  8
APL_JOINERY
 62
     7
 10
89.336883970830286
 20
412.41113487329989
 30
0.0
 11
95.336883970830286
 21
412.41113487329989
 31
0.0
  0
LINE
  5
499D
  8
APL_JOINERY
 62
     8
 10
93.336883970830286
 20
412.41113487329989
 30
0.0
 11
93.336883970830286
 21
392.41113487329989
 31
0.0
  0
LINE
  5
499E
  8
APL_JOINERY
 62
     7
 10
89.336883970830286
 20
412.41113487329989
 30
0.0
 11
89.336883970830286
 21
392.41113487329989
 31
0.0
  0
LINE
  5
499F
  8
APL_JOINERY
 62
     8
 10
91.336883970830286
 20
412.41113487329989
 30
0.0
 11
91.336883970830286
 21
392.41113487329989
 31
0.0
  0
ENDBLK
  5
3F30
  8
0
  0
BLOCK
  8
0
  2
ALTH
 70
    36
 10
0.0
 20
0.0
 30
0.0
  3
ALTH
  1
altherm a4 SM border.dwg
  0
ENDBLK
  5
4920
  8
0
  0
BLOCK
  8
0
  2
FIRS
 70
    36
 10
0.0
 20
0.0
 30
0.0
  3
FIRS
  1
first a4 SM border.dwg
  0
ENDBLK
  5
4E25
  8
0
  0
BLOCK
  8
0
  2
VANT
 70
    36
 10
0.0
 20
0.0
 30
0.0
  3
VANT
  1
I:\DWG Borders\vantage a4 SM border.dwg
  0
ENDBLK
  5
4E56
  8
0
  0
BLOCK
  8
0
  2
ALTHERM_A4_SM_ATTRIBUTES__
 70
     2
 10
0.0
 20
0.0
 30
0.0
  3
ALTHERM_A4_SM_ATTRIBUTES__
  1

  0
ATTDEF
  5
54CA
  8
APL_BORDER
 10
52.850746347538013
 20
277.19000000000062
 30
0.0
 40
3.6000000000000001
  1
Drawing Title Line 1
  7
ARIAL-BOLD
  3
Drawing Title Line 1
  2
DRAWINGTITLE_1
 70
     0
  0
ATTDEF
  5
54CB
  8
APL_BORDER
 10
52.850746347538013
 20
271.19000000000062
 30
0.0
 40
3.6000000000000001
  1
Drawing Title Line 2
  7
ARIAL-BOLD
  3
Drawing Title Line 2
  2
DRAWINGTITLE_2
 70
     0
  0
ATTDEF
  5
54CC
  8
APL_BORDER
 10
52.850746347538013
 20
265.19000000000068
 30
0.0
 40
3.0
  1
CROSS SECTION
  7
ARIAL-REGULAR
  3
Drawing Title Line 3
  2
DRAWINGTITLE_3
 70
     0
  0
ATTDEF
  5
54CD
  8
APL_BORDER
 10
67.85074634753795
 20
258.19
 30
0.0
 40
2.399999999999999
  1
AAW01-0
  7
ARIAL-REGULAR
  3
CAD Reference
  2
AW123-456
 70
     0
  0
ATTDEF
  5
54CE
  8
APL_BORDER
 10
100.35074634753791
 20
258.19
 30
0.0
 40
2.399999999999999
  1
1:2
  7
ARIAL-REGULAR
  3
Scale
  2
1:2
 70
     0
  0
ATTDEF
  5
54CF
  8
APL_BORDER
 10
119.35074634753791
 20
258.19
 30
0.0
 40
2.399999999999999
  1
20.09.02
  7
ARIAL-REGULAR
  3
Date
  2
20.09.02
 70
     0
  0
ATTDEF
  5
54D0
  8
APL_BORDER
 10
11.59500000000001
 20
1.1899999999999971
 30
0.0
 40
4.5
  1

  7
ARIAL-BOLD
  3
Page Number (Left)
  2
1.2.34
 70
     0
  0
ATTDEF
  5
54D1
  8
APL_BORDER
 10
189.595
 20
1.1899999999999971
 30
0.0
 40
4.5
  1

  7
ARIAL-BOLD
 72
     2
 11
189.595
 21
1.1899999999999971
 31
0.0
  3
Page Number (Right)
  2
1.2.34
 70
     0
  0
ENDBLK
  5
54D3
  8
0
  0
BLOCK
  8
0
  2
9010250L
 70
    36
 10
121.77436659150899
 20
118.46097626499051
 30
0.0
  3
9010250L
  1
I:\DWG Master Blocks\9010250L.dwg
  0
ENDBLK
  5
5518
  8
0
  0
BLOCK
  8
0
  2
92000
 70
    36
 10
0.0
 20
0.0
 30
0.0
  3
92000
  1
I:\DWG Master Blocks\92000.dwg
  0
ENDBLK
  5
5941
  8
0
  0
BLOCK
  8
0
  2
92060
 70
    36
 10
0.0
 20
0.0
 30
0.0
  3
92060
  1
I:\DWG Master Blocks\92060.dwg
  0
ENDBLK
  5
5944
  8
0
  0
BLOCK
  8
0
 62
     9
  2
92185
 70
    36
 10
0.0
 20
0.0
 30
0.0
  3
92185
  1
I:\DWG Master Blocks\92185.dwg
  0
ENDBLK
  5
5947
  8
0
 62
     9
  0
BLOCK
  8
0
 62
     9
  2
92030
 70
    36
 10
0.0
 20
0.0
 30
0.0
  3
92030
  1
I:\DWG Master Blocks\92030.dwg
  0
ENDBLK
  5
595B
  8
0
 62
     9
  0
BLOCK
  8
0
  2
9010311
 70
     0
 10
0.0
 20
0.0
 30
0.0
  3
9010311
  1

  0
POLYLINE
  5
59E1
  8
APL_JOINERY
 62
   252
 66
     1
 10
0.0
 20
0.0
 30
0.0
 70
     1
  0
VERTEX
  5
840F
  8
APL_JOINERY
 62
   252
 10
1.999999999969456
 20
8.2384489735283228
 30
0.0
 42
0.9481240591635071
  0
VERTEX
  5
8410
  8
APL_JOINERY
 62
   252
 10
1.501416162380091
 20
8.2650210583041588
 30
0.0
  0
VERTEX
  5
8411
  8
APL_JOINERY
 62
   252
 10
1.1339754902589989
 20
4.8275861286486634
 30
0.0
 42
0.1769198979162575
  0
VERTEX
  5
8412
  8
APL_JOINERY
 62
   252
 10
1.2995698605774579
 20
4.1616654209283448
 30
0.0
 42
-1.804611820488411
  0
VERTEX
  5
8413
  8
APL_JOINERY
 62
   252
 10
0.4521866686656982
 20
4.1318492366198578
 30
0.0
  0
VERTEX
  5
8414
  8
APL_JOINERY
 62
   252
 10
0.8660254037843576
 20
4.8486389519854507
 30
0.0
 42
0.1316524975873965
  0
VERTEX
  5
8415
  8
APL_JOINERY
 62
   252
 10
0.9999999999999236
 20
5.3486389519854507
 30
0.0
  0
VERTEX
  5
8416
  8
APL_JOINERY
 62
   252
 10
0.9999999999999245
 20
8.5500000000000007
 30
0.0
 42
0.4142135623730951
  0
VERTEX
  5
8417
  8
APL_JOINERY
 62
   252
 10
0.7499999999999245
 20
8.8000000000000007
 30
0.0
  0
VERTEX
  5
8418
  8
APL_JOINERY
 62
   252
 10
0.2499999999999813
 20
8.8000000000000007
 30
0.0
 42
0.4142135623730951
  0
VERTEX
  5
8419
  8
APL_JOINERY
 62
   252
 10
-0.0000000000000187
 20
8.5500000000000007
 30
0.0
  0
VERTEX
  5
841A
  8
APL_JOINERY
 62
   252
 10
-0.0000000000000195
 20
5.5499999999999989
 30
0.0
 42
-0.4142135623730951
  0
VERTEX
  5
841B
  8
APL_JOINERY
 62
   252
 10
-0.2500000000000195
 20
5.2999999999999989
 30
0.0
  0
VERTEX
  5
841C
  8
APL_JOINERY
 62
   252
 10
-1.0000000000000191
 20
5.2999999999999989
 30
0.0
 42
-0.4142135623730951
  0
VERTEX
  5
841D
  8
APL_JOINERY
 62
   252
 10
-1.2500000000000191
 20
5.5499999999999989
 30
0.0
  0
VERTEX
  5
841E
  8
APL_JOINERY
 62
   252
 10
-1.2500000000000331
 20
6.000000000000016
 30
0.0
 42
0.7207592200561545
  0
VERTEX
  5
841F
  8
APL_JOINERY
 62
   252
 10
-1.7900000000000109
 20
6.1800000000000228
 30
0.0
 42
0.333333333333335
  0
VERTEX
  5
8420
  8
APL_JOINERY
 62
   252
 10
-1.7899999999999681
 20
1.9199999999999899
 30
0.0
 42
0.7207592200561037
  0
VERTEX
  5
8421
  8
APL_JOINERY
 62
   252
 10
-1.2500000000000191
 20
2.1000000000000112
 30
0.0
  0
VERTEX
  5
8422
  8
APL_JOINERY
 62
   252
 10
-1.2500000000000191
 20
2.5499999999999989
 30
0.0
 42
-0.4142135623730909
  0
VERTEX
  5
8423
  8
APL_JOINERY
 62
   252
 10
-1.0000000000000191
 20
2.7999999999999989
 30
0.0
  0
VERTEX
  5
8424
  8
APL_JOINERY
 62
   252
 10
-0.2500000000000195
 20
2.7999999999999989
 30
0.0
 42
-0.4142135623730951
  0
VERTEX
  5
8425
  8
APL_JOINERY
 62
   252
 10
-0.0000000000000195
 20
2.5499999999999989
 30
0.0
  0
VERTEX
  5
8426
  8
APL_JOINERY
 62
   252
 10
-0.0000000000000631
 20
0.0533409567051582
 30
0.0
 42
-0.4931454260313018
  0
VERTEX
  5
8427
  8
APL_JOINERY
 62
   252
 10
-0.2517638090205514
 20
-0.1398442085526437
 30
0.0
  0
VERTEX
  5
8428
  8
APL_JOINERY
 62
   252
 10
-0.7482361909794612
 20
-0.006814834742384
 30
0.0
 42
0.4931454260313245
  0
VERTEX
  5
8429
  8
APL_JOINERY
 62
   252
 10
-1.0000000000000191
 20
-0.2000000000002
 30
0.0
  0
VERTEX
  5
842A
  8
APL_JOINERY
 62
   252
 10
-1.000000000000034
 20
-0.5500000000001944
 30
0.0
 42
0.3103288092888158
  0
VERTEX
  5
842B
  8
APL_JOINERY
 62
   252
 10
-0.8717958158618079
 20
-0.7366691212408068
 30
0.0
  0
VERTEX
  5
842C
  8
APL_JOINERY
 62
   252
 10
1.7282041841382709
 20
-1.7366691212408061
 30
0.0
 42
0.7069755773754159
  0
VERTEX
  5
842D
  8
APL_JOINERY
 62
   252
 10
1.9732050807568631
 20
-1.4500000000002
 30
0.0
  0
VERTEX
  5
842E
  8
APL_JOINERY
 62
   252
 10
1.1339745962154879
 20
0.003589838486123
 30
0.0
 42
-0.1316524975873965
  0
VERTEX
  5
842F
  8
APL_JOINERY
 62
   252
 10
0.9999999999999227
 20
0.5035898384861232
 30
0.0
  0
VERTEX
  5
8430
  8
APL_JOINERY
 62
   252
 10
0.9999999999999227
 20
1.503589838486123
 30
0.0
 42
-0.2679491924263967
  0
VERTEX
  5
8431
  8
APL_JOINERY
 62
   252
 10
1.4999999999846461
 20
2.369615242261732
 30
0.0
 42
0.2679491924264052
  0
VERTEX
  5
8432
  8
APL_JOINERY
 62
   252
 10
1.999999999969398
 20
3.235640646037369
 30
0.0
  0
SEQEND
  5
8433
  8
APL_JOINERY
 62
   252
  0
ENDBLK
  5
59E2
  8
0
  0
BLOCK
  8
0
  2
92080
 70
    36
 10
0.0
 20
0.0
 30
0.0
  3
92080
  1
I:\DWG Master Blocks\92080.dwg
  0
ENDBLK
  5
66E3
  8
0
  0
BLOCK
  8
0
  2
92195
 70
    36
 10
0.0
 20
0.0
 30
0.0
  3
92195
  1
I:\DWG Master Blocks\92195.dwg
  0
ENDBLK
  5
6A9E
  8
0
  0
BLOCK
  8
0
  2
9010235L
 70
     0
 10
0.0
 20
0.0
 30
0.0
  3
9010235L
  1

  0
POLYLINE
  5
6AAC
  8
APL_JOINERY
  6
CONTINUOUS
 62
   252
 66
     1
 10
0.0
 20
0.0
 30
0.0
 70
   129
  0
VERTEX
  5
8434
  8
APL_JOINERY
  6
CONTINUOUS
 62
   252
 10
3.9197564210527669
 20
-3.691290414508841
 30
0.0
 42
0.0448122221323767
  0
VERTEX
  5
8435
  8
APL_JOINERY
  6
CONTINUOUS
 62
   252
 10
5.132007852245394
 20
-1.9830361651190169
 30
0.0
 42
0.1326713627927197
  0
VERTEX
  5
8436
  8
APL_JOINERY
  6
CONTINUOUS
 62
   252
 10
5.1999999956442471
 20
-1.7313037440150081
 30
0.0
  0
VERTEX
  5
8437
  8
APL_JOINERY
  6
CONTINUOUS
 62
   252
 10
5.1999999956442622
 20
-1.3035430704649109
 30
0.0
 42
0.7074891526715601
  0
VERTEX
  5
8438
  8
APL_JOINERY
  6
CONTINUOUS
 62
   252
 10
4.8443163651017747
 20
-1.1779938483203971
 30
0.0
 42
-0.0787540803841858
  0
VERTEX
  5
8439
  8
APL_JOINERY
  6
CONTINUOUS
 62
   252
 10
4.1092322087664277
 20
-1.842426563473736
 30
0.0
 42
-0.5955522935141967
  0
VERTEX
  5
843A
  8
APL_JOINERY
  6
CONTINUOUS
 62
   252
 10
3.7999999999997551
 20
-1.674890523864462
 30
0.0
  0
VERTEX
  5
843B
  8
APL_JOINERY
  6
CONTINUOUS
 62
   252
 10
3.799999999999812
 20
-0.930713455096793
 30
0.0
 42
-0.1718314268301011
  0
VERTEX
  5
843C
  8
APL_JOINERY
  6
CONTINUOUS
 62
   252
 10
3.9114270192713141
 20
-0.6160532595719133
 30
0.0
  0
VERTEX
  5
843D
  8
APL_JOINERY
  6
CONTINUOUS
 62
   252
 10
5.0885729763727161
 20
0.8376009356794043
 30
0.0
 42
0.1718314268301038
  0
VERTEX
  5
843E
  8
APL_JOINERY
  6
CONTINUOUS
 62
   252
 10
5.1999999956442471
 20
1.1522611312042841
 30
0.0
  0
VERTEX
  5
843F
  8
APL_JOINERY
  6
CONTINUOUS
 62
   252
 10
5.1999999956442471
 20
2.4041906490008378
 30
0.0
 42
0.4607623830565128
  0
VERTEX
  5
8440
  8
APL_JOINERY
  6
CONTINUOUS
 62
   252
 10
4.9110901097051283
 20
2.6511441279725432
 30
0.0
  0
VERTEX
  5
8441
  8
APL_JOINERY
  6
CONTINUOUS
 62
   252
 10
0.2110901140605677
 20
1.9969534789715899
 30
0.0
 42
0.39414290722904
  0
VERTEX
  5
8442
  8
APL_JOINERY
  6
CONTINUOUS
 62
   252
 10
0.0009513254767768
 20
1.728211064312972
 30
0.0
  0
VERTEX
  5
8443
  8
APL_JOINERY
  6
CONTINUOUS
 62
   252
 10
0.1521502017843375
 20
-0.0000000000002274
 30
0.0
  0
VERTEX
  5
8444
  8
APL_JOINERY
  6
CONTINUOUS
 62
   252
 10
1.6999999956442471
 20
-0.0000000000002274
 30
0.0
  0
VERTEX
  5
8445
  8
APL_JOINERY
  6
CONTINUOUS
 62
   252
 10
1.6999999956442471
 20
-2.9000000000003179
 30
0.0
  0
VERTEX
  5
8446
  8
APL_JOINERY
  6
CONTINUOUS
 62
   252
 10
1.1999999956442471
 20
-2.9000000000003179
 30
0.0
 42
0.5486826681767499
  0
VERTEX
  5
8447
  8
APL_JOINERY
  6
CONTINUOUS
 62
   252
 10
0.9734438043265214
 20
-3.2556990642137862
 30
0.0
  0
VERTEX
  5
8448
  8
APL_JOINERY
  6
CONTINUOUS
 62
   252
 10
2.668906038458231
 20
-6.8897659232371211
 30
0.0
 42
0.4856171064271721
  0
VERTEX
  5
8449
  8
APL_JOINERY
  6
CONTINUOUS
 62
   252
 10
3.3461710604736079
 20
-7.048426725471244
 30
0.0
 42
0.1189847234789825
  0
VERTEX
  5
844A
  8
APL_JOINERY
  6
CONTINUOUS
 62
   252
 10
5.1559202525524341
 20
-4.7161438120199932
 30
0.0
 42
0.1061589305037454
  0
VERTEX
  5
844B
  8
APL_JOINERY
  6
CONTINUOUS
 62
   252
 10
5.1999999956442471
 20
-4.5108715066771756
 30
0.0
  0
VERTEX
  5
844C
  8
APL_JOINERY
  6
CONTINUOUS
 62
   252
 10
5.1999999956442471
 20
-3.8769296122827082
 30
0.0
 42
0.6875343511490382
  0
VERTEX
  5
844D
  8
APL_JOINERY
  6
CONTINUOUS
 62
   252
 10
4.8512789506751943
 20
-3.7432058268767028
 30
0.0
 42
-0.0714619067173368
  0
VERTEX
  5
844E
  8
APL_JOINERY
  6
CONTINUOUS
 62
   252
 10
4.1050627572147533
 20
-4.3663521038586159
 30
0.0
 42
-0.5872208088415986
  0
VERTEX
  5
844F
  8
APL_JOINERY
  6
CONTINUOUS
 62
   252
 10
3.7999999999997689
 20
-4.1961703861379069
 30
0.0
  0
VERTEX
  5
8450
  8
APL_JOINERY
  6
CONTINUOUS
 62
   252
 10
3.7999999999997831
 20
-4.0159669006756067
 30
0.0
 42
-0.1785450887879461
  0
SEQEND
  5
8451
  8
APL_JOINERY
  6
CONTINUOUS
 62
   252
  0
ENDBLK
  5
6AAD
  8
0
  0
BLOCK
  8
0
  2
24MM_IGU
 70
     0
 10
0.0
 20
0.0
 30
0.0
  3
24MM_IGU
  1

  0
LINE
  5
785F
  8
APL_JOINERY
 62
     7
 10
6.0000174555055841
 20
6.000392998950459
 30
0.0
 11
18.000017455505581
 21
6.000392998950459
 31
0.0
  0
LINE
  5
7860
  8
APL_JOINERY
 62
     7
 10
6.0000174555055841
 20
0.0003929989504599
 30
0.0
 11
18.000017455505581
 21
0.0003929989504599
 31
0.0
  0
LINE
  5
7861
  8
APL_JOINERY
 62
     7
 10
24.000017455505581
 20
0.0003929989504599
 30
0.0
 11
24.000017455505581
 21
20.00039299895046
 31
0.0
  0
LINE
  5
7862
  8
APL_JOINERY
 62
     7
 10
18.000017455505581
 20
0.0003929989504599
 30
0.0
 11
24.000017455505581
 21
0.0003929989504599
 31
0.0
  0
LINE
  5
7863
  8
APL_JOINERY
 62
     8
 10
22.000017455505581
 20
0.0003929989504599
 30
0.0
 11
22.000017455505581
 21
20.00039299895046
 31
0.0
  0
LINE
  5
7864
  8
APL_JOINERY
 62
     7
 10
18.000017455505581
 20
0.0003929989504599
 30
0.0
 11
18.000017455505581
 21
20.00039299895046
 31
0.0
  0
LINE
  5
7865
  8
APL_JOINERY
 62
     8
 10
20.000017455505581
 20
0.0003929989504599
 30
0.0
 11
20.000017455505581
 21
20.00039299895046
 31
0.0
  0
LINE
  5
7866
  8
APL_JOINERY
 62
     7
 10
6.0000174555055841
 20
0.0003929989504599
 30
0.0
 11
6.0000174555055841
 21
20.00039299895046
 31
0.0
  0
LINE
  5
7867
  8
APL_JOINERY
 62
     7
 10
0.000017455505585
 20
0.0003929989504599
 30
0.0
 11
6.0000174555055841
 21
0.0003929989504599
 31
0.0
  0
LINE
  5
7868
  8
APL_JOINERY
 62
     8
 10
4.0000174555055841
 20
0.0003929989504599
 30
0.0
 11
4.0000174555055841
 21
20.00039299895046
 31
0.0
  0
LINE
  5
7869
  8
APL_JOINERY
 62
     7
 10
0.000017455505585
 20
0.0003929989504599
 30
0.0
 11
0.000017455505585
 21
20.00039299895046
 31
0.0
  0
LINE
  5
786A
  8
APL_JOINERY
 62
     8
 10
2.0000174555055841
 20
0.0003929989504599
 30
0.0
 11
2.0000174555055841
 21
20.00039299895046
 31
0.0
  0
ENDBLK
  5
786C
  8
0
  0
BLOCK
  8
0
  2
32MM_IGU
 70
     0
 10
0.0
 20
0.0
 30
0.0
  3
32MM_IGU
  1

  0
LINE
  5
7B00
  8
APL_JOINERY
 62
     7
 10
6.0000174555055992
 20
6.000392998950459
 30
0.0
 11
26.000017455505599
 21
6.000392998950459
 31
0.0
  0
LINE
  5
7B01
  8
APL_JOINERY
 62
     7
 10
6.000017455505577
 20
0.0003929989504599
 30
0.0
 11
26.000017455505599
 21
0.0003929989504599
 31
0.0
  0
INSERT
  5
7B02
  8
APL_JOINERY
  2
6GLASS
 10
12.500017455505541
 20
13.00039299895028
 30
0.0
 41
-1.0
 50
180.0
  0
INSERT
  5
7B03
  8
APL_JOINERY
  2
6GLASS
 10
38.500017455505549
 20
13.00039299895028
 30
0.0
 41
-1.0
 50
180.0
  0
ENDBLK
  5
7875
  8
0
  0
BLOCK
  8
0
  2
FIXING_8G_X_3-4_PAN
 70
     0
 10
0.0
 20
0.0
 30
0.0
  3
FIXING_8G_X_3-4_PAN
  1

  0
LINE
  5
7BF2
  8
APL_JOINERY
  6
CONTINUOUS
 62
     8
 10
20.000000000000028
 20
-0.200000000000045
 30
0.0
 11
19.500000000000021
 21
-0.7000000000000451
 31
0.0
  0
LINE
  5
7BF3
  8
APL_JOINERY
  6
CONTINUOUS
 62
     8
 10
20.000000000000028
 20
0.2000000000000459
 30
0.0
 11
19.500000000000021
 21
0.700000000000046
 31
0.0
  0
LINE
  5
7BF4
  8
APL_JOINERY
  6
CONTINUOUS
 62
     8
 10
9.5
 20
2.0850000000000359
 30
0.0
 11
9.0
 21
1.5850000000000359
 31
0.0
  0
LINE
  5
7BF5
  8
APL_JOINERY
  6
CONTINUOUS
 62
     8
 10
9.5
 20
-2.0850000000000359
 30
0.0
 11
9.0
 21
-1.5850000000000359
 31
0.0
  0
LINE
  5
7BF6
  8
APL_JOINERY
  6
CONTINUOUS
 62
     8
 10
1.0
 20
1.5850000000000359
 30
0.0
 11
0.5
 21
2.0850000000000359
 31
0.0
  0
LINE
  5
7BF7
  8
APL_JOINERY
  6
CONTINUOUS
 62
     8
 10
1.0
 20
-1.5850000000000359
 30
0.0
 11
0.5
 21
-2.0850000000000359
 31
0.0
  0
LINE
  5
7BF8
  8
APL_JOINERY
  6
CONTINUOUS
 62
     8
 10
-0.5
 20
4.0
 30
0.0
 11
-0.5
 21
-4.0
 31
0.0
  0
LINE
  5
7BF9
  8
APL_JOINERY
  6
CONTINUOUS
 62
     8
 10
0.0
 20
4.0
 30
0.0
 11
0.0
 21
-4.0
 31
0.0
  0
LINE
  5
7BFA
  8
APL_JOINERY
  6
CONTINUOUS
 62
     8
 10
0.5
 20
2.0850000000000071
 30
0.0
 11
0.5
 21
-2.0850000000000359
 31
0.0
  0
LINE
  5
7BFB
  8
APL_JOINERY
  6
CONTINUOUS
 62
     8
 10
-3.0
 20
1.4142135623697241
 30
0.0
 11
-3.0
 21
0.5000000000095497
 31
0.0
  0
LINE
  5
7BFC
  8
APL_JOINERY
  6
CONTINUOUS
 62
     8
 10
-3.0
 20
0.5
 30
0.0
 11
-3.0
 21
1.5
 31
0.0
  0
ARC
  5
7BFD
  8
APL_JOINERY
  6
CONTINUOUS
 62
     8
 10
-0.5
 20
-1.5
 30
0.0
 40
2.5
 50
180.0
 51
270.0
  0
LINE
  5
7BFE
  8
APL_JOINERY
  6
CONTINUOUS
 62
     8
 10
0.0
 20
-4.0
 30
0.0
 11
-0.5
 21
-4.0
 31
0.0
  0
LINE
  5
7BFF
  8
APL_JOINERY
  6
CONTINUOUS
 62
     8
 10
-2.6999999999999882
 20
-0.5
 30
0.0
 11
-2.6999999999999882
 21
0.5
 31
0.0
  0
LINE
  5
7C00
  8
APL_JOINERY
  6
CONTINUOUS
 62
     8
 10
-3.0
 20
-1.4142135623697241
 30
0.0
 11
-3.0
 21
-0.5000000000095497
 31
0.0
  0
LINE
  5
7C01
  8
APL_JOINERY
  6
CONTINUOUS
 62
     8
 10
-3.0
 20
-0.5
 30
0.0
 11
-3.0
 21
-1.5
 31
0.0
  0
POLYLINE
  5
7C02
  8
APL_JOINERY
  6
CONTINUOUS
 62
     8
 66
     1
 10
0.0
 20
0.0
 30
0.0
 70
     8
  0
VERTEX
  5
7C03
  8
APL_JOINERY
  6
CONTINUOUS
 62
     8
 10
-3.0
 20
-0.5
 30
0.0
 70
    32
  0
VERTEX
  5
7C04
  8
APL_JOINERY
  6
CONTINUOUS
 62
     8
 10
-3.0
 20
-0.5
 30
0.0
 70
    32
  0
VERTEX
  5
7C05
  8
APL_JOINERY
  6
CONTINUOUS
 62
     8
 10
-2.9939581034292351
 20
-0.5
 30
0.0
 70
    32
  0
VERTEX
  5
7C06
  8
APL_JOINERY
  6
CONTINUOUS
 62
     8
 10
-2.9939581034291218
 20
-0.5
 30
0.0
 70
    32
  0
VERTEX
  5
7C07
  8
APL_JOINERY
  6
CONTINUOUS
 62
     8
 10
-2.986255220563748
 20
-0.5
 30
0.0
 70
    32
  0
VERTEX
  5
7C08
  8
APL_JOINERY
  6
CONTINUOUS
 62
     8
 10
-2.986255220563748
 20
-0.5
 30
0.0
 70
    32
  0
VERTEX
  5
7C09
  8
APL_JOINERY
  6
CONTINUOUS
 62
     8
 10
-2.976385924190367
 20
-0.5
 30
0.0
 70
    32
  0
VERTEX
  5
7C0A
  8
APL_JOINERY
  6
CONTINUOUS
 62
     8
 10
-2.976385924190367
 20
-0.5
 30
0.0
 70
    32
  0
VERTEX
  5
7C0B
  8
APL_JOINERY
  6
CONTINUOUS
 62
     8
 10
-2.9326506504213512
 20
-0.5
 30
0.0
 70
    32
  0
VERTEX
  5
7C0C
  8
APL_JOINERY
  6
CONTINUOUS
 62
     8
 10
-2.9131386450826531
 20
-0.5
 30
0.0
 70
    32
  0
VERTEX
  5
7C0D
  8
APL_JOINERY
  6
CONTINUOUS
 62
     8
 10
-2.9131386450826531
 20
-0.5
 30
0.0
 70
    32
  0
VERTEX
  5
7C0E
  8
APL_JOINERY
  6
CONTINUOUS
 62
     8
 10
-2.83869588621394
 20
-0.5
 30
0.0
 70
    32
  0
VERTEX
  5
7C0F
  8
APL_JOINERY
  6
CONTINUOUS
 62
     8
 10
-2.738533710064984
 20
-0.5
 30
0.0
 70
    32
  0
VERTEX
  5
7C10
  8
APL_JOINERY
  6
CONTINUOUS
 62
     8
 10
-2.6999999999999882
 20
-0.5
 30
0.0
 70
    32
  0
SEQEND
  5
7C11
  8
APL_JOINERY
  6
CONTINUOUS
 62
     8
  0
POLYLINE
  5
7C12
  8
APL_JOINERY
  6
CONTINUOUS
 62
     8
 66
     1
 10
0.0
 20
0.0
 30
0.0
 70
     8
  0
VERTEX
  5
7C13
  8
APL_JOINERY
  6
CONTINUOUS
 62
     8
 10
-3.0
 20
0.5
 30
0.0
 70
    32
  0
VERTEX
  5
7C14
  8
APL_JOINERY
  6
CONTINUOUS
 62
     8
 10
-3.0
 20
0.5
 30
0.0
 70
    32
  0
VERTEX
  5
7C15
  8
APL_JOINERY
  6
CONTINUOUS
 62
     8
 10
-2.9939581034292351
 20
0.5
 30
0.0
 70
    32
  0
VERTEX
  5
7C16
  8
APL_JOINERY
  6
CONTINUOUS
 62
     8
 10
-2.9939581034291218
 20
0.5
 30
0.0
 70
    32
  0
VERTEX
  5
7C17
  8
APL_JOINERY
  6
CONTINUOUS
 62
     8
 10
-2.986255220563748
 20
0.5
 30
0.0
 70
    32
  0
VERTEX
  5
7C18
  8
APL_JOINERY
  6
CONTINUOUS
 62
     8
 10
-2.986255220563748
 20
0.5
 30
0.0
 70
    32
  0
VERTEX
  5
7C19
  8
APL_JOINERY
  6
CONTINUOUS
 62
     8
 10
-2.976385924190367
 20
0.5
 30
0.0
 70
    32
  0
VERTEX
  5
7C1A
  8
APL_JOINERY
  6
CONTINUOUS
 62
     8
 10
-2.976385924190367
 20
0.5
 30
0.0
 70
    32
  0
VERTEX
  5
7C1B
  8
APL_JOINERY
  6
CONTINUOUS
 62
     8
 10
-2.9326506504213512
 20
0.5
 30
0.0
 70
    32
  0
VERTEX
  5
7C1C
  8
APL_JOINERY
  6
CONTINUOUS
 62
     8
 10
-2.9131386450826531
 20
0.5
 30
0.0
 70
    32
  0
VERTEX
  5
7C1D
  8
APL_JOINERY
  6
CONTINUOUS
 62
     8
 10
-2.9131386450826531
 20
0.5
 30
0.0
 70
    32
  0
VERTEX
  5
7C1E
  8
APL_JOINERY
  6
CONTINUOUS
 62
     8
 10
-2.83869588621394
 20
0.5
 30
0.0
 70
    32
  0
VERTEX
  5
7C1F
  8
APL_JOINERY
  6
CONTINUOUS
 62
     8
 10
-2.738533710064984
 20
0.5
 30
0.0
 70
    32
  0
VERTEX
  5
7C20
  8
APL_JOINERY
  6
CONTINUOUS
 62
     8
 10
-2.6999999999999882
 20
0.5
 30
0.0
 70
    32
  0
SEQEND
  5
7C21
  8
APL_JOINERY
  6
CONTINUOUS
 62
     8
  0
LINE
  5
7C22
  8
APL_JOINERY
  6
CONTINUOUS
 62
     8
 10
0.5
 20
-2.0850000000000359
 30
0.0
 11
0.0
 21
-1.5850000000000359
 31
0.0
  0
ARC
  5
7C23
  8
APL_JOINERY
  6
CONTINUOUS
 62
     8
 10
-0.5
 20
1.5
 30
0.0
 40
2.5
 50
90.0
 51
180.0
  0
LINE
  5
7C24
  8
APL_JOINERY
  6
CONTINUOUS
 62
     8
 10
0.0
 20
4.0
 30
0.0
 11
-0.5
 21
4.0
 31
0.0
  0
LINE
  5
7C25
  8
APL_JOINERY
  6
CONTINUOUS
 62
     8
 10
0.5
 20
2.0850000000000359
 30
0.0
 11
0.0
 21
1.5850000000000359
 31
0.0
  0
LINE
  5
7C26
  8
APL_JOINERY
  6
CONTINUOUS
 62
     8
 10
7.0
 20
1.5850000000000071
 30
0.0
 11
7.0
 21
-1.5850000000000359
 31
0.0
  0
LINE
  5
7C27
  8
APL_JOINERY
  6
CONTINUOUS
 62
     8
 10
7.5
 20
2.0850000000000071
 30
0.0
 11
7.5
 21
-2.0850000000000359
 31
0.0
  0
LINE
  5
7C28
  8
APL_JOINERY
  6
CONTINUOUS
 62
     8
 10
8.0
 20
1.5850000000000071
 30
0.0
 11
8.0
 21
-1.5850000000000359
 31
0.0
  0
LINE
  5
7C29
  8
APL_JOINERY
  6
CONTINUOUS
 62
     8
 10
8.5
 20
2.0850000000000071
 30
0.0
 11
8.5
 21
-2.0850000000000359
 31
0.0
  0
LINE
  5
7C2A
  8
APL_JOINERY
  6
CONTINUOUS
 62
     8
 10
9.0
 20
1.5850000000000071
 30
0.0
 11
9.0
 21
-1.5850000000000359
 31
0.0
  0
LINE
  5
7C2B
  8
APL_JOINERY
  6
CONTINUOUS
 62
     8
 10
1.0
 20
1.5850000000000071
 30
0.0
 11
1.0
 21
-1.5850000000000359
 31
0.0
  0
LINE
  5
7C2C
  8
APL_JOINERY
  6
CONTINUOUS
 62
     8
 10
1.5
 20
2.0850000000000071
 30
0.0
 11
1.5
 21
-2.0850000000000359
 31
0.0
  0
LINE
  5
7C2D
  8
APL_JOINERY
  6
CONTINUOUS
 62
     8
 10
2.0
 20
1.5850000000000071
 30
0.0
 11
2.0
 21
-1.5850000000000359
 31
0.0
  0
LINE
  5
7C2E
  8
APL_JOINERY
  6
CONTINUOUS
 62
     8
 10
2.5
 20
2.0850000000000071
 30
0.0
 11
2.5
 21
-2.0850000000000359
 31
0.0
  0
LINE
  5
7C2F
  8
APL_JOINERY
  6
CONTINUOUS
 62
     8
 10
3.0
 20
1.5850000000000071
 30
0.0
 11
3.0
 21
-1.5850000000000359
 31
0.0
  0
LINE
  5
7C30
  8
APL_JOINERY
  6
CONTINUOUS
 62
     8
 10
3.5
 20
2.0850000000000071
 30
0.0
 11
3.5
 21
-2.0850000000000359
 31
0.0
  0
LINE
  5
7C31
  8
APL_JOINERY
  6
CONTINUOUS
 62
     8
 10
4.0
 20
1.5850000000000071
 30
0.0
 11
4.0
 21
-1.5850000000000359
 31
0.0
  0
LINE
  5
7C32
  8
APL_JOINERY
  6
CONTINUOUS
 62
     8
 10
4.5
 20
2.0850000000000071
 30
0.0
 11
4.5
 21
-2.0850000000000359
 31
0.0
  0
LINE
  5
7C33
  8
APL_JOINERY
  6
CONTINUOUS
 62
     8
 10
5.0
 20
1.5850000000000071
 30
0.0
 11
5.0
 21
-1.5850000000000359
 31
0.0
  0
LINE
  5
7C34
  8
APL_JOINERY
  6
CONTINUOUS
 62
     8
 10
5.5
 20
2.0850000000000071
 30
0.0
 11
5.5
 21
-2.0850000000000359
 31
0.0
  0
LINE
  5
7C35
  8
APL_JOINERY
  6
CONTINUOUS
 62
     8
 10
6.0
 20
1.5850000000000071
 30
0.0
 11
6.0
 21
-1.5850000000000359
 31
0.0
  0
LINE
  5
7C36
  8
APL_JOINERY
  6
CONTINUOUS
 62
     8
 10
6.5
 20
2.0850000000000071
 30
0.0
 11
6.5
 21
-2.0850000000000359
 31
0.0
  0
LINE
  5
7C37
  8
APL_JOINERY
  6
CONTINUOUS
 62
     8
 10
5.5
 20
-2.0850000000000359
 30
0.0
 11
5.0
 21
-1.5850000000000359
 31
0.0
  0
LINE
  5
7C38
  8
APL_JOINERY
  6
CONTINUOUS
 62
     8
 10
4.5
 20
-2.0850000000000359
 30
0.0
 11
4.0
 21
-1.5850000000000359
 31
0.0
  0
LINE
  5
7C39
  8
APL_JOINERY
  6
CONTINUOUS
 62
     8
 10
5.0
 20
-1.5850000000000359
 30
0.0
 11
4.5
 21
-2.0850000000000359
 31
0.0
  0
LINE
  5
7C3A
  8
APL_JOINERY
  6
CONTINUOUS
 62
     8
 10
1.5
 20
-2.0850000000000359
 30
0.0
 11
1.0
 21
-1.5850000000000359
 31
0.0
  0
LINE
  5
7C3B
  8
APL_JOINERY
  6
CONTINUOUS
 62
     8
 10
2.0
 20
-1.5850000000000359
 30
0.0
 11
1.5
 21
-2.0850000000000359
 31
0.0
  0
LINE
  5
7C3C
  8
APL_JOINERY
  6
CONTINUOUS
 62
     8
 10
2.5
 20
-2.0850000000000359
 30
0.0
 11
2.0
 21
-1.5850000000000359
 31
0.0
  0
LINE
  5
7C3D
  8
APL_JOINERY
  6
CONTINUOUS
 62
     8
 10
3.0
 20
-1.5850000000000359
 30
0.0
 11
2.5
 21
-2.0850000000000359
 31
0.0
  0
LINE
  5
7C3E
  8
APL_JOINERY
  6
CONTINUOUS
 62
     8
 10
3.5
 20
-2.0850000000000359
 30
0.0
 11
3.0
 21
-1.5850000000000359
 31
0.0
  0
LINE
  5
7C3F
  8
APL_JOINERY
  6
CONTINUOUS
 62
     8
 10
4.0
 20
-1.5850000000000359
 30
0.0
 11
3.5
 21
-2.0850000000000359
 31
0.0
  0
LINE
  5
7C40
  8
APL_JOINERY
  6
CONTINUOUS
 62
     8
 10
7.5
 20
-2.0850000000000359
 30
0.0
 11
7.0
 21
-1.5850000000000359
 31
0.0
  0
LINE
  5
7C41
  8
APL_JOINERY
  6
CONTINUOUS
 62
     8
 10
8.0
 20
-1.5850000000000359
 30
0.0
 11
7.5
 21
-2.0850000000000359
 31
0.0
  0
LINE
  5
7C42
  8
APL_JOINERY
  6
CONTINUOUS
 62
     8
 10
8.5
 20
-2.0850000000000359
 30
0.0
 11
8.0
 21
-1.5850000000000359
 31
0.0
  0
LINE
  5
7C43
  8
APL_JOINERY
  6
CONTINUOUS
 62
     8
 10
9.0
 20
-1.5850000000000359
 30
0.0
 11
8.5
 21
-2.0850000000000359
 31
0.0
  0
LINE
  5
7C44
  8
APL_JOINERY
  6
CONTINUOUS
 62
     8
 10
6.0
 20
-1.5850000000000359
 30
0.0
 11
5.5
 21
-2.0850000000000359
 31
0.0
  0
LINE
  5
7C45
  8
APL_JOINERY
  6
CONTINUOUS
 62
     8
 10
6.5
 20
-2.0850000000000359
 30
0.0
 11
6.0
 21
-1.5850000000000359
 31
0.0
  0
LINE
  5
7C46
  8
APL_JOINERY
  6
CONTINUOUS
 62
     8
 10
7.0
 20
-1.5850000000000359
 30
0.0
 11
6.5
 21
-2.0850000000000359
 31
0.0
  0
LINE
  5
7C47
  8
APL_JOINERY
  6
CONTINUOUS
 62
     8
 10
5.5
 20
2.0850000000000359
 30
0.0
 11
5.0
 21
1.5850000000000359
 31
0.0
  0
LINE
  5
7C48
  8
APL_JOINERY
  6
CONTINUOUS
 62
     8
 10
4.5
 20
2.0850000000000359
 30
0.0
 11
4.0
 21
1.5850000000000359
 31
0.0
  0
LINE
  5
7C49
  8
APL_JOINERY
  6
CONTINUOUS
 62
     8
 10
5.0
 20
1.5850000000000359
 30
0.0
 11
4.5
 21
2.0850000000000359
 31
0.0
  0
LINE
  5
7C4A
  8
APL_JOINERY
  6
CONTINUOUS
 62
     8
 10
1.5
 20
2.0850000000000359
 30
0.0
 11
1.0
 21
1.5850000000000359
 31
0.0
  0
LINE
  5
7C4B
  8
APL_JOINERY
  6
CONTINUOUS
 62
     8
 10
2.0
 20
1.5850000000000359
 30
0.0
 11
1.5
 21
2.0850000000000359
 31
0.0
  0
LINE
  5
7C4C
  8
APL_JOINERY
  6
CONTINUOUS
 62
     8
 10
2.5
 20
2.0850000000000359
 30
0.0
 11
2.0
 21
1.5850000000000359
 31
0.0
  0
LINE
  5
7C4D
  8
APL_JOINERY
  6
CONTINUOUS
 62
     8
 10
3.0
 20
1.5850000000000359
 30
0.0
 11
2.5
 21
2.0850000000000359
 31
0.0
  0
LINE
  5
7C4E
  8
APL_JOINERY
  6
CONTINUOUS
 62
     8
 10
3.5
 20
2.0850000000000359
 30
0.0
 11
3.0
 21
1.5850000000000359
 31
0.0
  0
LINE
  5
7C4F
  8
APL_JOINERY
  6
CONTINUOUS
 62
     8
 10
4.0
 20
1.5850000000000359
 30
0.0
 11
3.5
 21
2.0850000000000359
 31
0.0
  0
LINE
  5
7C50
  8
APL_JOINERY
  6
CONTINUOUS
 62
     8
 10
7.5
 20
2.0850000000000359
 30
0.0
 11
7.0
 21
1.5850000000000359
 31
0.0
  0
LINE
  5
7C51
  8
APL_JOINERY
  6
CONTINUOUS
 62
     8
 10
8.0
 20
1.5850000000000359
 30
0.0
 11
7.5
 21
2.0850000000000359
 31
0.0
  0
LINE
  5
7C52
  8
APL_JOINERY
  6
CONTINUOUS
 62
     8
 10
8.5
 20
2.0850000000000359
 30
0.0
 11
8.0
 21
1.5850000000000359
 31
0.0
  0
LINE
  5
7C53
  8
APL_JOINERY
  6
CONTINUOUS
 62
     8
 10
9.0
 20
1.5850000000000359
 30
0.0
 11
8.5
 21
2.0850000000000359
 31
0.0
  0
LINE
  5
7C54
  8
APL_JOINERY
  6
CONTINUOUS
 62
     8
 10
6.0
 20
1.5850000000000359
 30
0.0
 11
5.5
 21
2.0850000000000359
 31
0.0
  0
LINE
  5
7C55
  8
APL_JOINERY
  6
CONTINUOUS
 62
     8
 10
6.5
 20
2.0850000000000359
 30
0.0
 11
6.0
 21
1.5850000000000359
 31
0.0
  0
LINE
  5
7C56
  8
APL_JOINERY
  6
CONTINUOUS
 62
     8
 10
7.0
 20
1.5850000000000359
 30
0.0
 11
6.5
 21
2.0850000000000359
 31
0.0
  0
LINE
  5
7C57
  8
APL_JOINERY
  6
CONTINUOUS
 62
     8
 10
17.0
 20
1.5850000000000071
 30
0.0
 11
17.0
 21
-1.5850000000000359
 31
0.0
  0
LINE
  5
7C58
  8
APL_JOINERY
  6
CONTINUOUS
 62
     8
 10
16.0
 20
1.5850000000000071
 30
0.0
 11
16.0
 21
-1.5850000000000359
 31
0.0
  0
LINE
  5
7C59
  8
APL_JOINERY
  6
CONTINUOUS
 62
     8
 10
16.5
 20
2.0850000000000071
 30
0.0
 11
16.5
 21
-2.0850000000000359
 31
0.0
  0
LINE
  5
7C5A
  8
APL_JOINERY
  6
CONTINUOUS
 62
     8
 10
13.5
 20
2.0850000000000071
 30
0.0
 11
13.5
 21
-2.0850000000000359
 31
0.0
  0
LINE
  5
7C5B
  8
APL_JOINERY
  6
CONTINUOUS
 62
     8
 10
14.0
 20
1.5850000000000071
 30
0.0
 11
14.0
 21
-1.5850000000000359
 31
0.0
  0
LINE
  5
7C5C
  8
APL_JOINERY
  6
CONTINUOUS
 62
     8
 10
14.5
 20
2.0850000000000071
 30
0.0
 11
14.5
 21
-2.0850000000000359
 31
0.0
  0
LINE
  5
7C5D
  8
APL_JOINERY
  6
CONTINUOUS
 62
     8
 10
15.0
 20
1.5850000000000071
 30
0.0
 11
15.0
 21
-1.5850000000000359
 31
0.0
  0
LINE
  5
7C5E
  8
APL_JOINERY
  6
CONTINUOUS
 62
     8
 10
15.5
 20
2.0850000000000071
 30
0.0
 11
15.5
 21
-2.0850000000000359
 31
0.0
  0
LINE
  5
7C5F
  8
APL_JOINERY
  6
CONTINUOUS
 62
     8
 10
10.0
 20
1.5850000000000071
 30
0.0
 11
10.0
 21
-1.5850000000000359
 31
0.0
  0
LINE
  5
7C60
  8
APL_JOINERY
  6
CONTINUOUS
 62
     8
 10
10.5
 20
2.0850000000000071
 30
0.0
 11
10.5
 21
-2.0850000000000359
 31
0.0
  0
LINE
  5
7C61
  8
APL_JOINERY
  6
CONTINUOUS
 62
     8
 10
11.0
 20
1.5850000000000071
 30
0.0
 11
11.0
 21
-1.5850000000000359
 31
0.0
  0
LINE
  5
7C62
  8
APL_JOINERY
  6
CONTINUOUS
 62
     8
 10
11.5
 20
2.0850000000000071
 30
0.0
 11
11.5
 21
-2.0850000000000359
 31
0.0
  0
LINE
  5
7C63
  8
APL_JOINERY
  6
CONTINUOUS
 62
     8
 10
12.0
 20
1.5850000000000071
 30
0.0
 11
12.0
 21
-1.5850000000000359
 31
0.0
  0
LINE
  5
7C64
  8
APL_JOINERY
  6
CONTINUOUS
 62
     8
 10
12.5
 20
2.0850000000000071
 30
0.0
 11
12.5
 21
-2.0850000000000359
 31
0.0
  0
LINE
  5
7C65
  8
APL_JOINERY
  6
CONTINUOUS
 62
     8
 10
13.0
 20
1.5850000000000071
 30
0.0
 11
13.0
 21
-1.5850000000000359
 31
0.0
  0
LINE
  5
7C66
  8
APL_JOINERY
  6
CONTINUOUS
 62
     8
 10
9.5
 20
2.0850000000000071
 30
0.0
 11
9.5
 21
-2.0850000000000359
 31
0.0
  0
LINE
  5
7C67
  8
APL_JOINERY
  6
CONTINUOUS
 62
     8
 10
13.5
 20
-2.0850000000000359
 30
0.0
 11
13.0
 21
-1.5850000000000359
 31
0.0
  0
LINE
  5
7C68
  8
APL_JOINERY
  6
CONTINUOUS
 62
     8
 10
10.5
 20
-2.0850000000000359
 30
0.0
 11
10.0
 21
-1.5850000000000359
 31
0.0
  0
LINE
  5
7C69
  8
APL_JOINERY
  6
CONTINUOUS
 62
     8
 10
11.0
 20
-1.5850000000000359
 30
0.0
 11
10.5
 21
-2.0850000000000359
 31
0.0
  0
LINE
  5
7C6A
  8
APL_JOINERY
  6
CONTINUOUS
 62
     8
 10
11.5
 20
-2.0850000000000359
 30
0.0
 11
11.0
 21
-1.5850000000000359
 31
0.0
  0
LINE
  5
7C6B
  8
APL_JOINERY
  6
CONTINUOUS
 62
     8
 10
12.0
 20
-1.5850000000000359
 30
0.0
 11
11.5
 21
-2.0850000000000359
 31
0.0
  0
LINE
  5
7C6C
  8
APL_JOINERY
  6
CONTINUOUS
 62
     8
 10
12.5
 20
-2.0850000000000359
 30
0.0
 11
12.0
 21
-1.5850000000000359
 31
0.0
  0
LINE
  5
7C6D
  8
APL_JOINERY
  6
CONTINUOUS
 62
     8
 10
13.0
 20
-1.5850000000000359
 30
0.0
 11
12.5
 21
-2.0850000000000359
 31
0.0
  0
LINE
  5
7C6E
  8
APL_JOINERY
  6
CONTINUOUS
 62
     8
 10
10.0
 20
-1.5850000000000359
 30
0.0
 11
9.5
 21
-2.0850000000000359
 31
0.0
  0
LINE
  5
7C6F
  8
APL_JOINERY
  6
CONTINUOUS
 62
     8
 10
17.0
 20
-1.5850000000000359
 30
0.0
 11
16.5
 21
-2.0850000000000359
 31
0.0
  0
LINE
  5
7C70
  8
APL_JOINERY
  6
CONTINUOUS
 62
     8
 10
14.0
 20
-1.5850000000000359
 30
0.0
 11
13.5
 21
-2.0850000000000359
 31
0.0
  0
LINE
  5
7C71
  8
APL_JOINERY
  6
CONTINUOUS
 62
     8
 10
14.5
 20
-2.0850000000000359
 30
0.0
 11
14.0
 21
-1.5850000000000359
 31
0.0
  0
LINE
  5
7C72
  8
APL_JOINERY
  6
CONTINUOUS
 62
     8
 10
15.0
 20
-1.5850000000000359
 30
0.0
 11
14.5
 21
-2.0850000000000359
 31
0.0
  0
LINE
  5
7C73
  8
APL_JOINERY
  6
CONTINUOUS
 62
     8
 10
15.5
 20
-2.0850000000000359
 30
0.0
 11
15.0
 21
-1.5850000000000359
 31
0.0
  0
LINE
  5
7C74
  8
APL_JOINERY
  6
CONTINUOUS
 62
     8
 10
16.0
 20
-1.5850000000000359
 30
0.0
 11
15.5
 21
-2.0850000000000359
 31
0.0
  0
LINE
  5
7C75
  8
APL_JOINERY
  6
CONTINUOUS
 62
     8
 10
16.5
 20
-2.0850000000000359
 30
0.0
 11
16.0
 21
-1.5850000000000359
 31
0.0
  0
LINE
  5
7C76
  8
APL_JOINERY
  6
CONTINUOUS
 62
     8
 10
13.5
 20
2.0850000000000359
 30
0.0
 11
13.0
 21
1.5850000000000359
 31
0.0
  0
LINE
  5
7C77
  8
APL_JOINERY
  6
CONTINUOUS
 62
     8
 10
10.5
 20
2.0850000000000359
 30
0.0
 11
10.0
 21
1.5850000000000359
 31
0.0
  0
LINE
  5
7C78
  8
APL_JOINERY
  6
CONTINUOUS
 62
     8
 10
11.0
 20
1.5850000000000359
 30
0.0
 11
10.5
 21
2.0850000000000359
 31
0.0
  0
LINE
  5
7C79
  8
APL_JOINERY
  6
CONTINUOUS
 62
     8
 10
11.5
 20
2.0850000000000359
 30
0.0
 11
11.0
 21
1.5850000000000359
 31
0.0
  0
LINE
  5
7C7A
  8
APL_JOINERY
  6
CONTINUOUS
 62
     8
 10
12.0
 20
1.5850000000000359
 30
0.0
 11
11.5
 21
2.0850000000000359
 31
0.0
  0
LINE
  5
7C7B
  8
APL_JOINERY
  6
CONTINUOUS
 62
     8
 10
12.5
 20
2.0850000000000359
 30
0.0
 11
12.0
 21
1.5850000000000359
 31
0.0
  0
LINE
  5
7C7C
  8
APL_JOINERY
  6
CONTINUOUS
 62
     8
 10
13.0
 20
1.5850000000000359
 30
0.0
 11
12.5
 21
2.0850000000000359
 31
0.0
  0
LINE
  5
7C7D
  8
APL_JOINERY
  6
CONTINUOUS
 62
     8
 10
10.0
 20
1.5850000000000359
 30
0.0
 11
9.5
 21
2.0850000000000359
 31
0.0
  0
LINE
  5
7C7E
  8
APL_JOINERY
  6
CONTINUOUS
 62
     8
 10
17.0
 20
1.5850000000000359
 30
0.0
 11
16.5
 21
2.0850000000000359
 31
0.0
  0
LINE
  5
7C7F
  8
APL_JOINERY
  6
CONTINUOUS
 62
     8
 10
14.0
 20
1.5850000000000359
 30
0.0
 11
13.5
 21
2.0850000000000359
 31
0.0
  0
LINE
  5
7C80
  8
APL_JOINERY
  6
CONTINUOUS
 62
     8
 10
14.5
 20
2.0850000000000359
 30
0.0
 11
14.0
 21
1.5850000000000359
 31
0.0
  0
LINE
  5
7C81
  8
APL_JOINERY
  6
CONTINUOUS
 62
     8
 10
15.0
 20
1.5850000000000359
 30
0.0
 11
14.5
 21
2.0850000000000359
 31
0.0
  0
LINE
  5
7C82
  8
APL_JOINERY
  6
CONTINUOUS
 62
     8
 10
15.5
 20
2.0850000000000359
 30
0.0
 11
15.0
 21
1.5850000000000359
 31
0.0
  0
LINE
  5
7C83
  8
APL_JOINERY
  6
CONTINUOUS
 62
     8
 10
16.0
 20
1.5850000000000359
 30
0.0
 11
15.5
 21
2.0850000000000359
 31
0.0
  0
LINE
  5
7C84
  8
APL_JOINERY
  6
CONTINUOUS
 62
     8
 10
16.5
 20
2.0850000000000359
 30
0.0
 11
16.0
 21
1.5850000000000359
 31
0.0
  0
LINE
  5
7C85
  8
APL_JOINERY
  6
CONTINUOUS
 62
     8
 10
17.500000000000021
 20
1.6999999999999891
 30
0.0
 11
17.500000000000021
 21
-1.700000000000045
 31
0.0
  0
LINE
  5
7C86
  8
APL_JOINERY
  6
CONTINUOUS
 62
     8
 10
17.500000000000021
 20
1.700000000000045
 30
0.0
 11
17.00070030390307
 21
1.200700303903091
 31
0.0
  0
LINE
  5
7C87
  8
APL_JOINERY
  6
CONTINUOUS
 62
     8
 10
18.000000000000021
 20
1.200000000000045
 30
0.0
 11
17.500000000000021
 21
1.700000000000045
 31
0.0
  0
LINE
  5
7C88
  8
APL_JOINERY
  6
CONTINUOUS
 62
     8
 10
19.500000000000021
 20
-0.7000000000000451
 30
0.0
 11
19.000486886156779
 21
-0.2004868861567952
 31
0.0
  0
LINE
  5
7C89
  8
APL_JOINERY
  6
CONTINUOUS
 62
     8
 10
19.000000000000028
 20
-0.7000000000000451
 30
0.0
 11
18.500000000000028
 21
-1.200000000000045
 31
0.0
  0
LINE
  5
7C8A
  8
APL_JOINERY
  6
CONTINUOUS
 62
     8
 10
18.500000000000028
 20
-1.200000000000045
 30
0.0
 11
18.000533883633828
 21
-0.7005338836338521
 31
0.0
  0
LINE
  5
7C8B
  8
APL_JOINERY
  6
CONTINUOUS
 62
     8
 10
17.500000000000021
 20
-1.700000000000045
 30
0.0
 11
17.00070030390307
 21
-1.2007003039030899
 31
0.0
  0
LINE
  5
7C8C
  8
APL_JOINERY
  6
CONTINUOUS
 62
     8
 10
18.000000000000021
 20
-1.200000000000045
 30
0.0
 11
17.500000000000021
 21
-1.700000000000045
 31
0.0
  0
LINE
  5
7C8D
  8
APL_JOINERY
  6
CONTINUOUS
 62
     8
 10
19.500000000000021
 20
0.7000000000000175
 30
0.0
 11
19.500000000000021
 21
-0.7000000000000451
 31
0.0
  0
LINE
  5
7C8E
  8
APL_JOINERY
  6
CONTINUOUS
 62
     8
 10
19.000000000000028
 20
0.7000000000000175
 30
0.0
 11
19.000000000000028
 21
-0.7000000000000451
 31
0.0
  0
LINE
  5
7C8F
  8
APL_JOINERY
  6
CONTINUOUS
 62
     8
 10
18.500000000000028
 20
1.2000000000000171
 30
0.0
 11
18.500000000000028
 21
-1.200000000000045
 31
0.0
  0
LINE
  5
7C90
  8
APL_JOINERY
  6
CONTINUOUS
 62
     8
 10
18.000000000000021
 20
1.2000000000000171
 30
0.0
 11
18.000000000000021
 21
-1.200000000000045
 31
0.0
  0
LINE
  5
7C91
  8
APL_JOINERY
  6
CONTINUOUS
 62
     8
 10
19.500000000000021
 20
0.700000000000046
 30
0.0
 11
19.000486886156779
 21
0.2004868861567961
 31
0.0
  0
LINE
  5
7C92
  8
APL_JOINERY
  6
CONTINUOUS
 62
     8
 10
19.000000000000028
 20
0.700000000000046
 30
0.0
 11
18.500000000000028
 21
1.200000000000045
 31
0.0
  0
LINE
  5
7C93
  8
APL_JOINERY
  6
CONTINUOUS
 62
     8
 10
18.500000000000028
 20
1.200000000000045
 30
0.0
 11
18.000533883633828
 21
0.7005338836338529
 31
0.0
  0
LINE
  5
7C94
  8
APL_JOINERY
  6
CONTINUOUS
 62
     8
 10
20.000000000000028
 20
0.2000000000000175
 30
0.0
 11
20.000000000000028
 21
-0.200000000000045
 31
0.0
  0
ENDBLK
  5
7C95
  8
0
  0
BLOCK
  8
0
  2
01002
 70
    36
 10
0.0
 20
0.0
 30
0.0
  3
01002
  1
I:\DWG Master Blocks\01002.dwg
  0
ENDBLK
  5
7C98
  8
0
  0
BLOCK
  8
0
  2
92070
 70
    36
 10
0.0
 20
0.0
 30
0.0
  3
92070
  1
I:\DWG Master Blocks\92070.dwg
  0
ENDBLK
  5
7DF0
  8
0
  0
ENDSEC
  0
SECTION
  2
ENTITIES
  0
TEXT
  5
3A10
  8
APL_NOTES
 10
111.5697266348227
 20
91.069664872569973
 30
0.0
 40
5.0
  1
92060 Light Mullion
  7
ARIAL-BOLD
  0
INSERT
  5
3EA1
  8
0
  2
A4_SPECIFIERS_MANUAL
 10
0.0
 20
0.0
 30
0.0
  0
LINE
  5
3EF2
  8
APL_NOTES
 62
     2
 10
284.24822657922539
 20
458.64304166413871
 30
0.0
 11
284.2482265792255
 21
380.4430416641386
 31
0.0
  0
LINE
  5
3EF3
  8
APL_NOTES
 62
     2
 10
282.5482265792254
 20
458.64304166413871
 30
0.0
 11
282.54822657922551
 21
380.4430416641386
 31
0.0
  0
LINE
  5
3EF4
  8
APL_NOTES
 62
     2
 10
322.4982265792255
 20
420.39304166413859
 30
0.0
 11
284.24822657922539
 21
420.39304166413859
 31
0.0
  0
LINE
  5
3EF5
  8
APL_NOTES
 62
     2
 10
282.5482265792254
 20
420.39304166413859
 30
0.0
 11
244.2982265792254
 21
420.39304166413859
 31
0.0
  0
LINE
  5
3EF6
  8
APL_NOTES
 62
     2
 10
282.5482265792254
 20
418.6930416641386
 30
0.0
 11
244.2982265792254
 21
418.6930416641386
 31
0.0
  0
LINE
  5
3EFD
  8
APL_NOTES
 62
     8
 10
324.19822657922538
 20
460.34304166413858
 30
0.0
 11
320.79822657922551
 21
456.94304166413849
 31
0.0
  0
LINE
  5
3EFE
  8
APL_NOTES
 62
     8
 10
320.79822657922551
 20
422.0930416641387
 30
0.0
 11
322.4982265792255
 21
420.39304166413859
 31
0.0
  0
LINE
  5
3EFF
  8
APL_NOTES
 62
     8
 10
285.94822657922549
 20
422.0930416641387
 30
0.0
 11
284.2482265792255
 21
420.39304166413859
 31
0.0
  0
LINE
  5
3F00
  8
APL_NOTES
 62
     8
 10
285.94822657922549
 20
456.94304166413872
 30
0.0
 11
284.24822657922539
 21
458.64304166413871
 31
0.0
  0
LINE
  5
3F01
  8
APL_NOTES
 62
     8
 10
244.2982265792254
 20
458.64304166413882
 30
0.0
 11
242.5982265792255
 21
460.3430416641387
 31
0.0
  0
LINE
  5
3F02
  8
APL_NOTES
 62
     2
 10
244.2982265792254
 20
380.4430416641386
 30
0.0
 11
242.59822657922541
 21
378.74304166413862
 31
0.0
  0
LINE
  5
3F03
  8
APL_NOTES
 62
     2
 10
322.4982265792255
 20
380.4430416641386
 30
0.0
 11
324.19822657922538
 21
378.74304166413862
 31
0.0
  0
LINE
  5
3F04
  8
APL_NOTES
 62
     2
 10
322.4982265792255
 20
418.6930416641386
 30
0.0
 11
284.24822657922539
 21
418.6930416641386
 31
0.0
  0
LINE
  5
3F10
  8
APL_NOTES
 62
     8
 10
305.70489172906082
 20
439.51804166413859
 30
0.0
 11
334.6048917290608
 21
439.51804166413859
 31
0.0
  0
POLYLINE
  8
APL_NOTES
  5
893A
  62
8
  66
     1
 10
0.000000
 20
0.000000
 30
0.000000
  70
     8
  0
VERTEX
  8
APL_NOTES
  5
893B
 10
334.605
 20
425.918
 30
0.000000
  70
    32
  0
VERTEX
  8
APL_NOTES
  5
893C
 10
334.605
 20
439.518
 30
0.000000
  70
    32
  0
SEQEND
  8
APL_NOTES
  5
893D
  0
POLYLINE
  8
APL_NOTES
  5
893E
  62
8
  66
     1
 10
0.000000
 20
0.000000
 30
0.000000
  70
     8
  0
VERTEX
  8
APL_NOTES
  5
893F
 10
235.238
 20
425.918
 30
0.000000
  70
    32
  0
VERTEX
  8
APL_NOTES
  5
8940
 10
235.238
 20
439.518
 30
0.000000
  70
    32
  0
SEQEND
  8
APL_NOTES
  5
8941
  0
POLYLINE
  8
APL_NOTES
  5
8942
  62
8
  66
     1
 10
0.000000
 20
0.000000
 30
0.000000
  70
     8
  0
VERTEX
  8
APL_NOTES
  5
8943
 10
289.773
 20
469.345
 30
0.000000
  70
    32
  0
VERTEX
  8
APL_NOTES
  5
8944
 10
303.373
 20
469.345
 30
0.000000
  70
    32
  0
SEQEND
  8
APL_NOTES
  5
8945
  0
POLYLINE
  8
APL_NOTES
  5
8946
  62
8
  66
     1
 10
0.000000
 20
0.000000
 30
0.000000
  70
     8
  0
VERTEX
  8
APL_NOTES
  5
8947
 10
289.773
 20
370.443
 30
0.000000
  70
    32
  0
VERTEX
  8
APL_NOTES
  5
8948
 10
303.373
 20
370.443
 30
0.000000
  70
    32
  0
SEQEND
  8
APL_NOTES
  5
8949
  0
LINE
  5
3F17
  8
APL_NOTES
 62
     8
 10
303.37322657922539
 20
399.3433226459918
 30
0.0
 11
303.37322657922539
 21
370.44332264599188
 31
0.0
  0
TEXT
  5
42C0
  8
APL_NOTES
 10
233.72150711304641
 20
420.1996892331569
 30
0.0
 40
4.25
  1
B
  7
ARIAL-BOLD
  0
TEXT
  5
42C1
  8
APL_NOTES
 10
333.44187450459589
 20
420.1996892331569
 30
0.0
 40
4.25
  1
B
  7
ARIAL-BOLD
  0
TEXT
  5
42C2
  8
APL_NOTES
 10
284.18493050578809
 20
467.16232843137612
 30
0.0
 40
4.25
  1
A
  7
ARIAL-BOLD
  0
TEXT
  5
42C3
  8
APL_NOTES
 10
284.18493050578809
 20
368.43084240544812
 30
0.0
 40
4.25
  1
A
  7
ARIAL-BOLD
  0
TEXT
  5
48BD
  8
APL_NOTES
 10
111.760523684048
 20
82.363776708251379
 30
0.0
 40
5.0
  1
Refer to tables for span requirements
  7
ARIAL-REGULAR
  0
POLYLINE
  5
49BA
  8
APL_NOTES
 66
     1
 10
0.0
 20
0.0
 30
0.0
 70
     1
 40
0.3
 41
0.3
  0
VERTEX
  5
8405
  8
APL_NOTES
 10
151.07307817050111
 20
370.03040000696421
 30
0.0
  0
VERTEX
  5
8406
  8
APL_NOTES
 10
151.07307817050111
 20
381.03040000696421
 30
0.0
  0
VERTEX
  5
8407
  8
APL_NOTES
 10
100.07307817050111
 20
381.03040000696421
 30
0.0
  0
VERTEX
  5
8408
  8
APL_NOTES
 10
100.07307817050111
 20
370.03040000696421
 30
0.0
  0
SEQEND
  5
8409
  8
APL_NOTES
  0
TEXT
  5
49BB
  8
APL_NOTES
 10
103.07307817050111
 20
373.03040000696421
 30
0.0
 40
5.0
  1
SECTION A-A
  7
ARIAL-BOLD
  0
POLYLINE
  5
49BC
  8
APL_NOTES
 66
     1
 10
0.0
 20
0.0
 30
0.0
 70
     1
 40
0.3
 41
0.3
  0
VERTEX
  5
840A
  8
APL_NOTES
 10
119.5446969638418
 20
102.7180469748216
 30
0.0
  0
VERTEX
  5
840B
  8
APL_NOTES
 10
119.5446969638418
 20
113.7180469748216
 30
0.0
  0
VERTEX
  5
840C
  8
APL_NOTES
 10
68.544696963841872
 20
113.7180469748216
 30
0.0
  0
VERTEX
  5
840D
  8
APL_NOTES
 10
68.544696963841872
 20
102.7180469748216
 30
0.0
  0
SEQEND
  5
840E
  8
APL_NOTES
  0
TEXT
  5
49BD
  8
APL_NOTES
 10
71.544696963841872
 20
105.7180469748216
 30
0.0
 40
5.0
  1
SECTION B-B
  7
ARIAL-BOLD
  0
TEXT
  5
5567
  8
APL_NOTES
 10
111.5697266348227
 20
75.02124702143189
 30
0.0
 40
5.0
  1
and other internal box mullion options
  7
ARIAL-REGULAR
  0
INSERT
  5
5A32
  8
APL_JOINERY
  2
92000
 10
50.873078170402437
 20
443.25687664534718
 30
0.0
 41
-1.0
 50
180.0
  0
INSERT
  5
5A33
  8
APL_JOINERY
  2
92000
 10
58.373036580010186
 20
161.71590251155001
 30
0.0
  0
INSERT
  5
5A34
  8
APL_JOINERY
  2
92060
 10
50.373036580027929
 20
290.12938611753742
 30
0.0
 50
270.0
  0
INSERT
  5
5A3D
  8
APL_JOINERY
  2
92030
 10
47.373078170600593
 20
322.12938611772142
 30
0.0
  0
INSERT
  5
5A3F
  8
APL_JOINERY
  2
92185
 10
42.873078170600358
 20
344.12938611772182
 30
0.0
  0
INSERT
  5
5A42
  8
APL_JOINERY
  2
9010250L
 10
50.67307817060054
 20
362.12938611772131
 30
0.0
  0
INSERT
  5
5A45
  8
APL_JOINERY
  2
92185
 10
42.873078170600358
 20
416.2571678472936
 30
0.0
 41
-1.0
 50
180.0
  0
INSERT
  5
5A47
  8
APL_JOINERY
  2
9010250L
 10
50.67307817060054
 20
398.25716784729411
 30
0.0
 41
-1.0
 50
180.0
  0
TEXT
  5
5A4E
  8
APL_NOTES
 10
20.03962748670153
 20
402.80367071610158
 30
0.0
 40
5.0
  1
92185
  7
ARIAL-BOLD
  0
TEXT
  5
5A4F
  8
APL_NOTES
 10
19.803741382496689
 20
446.43318929538208
 30
0.0
 40
5.0
  1
92000
  7
ARIAL-BOLD
  0
TEXT
  5
5A50
  8
APL_NOTES
 10
25.940399982817549
 20
151.55364746043341
 30
0.0
 40
5.0
  1
92000
  7
ARIAL-BOLD
  0
TEXT
  5
5A51
  8
APL_NOTES
 10
26.544360255911901
 20
197.24336630070249
 30
0.0
 40
5.0
  1
92195
  7
ARIAL-BOLD
  0
TEXT
  5
5A52
  8
APL_NOTES
 10
19.015769545149169
 20
335.49141200322708
 30
0.0
 40
5.0
  1
92030
  7
ARIAL-BOLD
  0
TEXT
  5
5A53
  8
APL_NOTES
 10
19.00716778305673
 20
355.87451756523922
 30
0.0
 40
5.0
  1
92185
  7
ARIAL-BOLD
  0
TEXT
  5
5A54
  8
APL_NOTES
 10
96.683925918276813
 20
297.32300755796211
 30
0.0
 40
5.0
  1
92060 Transom
  7
ARIAL-BOLD
  0
TEXT
  5
5A55
  8
APL_NOTES
 10
25.885592451457569
 20
256.9776963700287
 30
0.0
 40
5.0
  1
92195
  7
ARIAL-BOLD
  0
INSERT
  5
5A56
  8
APL_JOINERY
  2
9010311
 10
83.373036579543168
 20
363.98648417652799
 30
0.0
 50
180.0
  0
INSERT
  5
5A57
  8
APL_JOINERY
  2
9010311
 10
90.873036579979484
 20
328.12938611735962
 30
0.0
 50
180.0
  0
INSERT
  5
5A58
  8
APL_JOINERY
  2
9010311
 10
90.873036580108874
 20
208.7156113092372
 30
0.0
 50
180.0
  0
INSERT
  5
5A59
  8
APL_JOINERY
  2
9010311
 10
83.373078170501117
 20
396.25716784766013
 30
0.0
 41
-1.0
  0
INSERT
  5
5A5A
  8
APL_JOINERY
  2
9010311
 10
90.873036579979484
 20
252.12938611734771
 30
0.0
 41
-1.0
  0
TEXT
  5
5BD9
  8
APL_NOTES
 10
96.547041543567104
 20
289.31677851649818
 30
0.0
 40
5.0
  1
Refer to tables for
  7
ARIAL-REGULAR
  0
TEXT
  5
5BDA
  8
APL_NOTES
 10
96.829891589999818
 20
281.86306468700923
 30
0.0
 40
5.0
  1
span requirements
  7
ARIAL-REGULAR
  0
INSERT
  5
5C29
  8
APL_JOINERY
  2
19MMLINER
 10
94.373036580110579
 20
187.42372518612609
 30
0.0
  0
INSERT
  5
61BF
  8
APL_JOINERY
  2
92000
 10
29.521076888882181
 20
32.592153526925927
 30
0.0
 41
-1.0
 50
270.0
  0
INSERT
  5
61C0
  8
APL_JOINERY
  2
92060
 10
148.6846746589741
 20
24.592153526943662
 30
0.0
  0
INSERT
  5
61C2
  8
APL_JOINERY
  2
92185
 10
56.520785686935412
 20
24.592153526943662
 30
0.0
 41
-1.0
 50
270.0
  0
INSERT
  5
61C4
  8
APL_JOINERY
  2
9010250L
 10
74.520785686934715
 20
32.392153526943851
 30
0.0
 41
-1.0
 50
270.0
  0
INSERT
  5
61C8
  8
APL_JOINERY
  2
92185
 10
130.6846746591587
 20
24.592153526763589
 30
0.0
 50
89.999999999999204
  0
INSERT
  5
61CA
  8
APL_JOINERY
  2
9010250L
 10
112.6846746591596
 20
32.392153526764218
 30
0.0
 50
89.999999999999204
  0
INSERT
  5
61CB
  8
APL_JOINERY
  2
92000
 10
333.06464129461142
 20
32.592153526796551
 30
0.0
 50
90.0
  0
TEXT
  5
61D3
  8
APL_NOTES
 10
14.6815697285249
 20
15.77284755923856
 30
0.0
 40
5.0
  1
92000
  7
ARIAL-BOLD
  0
TEXT
  5
61D4
  8
APL_NOTES
 10
59.940269621952929
 20
16.159793869762439
 30
0.0
 40
5.0
  1
92185
  7
ARIAL-BOLD
  0
TEXT
  5
61D6
  8
APL_NOTES
 10
330.50668132610161
 20
16.483388986239209
 30
0.0
 40
5.0
  1
92000
  7
ARIAL-BOLD
  0
TEXT
  5
61D7
  8
APL_NOTES
 10
110.7286895110034
 20
16.159793869762439
 30
0.0
 40
5.0
  1
92185
  7
ARIAL-BOLD
  0
INSERT
  5
61DB
  8
APL_JOINERY
  2
9010311
 10
110.6846746591455
 20
65.092153526765884
 30
0.0
 50
270.0
  0
INSERT
  5
61DC
  8
APL_JOINERY
  2
9010311
 10
76.520785686575763
 20
65.092153526895459
 30
0.0
 41
-1.0
 50
90.0
  0
POLYLINE
  5
62F5
  8
APL_JOINERY
  6
CONTINUOUS
 62
     8
 66
     1
 10
0.0
 20
0.0
 30
0.0
  0
VERTEX
  5
62F6
  8
APL_JOINERY
  6
CONTINUOUS
 62
     8
 10
318.36583222013769
 20
77.39489181780695
 30
0.0
  0
VERTEX
  5
62F7
  8
APL_JOINERY
  6
CONTINUOUS
 62
     8
 10
318.36583222013769
 20
77.39489181780695
 30
0.0
  0
VERTEX
  5
62F8
  8
APL_JOINERY
  6
CONTINUOUS
 62
     8
 10
317.96021742163163
 20
78.459851953414756
 30
0.0
  0
VERTEX
  5
62F9
  8
APL_JOINERY
  6
CONTINUOUS
 62
     8
 10
317.66716553135927
 20
79.281842498098314
 30
0.0
  0
VERTEX
  5
62FA
  8
APL_JOINERY
  6
CONTINUOUS
 62
     8
 10
317.38076531330279
 20
80.123850271233124
 30
0.0
  0
VERTEX
  5
62FB
  8
APL_JOINERY
  6
CONTINUOUS
 62
     8
 10
317.12770063683382
 20
80.894685278031744
 30
0.0
  0
VERTEX
  5
62FC
  8
APL_JOINERY
  6
CONTINUOUS
 62
     8
 10
316.93651555825443
 20
81.489906105713004
 30
0.0
  0
VERTEX
  5
62FD
  8
APL_JOINERY
  6
CONTINUOUS
 62
     8
 10
316.78950472981791
 20
81.952899602336643
 30
0.0
  0
VERTEX
  5
62FE
  8
APL_JOINERY
  6
CONTINUOUS
 62
     8
 10
316.78950455420289
 20
81.952899744536325
 30
0.0
  0
VERTEX
  5
62FF
  8
APL_JOINERY
  6
CONTINUOUS
 62
     8
 10
316.02168360401907
 20
84.432883659913074
 30
0.0
  0
VERTEX
  5
6300
  8
APL_JOINERY
  6
CONTINUOUS
 62
     8
 10
315.42835385157611
 20
86.466066380779438
 30
0.0
  0
VERTEX
  5
6301
  8
APL_JOINERY
  6
CONTINUOUS
 62
     8
 10
314.97584778236211
 20
88.135426433883737
 30
0.0
  0
VERTEX
  5
6302
  8
APL_JOINERY
  6
CONTINUOUS
 62
     8
 10
314.52536588535702
 20
89.96464131470006
 30
0.0
  0
VERTEX
  5
6303
  8
APL_JOINERY
  6
CONTINUOUS
 62
     8
 10
314.21933754045909
 20
91.360440425177472
 30
0.0
  0
VERTEX
  5
6304
  8
APL_JOINERY
  6
CONTINUOUS
 62
     8
 10
313.94615546659031
 20
92.781284676721754
 30
0.0
  0
VERTEX
  5
6305
  8
APL_JOINERY
  6
CONTINUOUS
 62
     8
 10
313.73421644734009
 20
94.078214040579127
 30
0.0
  0
VERTEX
  5
6306
  8
APL_JOINERY
  6
CONTINUOUS
 62
     8
 10
313.5567857684656
 20
95.413675364984925
 30
0.0
  0
VERTEX
  5
6307
  8
APL_JOINERY
  6
CONTINUOUS
 62
     8
 10
313.5073521257915
 20
95.859501144905465
 30
0.0
  0
VERTEX
  5
6308
  8
APL_JOINERY
  6
CONTINUOUS
 62
     8
 10
313.5073523091591
 20
95.859501001378334
 30
0.0
  0
VERTEX
  5
6309
  8
APL_JOINERY
  6
CONTINUOUS
 62
     8
 10
313.49724582879628
 20
95.972806809752086
 30
0.0
  0
SEQEND
  5
630A
  8
APL_JOINERY
  6
CONTINUOUS
 62
     8
  0
LINE
  5
630B
  8
APL_JOINERY
  6
CONTINUOUS
 62
     8
 10
313.98024611846398
 20
73.630040329690445
 30
0.0
 11
322.98912513888581
 21
85.340405424851582
 31
0.0
  0
LINE
  5
630C
  8
APL_JOINERY
  6
CONTINUOUS
 62
     3
 10
326.41527462026232
 20
102.5316187318988
 30
0.0
 11
326.41527462027199
 21
68.59215352695648
 31
0.0
  0
POLYLINE
  5
630D
  8
APL_JOINERY
  6
CONTINUOUS
 62
     8
 66
     1
 10
0.0
 20
0.0
 30
0.0
  0
VERTEX
  5
630E
  8
APL_JOINERY
  6
CONTINUOUS
 62
     8
 10
325.35956835442119
 20
74.108150423108697
 30
0.0
  0
VERTEX
  5
630F
  8
APL_JOINERY
  6
CONTINUOUS
 62
     8
 10
325.35956835442119
 20
74.108150423108697
 30
0.0
  0
VERTEX
  5
6310
  8
APL_JOINERY
  6
CONTINUOUS
 62
     8
 10
324.25711232314973
 20
75.98262430756759
 30
0.0
  0
VERTEX
  5
6311
  8
APL_JOINERY
  6
CONTINUOUS
 62
     8
 10
323.59395986628118
 20
77.14077819851164
 30
0.0
  0
VERTEX
  5
6312
  8
APL_JOINERY
  6
CONTINUOUS
 62
     8
 10
323.03790459562299
 20
78.147158734067062
 30
0.0
  0
VERTEX
  5
6313
  8
APL_JOINERY
  6
CONTINUOUS
 62
     8
 10
322.57474369295068
 20
79.022039326136934
 30
0.0
  0
VERTEX
  5
6314
  8
APL_JOINERY
  6
CONTINUOUS
 62
     8
 10
322.19049749189742
 20
79.782733159328274
 30
0.0
  0
VERTEX
  5
6315
  8
APL_JOINERY
  6
CONTINUOUS
 62
     8
 10
321.87237275330227
 20
80.444139162594666
 30
0.0
  0
VERTEX
  5
6316
  8
APL_JOINERY
  6
CONTINUOUS
 62
     8
 10
321.52416457840633
 20
81.211234999818515
 30
0.0
  0
VERTEX
  5
6317
  8
APL_JOINERY
  6
CONTINUOUS
 62
     8
 10
321.25510842900047
 20
81.844413367821716
 30
0.0
  0
VERTEX
  5
6318
  8
APL_JOINERY
  6
CONTINUOUS
 62
     8
 10
320.97975496643488
 20
82.541362751908963
 30
0.0
  0
VERTEX
  5
6319
  8
APL_JOINERY
  6
CONTINUOUS
 62
     8
 10
320.72250107486821
 20
83.253566382335663
 30
0.0
  0
VERTEX
  5
631A
  8
APL_JOINERY
  6
CONTINUOUS
 62
     8
 10
320.50961037763688
 20
83.905988780814965
 30
0.0
  0
VERTEX
  5
631B
  8
APL_JOINERY
  6
CONTINUOUS
 62
     8
 10
320.31381426859349
 20
84.580028573602334
 30
0.0
  0
VERTEX
  5
631C
  8
APL_JOINERY
  6
CONTINUOUS
 62
     8
 10
320.25399791051188
 20
84.805536115015045
 30
0.0
  0
VERTEX
  5
631D
  8
APL_JOINERY
  6
CONTINUOUS
 62
     8
 10
320.25399820092173
 20
84.805536156809595
 30
0.0
  0
VERTEX
  5
631E
  8
APL_JOINERY
  6
CONTINUOUS
 62
     8
 10
320.04337034487293
 20
85.706778029698299
 30
0.0
  0
VERTEX
  5
631F
  8
APL_JOINERY
  6
CONTINUOUS
 62
     8
 10
319.83633616547752
 20
86.850565466154109
 30
0.0
  0
VERTEX
  5
6320
  8
APL_JOINERY
  6
CONTINUOUS
 62
     8
 10
319.69672977512869
 20
87.918373079028385
 30
0.0
  0
VERTEX
  5
6321
  8
APL_JOINERY
  6
CONTINUOUS
 62
     8
 10
319.60705626954388
 20
88.914630887775644
 30
0.0
  0
VERTEX
  5
6322
  8
APL_JOINERY
  6
CONTINUOUS
 62
     8
 10
319.5420169927919
 20
90.154862199012229
 30
0.0
  0
VERTEX
  5
6323
  8
APL_JOINERY
  6
CONTINUOUS
 62
     8
 10
319.52015177038032
 20
91.282107091224503
 30
0.0
  0
VERTEX
  5
6324
  8
APL_JOINERY
  6
CONTINUOUS
 62
     8
 10
319.5250331379371
 20
92.305713507936815
 30
0.0
  0
VERTEX
  5
6325
  8
APL_JOINERY
  6
CONTINUOUS
 62
     8
 10
319.54557280438371
 20
93.234422944032104
 30
0.0
  0
VERTEX
  5
6326
  8
APL_JOINERY
  6
CONTINUOUS
 62
     8
 10
319.57440676390399
 20
94.076380456767623
 30
0.0
  0
VERTEX
  5
6327
  8
APL_JOINERY
  6
CONTINUOUS
 62
     8
 10
319.61857210047452
 20
95.094490511109512
 30
0.0
  0
VERTEX
  5
6328
  8
APL_JOINERY
  6
CONTINUOUS
 62
     8
 10
319.66183451709458
 20
95.972806809752086
 30
0.0
  0
SEQEND
  5
6329
  8
APL_JOINERY
  6
CONTINUOUS
 62
     8
  0
LINE
  5
632A
  8
APL_JOINERY
  6
CONTINUOUS
 62
     3
 10
307.45958510881871
 20
68.592153526897022
 30
0.0
 11
307.4595851088734
 21
102.5316187318988
 31
0.0
  0
POLYLINE
  5
632B
  8
APL_JOINERY
  6
CONTINUOUS
 62
     8
 66
     1
 10
0.0
 20
0.0
 30
0.0
  0
VERTEX
  5
632C
  8
APL_JOINERY
  6
CONTINUOUS
 62
     8
 10
314.68046263041879
 20
71.198084828429685
 30
0.0
  0
VERTEX
  5
632D
  8
APL_JOINERY
  6
CONTINUOUS
 62
     8
 10
314.68046263041879
 20
71.198084828429685
 30
0.0
  0
VERTEX
  5
632E
  8
APL_JOINERY
  6
CONTINUOUS
 62
     8
 10
314.41036010205482
 20
72.429600883350219
 30
0.0
  0
VERTEX
  5
632F
  8
APL_JOINERY
  6
CONTINUOUS
 62
     8
 10
314.25402625132631
 20
73.134071528324881
 30
0.0
  0
VERTEX
  5
6330
  8
APL_JOINERY
  6
CONTINUOUS
 62
     8
 10
314.12431395575732
 20
73.713172710240784
 30
0.0
  0
VERTEX
  5
6331
  8
APL_JOINERY
  6
CONTINUOUS
 62
     8
 10
314.01677795346211
 20
74.189214778606612
 30
0.0
  0
VERTEX
  5
6332
  8
APL_JOINERY
  6
CONTINUOUS
 62
     8
 10
313.89788231335598
 20
74.71098012422263
 30
0.0
  0
VERTEX
  5
6333
  8
APL_JOINERY
  6
CONTINUOUS
 62
     8
 10
313.80641875428103
 20
75.108935379603878
 30
0.0
  0
VERTEX
  5
6334
  8
APL_JOINERY
  6
CONTINUOUS
 62
     8
 10
313.71266533706671
 20
75.513633749925731
 30
0.0
  0
VERTEX
  5
6335
  8
APL_JOINERY
  6
CONTINUOUS
 62
     8
 10
313.62652479145061
 20
75.882505848568172
 30
0.0
  0
VERTEX
  5
6336
  8
APL_JOINERY
  6
CONTINUOUS
 62
     8
 10
313.53727159889388
 20
76.26163108501342
 30
0.0
  0
VERTEX
  5
6337
  8
APL_JOINERY
  6
CONTINUOUS
 62
     8
 10
313.50735223798682
 20
76.388007728047256
 30
0.0
  0
VERTEX
  5
6338
  8
APL_JOINERY
  6
CONTINUOUS
 62
     8
 10
313.5073516757156
 20
76.388008074592591
 30
0.0
  0
VERTEX
  5
6339
  8
APL_JOINERY
  6
CONTINUOUS
 62
     8
 10
312.61947855905919
 20
80.025110120095718
 30
0.0
  0
VERTEX
  5
633A
  8
APL_JOINERY
  6
CONTINUOUS
 62
     8
 10
311.87846820334238
 20
83.016837582290492
 30
0.0
  0
VERTEX
  5
633B
  8
APL_JOINERY
  6
CONTINUOUS
 62
     8
 10
311.43233468956828
 20
84.862702590298824
 30
0.0
  0
VERTEX
  5
633C
  8
APL_JOINERY
  6
CONTINUOUS
 62
     8
 10
310.93934454453699
 20
86.997098317728984
 30
0.0
  0
VERTEX
  5
633D
  8
APL_JOINERY
  6
CONTINUOUS
 62
     8
 10
310.5602258689363
 20
88.753313763053853
 30
0.0
  0
VERTEX
  5
633E
  8
APL_JOINERY
  6
CONTINUOUS
 62
     8
 10
310.27132785518978
 20
90.198281340998705
 30
0.0
  0
VERTEX
  5
633F
  8
APL_JOINERY
  6
CONTINUOUS
 62
     8
 10
309.98298912475491
 20
91.783538195605544
 30
0.0
  0
VERTEX
  5
6340
  8
APL_JOINERY
  6
CONTINUOUS
 62
     8
 10
309.72503759408448
 20
93.397439356230365
 30
0.0
  0
VERTEX
  5
6341
  8
APL_JOINERY
  6
CONTINUOUS
 62
     8
 10
309.52524322511351
 20
94.87018217570332
 30
0.0
  0
VERTEX
  5
6342
  8
APL_JOINERY
  6
CONTINUOUS
 62
     8
 10
309.39677268656499
 20
96.006640871375424
 30
0.0
  0
VERTEX
  5
6343
  8
APL_JOINERY
  6
CONTINUOUS
 62
     8
 10
309.31349024022921
 20
96.891330649946298
 30
0.0
  0
VERTEX
  5
6344
  8
APL_JOINERY
  6
CONTINUOUS
 62
     8
 10
309.3134901990253
 20
96.891330626207235
 30
0.0
  0
VERTEX
  5
6345
  8
APL_JOINERY
  6
CONTINUOUS
 62
     8
 10
309.19694400549992
 20
98.570402943319749
 30
0.0
  0
VERTEX
  5
6346
  8
APL_JOINERY
  6
CONTINUOUS
 62
     8
 10
309.13401940307392
 20
100.1258364700019
 30
0.0
  0
VERTEX
  5
6347
  8
APL_JOINERY
  6
CONTINUOUS
 62
     8
 10
309.10934151328451
 20
102.0474665202993
 30
0.0
  0
VERTEX
  5
6348
  8
APL_JOINERY
  6
CONTINUOUS
 62
     8
 10
309.11537960377399
 20
102.5316187318988
 30
0.0
  0
SEQEND
  5
6349
  8
APL_JOINERY
  6
CONTINUOUS
 62
     8
  0
LINE
  5
634A
  8
APL_JOINERY
  6
CONTINUOUS
 62
     8
 10
307.49007200545969
 20
71.752474293658253
 30
0.0
 11
315.15704254816001
 21
81.718533780727014
 31
0.0
  0
POLYLINE
  5
634B
  8
APL_JOINERY
  6
CONTINUOUS
 62
     8
 66
     1
 10
0.0
 20
0.0
 30
0.0
 70
     4
  0
VERTEX
  5
634C
  8
APL_JOINERY
  6
CONTINUOUS
 62
     8
 10
311.13690757143638
 20
69.43470757698563
 30
0.0
 70
     8
  0
VERTEX
  5
634D
  8
APL_JOINERY
  6
CONTINUOUS
 62
     8
 10
311.13690757143638
 20
69.43470757698563
 30
0.0
 70
     8
  0
VERTEX
  5
634E
  8
APL_JOINERY
  6
CONTINUOUS
 62
     8
 10
310.50542625464448
 20
72.641164814622101
 30
0.0
 70
     8
  0
VERTEX
  5
634F
  8
APL_JOINERY
  6
CONTINUOUS
 62
     8
 10
310.15481800307379
 20
74.514644588066147
 30
0.0
 70
     8
  0
VERTEX
  5
6350
  8
APL_JOINERY
  6
CONTINUOUS
 62
     8
 10
310.0428567614556
 20
75.139979945338794
 30
0.0
 70
     8
  0
VERTEX
  5
6351
  8
APL_JOINERY
  6
CONTINUOUS
 62
     8
 10
310.0428563590599
 20
75.13998016705753
 30
0.0
 70
     8
  0
VERTEX
  5
6352
  8
APL_JOINERY
  6
CONTINUOUS
 62
     8
 10
309.53852314344482
 20
78.178888000991577
 30
0.0
 70
     8
  0
VERTEX
  5
6353
  8
APL_JOINERY
  6
CONTINUOUS
 62
     8
 10
308.98839643498962
 20
81.882776071387667
 30
0.0
 70
     8
  0
VERTEX
  5
6354
  8
APL_JOINERY
  6
CONTINUOUS
 62
     8
 10
308.58412194756852
 20
84.767627289992134
 30
0.0
 70
     8
  0
SEQEND
  5
6355
  8
APL_JOINERY
  6
CONTINUOUS
 62
     8
  0
LINE
  5
6356
  8
APL_JOINERY
  6
CONTINUOUS
 62
     3
 10
307.45958510881871
 20
68.592153526897022
 30
0.0
 11
326.41527462027199
 21
68.59215352695648
 31
0.0
  0
POLYLINE
  5
6357
  8
APL_JOINERY
  6
CONTINUOUS
 62
     8
 66
     1
 10
0.0
 20
0.0
 30
0.0
  0
VERTEX
  5
6358
  8
APL_JOINERY
  6
CONTINUOUS
 62
     8
 10
326.41527462026562
 20
84.452513032185692
 30
0.0
  0
VERTEX
  5
6359
  8
APL_JOINERY
  6
CONTINUOUS
 62
     8
 10
326.04729989850438
 20
85.190910396906844
 30
0.0
  0
VERTEX
  5
635A
  8
APL_JOINERY
  6
CONTINUOUS
 62
     8
 10
325.71364835741588
 20
85.891602467473973
 30
0.0
  0
VERTEX
  5
635B
  8
APL_JOINERY
  6
CONTINUOUS
 62
     8
 10
325.43787553043552
 20
86.500523452284966
 30
0.0
  0
VERTEX
  5
635C
  8
APL_JOINERY
  6
CONTINUOUS
 62
     8
 10
325.13731567698619
 20
87.206425128439633
 30
0.0
  0
VERTEX
  5
635D
  8
APL_JOINERY
  6
CONTINUOUS
 62
     8
 10
324.90672753085511
 20
87.788865304978373
 30
0.0
  0
VERTEX
  5
635E
  8
APL_JOINERY
  6
CONTINUOUS
 62
     8
 10
324.67315744151728
 20
88.429764144206075
 30
0.0
  0
VERTEX
  5
635F
  8
APL_JOINERY
  6
CONTINUOUS
 62
     8
 10
324.50978028082869
 20
88.920522558449164
 30
0.0
  0
VERTEX
  5
6360
  8
APL_JOINERY
  6
CONTINUOUS
 62
     8
 10
324.35783259082348
 20
89.421460671087075
 30
0.0
  0
VERTEX
  5
6361
  8
APL_JOINERY
  6
CONTINUOUS
 62
     8
 10
324.23265534076751
 20
89.879801622539418
 30
0.0
  0
VERTEX
  5
6362
  8
APL_JOINERY
  6
CONTINUOUS
 62
     8
 10
324.11806369006177
 20
90.352729413975084
 30
0.0
  0
VERTEX
  5
6363
  8
APL_JOINERY
  6
CONTINUOUS
 62
     8
 10
324.08317595567979
 20
90.510808595593147
 30
0.0
  0
VERTEX
  5
6364
  8
APL_JOINERY
  6
CONTINUOUS
 62
     8
 10
324.08317592592658
 20
90.510808462971141
 30
0.0
  0
VERTEX
  5
6365
  8
APL_JOINERY
  6
CONTINUOUS
 62
     8
 10
323.91651000646328
 20
91.414983953267054
 30
0.0
  0
VERTEX
  5
6366
  8
APL_JOINERY
  6
CONTINUOUS
 62
     8
 10
323.80713584428662
 20
92.274561895867365
 30
0.0
  0
VERTEX
  5
6367
  8
APL_JOINERY
  6
CONTINUOUS
 62
     8
 10
323.73149379467128
 20
93.364300750013143
 30
0.0
  0
VERTEX
  5
6368
  8
APL_JOINERY
  6
CONTINUOUS
 62
     8
 10
323.71880628022001
 20
94.379772576365298
 30
0.0
  0
VERTEX
  5
6369
  8
APL_JOINERY
  6
CONTINUOUS
 62
     8
 10
323.75238941299159
 20
95.324976337286699
 30
0.0
  0
VERTEX
  5
636A
  8
APL_JOINERY
  6
CONTINUOUS
 62
     8
 10
323.80564563097931
 20
95.972806809752086
 30
0.0
  0
SEQEND
  5
636B
  8
APL_JOINERY
  6
CONTINUOUS
 62
     8
  0
POLYLINE
  5
636D
  8
APL_JOINERY
  6
CONTINUOUS
 62
     8
 66
     1
 10
0.0
 20
0.0
 30
0.0
  0
VERTEX
  5
636E
  8
APL_JOINERY
  6
CONTINUOUS
 62
     8
 10
44.264538575244352
 20
77.394891817936326
 30
0.0
  0
VERTEX
  5
636F
  8
APL_JOINERY
  6
CONTINUOUS
 62
     8
 10
44.264538575244352
 20
77.394891817936326
 30
0.0
  0
VERTEX
  5
6370
  8
APL_JOINERY
  6
CONTINUOUS
 62
     8
 10
44.670153373750473
 20
78.459851953544131
 30
0.0
  0
VERTEX
  5
6371
  8
APL_JOINERY
  6
CONTINUOUS
 62
     8
 10
44.963205264022783
 20
79.281842498227689
 30
0.0
  0
VERTEX
  5
6372
  8
APL_JOINERY
  6
CONTINUOUS
 62
     8
 10
45.249605482079311
 20
80.1238502713625
 30
0.0
  0
VERTEX
  5
6373
  8
APL_JOINERY
  6
CONTINUOUS
 62
     8
 10
45.502670158548277
 20
80.89468527816112
 30
0.0
  0
VERTEX
  5
6374
  8
APL_JOINERY
  6
CONTINUOUS
 62
     8
 10
45.693855237127742
 20
81.48990610584238
 30
0.0
  0
VERTEX
  5
6375
  8
APL_JOINERY
  6
CONTINUOUS
 62
     8
 10
45.8408660655642
 20
81.952899602466019
 30
0.0
  0
VERTEX
  5
6376
  8
APL_JOINERY
  6
CONTINUOUS
 62
     8
 10
45.840866241179206
 20
81.9528997446657
 30
0.0
  0
VERTEX
  5
6377
  8
APL_JOINERY
  6
CONTINUOUS
 62
     8
 10
46.608687191363032
 20
84.432883660042435
 30
0.0
  0
VERTEX
  5
6378
  8
APL_JOINERY
  6
CONTINUOUS
 62
     8
 10
47.202016943806001
 20
86.466066380908813
 30
0.0
  0
VERTEX
  5
6379
  8
APL_JOINERY
  6
CONTINUOUS
 62
     8
 10
47.654523013019997
 20
88.135426434013098
 30
0.0
  0
VERTEX
  5
637A
  8
APL_JOINERY
  6
CONTINUOUS
 62
     8
 10
48.105004910025137
 20
89.964641314829436
 30
0.0
  0
VERTEX
  5
637B
  8
APL_JOINERY
  6
CONTINUOUS
 62
     8
 10
48.411033254923012
 20
91.360440425306834
 30
0.0
  0
VERTEX
  5
637C
  8
APL_JOINERY
  6
CONTINUOUS
 62
     8
 10
48.684215328791851
 20
92.781284676851115
 30
0.0
  0
VERTEX
  5
637D
  8
APL_JOINERY
  6
CONTINUOUS
 62
     8
 10
48.896154348042018
 20
94.078214040708488
 30
0.0
  0
VERTEX
  5
637E
  8
APL_JOINERY
  6
CONTINUOUS
 62
     8
 10
49.073585026916561
 20
95.413675365114301
 30
0.0
  0
VERTEX
  5
637F
  8
APL_JOINERY
  6
CONTINUOUS
 62
     8
 10
49.123018669590657
 20
95.859501145034841
 30
0.0
  0
VERTEX
  5
6380
  8
APL_JOINERY
  6
CONTINUOUS
 62
     8
 10
49.123018486223003
 20
95.859501001507709
 30
0.0
  0
VERTEX
  5
6381
  8
APL_JOINERY
  6
CONTINUOUS
 62
     8
 10
49.133124966585761
 20
95.972806809881476
 30
0.0
  0
SEQEND
  5
6382
  8
APL_JOINERY
  6
CONTINUOUS
 62
     8
  0
LINE
  5
6383
  8
APL_JOINERY
  6
CONTINUOUS
 62
     8
 10
48.650124676918182
 20
73.63004032981982
 30
0.0
 11
39.641245656496402
 21
85.340405424980943
 31
0.0
  0
LINE
  5
6384
  8
APL_JOINERY
  6
CONTINUOUS
 62
     3
 10
36.215096175119839
 20
102.53161873202821
 30
0.0
 11
36.215096175110119
 21
68.592153527085856
 31
0.0
  0
POLYLINE
  5
6385
  8
APL_JOINERY
  6
CONTINUOUS
 62
     8
 66
     1
 10
0.0
 20
0.0
 30
0.0
  0
VERTEX
  5
6386
  8
APL_JOINERY
  6
CONTINUOUS
 62
     8
 10
37.270802440960971
 20
74.108150423238072
 30
0.0
  0
VERTEX
  5
6387
  8
APL_JOINERY
  6
CONTINUOUS
 62
     8
 10
37.270802440960971
 20
74.108150423238072
 30
0.0
  0
VERTEX
  5
6388
  8
APL_JOINERY
  6
CONTINUOUS
 62
     8
 10
38.373258472232429
 20
75.982624307696966
 30
0.0
  0
VERTEX
  5
6389
  8
APL_JOINERY
  6
CONTINUOUS
 62
     8
 10
39.036410929100917
 20
77.140778198641016
 30
0.0
  0
VERTEX
  5
638A
  8
APL_JOINERY
  6
CONTINUOUS
 62
     8
 10
39.592466199759052
 20
78.147158734196424
 30
0.0
  0
VERTEX
  5
638B
  8
APL_JOINERY
  6
CONTINUOUS
 62
     8
 10
40.055627102431423
 20
79.022039326266309
 30
0.0
  0
VERTEX
  5
638C
  8
APL_JOINERY
  6
CONTINUOUS
 62
     8
 10
40.439873303484738
 20
79.782733159457649
 30
0.0
  0
VERTEX
  5
638D
  8
APL_JOINERY
  6
CONTINUOUS
 62
     8
 10
40.757998042079826
 20
80.444139162724042
 30
0.0
  0
VERTEX
  5
638E
  8
APL_JOINERY
  6
CONTINUOUS
 62
     8
 10
41.106206216975771
 20
81.211234999947891
 30
0.0
  0
VERTEX
  5
638F
  8
APL_JOINERY
  6
CONTINUOUS
 62
     8
 10
41.375262366381627
 20
81.844413367951077
 30
0.0
  0
VERTEX
  5
6390
  8
APL_JOINERY
  6
CONTINUOUS
 62
     8
 10
41.650615828947217
 20
82.541362752038324
 30
0.0
  0
VERTEX
  5
6391
  8
APL_JOINERY
  6
CONTINUOUS
 62
     8
 10
41.907869720513951
 20
83.253566382465024
 30
0.0
  0
VERTEX
  5
6392
  8
APL_JOINERY
  6
CONTINUOUS
 62
     8
 10
42.120760417745231
 20
83.905988780944355
 30
0.0
  0
VERTEX
  5
6393
  8
APL_JOINERY
  6
CONTINUOUS
 62
     8
 10
42.316556526788617
 20
84.580028573731724
 30
0.0
  0
VERTEX
  5
6394
  8
APL_JOINERY
  6
CONTINUOUS
 62
     8
 10
42.376372884870278
 20
84.805536115144406
 30
0.0
  0
VERTEX
  5
6395
  8
APL_JOINERY
  6
CONTINUOUS
 62
     8
 10
42.376372594460427
 20
84.805536156938985
 30
0.0
  0
VERTEX
  5
6396
  8
APL_JOINERY
  6
CONTINUOUS
 62
     8
 10
42.587000450509173
 20
85.706778029827689
 30
0.0
  0
VERTEX
  5
6397
  8
APL_JOINERY
  6
CONTINUOUS
 62
     8
 10
42.794034629904637
 20
86.850565466283484
 30
0.0
  0
VERTEX
  5
6398
  8
APL_JOINERY
  6
CONTINUOUS
 62
     8
 10
42.933641020253361
 20
87.918373079157746
 30
0.0
  0
VERTEX
  5
6399
  8
APL_JOINERY
  6
CONTINUOUS
 62
     8
 10
43.023314525838231
 20
88.914630887905005
 30
0.0
  0
VERTEX
  5
639A
  8
APL_JOINERY
  6
CONTINUOUS
 62
     8
 10
43.088353802590262
 20
90.154862199141604
 30
0.0
  0
VERTEX
  5
639B
  8
APL_JOINERY
  6
CONTINUOUS
 62
     8
 10
43.110219025001783
 20
91.282107091353865
 30
0.0
  0
VERTEX
  5
639C
  8
APL_JOINERY
  6
CONTINUOUS
 62
     8
 10
43.105337657445013
 20
92.305713508066177
 30
0.0
  0
VERTEX
  5
639D
  8
APL_JOINERY
  6
CONTINUOUS
 62
     8
 10
43.084797990998453
 20
93.23442294416148
 30
0.0
  0
VERTEX
  5
639E
  8
APL_JOINERY
  6
CONTINUOUS
 62
     8
 10
43.055964031478162
 20
94.076380456896985
 30
0.0
  0
VERTEX
  5
639F
  8
APL_JOINERY
  6
CONTINUOUS
 62
     8
 10
43.011798694907583
 20
95.094490511238888
 30
0.0
  0
VERTEX
  5
63A0
  8
APL_JOINERY
  6
CONTINUOUS
 62
     8
 10
42.968536278287637
 20
95.972806809881476
 30
0.0
  0
SEQEND
  5
63A1
  8
APL_JOINERY
  6
CONTINUOUS
 62
     8
  0
LINE
  5
63A2
  8
APL_JOINERY
  6
CONTINUOUS
 62
     3
 10
55.170785686563441
 20
68.592153527026397
 30
0.0
 11
55.170785686508822
 21
102.53161873202821
 31
0.0
  0
POLYLINE
  5
63A3
  8
APL_JOINERY
  6
CONTINUOUS
 62
     8
 66
     1
 10
0.0
 20
0.0
 30
0.0
  0
VERTEX
  5
63A4
  8
APL_JOINERY
  6
CONTINUOUS
 62
     8
 10
47.949908164963247
 20
71.198084828559075
 30
0.0
  0
VERTEX
  5
63A5
  8
APL_JOINERY
  6
CONTINUOUS
 62
     8
 10
47.949908164963247
 20
71.198084828559075
 30
0.0
  0
VERTEX
  5
63A6
  8
APL_JOINERY
  6
CONTINUOUS
 62
     8
 10
48.220010693327339
 20
72.429600883479594
 30
0.0
  0
VERTEX
  5
63A7
  8
APL_JOINERY
  6
CONTINUOUS
 62
     8
 10
48.376344544055847
 20
73.134071528454257
 30
0.0
  0
VERTEX
  5
63A8
  8
APL_JOINERY
  6
CONTINUOUS
 62
     8
 10
48.50605683962484
 20
73.713172710370173
 30
0.0
  0
VERTEX
  5
63A9
  8
APL_JOINERY
  6
CONTINUOUS
 62
     8
 10
48.613592841920052
 20
74.189214778735987
 30
0.0
  0
VERTEX
  5
63AA
  8
APL_JOINERY
  6
CONTINUOUS
 62
     8
 10
48.732488482026127
 20
74.710980124352005
 30
0.0
  0
VERTEX
  5
63AB
  8
APL_JOINERY
  6
CONTINUOUS
 62
     8
 10
48.823952041101137
 20
75.108935379733254
 30
0.0
  0
VERTEX
  5
63AC
  8
APL_JOINERY
  6
CONTINUOUS
 62
     8
 10
48.917705458315453
 20
75.513633750055106
 30
0.0
  0
VERTEX
  5
63AD
  8
APL_JOINERY
  6
CONTINUOUS
 62
     8
 10
49.003846003931557
 20
75.882505848697534
 30
0.0
  0
VERTEX
  5
63AE
  8
APL_JOINERY
  6
CONTINUOUS
 62
     8
 10
49.093099196488282
 20
76.261631085142795
 30
0.0
  0
VERTEX
  5
63AF
  8
APL_JOINERY
  6
CONTINUOUS
 62
     8
 10
49.123018557395277
 20
76.388007728176632
 30
0.0
  0
VERTEX
  5
63B0
  8
APL_JOINERY
  6
CONTINUOUS
 62
     8
 10
49.123019119666502
 20
76.388008074721967
 30
0.0
  0
VERTEX
  5
63B1
  8
APL_JOINERY
  6
CONTINUOUS
 62
     8
 10
50.01089223632286
 20
80.025110120225094
 30
0.0
  0
VERTEX
  5
63B2
  8
APL_JOINERY
  6
CONTINUOUS
 62
     8
 10
50.751902592039727
 20
83.016837582419868
 30
0.0
  0
VERTEX
  5
63B3
  8
APL_JOINERY
  6
CONTINUOUS
 62
     8
 10
51.19803610581377
 20
84.862702590428199
 30
0.0
  0
VERTEX
  5
63B4
  8
APL_JOINERY
  6
CONTINUOUS
 62
     8
 10
51.691026250845169
 20
86.997098317858374
 30
0.0
  0
VERTEX
  5
63B5
  8
APL_JOINERY
  6
CONTINUOUS
 62
     8
 10
52.070144926445863
 20
88.753313763183229
 30
0.0
  0
VERTEX
  5
63B6
  8
APL_JOINERY
  6
CONTINUOUS
 62
     8
 10
52.359042940192317
 20
90.19828134112808
 30
0.0
  0
VERTEX
  5
63B7
  8
APL_JOINERY
  6
CONTINUOUS
 62
     8
 10
52.647381670627247
 20
91.783538195734906
 30
0.0
  0
VERTEX
  5
63B8
  8
APL_JOINERY
  6
CONTINUOUS
 62
     8
 10
52.905333201297573
 20
93.39743935635974
 30
0.0
  0
VERTEX
  5
63B9
  8
APL_JOINERY
  6
CONTINUOUS
 62
     8
 10
53.10512757026865
 20
94.870182175832696
 30
0.0
  0
VERTEX
  5
63BA
  8
APL_JOINERY
  6
CONTINUOUS
 62
     8
 10
53.233598108817183
 20
96.0066408715048
 30
0.0
  0
VERTEX
  5
63BB
  8
APL_JOINERY
  6
CONTINUOUS
 62
     8
 10
53.316880555152892
 20
96.891330650075673
 30
0.0
  0
VERTEX
  5
63BC
  8
APL_JOINERY
  6
CONTINUOUS
 62
     8
 10
53.316880596356867
 20
96.891330626336611
 30
0.0
  0
VERTEX
  5
63BD
  8
APL_JOINERY
  6
CONTINUOUS
 62
     8
 10
53.433426789882191
 20
98.570402943449125
 30
0.0
  0
VERTEX
  5
63BE
  8
APL_JOINERY
  6
CONTINUOUS
 62
     8
 10
53.496351392308242
 20
100.1258364701313
 30
0.0
  0
VERTEX
  5
63BF
  8
APL_JOINERY
  6
CONTINUOUS
 62
     8
 10
53.521029282097601
 20
102.0474665204287
 30
0.0
  0
VERTEX
  5
63C0
  8
APL_JOINERY
  6
CONTINUOUS
 62
     8
 10
53.514991191608118
 20
102.53161873202821
 30
0.0
  0
SEQEND
  5
63C1
  8
APL_JOINERY
  6
CONTINUOUS
 62
     8
  0
LINE
  5
63C2
  8
APL_JOINERY
  6
CONTINUOUS
 62
     8
 10
55.140298789922461
 20
71.752474293787628
 30
0.0
 11
47.473328247222213
 21
81.718533780856404
 31
0.0
  0
POLYLINE
  5
63C3
  8
APL_JOINERY
  6
CONTINUOUS
 62
     8
 66
     1
 10
0.0
 20
0.0
 30
0.0
 70
     4
  0
VERTEX
  5
63C4
  8
APL_JOINERY
  6
CONTINUOUS
 62
     8
 10
51.493463223945717
 20
69.434707577115006
 30
0.0
 70
     8
  0
VERTEX
  5
63C5
  8
APL_JOINERY
  6
CONTINUOUS
 62
     8
 10
51.493463223945717
 20
69.434707577115006
 30
0.0
 70
     8
  0
VERTEX
  5
63C6
  8
APL_JOINERY
  6
CONTINUOUS
 62
     8
 10
52.124944540737623
 20
72.641164814751477
 30
0.0
 70
     8
  0
VERTEX
  5
63C7
  8
APL_JOINERY
  6
CONTINUOUS
 62
     8
 10
52.47555279230837
 20
74.514644588195523
 30
0.0
 70
     8
  0
VERTEX
  5
63C8
  8
APL_JOINERY
  6
CONTINUOUS
 62
     8
 10
52.587514033926617
 20
75.139979945468184
 30
0.0
 70
     8
  0
VERTEX
  5
63C9
  8
APL_JOINERY
  6
CONTINUOUS
 62
     8
 10
52.587514436322323
 20
75.139980167186906
 30
0.0
 70
     8
  0
VERTEX
  5
63CA
  8
APL_JOINERY
  6
CONTINUOUS
 62
     8
 10
53.091847651937343
 20
78.178888001120953
 30
0.0
 70
     8
  0
VERTEX
  5
63CB
  8
APL_JOINERY
  6
CONTINUOUS
 62
     8
 10
53.641974360392538
 20
81.882776071517043
 30
0.0
 70
     8
  0
VERTEX
  5
63CC
  8
APL_JOINERY
  6
CONTINUOUS
 62
     8
 10
54.0462488478137
 20
84.767627290121496
 30
0.0
 70
     8
  0
SEQEND
  5
63CD
  8
APL_JOINERY
  6
CONTINUOUS
 62
     8
  0
LINE
  5
63CE
  8
APL_JOINERY
  6
CONTINUOUS
 62
     3
 10
55.170785686563441
 20
68.592153527026397
 30
0.0
 11
36.215096175110119
 21
68.592153527085856
 31
0.0
  0
POLYLINE
  5
63CF
  8
APL_JOINERY
  6
CONTINUOUS
 62
     8
 66
     1
 10
0.0
 20
0.0
 30
0.0
  0
VERTEX
  5
63D0
  8
APL_JOINERY
  6
CONTINUOUS
 62
     8
 10
36.215096175116543
 20
84.452513032315053
 30
0.0
  0
VERTEX
  5
63D1
  8
APL_JOINERY
  6
CONTINUOUS
 62
     8
 10
36.583070896877722
 20
85.190910397036234
 30
0.0
  0
VERTEX
  5
63D2
  8
APL_JOINERY
  6
CONTINUOUS
 62
     8
 10
36.916722437966172
 20
85.891602467603335
 30
0.0
  0
VERTEX
  5
63D3
  8
APL_JOINERY
  6
CONTINUOUS
 62
     8
 10
37.192495264946587
 20
86.500523452414342
 30
0.0
  0
VERTEX
  5
63D4
  8
APL_JOINERY
  6
CONTINUOUS
 62
     8
 10
37.493055118395972
 20
87.206425128569009
 30
0.0
  0
VERTEX
  5
63D5
  8
APL_JOINERY
  6
CONTINUOUS
 62
     8
 10
37.723643264526999
 20
87.788865305107734
 30
0.0
  0
VERTEX
  5
63D6
  8
APL_JOINERY
  6
CONTINUOUS
 62
     8
 10
37.95721335386483
 20
88.429764144335451
 30
0.0
  0
VERTEX
  5
63D7
  8
APL_JOINERY
  6
CONTINUOUS
 62
     8
 10
38.120590514553413
 20
88.920522558578526
 30
0.0
  0
VERTEX
  5
63D8
  8
APL_JOINERY
  6
CONTINUOUS
 62
     8
 10
38.272538204558572
 20
89.421460671216465
 30
0.0
  0
VERTEX
  5
63D9
  8
APL_JOINERY
  6
CONTINUOUS
 62
     8
 10
38.397715454614591
 20
89.879801622668793
 30
0.0
  0
VERTEX
  5
63DA
  8
APL_JOINERY
  6
CONTINUOUS
 62
     8
 10
38.512307105320332
 20
90.352729414104445
 30
0.0
  0
VERTEX
  5
63DB
  8
APL_JOINERY
  6
CONTINUOUS
 62
     8
 10
38.547194839702307
 20
90.510808595722523
 30
0.0
  0
VERTEX
  5
63DC
  8
APL_JOINERY
  6
CONTINUOUS
 62
     8
 10
38.547194869455517
 20
90.510808463100517
 30
0.0
  0
VERTEX
  5
63DD
  8
APL_JOINERY
  6
CONTINUOUS
 62
     8
 10
38.713860788918822
 20
91.414983953396444
 30
0.0
  0
VERTEX
  5
63DE
  8
APL_JOINERY
  6
CONTINUOUS
 62
     8
 10
38.823234951095479
 20
92.274561895996754
 30
0.0
  0
VERTEX
  5
63DF
  8
APL_JOINERY
  6
CONTINUOUS
 62
     8
 10
38.898877000710819
 20
93.364300750142519
 30
0.0
  0
VERTEX
  5
63E0
  8
APL_JOINERY
  6
CONTINUOUS
 62
     8
 10
38.911564515162091
 20
94.379772576494673
 30
0.0
  0
VERTEX
  5
63E1
  8
APL_JOINERY
  6
CONTINUOUS
 62
     8
 10
38.877981382390509
 20
95.324976337416075
 30
0.0
  0
VERTEX
  5
63E2
  8
APL_JOINERY
  6
CONTINUOUS
 62
     8
 10
38.824725164402793
 20
95.972806809881476
 30
0.0
  0
SEQEND
  5
63E3
  8
APL_JOINERY
  6
CONTINUOUS
 62
     8
  0
INSERT
  5
657F
  8
APL_JOINERY
  2
92030
 10
180.6846746595254
 20
21.592195117516329
 30
0.0
 41
-1.0
 50
270.0
  0
INSERT
  5
6580
  8
APL_JOINERY
  2
9010100
 10
164.73467465952589
 20
20.092153526943662
 30
0.0
 41
-1.0
 50
270.0
  0
TEXT
  5
6586
  8
APL_NOTES
 10
160.5255714286846
 20
8.4781568986670166
 30
0.0
 40
5.0
  1
92030
  7
ARIAL-BOLD
  0
TEXT
  5
6587
  8
APL_NOTES
 10
203.55028685021131
 20
8.5722985657250277
 30
0.0
 40
5.0
  1
92195
  7
ARIAL-BOLD
  0
INSERT
  5
6589
  8
APL_JOINERY
  2
9010311
 10
186.68467465916359
 20
65.092153526895231
 30
0.0
 41
-1.0
 50
90.0
  0
TEXT
  5
66CC
  8
APL_NOTES
 10
256.36664497169181
 20
197.60828853716211
 30
0.0
 40
5.0
  1
92080 Heavy Duty Mullion
  7
ARIAL-BOLD
  0
INSERT
  5
66D7
  8
APL_JOINERY
  2
92030
 10
263.90175970067548
 20
133.26842973163281
 30
0.0
 41
-1.0
 50
270.0
  0
INSERT
  5
66D8
  8
APL_JOINERY
  2
9010100
 10
247.95175970067609
 20
131.76838814106009
 30
0.0
 41
-1.0
 50
270.0
  0
INSERT
  5
66D9
  8
APL_JOINERY
  2
92185
 10
285.901759700676
 20
128.76842973163249
 30
0.0
 41
-1.0
 50
270.0
  0
INSERT
  5
66DC
  8
APL_JOINERY
  2
9010250L
 10
303.90175970067548
 20
136.5684297316327
 30
0.0
 41
-1.0
 50
270.0
  0
TEXT
  5
66DD
  8
APL_NOTES
 10
243.7426564698348
 20
120.15439151278341
 30
0.0
 40
5.0
  1
92030
  7
ARIAL-BOLD
  0
TEXT
  5
66DE
  8
APL_NOTES
 10
286.76737189136151
 20
120.2485331798414
 30
0.0
 40
5.0
  1
92185
  7
ARIAL-BOLD
  0
INSERT
  5
66DF
  8
APL_JOINERY
  2
9010311
 10
305.75885775948223
 20
169.2683881405753
 30
0.0
 41
-1.0
 50
90.0
  0
INSERT
  5
66E0
  8
APL_JOINERY
  2
9010311
 10
269.90175970031379
 20
176.76838814101171
 30
0.0
 41
-1.0
 50
90.0
  0
INSERT
  5
66E6
  8
APL_JOINERY
  2
92080
 10
231.9017597001243
 20
136.26838814106009
 30
0.0
  0
INSERT
  5
6744
  8
APL_JOINERY
  2
92185
 10
211.80548761619519
 20
291.08699110074281
 30
0.0
 41
-1.0
 50
180.0
  0
INSERT
  5
6746
  8
APL_JOINERY
  2
9010250L
 10
219.6054876161954
 20
273.08699110074332
 30
0.0
 41
-1.0
 50
180.0
  0
TEXT
  5
6748
  8
APL_NOTES
 10
260.85914764709543
 20
348.54024044362887
 30
0.0
 40
5.0
  1
92070 Medium Transom
  7
ARIAL-BOLD
  0
TEXT
  5
6749
  8
APL_NOTES
 10
187.31804348762481
 20
275.9353013530486
 30
0.0
 40
5.0
  1
92185
  7
ARIAL-BOLD
  0
INSERT
  5
674A
  8
APL_JOINERY
  2
9010311
 10
252.30548761614679
 20
271.08699110036758
 30
0.0
 41
-1.0
  0
TEXT
  5
6753
  8
APL_NOTES
 10
198.84691959321631
 20
107.94307728196441
 30
0.0
 40
5.0
  1
HEAVY DUTY MULLION OPTION
  7
ARIAL-BOLD
  0
INSERT
  5
67A3
  8
APL_JOINERY
  2
92185
 10
211.80548761619519
 20
327.08699110074002
 30
0.0
  0
INSERT
  5
67A5
  8
APL_JOINERY
  2
9010250L
 10
219.6054876161954
 20
345.08699110073951
 30
0.0
  0
TEXT
  5
67A6
  8
APL_NOTES
 10
187.31804348762481
 20
337.3068936724452
 30
0.0
 40
5.0
  1
92185
  7
ARIAL-BOLD
  0
INSERT
  5
67A7
  8
APL_JOINERY
  2
9010311
 10
252.30548761614679
 20
347.08699110111519
 30
0.0
 50
180.0
  0
TEXT
  5
67F6
  8
APL_NOTES
 10
260.57629760066271
 20
340.71833361233621
 30
0.0
 40
5.0
  1
Refer to tables for
  7
ARIAL-REGULAR
  0
TEXT
  5
67F7
  8
APL_NOTES
 10
260.85914764709543
 20
333.26461978284709
 30
0.0
 40
5.0
  1
span requirements
  7
ARIAL-REGULAR
  0
INSERT
  5
693A
  8
APL_JOINERY
  2
9010100
 10
45.623036580027893
 20
306.17938611772189
 30
0.0
 41
-1.0
 50
180.0
  0
INSERT
  5
6AA1
  8
APL_JOINERY
  2
92195
 10
50.373036580027929
 20
188.71561130960379
 30
0.0
  0
INSERT
  5
6AB5
  8
APL_JOINERY
  2
9010235L
 10
51.670413121438742
 20
206.71561130960359
 30
0.0
  0
INSERT
  5
6B17
  8
APL_JOINERY
  2
92195
 10
50.373036580027929
 20
272.1293861169811
 30
0.0
 41
-1.0
 50
180.0
  0
INSERT
  5
6B18
  8
APL_JOINERY
  2
9010235L
 10
51.670413121438742
 20
254.12938611698121
 30
0.0
 41
-1.0
 50
180.0
  0
INSERT
  5
6C1E
  8
APL_JOINERY
  2
9010311
 10
222.6846793791743
 20
57.592153526458873
 30
0.0
 41
-1.0
 50
90.0
  0
INSERT
  5
6C31
  8
APL_JOINERY
  2
92195
 10
202.684679379541
 20
17.0921535265073
 30
0.0
 41
-1.0
 50
270.0
  0
INSERT
  5
6C32
  8
APL_JOINERY
  2
9010235L
 10
220.68467937954091
 20
18.389530067918109
 30
0.0
 41
-1.0
 50
270.0
  0
INSERT
  5
6C48
  8
APL_JOINERY
  2
9010311
 10
286.06493249692443
 20
65.092153526895231
 30
0.0
 50
270.0
  0
TEXT
  5
6E76
  8
APL_NOTES
 10
198.84691959321631
 20
250.54573391796791
 30
0.0
 40
5.0
  1
MEDIUM TRANSOM OPTION
  7
ARIAL-BOLD
  0
TEXT
  5
6F4E
  8
APL_NOTES
 10
194.35645655270261
 20
127.8360284837495
 30
0.0
 40
5.0
  1
92195
  7
ARIAL-BOLD
  0
INSERT
  5
6F4F
  8
APL_JOINERY
  2
9010311
 10
193.90175970120819
 20
176.76838814101171
 30
0.0
 50
270.0
  0
INSERT
  5
6F62
  8
APL_JOINERY
  2
92195
 10
213.90175970084161
 20
136.26838814106009
 30
0.0
 50
90.0
  0
INSERT
  5
6F63
  8
APL_JOINERY
  2
9010235L
 10
195.90175970084181
 20
137.5657646824709
 30
0.0
 50
90.0
  0
LINE
  5
751C
  8
APL_JOINERY
  6
CONTINUOUS
 62
     8
 10
99.573036579543086
 20
354.0507791684459
 30
0.0
 11
110.873036579543
 21
354.0507791684459
 31
0.0
  0
LINE
  5
751D
  8
APL_JOINERY
  6
CONTINUOUS
 62
     8
 10
100.073036579543
 20
322.0507791684459
 30
0.0
 11
103.073036579543
 21
322.0507791684459
 31
0.0
  0
ARC
  5
751E
  8
APL_JOINERY
  6
CONTINUOUS
 62
     8
 10
296.27599164737899
 20
356.97785291430512
 30
0.0
 40
198.0969363145619
 50
180.88657889107111
 51
183.00964846968949
  0
LINE
  5
751F
  8
APL_JOINERY
  6
CONTINUOUS
 62
     8
 10
88.873036579543097
 20
331.55077916844601
 30
0.0
 11
88.873036579543125
 21
355.55077916844601
 31
0.0
  0
LINE
  5
7520
  8
APL_JOINERY
  6
CONTINUOUS
 62
     8
 10
99.073036579543029
 20
323.0507791684459
 30
0.0
 11
99.073036579543086
 21
353.5507791684459
 31
0.0
  0
POLYLINE
  5
7522
  8
APL_JOINERY
  6
CONTINUOUS
 62
     8
 10
95.269130539997434
 20
329.11124635969458
 30
0.0
 66
     1
 70
     8
  0
VERTEX
  8
APL_JOINERY
  5
894A
 10
95.2691
 20
329.111
 30
0.000000
  70
    32
  0
VERTEX
  8
APL_JOINERY
  5
894B
 10
95.2780
 20
329.020
 30
0.000000
  70
    32
  0
VERTEX
  8
APL_JOINERY
  5
894C
 10
95.2869
 20
328.930
 30
0.000000
  70
    32
  0
VERTEX
  8
APL_JOINERY
  5
894D
 10
95.2958
 20
328.839
 30
0.000000
  70
    32
  0
VERTEX
  8
APL_JOINERY
  5
894E
 10
95.3047
 20
328.748
 30
0.000000
  70
    32
  0
VERTEX
  8
APL_JOINERY
  5
894F
 10
95.3137
 20
328.658
 30
0.000000
  70
    32
  0
VERTEX
  8
APL_JOINERY
  5
8950
 10
95.3227
 20
328.567
 30
0.000000
  70
    32
  0
VERTEX
  8
APL_JOINERY
  5
8951
 10
95.3317
 20
328.477
 30
0.000000
  70
    32
  0
VERTEX
  8
APL_JOINERY
  5
8952
 10
95.3407
 20
328.386
 30
0.000000
  70
    32
  0
VERTEX
  8
APL_JOINERY
  5
8953
 10
95.3498
 20
328.296
 30
0.000000
  70
    32
  0
VERTEX
  8
APL_JOINERY
  5
8954
 10
95.3588
 20
328.206
 30
0.000000
  70
    32
  0
VERTEX
  8
APL_JOINERY
  5
8955
 10
95.3680
 20
328.116
 30
0.000000
  70
    32
  0
VERTEX
  8
APL_JOINERY
  5
8956
 10
95.3771
 20
328.025
 30
0.000000
  70
    32
  0
VERTEX
  8
APL_JOINERY
  5
8957
 10
95.3862
 20
327.935
 30
0.000000
  70
    32
  0
VERTEX
  8
APL_JOINERY
  5
8958
 10
95.3954
 20
327.845
 30
0.000000
  70
    32
  0
VERTEX
  8
APL_JOINERY
  5
8959
 10
95.4046
 20
327.755
 30
0.000000
  70
    32
  0
VERTEX
  8
APL_JOINERY
  5
895A
 10
95.4138
 20
327.665
 30
0.000000
  70
    32
  0
VERTEX
  8
APL_JOINERY
  5
895B
 10
95.4230
 20
327.575
 30
0.000000
  70
    32
  0
VERTEX
  8
APL_JOINERY
  5
895C
 10
95.4323
 20
327.485
 30
0.000000
  70
    32
  0
VERTEX
  8
APL_JOINERY
  5
895D
 10
95.4416
 20
327.395
 30
0.000000
  70
    32
  0
VERTEX
  8
APL_JOINERY
  5
895E
 10
95.4509
 20
327.306
 30
0.000000
  70
    32
  0
VERTEX
  8
APL_JOINERY
  5
895F
 10
95.4602
 20
327.216
 30
0.000000
  70
    32
  0
VERTEX
  8
APL_JOINERY
  5
8960
 10
95.4696
 20
327.126
 30
0.000000
  70
    32
  0
VERTEX
  8
APL_JOINERY
  5
8961
 10
95.4790
 20
327.037
 30
0.000000
  70
    32
  0
VERTEX
  8
APL_JOINERY
  5
8962
 10
95.4884
 20
326.947
 30
0.000000
  70
    32
  0
VERTEX
  8
APL_JOINERY
  5
8963
 10
95.4978
 20
326.858
 30
0.000000
  70
    32
  0
VERTEX
  8
APL_JOINERY
  5
8964
 10
95.5073
 20
326.768
 30
0.000000
  70
    32
  0
VERTEX
  8
APL_JOINERY
  5
8965
 10
95.5167
 20
326.679
 30
0.000000
  70
    32
  0
VERTEX
  8
APL_JOINERY
  5
8966
 10
95.5262
 20
326.590
 30
0.000000
  70
    32
  0
VERTEX
  8
APL_JOINERY
  5
8967
 10
95.5357
 20
326.500
 30
0.000000
  70
    32
  0
VERTEX
  8
APL_JOINERY
  5
8968
 10
95.5453
 20
326.411
 30
0.000000
  70
    32
  0
VERTEX
  8
APL_JOINERY
  5
8969
 10
95.5548
 20
326.322
 30
0.000000
  70
    32
  0
VERTEX
  8
APL_JOINERY
  5
896A
 10
95.5644
 20
326.233
 30
0.000000
  70
    32
  0
VERTEX
  8
APL_JOINERY
  5
896B
 10
95.5740
 20
326.144
 30
0.000000
  70
    32
  0
VERTEX
  8
APL_JOINERY
  5
896C
 10
95.5837
 20
326.055
 30
0.000000
  70
    32
  0
VERTEX
  8
APL_JOINERY
  5
896D
 10
95.5933
 20
325.966
 30
0.000000
  70
    32
  0
VERTEX
  8
APL_JOINERY
  5
896E
 10
95.6030
 20
325.877
 30
0.000000
  70
    32
  0
VERTEX
  8
APL_JOINERY
  5
896F
 10
95.6127
 20
325.789
 30
0.000000
  70
    32
  0
VERTEX
  8
APL_JOINERY
  5
8970
 10
95.6224
 20
325.700
 30
0.000000
  70
    32
  0
VERTEX
  8
APL_JOINERY
  5
8971
 10
95.6322
 20
325.611
 30
0.000000
  70
    32
  0
VERTEX
  8
APL_JOINERY
  5
8972
 10
95.6419
 20
325.523
 30
0.000000
  70
    32
  0
VERTEX
  8
APL_JOINERY
  5
8973
 10
95.6517
 20
325.434
 30
0.000000
  70
    32
  0
VERTEX
  8
APL_JOINERY
  5
8974
 10
95.6615
 20
325.346
 30
0.000000
  70
    32
  0
VERTEX
  8
APL_JOINERY
  5
8975
 10
95.6714
 20
325.257
 30
0.000000
  70
    32
  0
VERTEX
  8
APL_JOINERY
  5
8976
 10
95.6812
 20
325.169
 30
0.000000
  70
    32
  0
VERTEX
  8
APL_JOINERY
  5
8977
 10
95.6911
 20
325.081
 30
0.000000
  70
    32
  0
VERTEX
  8
APL_JOINERY
  5
8978
 10
95.7010
 20
324.993
 30
0.000000
  70
    32
  0
VERTEX
  8
APL_JOINERY
  5
8979
 10
95.7109
 20
324.905
 30
0.000000
  70
    32
  0
VERTEX
  8
APL_JOINERY
  5
897A
 10
95.7209
 20
324.817
 30
0.000000
  70
    32
  0
VERTEX
  8
APL_JOINERY
  5
897B
 10
95.7308
 20
324.729
 30
0.000000
  70
    32
  0
VERTEX
  8
APL_JOINERY
  5
897C
 10
95.7408
 20
324.641
 30
0.000000
  70
    32
  0
VERTEX
  8
APL_JOINERY
  5
897D
 10
95.7508
 20
324.553
 30
0.000000
  70
    32
  0
VERTEX
  8
APL_JOINERY
  5
897E
 10
95.7608
 20
324.465
 30
0.000000
  70
    32
  0
VERTEX
  8
APL_JOINERY
  5
897F
 10
95.7709
 20
324.377
 30
0.000000
  70
    32
  0
VERTEX
  8
APL_JOINERY
  5
8980
 10
95.7810
 20
324.290
 30
0.000000
  70
    32
  0
VERTEX
  8
APL_JOINERY
  5
8981
 10
95.7911
 20
324.202
 30
0.000000
  70
    32
  0
VERTEX
  8
APL_JOINERY
  5
8982
 10
95.8012
 20
324.114
 30
0.000000
  70
    32
  0
VERTEX
  8
APL_JOINERY
  5
8983
 10
95.8113
 20
324.027
 30
0.000000
  70
    32
  0
VERTEX
  8
APL_JOINERY
  5
8984
 10
95.8215
 20
323.940
 30
0.000000
  70
    32
  0
VERTEX
  8
APL_JOINERY
  5
8985
 10
95.8317
 20
323.852
 30
0.000000
  70
    32
  0
VERTEX
  8
APL_JOINERY
  5
8986
 10
95.8419
 20
323.765
 30
0.000000
  70
    32
  0
VERTEX
  8
APL_JOINERY
  5
8987
 10
95.8521
 20
323.678
 30
0.000000
  70
    32
  0
VERTEX
  8
APL_JOINERY
  5
8988
 10
95.8624
 20
323.591
 30
0.000000
  70
    32
  0
VERTEX
  8
APL_JOINERY
  5
8989
 10
95.8726
 20
323.504
 30
0.000000
  70
    32
  0
VERTEX
  8
APL_JOINERY
  5
898A
 10
95.8829
 20
323.417
 30
0.000000
  70
    32
  0
VERTEX
  8
APL_JOINERY
  5
898B
 10
95.8933
 20
323.330
 30
0.000000
  70
    32
  0
VERTEX
  8
APL_JOINERY
  5
898C
 10
95.9036
 20
323.243
 30
0.000000
  70
    32
  0
VERTEX
  8
APL_JOINERY
  5
898D
 10
95.9139
 20
323.156
 30
0.000000
  70
    32
  0
VERTEX
  8
APL_JOINERY
  5
898E
 10
95.9243
 20
323.070
 30
0.000000
  70
    32
  0
VERTEX
  8
APL_JOINERY
  5
898F
 10
95.9347
 20
322.983
 30
0.000000
  70
    32
  0
VERTEX
  8
APL_JOINERY
  5
8990
 10
95.9451
 20
322.896
 30
0.000000
  70
    32
  0
VERTEX
  8
APL_JOINERY
  5
8991
 10
95.9556
 20
322.810
 30
0.000000
  70
    32
  0
VERTEX
  8
APL_JOINERY
  5
8992
 10
95.9661
 20
322.724
 30
0.000000
  70
    32
  0
VERTEX
  8
APL_JOINERY
  5
8993
 10
95.9765
 20
322.637
 30
0.000000
  70
    32
  0
VERTEX
  8
APL_JOINERY
  5
8994
 10
95.9870
 20
322.551
 30
0.000000
  70
    32
  0
VERTEX
  8
APL_JOINERY
  5
8995
 10
95.9976
 20
322.465
 30
0.000000
  70
    32
  0
VERTEX
  8
APL_JOINERY
  5
8996
 10
96.0081
 20
322.379
 30
0.000000
  70
    32
  0
VERTEX
  8
APL_JOINERY
  5
8997
 10
96.0187
 20
322.293
 30
0.000000
  70
    32
  0
VERTEX
  8
APL_JOINERY
  5
8998
 10
96.0293
 20
322.207
 30
0.000000
  70
    32
  0
VERTEX
  8
APL_JOINERY
  5
8999
 10
96.0399
 20
322.121
 30
0.000000
  70
    32
  0
VERTEX
  8
APL_JOINERY
  5
899A
 10
96.0505
 20
322.035
 30
0.000000
  70
    32
  0
VERTEX
  8
APL_JOINERY
  5
899B
 10
96.0612
 20
321.949
 30
0.000000
  70
    32
  0
VERTEX
  8
APL_JOINERY
  5
899C
 10
96.0719
 20
321.864
 30
0.000000
  70
    32
  0
VERTEX
  8
APL_JOINERY
  5
899D
 10
96.0826
 20
321.778
 30
0.000000
  70
    32
  0
VERTEX
  8
APL_JOINERY
  5
899E
 10
96.0933
 20
321.693
 30
0.000000
  70
    32
  0
VERTEX
  8
APL_JOINERY
  5
899F
 10
96.1040
 20
321.607
 30
0.000000
  70
    32
  0
VERTEX
  8
APL_JOINERY
  5
89A0
 10
96.1148
 20
321.522
 30
0.000000
  70
    32
  0
VERTEX
  8
APL_JOINERY
  5
89A1
 10
96.1255
 20
321.437
 30
0.000000
  70
    32
  0
VERTEX
  8
APL_JOINERY
  5
89A2
 10
96.1363
 20
321.351
 30
0.000000
  70
    32
  0
VERTEX
  8
APL_JOINERY
  5
89A3
 10
96.1472
 20
321.266
 30
0.000000
  70
    32
  0
VERTEX
  8
APL_JOINERY
  5
89A4
 10
96.1580
 20
321.181
 30
0.000000
  70
    32
  0
VERTEX
  8
APL_JOINERY
  5
89A5
 10
96.1689
 20
321.096
 30
0.000000
  70
    32
  0
VERTEX
  8
APL_JOINERY
  5
89A6
 10
96.1798
 20
321.011
 30
0.000000
  70
    32
  0
VERTEX
  8
APL_JOINERY
  5
89A7
 10
96.1907
 20
320.927
 30
0.000000
  70
    32
  0
VERTEX
  8
APL_JOINERY
  5
89A8
 10
96.2016
 20
320.842
 30
0.000000
  70
    32
  0
VERTEX
  8
APL_JOINERY
  5
89A9
 10
96.2125
 20
320.757
 30
0.000000
  70
    32
  0
VERTEX
  8
APL_JOINERY
  5
89AA
 10
96.2235
 20
320.673
 30
0.000000
  70
    32
  0
VERTEX
  8
APL_JOINERY
  5
89AB
 10
96.2345
 20
320.588
 30
0.000000
  70
    32
  0
VERTEX
  8
APL_JOINERY
  5
89AC
 10
96.2455
 20
320.504
 30
0.000000
  70
    32
  0
VERTEX
  8
APL_JOINERY
  5
89AD
 10
96.2565
 20
320.420
 30
0.000000
  70
    32
  0
VERTEX
  8
APL_JOINERY
  5
89AE
 10
96.2675
 20
320.335
 30
0.000000
  70
    32
  0
VERTEX
  8
APL_JOINERY
  5
89AF
 10
96.2786
 20
320.251
 30
0.000000
  70
    32
  0
VERTEX
  8
APL_JOINERY
  5
89B0
 10
96.2897
 20
320.167
 30
0.000000
  70
    32
  0
VERTEX
  8
APL_JOINERY
  5
89B1
 10
96.3008
 20
320.083
 30
0.000000
  70
    32
  0
VERTEX
  8
APL_JOINERY
  5
89B2
 10
96.3119
 20
319.999
 30
0.000000
  70
    32
  0
VERTEX
  8
APL_JOINERY
  5
89B3
 10
96.3231
 20
319.915
 30
0.000000
  70
    32
  0
VERTEX
  8
APL_JOINERY
  5
89B4
 10
96.3342
 20
319.832
 30
0.000000
  70
    32
  0
VERTEX
  8
APL_JOINERY
  5
89B5
 10
96.3454
 20
319.748
 30
0.000000
  70
    32
  0
VERTEX
  8
APL_JOINERY
  5
89B6
 10
96.3566
 20
319.665
 30
0.000000
  70
    32
  0
VERTEX
  8
APL_JOINERY
  5
89B7
 10
96.3678
 20
319.581
 30
0.000000
  70
    32
  0
VERTEX
  8
APL_JOINERY
  5
89B8
 10
96.3791
 20
319.498
 30
0.000000
  70
    32
  0
VERTEX
  8
APL_JOINERY
  5
89B9
 10
96.3903
 20
319.414
 30
0.000000
  70
    32
  0
VERTEX
  8
APL_JOINERY
  5
89BA
 10
96.4016
 20
319.331
 30
0.000000
  70
    32
  0
VERTEX
  8
APL_JOINERY
  5
89BB
 10
96.4129
 20
319.248
 30
0.000000
  70
    32
  0
VERTEX
  8
APL_JOINERY
  5
89BC
 10
96.4243
 20
319.165
 30
0.000000
  70
    32
  0
VERTEX
  8
APL_JOINERY
  5
89BD
 10
96.4356
 20
319.082
 30
0.000000
  70
    32
  0
VERTEX
  8
APL_JOINERY
  5
89BE
 10
96.4470
 20
318.999
 30
0.000000
  70
    32
  0
VERTEX
  8
APL_JOINERY
  5
89BF
 10
96.4583
 20
318.916
 30
0.000000
  70
    32
  0
VERTEX
  8
APL_JOINERY
  5
89C0
 10
96.4697
 20
318.834
 30
0.000000
  70
    32
  0
VERTEX
  8
APL_JOINERY
  5
89C1
 10
96.4812
 20
318.751
 30
0.000000
  70
    32
  0
VERTEX
  8
APL_JOINERY
  5
89C2
 10
96.4926
 20
318.668
 30
0.000000
  70
    32
  0
VERTEX
  8
APL_JOINERY
  5
89C3
 10
96.5041
 20
318.586
 30
0.000000
  70
    32
  0
VERTEX
  8
APL_JOINERY
  5
89C4
 10
96.5155
 20
318.504
 30
0.000000
  70
    32
  0
VERTEX
  8
APL_JOINERY
  5
89C5
 10
96.5270
 20
318.421
 30
0.000000
  70
    32
  0
VERTEX
  8
APL_JOINERY
  5
89C6
 10
96.5386
 20
318.339
 30
0.000000
  70
    32
  0
VERTEX
  8
APL_JOINERY
  5
89C7
 10
96.5501
 20
318.257
 30
0.000000
  70
    32
  0
VERTEX
  8
APL_JOINERY
  5
89C8
 10
96.5616
 20
318.175
 30
0.000000
  70
    32
  0
VERTEX
  8
APL_JOINERY
  5
89C9
 10
96.5732
 20
318.093
 30
0.000000
  70
    32
  0
VERTEX
  8
APL_JOINERY
  5
89CA
 10
96.5848
 20
318.011
 30
0.000000
  70
    32
  0
SEQEND
  8
APL_JOINERY
  5
89CB
  0
LINE
  5
7523
  8
APL_JOINERY
  6
CONTINUOUS
 62
     8
 10
94.573036579543114
 20
329.30077916844601
 30
0.0
 11
94.573036579543114
 21
317.80077916844601
 31
0.0
  0
LINE
  5
7524
  8
APL_JOINERY
  6
CONTINUOUS
 62
     8
 10
98.423036579543094
 20
326.90077916844592
 30
0.0
 11
98.423036579543094
 21
317.80077916844601
 31
0.0
  0
LINE
  5
7525
  8
APL_JOINERY
  6
CONTINUOUS
 62
     8
 10
98.423036579543094
 20
317.80077916844601
 30
0.0
 11
94.573036579543114
 21
317.80077916844601
 31
0.0
  0
ARC
  5
7526
  8
APL_JOINERY
  6
CONTINUOUS
 62
     8
 10
96.364916778344721
 20
318.02031195356972
 30
0.0
 40
0.2200827029423555
 50
279.47319674051869
 51
357.63921806739728
  0
ARC
  5
7527
  8
APL_JOINERY
  6
CONTINUOUS
 62
     8
 10
100.073036579543
 20
323.0507791684459
 30
0.0
 40
1.0
 50
180.0
 51
270.0
  0
LINE
  5
7528
  8
APL_JOINERY
  6
CONTINUOUS
 62
     8
 10
96.656640117258505
 20
339.12939083737052
 30
0.0
 11
81.089433041827689
 21
339.12939083737052
 31
0.0
  0
LINE
  5
7529
  8
APL_JOINERY
  6
CONTINUOUS
 62
     8
 10
98.780947976220745
 20
336.55179152298001
 30
0.0
 11
98.780947976220745
 21
340.31018629445867
 31
0.0
  0
ARC
  5
752A
  8
APL_JOINERY
  6
CONTINUOUS
 62
     8
 10
94.573036579543114
 20
333.5507791684459
 30
0.0
 40
2.6000000000000161
 50
230.28486276817441
 51
296.25121393495618
  0
LINE
  5
752B
  8
APL_JOINERY
  6
CONTINUOUS
 62
     8
 10
88.873036579543125
 20
331.55077916844601
 30
0.0
 11
95.185976778255807
 21
331.55077916844601
 31
0.0
  0
LINE
  5
752C
  8
APL_JOINERY
  6
CONTINUOUS
 62
     8
 10
95.723036579543177
 20
331.2189344051738
 30
0.0
 11
95.723036579543134
 21
329.30077916844601
 31
0.0
  0
LINE
  5
752D
  8
APL_JOINERY
  6
CONTINUOUS
 62
     8
 10
96.573036579543114
 20
332.09196945220498
 30
0.0
 11
96.573036579543114
 21
330.43945546034217
 31
0.0
  0
POLYLINE
  5
752E
  8
APL_JOINERY
  6
CONTINUOUS
 62
     8
 10
97.680978403276626
 20
328.90077916844598
 30
0.0
 66
     1
 70
     8
  0
VERTEX
  8
APL_JOINERY
  5
89CC
 10
97.6810
 20
328.901
 30
0.000000
  70
    32
  0
VERTEX
  8
APL_JOINERY
  5
89CD
 10
97.6823
 20
328.877
 30
0.000000
  70
    32
  0
VERTEX
  8
APL_JOINERY
  5
89CE
 10
97.6836
 20
328.853
 30
0.000000
  70
    32
  0
VERTEX
  8
APL_JOINERY
  5
89CF
 10
97.6849
 20
328.829
 30
0.000000
  70
    32
  0
VERTEX
  8
APL_JOINERY
  5
89D0
 10
97.6863
 20
328.805
 30
0.000000
  70
    32
  0
VERTEX
  8
APL_JOINERY
  5
89D1
 10
97.6878
 20
328.781
 30
0.000000
  70
    32
  0
VERTEX
  8
APL_JOINERY
  5
89D2
 10
97.6893
 20
328.757
 30
0.000000
  70
    32
  0
VERTEX
  8
APL_JOINERY
  5
89D3
 10
97.6908
 20
328.733
 30
0.000000
  70
    32
  0
VERTEX
  8
APL_JOINERY
  5
89D4
 10
97.6924
 20
328.710
 30
0.000000
  70
    32
  0
VERTEX
  8
APL_JOINERY
  5
89D5
 10
97.6940
 20
328.686
 30
0.000000
  70
    32
  0
VERTEX
  8
APL_JOINERY
  5
89D6
 10
97.6957
 20
328.662
 30
0.000000
  70
    32
  0
VERTEX
  8
APL_JOINERY
  5
89D7
 10
97.6974
 20
328.638
 30
0.000000
  70
    32
  0
VERTEX
  8
APL_JOINERY
  5
89D8
 10
97.6992
 20
328.615
 30
0.000000
  70
    32
  0
VERTEX
  8
APL_JOINERY
  5
89D9
 10
97.7010
 20
328.591
 30
0.000000
  70
    32
  0
VERTEX
  8
APL_JOINERY
  5
89DA
 10
97.7028
 20
328.567
 30
0.000000
  70
    32
  0
VERTEX
  8
APL_JOINERY
  5
89DB
 10
97.7047
 20
328.544
 30
0.000000
  70
    32
  0
VERTEX
  8
APL_JOINERY
  5
89DC
 10
97.7066
 20
328.520
 30
0.000000
  70
    32
  0
VERTEX
  8
APL_JOINERY
  5
89DD
 10
97.7086
 20
328.497
 30
0.000000
  70
    32
  0
VERTEX
  8
APL_JOINERY
  5
89DE
 10
97.7106
 20
328.473
 30
0.000000
  70
    32
  0
VERTEX
  8
APL_JOINERY
  5
89DF
 10
97.7126
 20
328.450
 30
0.000000
  70
    32
  0
VERTEX
  8
APL_JOINERY
  5
89E0
 10
97.7147
 20
328.427
 30
0.000000
  70
    32
  0
VERTEX
  8
APL_JOINERY
  5
89E1
 10
97.7168
 20
328.403
 30
0.000000
  70
    32
  0
VERTEX
  8
APL_JOINERY
  5
89E2
 10
97.7190
 20
328.380
 30
0.000000
  70
    32
  0
VERTEX
  8
APL_JOINERY
  5
89E3
 10
97.7212
 20
328.357
 30
0.000000
  70
    32
  0
VERTEX
  8
APL_JOINERY
  5
89E4
 10
97.7234
 20
328.334
 30
0.000000
  70
    32
  0
VERTEX
  8
APL_JOINERY
  5
89E5
 10
97.7257
 20
328.311
 30
0.000000
  70
    32
  0
VERTEX
  8
APL_JOINERY
  5
89E6
 10
97.7280
 20
328.288
 30
0.000000
  70
    32
  0
VERTEX
  8
APL_JOINERY
  5
89E7
 10
97.7304
 20
328.266
 30
0.000000
  70
    32
  0
VERTEX
  8
APL_JOINERY
  5
89E8
 10
97.7327
 20
328.243
 30
0.000000
  70
    32
  0
VERTEX
  8
APL_JOINERY
  5
89E9
 10
97.7352
 20
328.221
 30
0.000000
  70
    32
  0
VERTEX
  8
APL_JOINERY
  5
89EA
 10
97.7376
 20
328.198
 30
0.000000
  70
    32
  0
VERTEX
  8
APL_JOINERY
  5
89EB
 10
97.7401
 20
328.176
 30
0.000000
  70
    32
  0
VERTEX
  8
APL_JOINERY
  5
89EC
 10
97.7427
 20
328.154
 30
0.000000
  70
    32
  0
VERTEX
  8
APL_JOINERY
  5
89ED
 10
97.7453
 20
328.131
 30
0.000000
  70
    32
  0
VERTEX
  8
APL_JOINERY
  5
89EE
 10
97.7479
 20
328.109
 30
0.000000
  70
    32
  0
VERTEX
  8
APL_JOINERY
  5
89EF
 10
97.7505
 20
328.088
 30
0.000000
  70
    32
  0
VERTEX
  8
APL_JOINERY
  5
89F0
 10
97.7532
 20
328.066
 30
0.000000
  70
    32
  0
VERTEX
  8
APL_JOINERY
  5
89F1
 10
97.7559
 20
328.044
 30
0.000000
  70
    32
  0
VERTEX
  8
APL_JOINERY
  5
89F2
 10
97.7586
 20
328.023
 30
0.000000
  70
    32
  0
VERTEX
  8
APL_JOINERY
  5
89F3
 10
97.7614
 20
328.001
 30
0.000000
  70
    32
  0
VERTEX
  8
APL_JOINERY
  5
89F4
 10
97.7642
 20
327.980
 30
0.000000
  70
    32
  0
VERTEX
  8
APL_JOINERY
  5
89F5
 10
97.7671
 20
327.959
 30
0.000000
  70
    32
  0
VERTEX
  8
APL_JOINERY
  5
89F6
 10
97.7699
 20
327.938
 30
0.000000
  70
    32
  0
VERTEX
  8
APL_JOINERY
  5
89F7
 10
97.7728
 20
327.917
 30
0.000000
  70
    32
  0
VERTEX
  8
APL_JOINERY
  5
89F8
 10
97.7758
 20
327.896
 30
0.000000
  70
    32
  0
VERTEX
  8
APL_JOINERY
  5
89F9
 10
97.7788
 20
327.876
 30
0.000000
  70
    32
  0
VERTEX
  8
APL_JOINERY
  5
89FA
 10
97.7818
 20
327.855
 30
0.000000
  70
    32
  0
VERTEX
  8
APL_JOINERY
  5
89FB
 10
97.7848
 20
327.835
 30
0.000000
  70
    32
  0
VERTEX
  8
APL_JOINERY
  5
89FC
 10
97.7878
 20
327.815
 30
0.000000
  70
    32
  0
VERTEX
  8
APL_JOINERY
  5
89FD
 10
97.7909
 20
327.795
 30
0.000000
  70
    32
  0
VERTEX
  8
APL_JOINERY
  5
89FE
 10
97.7940
 20
327.775
 30
0.000000
  70
    32
  0
VERTEX
  8
APL_JOINERY
  5
89FF
 10
97.7972
 20
327.756
 30
0.000000
  70
    32
  0
VERTEX
  8
APL_JOINERY
  5
8A00
 10
97.8004
 20
327.736
 30
0.000000
  70
    32
  0
VERTEX
  8
APL_JOINERY
  5
8A01
 10
97.8036
 20
327.717
 30
0.000000
  70
    32
  0
VERTEX
  8
APL_JOINERY
  5
8A02
 10
97.8068
 20
327.698
 30
0.000000
  70
    32
  0
VERTEX
  8
APL_JOINERY
  5
8A03
 10
97.8100
 20
327.679
 30
0.000000
  70
    32
  0
VERTEX
  8
APL_JOINERY
  5
8A04
 10
97.8133
 20
327.660
 30
0.000000
  70
    32
  0
VERTEX
  8
APL_JOINERY
  5
8A05
 10
97.8166
 20
327.642
 30
0.000000
  70
    32
  0
VERTEX
  8
APL_JOINERY
  5
8A06
 10
97.8199
 20
327.624
 30
0.000000
  70
    32
  0
VERTEX
  8
APL_JOINERY
  5
8A07
 10
97.8233
 20
327.605
 30
0.000000
  70
    32
  0
VERTEX
  8
APL_JOINERY
  5
8A08
 10
97.8267
 20
327.587
 30
0.000000
  70
    32
  0
VERTEX
  8
APL_JOINERY
  5
8A09
 10
97.8301
 20
327.570
 30
0.000000
  70
    32
  0
VERTEX
  8
APL_JOINERY
  5
8A0A
 10
97.8335
 20
327.552
 30
0.000000
  70
    32
  0
VERTEX
  8
APL_JOINERY
  5
8A0B
 10
97.8369
 20
327.535
 30
0.000000
  70
    32
  0
VERTEX
  8
APL_JOINERY
  5
8A0C
 10
97.8404
 20
327.517
 30
0.000000
  70
    32
  0
VERTEX
  8
APL_JOINERY
  5
8A0D
 10
97.8439
 20
327.501
 30
0.000000
  70
    32
  0
VERTEX
  8
APL_JOINERY
  5
8A0E
 10
97.8474
 20
327.484
 30
0.000000
  70
    32
  0
VERTEX
  8
APL_JOINERY
  5
8A0F
 10
97.8509
 20
327.467
 30
0.000000
  70
    32
  0
VERTEX
  8
APL_JOINERY
  5
8A10
 10
97.8544
 20
327.451
 30
0.000000
  70
    32
  0
VERTEX
  8
APL_JOINERY
  5
8A11
 10
97.8580
 20
327.435
 30
0.000000
  70
    32
  0
VERTEX
  8
APL_JOINERY
  5
8A12
 10
97.8616
 20
327.419
 30
0.000000
  70
    32
  0
VERTEX
  8
APL_JOINERY
  5
8A13
 10
97.8652
 20
327.403
 30
0.000000
  70
    32
  0
VERTEX
  8
APL_JOINERY
  5
8A14
 10
97.8688
 20
327.388
 30
0.000000
  70
    32
  0
VERTEX
  8
APL_JOINERY
  5
8A15
 10
97.8724
 20
327.372
 30
0.000000
  70
    32
  0
VERTEX
  8
APL_JOINERY
  5
8A16
 10
97.8761
 20
327.357
 30
0.000000
  70
    32
  0
VERTEX
  8
APL_JOINERY
  5
8A17
 10
97.8797
 20
327.343
 30
0.000000
  70
    32
  0
VERTEX
  8
APL_JOINERY
  5
8A18
 10
97.8834
 20
327.328
 30
0.000000
  70
    32
  0
VERTEX
  8
APL_JOINERY
  5
8A19
 10
97.8871
 20
327.314
 30
0.000000
  70
    32
  0
VERTEX
  8
APL_JOINERY
  5
8A1A
 10
97.8908
 20
327.300
 30
0.000000
  70
    32
  0
VERTEX
  8
APL_JOINERY
  5
8A1B
 10
97.8945
 20
327.286
 30
0.000000
  70
    32
  0
VERTEX
  8
APL_JOINERY
  5
8A1C
 10
97.8983
 20
327.272
 30
0.000000
  70
    32
  0
VERTEX
  8
APL_JOINERY
  5
8A1D
 10
97.9020
 20
327.259
 30
0.000000
  70
    32
  0
VERTEX
  8
APL_JOINERY
  5
8A1E
 10
97.9058
 20
327.246
 30
0.000000
  70
    32
  0
VERTEX
  8
APL_JOINERY
  5
8A1F
 10
97.9096
 20
327.233
 30
0.000000
  70
    32
  0
VERTEX
  8
APL_JOINERY
  5
8A20
 10
97.9133
 20
327.220
 30
0.000000
  70
    32
  0
VERTEX
  8
APL_JOINERY
  5
8A21
 10
97.9171
 20
327.208
 30
0.000000
  70
    32
  0
VERTEX
  8
APL_JOINERY
  5
8A22
 10
97.9209
 20
327.196
 30
0.000000
  70
    32
  0
VERTEX
  8
APL_JOINERY
  5
8A23
 10
97.9247
 20
327.184
 30
0.000000
  70
    32
  0
VERTEX
  8
APL_JOINERY
  5
8A24
 10
97.9286
 20
327.172
 30
0.000000
  70
    32
  0
VERTEX
  8
APL_JOINERY
  5
8A25
 10
97.9324
 20
327.161
 30
0.000000
  70
    32
  0
VERTEX
  8
APL_JOINERY
  5
8A26
 10
97.9362
 20
327.150
 30
0.000000
  70
    32
  0
VERTEX
  8
APL_JOINERY
  5
8A27
 10
97.9401
 20
327.139
 30
0.000000
  70
    32
  0
VERTEX
  8
APL_JOINERY
  5
8A28
 10
97.9439
 20
327.128
 30
0.000000
  70
    32
  0
VERTEX
  8
APL_JOINERY
  5
8A29
 10
97.9478
 20
327.118
 30
0.000000
  70
    32
  0
VERTEX
  8
APL_JOINERY
  5
8A2A
 10
97.9516
 20
327.108
 30
0.000000
  70
    32
  0
VERTEX
  8
APL_JOINERY
  5
8A2B
 10
97.9555
 20
327.098
 30
0.000000
  70
    32
  0
VERTEX
  8
APL_JOINERY
  5
8A2C
 10
97.9594
 20
327.088
 30
0.000000
  70
    32
  0
VERTEX
  8
APL_JOINERY
  5
8A2D
 10
97.9632
 20
327.079
 30
0.000000
  70
    32
  0
VERTEX
  8
APL_JOINERY
  5
8A2E
 10
97.9671
 20
327.070
 30
0.000000
  70
    32
  0
VERTEX
  8
APL_JOINERY
  5
8A2F
 10
97.9710
 20
327.061
 30
0.000000
  70
    32
  0
VERTEX
  8
APL_JOINERY
  5
8A30
 10
97.9749
 20
327.053
 30
0.000000
  70
    32
  0
VERTEX
  8
APL_JOINERY
  5
8A31
 10
97.9787
 20
327.045
 30
0.000000
  70
    32
  0
VERTEX
  8
APL_JOINERY
  5
8A32
 10
97.9826
 20
327.037
 30
0.000000
  70
    32
  0
VERTEX
  8
APL_JOINERY
  5
8A33
 10
97.9865
 20
327.029
 30
0.000000
  70
    32
  0
VERTEX
  8
APL_JOINERY
  5
8A34
 10
97.9904
 20
327.022
 30
0.000000
  70
    32
  0
VERTEX
  8
APL_JOINERY
  5
8A35
 10
97.9942
 20
327.015
 30
0.000000
  70
    32
  0
VERTEX
  8
APL_JOINERY
  5
8A36
 10
97.9981
 20
327.008
 30
0.000000
  70
    32
  0
VERTEX
  8
APL_JOINERY
  5
8A37
 10
98.0020
 20
327.001
 30
0.000000
  70
    32
  0
VERTEX
  8
APL_JOINERY
  5
8A38
 10
98.0059
 20
326.995
 30
0.000000
  70
    32
  0
VERTEX
  8
APL_JOINERY
  5
8A39
 10
98.0097
 20
326.989
 30
0.000000
  70
    32
  0
VERTEX
  8
APL_JOINERY
  5
8A3A
 10
98.0136
 20
326.984
 30
0.000000
  70
    32
  0
VERTEX
  8
APL_JOINERY
  5
8A3B
 10
98.0174
 20
326.978
 30
0.000000
  70
    32
  0
VERTEX
  8
APL_JOINERY
  5
8A3C
 10
98.0213
 20
326.973
 30
0.000000
  70
    32
  0
VERTEX
  8
APL_JOINERY
  5
8A3D
 10
98.0251
 20
326.968
 30
0.000000
  70
    32
  0
VERTEX
  8
APL_JOINERY
  5
8A3E
 10
98.0290
 20
326.964
 30
0.000000
  70
    32
  0
VERTEX
  8
APL_JOINERY
  5
8A3F
 10
98.0328
 20
326.959
 30
0.000000
  70
    32
  0
VERTEX
  8
APL_JOINERY
  5
8A40
 10
98.0366
 20
326.955
 30
0.000000
  70
    32
  0
VERTEX
  8
APL_JOINERY
  5
8A41
 10
98.0404
 20
326.952
 30
0.000000
  70
    32
  0
VERTEX
  8
APL_JOINERY
  5
8A42
 10
98.0442
 20
326.948
 30
0.000000
  70
    32
  0
VERTEX
  8
APL_JOINERY
  5
8A43
 10
98.0480
 20
326.945
 30
0.000000
  70
    32
  0
VERTEX
  8
APL_JOINERY
  5
8A44
 10
98.0518
 20
326.943
 30
0.000000
  70
    32
  0
VERTEX
  8
APL_JOINERY
  5
8A45
 10
98.0556
 20
326.940
 30
0.000000
  70
    32
  0
VERTEX
  8
APL_JOINERY
  5
8A46
 10
98.0594
 20
326.938
 30
0.000000
  70
    32
  0
VERTEX
  8
APL_JOINERY
  5
8A47
 10
98.0631
 20
326.936
 30
0.000000
  70
    32
  0
VERTEX
  8
APL_JOINERY
  5
8A48
 10
98.0669
 20
326.934
 30
0.000000
  70
    32
  0
VERTEX
  8
APL_JOINERY
  5
8A49
 10
98.0706
 20
326.933
 30
0.000000
  70
    32
  0
VERTEX
  8
APL_JOINERY
  5
8A4A
 10
98.0743
 20
326.932
 30
0.000000
  70
    32
  0
VERTEX
  8
APL_JOINERY
  5
8A4B
 10
98.0780
 20
326.931
 30
0.000000
  70
    32
  0
VERTEX
  8
APL_JOINERY
  5
8A4C
 10
98.0817
 20
326.931
 30
0.000000
  70
    32
  0
SEQEND
  8
APL_JOINERY
  5
8A4D
  0
ARC
  5
752F
  8
APL_JOINERY
  6
CONTINUOUS
 62
     8
 10
97.023036579543131
 20
329.70751763681488
 30
0.0
 40
0.1999999999999913
 50
0.0
 51
50.000000000003361
  0
LINE
  5
7530
  8
APL_JOINERY
  6
CONTINUOUS
 62
     8
 10
97.223036579543091
 20
329.70751763681488
 30
0.0
 11
97.223036579543134
 21
329.30077916844601
 31
0.0
  0
LINE
  5
7531
  8
APL_JOINERY
  6
CONTINUOUS
 62
     8
 10
97.680978403276697
 20
328.90077916844598
 30
0.0
 11
97.660051325596001
 21
329.30077916844601
 31
0.0
  0
ARC
  5
7532
  8
APL_JOINERY
  6
CONTINUOUS
 62
     8
 10
96.773036579543131
 20
330.43945546034217
 30
0.0
 40
0.200000000000017
 50
180.0
 51
229.99999999999861
  0
ARC
  5
7533
  8
APL_JOINERY
  6
CONTINUOUS
 62
     8
 10
95.022354256317499
 20
329.04612743288538
 30
0.0
 40
0.2552234487967125
 50
14.78216331043728
 51
84.450754926264636
  0
LINE
  5
7534
  8
APL_JOINERY
  6
CONTINUOUS
 62
     8
 10
97.660051325596001
 20
329.30077916844601
 30
0.0
 11
94.573036579543114
 21
329.30077916844601
 31
0.0
  0
LINE
  5
7535
  8
APL_JOINERY
  6
CONTINUOUS
 62
     8
 10
96.644479057605821
 20
330.28624657171849
 30
0.0
 11
97.151594101480427
 21
329.86072652543868
 31
0.0
  0
LINE
  5
7536
  8
APL_JOINERY
  6
CONTINUOUS
 62
     8
 10
98.423036579543094
 20
326.90077916844592
 30
0.0
 11
98.081712118466754
 21
326.93064118937423
 31
0.0
  0
ARC
  5
7537
  8
APL_JOINERY
  6
CONTINUOUS
 62
     8
 10
93.781863320907604
 20
336.55179152298012
 30
0.0
 40
4.9990846553130943
 50
311.1855536673022
 51
0.0
  0
ARC
  5
7538
  8
APL_JOINERY
  6
CONTINUOUS
 62
     8
 10
94.997977413066096
 20
333.7447744566
 30
0.0
 40
2.285010934001328
 50
323.89781665377831
 51
335.2898414400139
  0
ARC
  5
7539
  8
APL_JOINERY
  6
CONTINUOUS
 62
     8
 10
95.189715665603586
 20
333.5892947895814
 30
0.0
 40
2.038519049921276
 50
269.8949126400334
 51
324.2532299944329
  0
ARC
  5
753A
  8
APL_JOINERY
  6
CONTINUOUS
 62
     8
 10
94.997977413064504
 20
333.74477445660102
 30
0.0
 40
2.285010934003171
 50
323.89781665378189
 51
357.79886082899401
  0
LINE
  5
753C
  8
APL_JOINERY
  6
CONTINUOUS
 62
     8
 10
98.780947976220745
 20
339.75587759398172
 30
0.0
 11
99.073036579543114
 21
339.750779168446
 31
0.0
  0
LINE
  5
753D
  8
APL_JOINERY
  6
CONTINUOUS
 62
     8
 10
88.873036579543125
 20
355.55077916844601
 30
0.0
 11
97.648554296185509
 21
355.55077916844613
 31
0.0
  0
LINE
  5
753E
  8
APL_JOINERY
  6
CONTINUOUS
 62
     8
 10
98.205302243490991
 20
353.9810567899512
 30
0.0
 11
98.147869063562993
 21
355.07694714656759
 31
0.0
  0
LINE
  5
753F
  8
APL_JOINERY
  6
CONTINUOUS
 62
     8
 10
98.202770631926413
 20
353.91267856701882
 30
0.0
 11
98.201725794525643
 21
353.98086935620319
 31
0.0
  0
ARC
  5
7540
  8
APL_JOINERY
  6
CONTINUOUS
 62
     8
 10
99.573036579543086
 20
353.5507791684459
 30
0.0
 40
0.5
 50
90.0
 51
180.0
  0
LINE
  5
7541
  8
APL_JOINERY
  6
CONTINUOUS
 62
     8
 10
99.073036579543114
 20
353.35077916844602
 30
0.0
 11
98.213141816658563
 21
353.3357696495284
 31
0.0
  0
ARC
  5
7542
  8
APL_JOINERY
  6
CONTINUOUS
 62
     8
 10
97.648554296185566
 20
355.05077916844601
 30
0.0
 40
0.5000000000001444
 50
3.0000000000088538
 51
90.0
  0
ARC
  5
7543
  8
APL_JOINERY
  6
CONTINUOUS
 62
     8
 10
95.807640266080725
 20
355.05335835020111
 30
0.0
 40
0.4974254759485949
 50
2.718086660924615
 51
89.752052413126506
  0
LINE
  5
7544
  8
APL_JOINERY
  6
CONTINUOUS
 62
     8
 10
112.073036579543
 20
339.25077916844589
 30
0.0
 11
112.073036579543
 21
353.85077916844591
 31
0.0
  0
ARC
  5
7545
  8
APL_JOINERY
  6
CONTINUOUS
 62
     8
 10
240.42350148168501
 20
346.55077916844567
 30
0.0
 40
123.2550812714297
 50
176.97703815833469
 51
183.02296184166519
  0
LINE
  5
7546
  8
APL_JOINERY
  6
CONTINUOUS
 62
     8
 10
120.0730365795432
 20
340.0507791684459
 30
0.0
 11
120.0730365795432
 21
353.0507791684459
 31
0.0
  0
LINE
  5
7547
  8
APL_JOINERY
  6
CONTINUOUS
 62
     8
 10
104.073036579543
 20
339.0507791684459
 30
0.0
 11
104.073036579543
 21
323.0507791684459
 31
0.0
  0
ARC
  5
7548
  8
APL_JOINERY
  6
CONTINUOUS
 62
     8
 10
103.073036579543
 20
323.0507791684459
 30
0.0
 40
1.0
 50
270.0
 51
0.0
  0
LINE
  5
7549
  8
APL_JOINERY
  6
CONTINUOUS
 62
     8
 10
119.0730365795431
 20
339.0507791684459
 30
0.0
 11
112.273036579543
 21
339.0507791684459
 31
0.0
  0
LINE
  5
754A
  8
APL_JOINERY
  6
CONTINUOUS
 62
     8
 10
110.873036579543
 20
339.0507791684459
 30
0.0
 11
104.073036579543
 21
339.0507791684459
 31
0.0
  0
LINE
  5
754B
  8
APL_JOINERY
  6
CONTINUOUS
 62
     8
 10
111.073036579543
 20
341.0507791684459
 30
0.0
 11
111.073036579543
 21
339.25077916844589
 31
0.0
  0
LINE
  5
754C
  8
APL_JOINERY
  6
CONTINUOUS
 62
     8
 10
111.073036579543
 20
341.0507791684459
 30
0.0
 11
112.073036579543
 21
341.0507791684459
 31
0.0
  0
ARC
  5
754D
  8
APL_JOINERY
  6
CONTINUOUS
 62
     8
 10
110.873036579543
 20
339.25077916844589
 30
0.0
 40
0.200000000000017
 50
270.0
 51
0.0
  0
ARC
  5
754E
  8
APL_JOINERY
  6
CONTINUOUS
 62
     8
 10
112.273036579543
 20
339.25077916844589
 30
0.0
 40
0.200000000000017
 50
180.0
 51
270.0
  0
ARC
  5
754F
  8
APL_JOINERY
  6
CONTINUOUS
 62
     8
 10
116.3426272029462
 20
340.04808399538138
 30
0.0
 40
0.997308508411856
 50
270.15568042485512
 51
0.1548389774224449
  0
ARC
  5
7550
  8
APL_JOINERY
  6
CONTINUOUS
 62
     8
 10
119.0730365795432
 20
340.0507791684459
 30
0.0
 40
1.0
 50
269.9999999999967
 51
0.0
  0
LINE
  5
7551
  8
APL_JOINERY
  6
CONTINUOUS
 62
     8
 10
112.273036579543
 20
354.0507791684459
 30
0.0
 11
119.0730365795431
 21
354.0507791684459
 31
0.0
  0
ARC
  5
7552
  8
APL_JOINERY
  6
CONTINUOUS
 62
     8
 10
116.3426272029464
 20
353.05347434151059
 30
0.0
 40
0.9973085084117144
 50
359.84516102256771
 51
89.844319575156206
  0
LINE
  5
7553
  8
APL_JOINERY
  6
CONTINUOUS
 62
     8
 10
111.073036579543
 20
353.85077916844602
 30
0.0
 11
111.073036579543
 21
352.0507791684459
 31
0.0
  0
ARC
  5
7554
  8
APL_JOINERY
  6
CONTINUOUS
 62
     8
 10
110.873036579543
 20
353.85077916844602
 30
0.0
 40
0.200000000000017
 50
0.0
 51
90.0
  0
ARC
  5
7555
  8
APL_JOINERY
  6
CONTINUOUS
 62
     8
 10
112.273036579543
 20
353.85077916844602
 30
0.0
 40
0.1999999999999886
 50
90.0
 51
180.0
  0
LINE
  5
7556
  8
APL_JOINERY
  6
CONTINUOUS
 62
     8
 10
112.073036579543
 20
352.0507791684459
 30
0.0
 11
111.073036579543
 21
352.0507791684459
 31
0.0
  0
ARC
  5
7557
  8
APL_JOINERY
  6
CONTINUOUS
 62
     8
 10
119.0730365795432
 20
353.0507791684459
 30
0.0
 40
1.0
 50
0.0
 51
90.000000000003254
  0
LINE
  5
7571
  8
APL_JOINERY
  6
CONTINUOUS
 62
     8
 10
98.780947976220745
 20
340.31018629445867
 30
0.0
 11
98.636205755276009
 21
343.0700851700845
 31
0.0
  0
LINE
  5
7572
  8
APL_JOINERY
  6
CONTINUOUS
 62
     8
 10
98.636205755276009
 20
343.0700851700845
 30
0.0
 11
98.452288981530003
 21
346.57694714656742
 31
0.0
  0
LINE
  5
7573
  8
APL_JOINERY
  6
CONTINUOUS
 62
     8
 10
96.304506115992623
 20
355.07694714656742
 30
0.0
 11
96.350105574409554
 21
354.0793622991398
 31
0.0
  0
LINE
  5
7574
  8
APL_JOINERY
  6
CONTINUOUS
 62
     8
 10
96.350105574409554
 20
354.0793622991398
 30
0.0
 11
96.532398314230321
 21
350.08901808837447
 31
0.0
  0
LINE
  5
7575
  8
APL_JOINERY
  6
CONTINUOUS
 62
     8
 10
96.532398314230321
 20
350.08901808837447
 30
0.0
 11
97.259895870924723
 21
334.12756455071479
 31
0.0
  0
LINE
  5
7576
  8
APL_JOINERY
  6
CONTINUOUS
 62
     8
 10
97.259895870924723
 20
334.12756455071479
 30
0.0
 11
97.281302358549581
 21
333.65701249536932
 31
0.0
  0
INSERT
  5
786D
  8
APL_JOINERY
  2
24MM_IGU
 10
81.373078170681325
 20
410.25716784729178
 30
0.0
 50
180.0
  0
INSERT
  5
786E
  8
APL_JOINERY
  2
24MM_IGU
 10
81.373078170681325
 20
350.1293861177237
 30
0.0
 41
-1.0
  0
INSERT
  5
7876
  8
APL_JOINERY
  2
32MM_IGU
 10
56.873036580110842
 20
194.71521831065451
 30
0.0
  0
INSERT
  5
7877
  8
APL_JOINERY
  2
32MM_IGU
 10
56.873036580110842
 20
266.12977911593032
 30
0.0
 41
-1.0
 50
180.0
  0
INSERT
  5
78AC
  8
APL_JOINERY
  2
24MM_IGU
 10
250.30550507178179
 20
285.087384099323
 30
0.0
 50
180.0
  0
INSERT
  5
78AD
  8
APL_JOINERY
  2
24MM_IGU
 10
250.30550507178179
 20
333.08659810179148
 30
0.0
 41
-1.0
  0
INSERT
  5
78AE
  8
APL_JOINERY
  2
32MM_IGU
 10
207.90175970084169
 20
142.7683881411379
 30
0.0
 50
90.0
  0
INSERT
  5
78B7
  8
APL_JOINERY
  2
24MM_IGU
 10
291.90136670172552
 20
143.26837040973859
 30
0.0
 41
-1.0
 50
270.0
  0
INSERT
  5
78EC
  8
APL_JOINERY
  2
24MM_IGU
 10
62.520392687984902
 20
39.092094205049698
 30
0.0
 41
-1.0
 50
270.0
  0
INSERT
  5
78ED
  8
APL_JOINERY
  2
24MM_IGU
 10
124.6850676581093
 20
39.092094205049698
 30
0.0
 50
90.0
  0
INSERT
  5
7923
  8
APL_JOINERY
  2
32MM_IGU
 10
208.684679379541
 20
23.592195117723261
 30
0.0
 41
-1.0
 50
270.0
  0
POLYLINE
  5
7CB8
  8
APL_BUILDING
 62
     7
 66
     1
 10
0.0
 20
0.0
 30
0.0
  0
VERTEX
  5
845F
  8
APL_BUILDING
 62
     7
 10
55.473078170404207
 20
477.69291685922309
 30
0.0
  0
VERTEX
  5
8460
  8
APL_BUILDING
 62
     7
 10
55.473078170404207
 20
439.55240938143749
 30
0.0
  0
VERTEX
  5
8461
  8
APL_BUILDING
 62
     7
 10
144.7730781705018
 20
439.55240938143749
 30
0.0
  0
SEQEND
  5
8462
  8
APL_BUILDING
 62
     7
  0
INSERT
  5
7CB9
  8
APL_JOINERY
  2
01002
 10
86.988196130090572
 20
437.09600029951508
 30
0.0
 41
-1.0
 50
180.0
  0
TEXT
  5
7CBA
  8
APL_NOTES
 10
108.6365438595525
 20
431.01601703574789
 30
0.0
 40
5.0
  1
01002
  7
ARIAL-BOLD
 72
     2
 11
128.06014549666031
 21
431.01601703574789
 31
0.0
  0
INSERT
  5
7CBF
  8
APL_JOINERY
 62
     3
  2
FIXING_8G_X_3-4_PAN
 10
132.8232416093044
 20
437.10716784766589
 30
0.0
 41
-1.0
 50
270.0
  0
TEXT
  5
7D36
  8
APL_NOTES
 10
96.624610406392748
 20
407.62651909448402
 30
0.0
 40
5.0
  1
GIB/VILLABOARD LINER OPTION
  7
ARIAL-BOLD
  0
POLYLINE
  5
7D43
  8
APL_BUILDING
 62
     7
 66
     1
 10
0.0
 20
0.0
 30
0.0
  0
VERTEX
  5
8463
  8
APL_BUILDING
 62
     7
 10
144.7730781705018
 20
459.21641630852861
 30
0.0
  0
VERTEX
  5
8464
  8
APL_BUILDING
 62
     7
 10
144.7730781705018
 20
428.74719948191472
 30
0.0
  0
VERTEX
  5
8465
  8
APL_BUILDING
 62
     7
 10
98.525290683317976
 20
428.74719948191472
 30
0.0
  0
VERTEX
  5
8466
  8
APL_BUILDING
 62
     7
 10
98.525290857749852
 20
418.74719970543208
 30
0.0
  0
SEQEND
  5
8467
  8
APL_BUILDING
 62
     7
  0
POLYLINE
  5
7D45
  8
APL_BUILDING
 62
     7
 66
     1
 10
0.0
 20
0.0
 30
0.0
  0
VERTEX
  5
8468
  8
APL_BUILDING
 62
     7
 10
98.525290683317976
 20
418.74719970543208
 30
0.0
  0
VERTEX
  5
8469
  8
APL_BUILDING
 62
     7
 10
154.2730781705018
 20
418.74719970543208
 30
0.0
  0
VERTEX
  5
846A
  8
APL_BUILDING
 62
     7
 10
154.2730781705018
 20
460.11980649763478
 30
0.0
  0
SEQEND
  5
846B
  8
APL_BUILDING
 62
     7
  0
POLYLINE
  5
7D6F
  8
APL_JOINERY
  6
CONTINUOUS
 62
     3
 66
     1
 10
0.0
 20
0.0
 30
0.0
  0
VERTEX
  5
846C
  8
APL_JOINERY
  6
CONTINUOUS
 62
     3
 10
98.525290683318005
 20
428.74719948191449
 30
0.0
  0
VERTEX
  5
846D
  8
APL_JOINERY
  6
CONTINUOUS
 62
     3
 10
106.02529098285061
 20
428.74719945322209
 30
0.0
 42
0.9998234383078775
  0
VERTEX
  5
846E
  8
APL_JOINERY
  6
CONTINUOUS
 62
     3
 10
106.02543229086569
 20
429.5471994282704
 30
0.0
  0
VERTEX
  5
846F
  8
APL_JOINERY
  6
CONTINUOUS
 62
     3
 10
98.525291000712855
 20
429.5471994282704
 30
0.0
 42
0.4142135623730951
  0
VERTEX
  5
8470
  8
APL_JOINERY
  6
CONTINUOUS
 62
     3
 10
97.725291000712886
 20
428.74719942827039
 30
0.0
  0
VERTEX
  5
8471
  8
APL_JOINERY
  6
CONTINUOUS
 62
     3
 10
97.725291000712858
 20
418.74719942827028
 30
0.0
 42
0.4142135623730954
  0
VERTEX
  5
8472
  8
APL_JOINERY
  6
CONTINUOUS
 62
     3
 10
98.525291000712855
 20
417.94719942827032
 30
0.0
  0
VERTEX
  5
8473
  8
APL_JOINERY
  6
CONTINUOUS
 62
     3
 10
103.5252910007128
 20
417.94719942827032
 30
0.0
 42
1.000000001154838
  0
VERTEX
  5
8474
  8
APL_JOINERY
  6
CONTINUOUS
 62
     3
 10
103.5252910459826
 20
418.74719942827028
 30
0.0
  0
VERTEX
  5
8475
  8
APL_JOINERY
  6
CONTINUOUS
 62
     3
 10
98.525290683318005
 20
418.74719970543191
 30
0.0
  0
VERTEX
  5
8476
  8
APL_JOINERY
  6
CONTINUOUS
 62
     3
 10
98.525290683318005
 20
428.74719948191449
 30
0.0
  0
VERTEX
  5
8477
  8
APL_JOINERY
  6
CONTINUOUS
 62
     3
 10
98.525290683318005
 20
418.74719970543191
 30
0.0
  0
SEQEND
  5
8478
  8
APL_JOINERY
  6
CONTINUOUS
 62
     3
  0
INSERT
  5
7DB1
  8
APL_JOINERY
  2
92030
 10
292.06493249656268
 20
21.592195117516329
 30
0.0
 50
90.0
  0
INSERT
  5
7DB2
  8
APL_JOINERY
  2
9010100
 10
308.0149324965621
 20
20.092153526943662
 30
0.0
 50
90.0
  0
TEXT
  5
7DB3
  8
APL_NOTES
 10
292.9232171735153
 20
8.4781568986670184
 30
0.0
 40
5.0
  1
92030
  7
ARIAL-BOLD
  0
TEXT
  5
7DB4
  8
APL_NOTES
 10
249.76548674516729
 20
8.5722985657250295
 30
0.0
 40
5.0
  1
92195
  7
ARIAL-BOLD
  0
INSERT
  5
7DB6
  8
APL_JOINERY
  2
9010311
 10
250.06492777691369
 20
57.592153526458873
 30
0.0
 50
270.0
  0
INSERT
  5
7DB7
  8
APL_JOINERY
  2
92195
 10
270.06492777654699
 20
17.0921535265073
 30
0.0
 50
90.0
  0
INSERT
  5
7DB8
  8
APL_JOINERY
  2
9010235L
 10
252.06492777654719
 20
18.389530067918109
 30
0.0
 50
90.0
  0
INSERT
  5
7DBA
  8
APL_JOINERY
  2
32MM_IGU
 10
264.06492777654699
 20
23.592195117723261
 30
0.0
 50
90.0
  0
INSERT
  5
7DF3
  8
APL_JOINERY
  2
92070
 10
211.80548761619519
 20
309.08699110055733
 30
0.0
 50
270.0
  0
POLYLINE
  5
80CE
  8
APL_NOTES
 62
     2
 66
     1
 10
0.0
 20
0.0
 30
0.0
 70
     1
  0
VERTEX
  5
8479
  8
APL_NOTES
 62
     2
 10
324.19822657922538
 20
460.34304166413852
 30
0.0
  0
VERTEX
  5
847A
  8
APL_NOTES
 62
     2
 10
324.19822657922538
 20
378.74304166413862
 30
0.0
  0
VERTEX
  5
847B
  8
APL_NOTES
 62
     2
 10
242.59822657922541
 20
378.74304166413862
 30
0.0
  0
VERTEX
  5
847C
  8
APL_NOTES
 62
     2
 10
242.5982265792255
 20
460.3430416641387
 30
0.0
  0
SEQEND
  5
847D
  8
APL_NOTES
 62
     2
  0
POLYLINE
  5
80D0
  8
APL_NOTES
 62
     2
 66
     1
 10
0.0
 20
0.0
 30
0.0
 70
     1
  0
VERTEX
  5
847E
  8
APL_NOTES
 62
     2
 10
322.4982265792255
 20
380.4430416641386
 30
0.0
  0
VERTEX
  5
847F
  8
APL_NOTES
 62
     2
 10
322.4982265792255
 20
458.64304166413871
 30
0.0
  0
VERTEX
  5
8480
  8
APL_NOTES
 62
     2
 10
244.2982265792254
 20
458.64304166413882
 30
0.0
  0
VERTEX
  5
8481
  8
APL_NOTES
 62
     2
 10
244.2982265792254
 20
380.4430416641386
 30
0.0
  0
SEQEND
  5
8482
  8
APL_NOTES
 62
     2
  0
POLYLINE
  5
80D5
  8
APL_NOTES
 62
     8
 66
     1
 10
0.0
 20
0.0
 30
0.0
  0
VERTEX
  5
8483
  8
APL_NOTES
 62
     8
 10
303.37322657922539
 20
440.4454365145574
 30
0.0
  0
VERTEX
  5
8484
  8
APL_NOTES
 62
     8
 10
303.37322657922539
 20
469.34543651455738
 30
0.0
  0
SEQEND
  5
8485
  8
APL_NOTES
 62
     8
  0
POLYLINE
  5
80D6
  8
APL_NOTES
  6
DASHED
 62
     7
 66
     1
 10
0.0
 20
0.0
 30
0.0
  0
VERTEX
  5
8486
  8
APL_NOTES
  6
DASHED
 62
     7
 10
320.79822657922551
 20
422.0930416641387
 30
0.0
  0
VERTEX
  5
8487
  8
APL_NOTES
  6
DASHED
 62
     7
 10
303.37322657922539
 20
456.9430416641386
 30
0.0
  0
VERTEX
  5
8488
  8
APL_NOTES
  6
DASHED
 62
     7
 10
285.94822657922549
 20
422.0930416641387
 30
0.0
  0
SEQEND
  5
8489
  8
APL_NOTES
  6
DASHED
 62
     7
  0
POLYLINE
  5
80D9
  8
APL_NOTES
 62
     2
 66
     1
 10
0.0
 20
0.0
 30
0.0
 70
     1
  0
VERTEX
  5
848A
  8
APL_NOTES
 62
     2
 10
285.94822657922549
 20
456.94304166413872
 30
0.0
  0
VERTEX
  5
848B
  8
APL_NOTES
 62
     2
 10
320.79822657922551
 20
456.94304166413849
 30
0.0
  0
VERTEX
  5
848C
  8
APL_NOTES
 62
     2
 10
320.79822657922551
 20
422.0930416641387
 30
0.0
  0
VERTEX
  5
848D
  8
APL_NOTES
 62
     2
 10
285.94822657922549
 20
422.09304166413852
 30
0.0
  0
SEQEND
  5
848E
  8
APL_NOTES
 62
     2
  0
POLYLINE
  5
80DC
  8
APL_NOTES
 62
     8
 66
     1
 10
0.0
 20
0.0
 30
0.0
  0
VERTEX
  5
848F
  8
APL_NOTES
 62
     8
 10
264.13789810095619
 20
439.51804166413859
 30
0.0
  0
VERTEX
  5
8490
  8
APL_NOTES
 62
     8
 10
235.23789810095619
 20
439.51804166413859
 30
0.0
  0
SEQEND
  5
8491
  8
APL_NOTES
 62
     8
  0
VIEWPORT
  5
491B
 67
     1
  8
0
 10
99.917245388030963
 20
143.1184201240539
 30
0.0
 40
552.27863362389076
 41
299.29210206611668
 68
     1
 69
     1
1001
ACAD
1000
MVIEW
1002
{
1070
    16
1010
0.0
1020
0.0
1030
0.0
1010
0.0
1020
0.0
1030
1.0
1040
0.0
1040
299.29210206611668
1040
99.917245388030963
1040
143.1184201240539
1040
50.0
1040
0.0
1040
0.0
1070
     0
1070
 20000
1070
     1
1070
     1
1070
     0
1070
     0
1070
     0
1070
     0
1040
0.0
1040
0.0
1040
0.0
1040
10.0
1040
10.0
1040
10.0
1040
10.0
1070
     0
1002
{
1002
}
1002
}
  0
VIEWPORT
  5
491D
 67
     1
  8
0
 10
100.595
 20
133.19
 30
0.0
 40
178.0
 41
246.0
 68
     2
 69
     2
1001
ACAD
1000
MVIEW
1002
{
1070
    16
1010
0.0
1020
0.0
1030
0.0
1010
0.0
1020
0.0
1030
1.0
1040
0.0
1040
492.0
1040
177.00000084064069
1040
241.00000229999941
1040
50.0
1040
0.0
1040
0.0
1070
     0
1070
   100
1070
     1
1070
     3
1070
     0
1070
     0
1070
     0
1070
     0
1040
0.0
1040
0.0
1040
0.0
1040
1.0
1040
1.0
1040
1.0
1040
1.0
1070
     0
1002
{
1002
}
1002
}
  0
INSERT
  5
4922
 67
     1
  8
APL_BORDER
  2
ALTH
 10
0.0
 20
0.0
 30
0.0
  0
INSERT
  5
54D4
 67
     1
  8
APL_BORDER
 66
     1
  2
ALTHERM_A4_SM_ATTRIBUTES__
 10
0.0
 20
0.0
 30
0.0
  0
ATTRIB
  5
54D6
 67
     1
  8
APL_BORDER
 10
52.850746347538013
 20
277.19000000000062
 30
0.0
 40
3.6000000000000001
  1
METRO THERMAL HEART, A100MT AWNING WINDOW
  7
ARIAL-BOLD
  2
DRAWINGTITLE_1
 70
     0
  0
ATTRIB
  5
54D7
 67
     1
  8
APL_BORDER
 10
52.850746347538013
 20
271.19000000000062
 30
0.0
 40
3.6000000000000001
  1
INTERNAL BOX MULLION / TRANSOM
  7
ARIAL-BOLD
  2
DRAWINGTITLE_2
 70
     0
  0
ATTRIB
  5
54D8
 67
     1
  8
APL_BORDER
 10
52.850746347538013
 20
265.19000000000068
 30
0.0
 40
3.0
  1
CROSS SECTION
  7
ARIAL-REGULAR
  2
DRAWINGTITLE_3
 70
     0
  0
ATTRIB
  5
54D9
 67
     1
  8
APL_BORDER
 10
67.85074634753795
 20
258.19
 30
0.0
 40
2.399999999999999
  1
ATAW01-0
  7
ARIAL-REGULAR
  2
AW123-456
 70
     0
  0
ATTRIB
  5
54DA
 67
     1
  8
APL_BORDER
 10
100.35074634753791
 20
258.19
 30
0.0
 40
2.399999999999999
  1
1:2
  7
ARIAL-REGULAR
  2
1:2
 70
     0
  0
ATTRIB
  5
54DB
 67
     1
  8
APL_BORDER
 10
119.35074634753791
 20
258.19
 30
0.0
 40
2.399999999999999
  1
01.01.09
  7
ARIAL-REGULAR
  2
20.09.02
 70
     0
  0
ATTRIB
  5
54DC
 67
     1
  8
APL_BORDER
 10
11.59500000000001
 20
1.1899999999999971
 30
0.0
 40
4.5
  1

  7
ARIAL-BOLD
  2
1.2.34
 70
     0
  0
ATTRIB
  5
54DD
 67
     1
  8
APL_BORDER
 10
189.595
 20
1.1899999999999971
 30
0.0
 40
4.5
  1

  7
ARIAL-BOLD
 72
     2
 11
189.595
 21
1.1899999999999971
 31
0.0
  2
1.2.34
 70
     0
  0
SEQEND
  5
54D5
 67
     1
  8
APL_BORDER
  0
ENDSEC
  0
EOF
