  0
SECTION
  2
HEADER
  9
$ACADVER
  1
AC1009
  9
$INSBASE
 10
0.0
 20
0.0
 30
0.0
  9
$EXTMIN
 10
-0.0000008078504834
 20
0.0000001108869583
 30
0.0
  9
$EXTMAX
 10
353.99999919214952
 20
482.0000001108869
 30
0.0
  9
$LIMMIN
 10
0.0
 20
0.0
  9
$LIMMAX
 10
353.99999919214952
 20
482.0000001108869
  9
$ORTHOMODE
 70
     0
  9
$REGENMODE
 70
     1
  9
$FILLMODE
 70
     1
  9
$QTEXTMODE
 70
     0
  9
$MIRRTEXT
 70
     0
  9
$DRAGMODE
 70
     2
  9
$LTSCALE
 40
1.0
  9
$OSMODE
 70
    39
  9
$ATTMODE
 70
     1
  9
$TEXTSIZE
 40
5.0
  9
$TRACEWID
 40
1.0
  9
$TEXTSTYLE
  7
ARIAL-BOLD
  9
$CLAYER
  8
APL_JOINERY
  9
$CELTYPE
  6
BYLAYER
  9
$CECOLOR
 62
   256
  9
$DIMSCALE
 40
1.0
  9
$DIMASZ
 40
3.0
  9
$DIMEXO
 40
1.5
  9
$DIMDLI
 40
3.75
  9
$DIMRND
 40
0.0
  9
$DIMDLE
 40
0.0
  9
$DIMEXE
 40
1.5
  9
$DIMTP
 40
0.0
  9
$DIMTM
 40
0.0
  9
$DIMTXT
 40
2.5
  9
$DIMCEN
 40
-2.5
  9
$DIMTSZ
 40
0.0
  9
$DIMTOL
 70
     0
  9
$DIMLIM
 70
     0
  9
$DIMTIH
 70
     0
  9
$DIMTOH
 70
     0
  9
$DIMSE1
 70
     0
  9
$DIMSE2
 70
     0
  9
$DIMTAD
 70
     1
  9
$DIMZIN
 70
     1
  9
$DIMBLK
  1

  9
$DIMASO
 70
     1
  9
$DIMSHO
 70
     1
  9
$DIMPOST
  1

  9
$DIMAPOST
  1

  9
$DIMALT
 70
     0
  9
$DIMALTD
 70
     3
  9
$DIMALTF
 40
0.03937007874016
  9
$DIMLFAC
 40
1.0
  9
$DIMTOFL
 70
     1
  9
$DIMTVP
 40
0.0
  9
$DIMTIX
 70
     0
  9
$DIMSOXD
 70
     0
  9
$DIMSAH
 70
     0
  9
$DIMBLK1
  1

  9
$DIMBLK2
  1

  9
$DIMSTYLE
  2
JASE_01
  9
$DIMCLRD
 70
     9
  9
$DIMCLRE
 70
     9
  9
$DIMCLRT
 70
     7
  9
$DIMTFAC
 40
1.0
  9
$DIMGAP
 40
1.0
  9
$LUNITS
 70
     2
  9
$LUPREC
 70
     4
  9
$SKETCHINC
 40
1.0
  9
$FILLETRAD
 40
10.0
  9
$AUNITS
 70
     0
  9
$AUPREC
 70
     0
  9
$MENU
  1
.
  9
$ELEVATION
 40
0.0
  9
$PELEVATION
 40
0.0
  9
$THICKNESS
 40
0.0
  9
$LIMCHECK
 70
     0
  9
$BLIPMODE
 70
     0
  9
$CHAMFERA
 40
10.0
  9
$CHAMFERB
 40
10.0
  9
$SKPOLY
 70
     0
  9
$TDCREATE
 40
2452286.6319917012
  9
$TDUPDATE
 40
2454851.5233679861
  9
$TDINDWG
 40
2.8074377083000002
  9
$TDUSRTIMER
 40
2.8074377083000002
  9
$USRTIMER
 70
     1
  9
$ANGBASE
 50
0.0
  9
$ANGDIR
 70
     0
  9
$PDMODE
 70
     3
  9
$PDSIZE
 40
3.0
  9
$PLINEWID
 40
0.0
  9
$COORDS
 70
     1
  9
$SPLFRAME
 70
     0
  9
$SPLINETYPE
 70
     6
  9
$SPLINESEGS
 70
     8
  9
$ATTDIA
 70
     1
  9
$ATTREQ
 70
     1
  9
$HANDLING
 70
     1
  9
$HANDSEED
  5
77B1
  9
$SURFTAB1
 70
     6
  9
$SURFTAB2
 70
     6
  9
$SURFTYPE
 70
     6
  9
$SURFU
 70
     6
  9
$SURFV
 70
     6
  9
$UCSNAME
  2

  9
$UCSORG
 10
0.0
 20
0.0
 30
0.0
  9
$UCSXDIR
 10
1.0
 20
0.0
 30
0.0
  9
$UCSYDIR
 10
0.0
 20
1.0
 30
0.0
  9
$PUCSNAME
  2

  9
$PUCSORG
 10
0.0
 20
0.0
 30
0.0
  9
$PUCSXDIR
 10
1.0
 20
0.0
 30
0.0
  9
$PUCSYDIR
 10
0.0
 20
1.0
 30
0.0
  9
$USERI1
 70
     0
  9
$USERI2
 70
     0
  9
$USERI3
 70
     0
  9
$USERI4
 70
     0
  9
$USERI5
 70
     0
  9
$USERR1
 40
0.0
  9
$USERR2
 40
0.0
  9
$USERR3
 40
0.0
  9
$USERR4
 40
0.0
  9
$USERR5
 40
0.0
  9
$WORLDVIEW
 70
     1
  9
$SHADEDGE
 70
     3
  9
$SHADEDIF
 70
    70
  9
$TILEMODE
 70
     0
  9
$MAXACTVP
 70
    64
  9
$PLIMCHECK
 70
     0
  9
$PEXTMIN
 10
11.589177423288611
 20
1.1748925264071199
 30
-0.0000000349181948
  9
$PEXTMAX
 10
189.60829631337401
 20
282.20038323129887
 30
0.0000000814935746
  9
$PLIMMIN
 10
-5.7467498779296866
 20
-5.3657498359680167
  9
$PLIMMAX
 10
204.14190673828119
 20
291.68725919723511
  9
$UNITMODE
 70
     0
  9
$VISRETAIN
 70
     1
  9
$PLINEGEN
 70
     0
  9
$PSLTSCALE
 70
     1
  0
ENDSEC
  0
SECTION
  2
TABLES
  0
TABLE
  2
VPORT
 70
     1
  0
VPORT
  2
*ACTIVE
 70
     0
 10
0.0
 20
0.0
 11
1.0
 21
1.0
 12
177.00000001636991
 22
241.0000011776871
 13
0.0
 23
0.0
 14
1.0
 24
1.0
 15
1.0
 25
1.0
 16
0.0
 26
0.0
 36
1.0
 17
0.0
 27
0.0
 37
0.0
 40
486.06313804415868
 41
2.2081005586592171
 42
50.0
 43
0.0
 44
0.0
 50
0.0
 51
0.0
 71
     0
 72
 20000
 73
     1
 74
     3
 75
     0
 76
     0
 77
     0
 78
     0
  0
ENDTAB
  0
TABLE
  2
LTYPE
 70
     4
  0
LTYPE
  2
CONTINUOUS
 70
     0
  3
Solid line
 72
    65
 73
     0
 40
0.0
  0
ENDTAB
  0
TABLE
  2
LAYER
 70
    22
  0
LAYER
  2
0
 70
     4
 62
     7
  6
CONTINUOUS
  0
LAYER
  2
APL_JOINERY
 70
     0
 62
     2
  6
CONTINUOUS
  0
LAYER
  2
APL_NOTES
 70
     0
 62
     7
  6
CONTINUOUS
  0
LAYER
  2
APL_BORDER
 70
     0
 62
     7
  6
CONTINUOUS
  0
LAYER
  2
ALTH|APL_BORDER
 70
    48
 62
     7
  6
CONTINUOUS
  0
LAYER
  2
FIRS|APL_BORDER
 70
    48
 62
     7
  6
CONTINUOUS
  0
LAYER
  2
VANT|APL_BORDER
 70
    48
 62
     7
  6
CONTINUOUS
  0
LAYER
  2
92000|APL_JOINERY
 70
    48
 62
     2
  6
CONTINUOUS
  0
LAYER
  2
92000|APL_HATCH
 70
    48
 62
   253
  6
CONTINUOUS
  0
LAYER
  2
92185|APL_JOINERY
 70
    48
 62
     2
  6
CONTINUOUS
  0
LAYER
  2
92185|APL_HATCH
 70
    48
 62
   253
  6
CONTINUOUS
  0
LAYER
  2
92110|APL_JOINERY
 70
    48
 62
     2
  6
CONTINUOUS
  0
LAYER
  2
92110|APL_HATCH
 70
    48
 62
   253
  6
CONTINUOUS
  0
LAYER
  2
92120|APL_JOINERY
 70
    48
 62
     2
  6
CONTINUOUS
  0
LAYER
  2
92120|APL_HATCH
 70
    48
 62
   253
  6
CONTINUOUS
  0
LAYER
  2
01219|APL_JOINERY
 70
    48
 62
     2
  6
CONTINUOUS
  0
LAYER
  2
01219|APL_HATCH
 70
    48
 62
   253
  6
CONTINUOUS
  0
LAYER
  2
92195|APL_JOINERY
 70
    48
 62
     2
  6
CONTINUOUS
  0
LAYER
  2
92195|APL_HATCH
 70
    48
 62
   253
  6
CONTINUOUS
  0
LAYER
  2
APL_HATCH
 70
     0
 62
   253
  6
CONTINUOUS
  0
LAYER
  2
01219|APL_NOTES
 70
    48
 62
     7
  6
CONTINUOUS
  0
ENDTAB
  0
TABLE
  2
STYLE
 70
    27
  0
STYLE
  2
STANDARD
 70
     0
 40
2.0
 41
1.0
 50
0.0
 71
     0
 42
3.0
  3
txt.shx
  4

  0
STYLE
  2
ARIAL-BOLD
 70
     0
 40
0.0
 41
1.0
 50
0.0
 71
     0
 42
5.0
  3
txt
  4

  0
STYLE
  2
ARIAL-REGULAR
 70
     0
 40
0.0
 41
1.0
 50
0.0
 71
     0
 42
2.5
  3
txt
  4

  0
ENDTAB
  0
TABLE
  2
VIEW
 70
     0
  0
ENDTAB
  0
TABLE
  2
UCS
 70
     0
  0
ENDTAB
  0
TABLE
  2
APPID
 70
    12
  0
APPID
  2
ACAD
 70
     0
  0
APPID
  2
DCO15
 70
     0
  0
APPID
  2
ACAD_PSEXT
 70
     0
  0
APPID
  2
ACAD_MLEADERVER
 70
     0
  0
APPID
  2
ACADSTRINGINFO
 70
     0
  0
APPID
  2
ACAD_EXEMPT_FROM_CAD_STANDARDS
 70
     0
  0
APPID
  2
ACAUTHENVIRON
 70
     0
  0
APPID
  2
ACDBDYNAMICBLOCKTRUENAME
 70
     0
  0
APPID
  2
ACDBDYNAMICBLOCKGUID
 70
     0
  0
APPID
  2
ACDBBLOCKREPETAG
 70
     0
  0
APPID
  2
ACDBBLOCKREPBTAG
 70
     0
  0
APPID
  2
CONTENTBLOCKICON
 70
     0
  0
ENDTAB
  0
TABLE
  2
DIMSTYLE
 70
    12
  0
DIMSTYLE
  2
JASE_01
 70
     0
  3

  4

  5

  6

  7

 40
1.0
 41
3.0
 42
1.5
 43
3.75
 44
1.5
 45
0.0
 46
0.0
 47
0.0
 48
0.0
140
2.5
141
-2.5
142
0.0
143
0.03937007874016
144
1.0
145
0.0
146
1.0
147
1.0
 71
     0
 72
     0
 73
     0
 74
     0
 75
     0
 76
     0
 77
     1
 78
     1
170
     0
171
     3
172
     1
173
     0
174
     0
175
     0
176
     9
177
     9
178
     7
  0
DIMSTYLE
  2
ISO-25
 70
     0
  3

  4

  5

  6

  7

 40
1.0
 41
4.0
 42
0.625
 43
3.75
 44
1.25
 45
0.0
 46
0.0
 47
0.0
 48
0.0
140
2.5
141
2.5
142
0.0
143
0.03937007874016
144
1.0
145
0.0
146
1.0
147
0.625
 71
     0
 72
     0
 73
     0
 74
     0
 75
     0
 76
     0
 77
     1
 78
     8
170
     0
171
     3
172
     1
173
     0
174
     0
175
     0
176
     0
177
     0
178
     0
  0
ENDTAB
  0
ENDSEC
  0
SECTION
  2
BLOCKS
  0
BLOCK
  8
0
  2
$MODEL_SPACE
 70
     0
 10
0.0
 20
0.0
 30
0.0
  3
$MODEL_SPACE
  1

  0
ENDBLK
  5
21
  8
0
  0
BLOCK
 67
     1
  8
0
  2
$PAPER_SPACE
 70
     0
 10
0.0
 20
0.0
 30
0.0
  3
$PAPER_SPACE
  1

  0
ENDBLK
  5
4906
 67
     1
  8
0
  0
BLOCK
  8
0
  2
_DOT
 70
     0
 10
0.0
 20
0.0
 30
0.0
  3
_DOT
  1

  0
POLYLINE
  5
3750
  8
0
  6
BYBLOCK
 62
     0
 66
     1
 10
0.0
 20
0.0
 30
0.0
 70
     1
 40
0.5
 41
0.5
  0
VERTEX
  5
7186
  8
0
  6
BYBLOCK
 62
     0
 10
-0.25
 20
0.0
 30
0.0
 42
1.0
  0
VERTEX
  5
7187
  8
0
  6
BYBLOCK
 62
     0
 10
0.25
 20
0.0
 30
0.0
 42
1.0
  0
SEQEND
  5
7188
  8
0
  6
BYBLOCK
 62
     0
  0
LINE
  5
3751
  8
0
  6
BYBLOCK
 62
     0
 10
-0.5
 20
0.0
 30
0.0
 11
-1.0
 21
0.0
 31
0.0
  0
ENDBLK
  5
3753
  8
0
  0
BLOCK
  8
0
  2
A4_SPECIFIERS_MANUAL
 70
     0
 10
0.0
 20
0.0
 30
0.0
  3
A4_SPECIFIERS_MANUAL
  1

  0
LINE
  5
3E9B
  8
0
 10
-0.0000008078504834
 20
0.0000001108869583
 30
0.0
 11
353.99999919214952
 21
0.0000001108869583
 31
0.0
  0
LINE
  5
3E9C
  8
0
 10
353.99999919214952
 20
482.0000001108869
 30
0.0
 11
-0.0000008078504834
 21
482.0000001108869
 31
0.0
  0
LINE
  5
3E9D
  8
0
 10
-0.0000008078504834
 20
482.0000001108869
 30
0.0
 11
-0.0000008078504834
 21
0.0000001108869583
 31
0.0
  0
LINE
  5
3E9E
  8
0
 10
353.99999919214952
 20
0.0000001108869583
 30
0.0
 11
353.99999919214952
 21
482.0000001108869
 31
0.0
  0
ENDBLK
  5
3EA0
  8
0
  0
BLOCK
  8
0
  2
19MMLINER
 70
     0
 10
110.7399515078629
 20
355.76235108304837
 30
0.0
  3
19MMLINER
  1
G:\Blocks\19mmliner.dwg
  0
LINE
  5
498A
  8
APL_JOINERY
 62
     3
 10
110.7399515078629
 20
336.76235108304837
 30
0.0
 11
160.73995150786311
 21
336.76235108304849
 31
0.0
  0
LINE
  5
498B
  8
APL_JOINERY
 62
     3
 10
110.7399515078629
 20
355.76235108304837
 30
0.0
 11
177.73995150786311
 21
355.76235108304837
 31
0.0
  0
LINE
  5
498C
  8
APL_JOINERY
 62
     8
 10
136.93048146156349
 20
338.51947645025848
 30
0.0
 11
148.15885223254071
 21
350.76511841928988
 31
0.0
  0
POLYLINE
  8
APL_JOINERY
  5
72F9
  62
8
  66
     1
 10
0.000000
 20
0.000000
 30
0.000000
  70
     8
  0
VERTEX
  8
APL_JOINERY
  5
72FA
 10
112.962
 20
352.442
 30
0.000000
  70
    32
  0
VERTEX
  8
APL_JOINERY
  5
72FB
 10
113.134
 20
352.455
 30
0.000000
  70
    32
  0
VERTEX
  8
APL_JOINERY
  5
72FC
 10
113.306
 20
352.468
 30
0.000000
  70
    32
  0
VERTEX
  8
APL_JOINERY
  5
72FD
 10
113.478
 20
352.482
 30
0.000000
  70
    32
  0
VERTEX
  8
APL_JOINERY
  5
72FE
 10
113.650
 20
352.495
 30
0.000000
  70
    32
  0
VERTEX
  8
APL_JOINERY
  5
72FF
 10
113.823
 20
352.508
 30
0.000000
  70
    32
  0
VERTEX
  8
APL_JOINERY
  5
7300
 10
113.995
 20
352.522
 30
0.000000
  70
    32
  0
VERTEX
  8
APL_JOINERY
  5
7301
 10
114.167
 20
352.535
 30
0.000000
  70
    32
  0
VERTEX
  8
APL_JOINERY
  5
7302
 10
114.339
 20
352.548
 30
0.000000
  70
    32
  0
VERTEX
  8
APL_JOINERY
  5
7303
 10
114.511
 20
352.561
 30
0.000000
  70
    32
  0
VERTEX
  8
APL_JOINERY
  5
7304
 10
114.683
 20
352.574
 30
0.000000
  70
    32
  0
VERTEX
  8
APL_JOINERY
  5
7305
 10
114.855
 20
352.587
 30
0.000000
  70
    32
  0
VERTEX
  8
APL_JOINERY
  5
7306
 10
115.027
 20
352.600
 30
0.000000
  70
    32
  0
VERTEX
  8
APL_JOINERY
  5
7307
 10
115.199
 20
352.613
 30
0.000000
  70
    32
  0
VERTEX
  8
APL_JOINERY
  5
7308
 10
115.372
 20
352.626
 30
0.000000
  70
    32
  0
VERTEX
  8
APL_JOINERY
  5
7309
 10
115.544
 20
352.639
 30
0.000000
  70
    32
  0
VERTEX
  8
APL_JOINERY
  5
730A
 10
115.716
 20
352.652
 30
0.000000
  70
    32
  0
VERTEX
  8
APL_JOINERY
  5
730B
 10
115.888
 20
352.665
 30
0.000000
  70
    32
  0
VERTEX
  8
APL_JOINERY
  5
730C
 10
116.060
 20
352.677
 30
0.000000
  70
    32
  0
VERTEX
  8
APL_JOINERY
  5
730D
 10
116.232
 20
352.690
 30
0.000000
  70
    32
  0
VERTEX
  8
APL_JOINERY
  5
730E
 10
116.404
 20
352.702
 30
0.000000
  70
    32
  0
VERTEX
  8
APL_JOINERY
  5
730F
 10
116.576
 20
352.714
 30
0.000000
  70
    32
  0
VERTEX
  8
APL_JOINERY
  5
7310
 10
116.749
 20
352.727
 30
0.000000
  70
    32
  0
VERTEX
  8
APL_JOINERY
  5
7311
 10
116.921
 20
352.739
 30
0.000000
  70
    32
  0
VERTEX
  8
APL_JOINERY
  5
7312
 10
117.093
 20
352.751
 30
0.000000
  70
    32
  0
VERTEX
  8
APL_JOINERY
  5
7313
 10
117.265
 20
352.763
 30
0.000000
  70
    32
  0
VERTEX
  8
APL_JOINERY
  5
7314
 10
117.437
 20
352.774
 30
0.000000
  70
    32
  0
VERTEX
  8
APL_JOINERY
  5
7315
 10
117.609
 20
352.786
 30
0.000000
  70
    32
  0
VERTEX
  8
APL_JOINERY
  5
7316
 10
117.782
 20
352.797
 30
0.000000
  70
    32
  0
VERTEX
  8
APL_JOINERY
  5
7317
 10
117.954
 20
352.809
 30
0.000000
  70
    32
  0
VERTEX
  8
APL_JOINERY
  5
7318
 10
118.126
 20
352.820
 30
0.000000
  70
    32
  0
VERTEX
  8
APL_JOINERY
  5
7319
 10
118.298
 20
352.831
 30
0.000000
  70
    32
  0
VERTEX
  8
APL_JOINERY
  5
731A
 10
118.470
 20
352.842
 30
0.000000
  70
    32
  0
VERTEX
  8
APL_JOINERY
  5
731B
 10
118.643
 20
352.853
 30
0.000000
  70
    32
  0
VERTEX
  8
APL_JOINERY
  5
731C
 10
118.815
 20
352.863
 30
0.000000
  70
    32
  0
VERTEX
  8
APL_JOINERY
  5
731D
 10
118.987
 20
352.874
 30
0.000000
  70
    32
  0
VERTEX
  8
APL_JOINERY
  5
731E
 10
119.159
 20
352.884
 30
0.000000
  70
    32
  0
VERTEX
  8
APL_JOINERY
  5
731F
 10
119.331
 20
352.894
 30
0.000000
  70
    32
  0
VERTEX
  8
APL_JOINERY
  5
7320
 10
119.504
 20
352.904
 30
0.000000
  70
    32
  0
VERTEX
  8
APL_JOINERY
  5
7321
 10
119.676
 20
352.914
 30
0.000000
  70
    32
  0
VERTEX
  8
APL_JOINERY
  5
7322
 10
119.848
 20
352.923
 30
0.000000
  70
    32
  0
VERTEX
  8
APL_JOINERY
  5
7323
 10
120.020
 20
352.933
 30
0.000000
  70
    32
  0
VERTEX
  8
APL_JOINERY
  5
7324
 10
120.193
 20
352.942
 30
0.000000
  70
    32
  0
VERTEX
  8
APL_JOINERY
  5
7325
 10
120.365
 20
352.951
 30
0.000000
  70
    32
  0
VERTEX
  8
APL_JOINERY
  5
7326
 10
120.537
 20
352.960
 30
0.000000
  70
    32
  0
VERTEX
  8
APL_JOINERY
  5
7327
 10
120.710
 20
352.968
 30
0.000000
  70
    32
  0
VERTEX
  8
APL_JOINERY
  5
7328
 10
120.882
 20
352.976
 30
0.000000
  70
    32
  0
VERTEX
  8
APL_JOINERY
  5
7329
 10
121.054
 20
352.984
 30
0.000000
  70
    32
  0
VERTEX
  8
APL_JOINERY
  5
732A
 10
121.226
 20
352.992
 30
0.000000
  70
    32
  0
VERTEX
  8
APL_JOINERY
  5
732B
 10
121.399
 20
353.000
 30
0.000000
  70
    32
  0
VERTEX
  8
APL_JOINERY
  5
732C
 10
121.571
 20
353.007
 30
0.000000
  70
    32
  0
VERTEX
  8
APL_JOINERY
  5
732D
 10
121.743
 20
353.014
 30
0.000000
  70
    32
  0
VERTEX
  8
APL_JOINERY
  5
732E
 10
121.916
 20
353.021
 30
0.000000
  70
    32
  0
VERTEX
  8
APL_JOINERY
  5
732F
 10
122.088
 20
353.028
 30
0.000000
  70
    32
  0
VERTEX
  8
APL_JOINERY
  5
7330
 10
122.261
 20
353.035
 30
0.000000
  70
    32
  0
VERTEX
  8
APL_JOINERY
  5
7331
 10
122.433
 20
353.041
 30
0.000000
  70
    32
  0
VERTEX
  8
APL_JOINERY
  5
7332
 10
122.605
 20
353.047
 30
0.000000
  70
    32
  0
VERTEX
  8
APL_JOINERY
  5
7333
 10
122.778
 20
353.053
 30
0.000000
  70
    32
  0
VERTEX
  8
APL_JOINERY
  5
7334
 10
122.950
 20
353.059
 30
0.000000
  70
    32
  0
VERTEX
  8
APL_JOINERY
  5
7335
 10
123.123
 20
353.064
 30
0.000000
  70
    32
  0
VERTEX
  8
APL_JOINERY
  5
7336
 10
123.295
 20
353.070
 30
0.000000
  70
    32
  0
VERTEX
  8
APL_JOINERY
  5
7337
 10
123.467
 20
353.075
 30
0.000000
  70
    32
  0
VERTEX
  8
APL_JOINERY
  5
7338
 10
123.640
 20
353.080
 30
0.000000
  70
    32
  0
VERTEX
  8
APL_JOINERY
  5
7339
 10
123.812
 20
353.085
 30
0.000000
  70
    32
  0
VERTEX
  8
APL_JOINERY
  5
733A
 10
123.985
 20
353.090
 30
0.000000
  70
    32
  0
VERTEX
  8
APL_JOINERY
  5
733B
 10
124.157
 20
353.094
 30
0.000000
  70
    32
  0
VERTEX
  8
APL_JOINERY
  5
733C
 10
124.330
 20
353.099
 30
0.000000
  70
    32
  0
VERTEX
  8
APL_JOINERY
  5
733D
 10
124.502
 20
353.103
 30
0.000000
  70
    32
  0
VERTEX
  8
APL_JOINERY
  5
733E
 10
124.675
 20
353.107
 30
0.000000
  70
    32
  0
VERTEX
  8
APL_JOINERY
  5
733F
 10
124.847
 20
353.111
 30
0.000000
  70
    32
  0
VERTEX
  8
APL_JOINERY
  5
7340
 10
125.020
 20
353.115
 30
0.000000
  70
    32
  0
VERTEX
  8
APL_JOINERY
  5
7341
 10
125.192
 20
353.119
 30
0.000000
  70
    32
  0
VERTEX
  8
APL_JOINERY
  5
7342
 10
125.365
 20
353.122
 30
0.000000
  70
    32
  0
VERTEX
  8
APL_JOINERY
  5
7343
 10
125.537
 20
353.126
 30
0.000000
  70
    32
  0
VERTEX
  8
APL_JOINERY
  5
7344
 10
125.710
 20
353.129
 30
0.000000
  70
    32
  0
VERTEX
  8
APL_JOINERY
  5
7345
 10
125.882
 20
353.133
 30
0.000000
  70
    32
  0
VERTEX
  8
APL_JOINERY
  5
7346
 10
126.055
 20
353.136
 30
0.000000
  70
    32
  0
VERTEX
  8
APL_JOINERY
  5
7347
 10
126.227
 20
353.139
 30
0.000000
  70
    32
  0
VERTEX
  8
APL_JOINERY
  5
7348
 10
126.400
 20
353.142
 30
0.000000
  70
    32
  0
VERTEX
  8
APL_JOINERY
  5
7349
 10
126.572
 20
353.145
 30
0.000000
  70
    32
  0
VERTEX
  8
APL_JOINERY
  5
734A
 10
126.745
 20
353.148
 30
0.000000
  70
    32
  0
VERTEX
  8
APL_JOINERY
  5
734B
 10
126.917
 20
353.151
 30
0.000000
  70
    32
  0
VERTEX
  8
APL_JOINERY
  5
734C
 10
127.090
 20
353.154
 30
0.000000
  70
    32
  0
VERTEX
  8
APL_JOINERY
  5
734D
 10
127.262
 20
353.157
 30
0.000000
  70
    32
  0
VERTEX
  8
APL_JOINERY
  5
734E
 10
127.435
 20
353.159
 30
0.000000
  70
    32
  0
VERTEX
  8
APL_JOINERY
  5
734F
 10
127.607
 20
353.162
 30
0.000000
  70
    32
  0
VERTEX
  8
APL_JOINERY
  5
7350
 10
127.780
 20
353.165
 30
0.000000
  70
    32
  0
VERTEX
  8
APL_JOINERY
  5
7351
 10
127.952
 20
353.167
 30
0.000000
  70
    32
  0
VERTEX
  8
APL_JOINERY
  5
7352
 10
128.125
 20
353.170
 30
0.000000
  70
    32
  0
VERTEX
  8
APL_JOINERY
  5
7353
 10
128.298
 20
353.172
 30
0.000000
  70
    32
  0
VERTEX
  8
APL_JOINERY
  5
7354
 10
128.470
 20
353.175
 30
0.000000
  70
    32
  0
VERTEX
  8
APL_JOINERY
  5
7355
 10
128.643
 20
353.177
 30
0.000000
  70
    32
  0
VERTEX
  8
APL_JOINERY
  5
7356
 10
128.815
 20
353.180
 30
0.000000
  70
    32
  0
VERTEX
  8
APL_JOINERY
  5
7357
 10
128.988
 20
353.182
 30
0.000000
  70
    32
  0
VERTEX
  8
APL_JOINERY
  5
7358
 10
129.160
 20
353.185
 30
0.000000
  70
    32
  0
VERTEX
  8
APL_JOINERY
  5
7359
 10
129.333
 20
353.187
 30
0.000000
  70
    32
  0
VERTEX
  8
APL_JOINERY
  5
735A
 10
129.506
 20
353.189
 30
0.000000
  70
    32
  0
VERTEX
  8
APL_JOINERY
  5
735B
 10
129.678
 20
353.192
 30
0.000000
  70
    32
  0
VERTEX
  8
APL_JOINERY
  5
735C
 10
129.851
 20
353.194
 30
0.000000
  70
    32
  0
VERTEX
  8
APL_JOINERY
  5
735D
 10
130.023
 20
353.197
 30
0.000000
  70
    32
  0
VERTEX
  8
APL_JOINERY
  5
735E
 10
130.196
 20
353.200
 30
0.000000
  70
    32
  0
VERTEX
  8
APL_JOINERY
  5
735F
 10
130.369
 20
353.202
 30
0.000000
  70
    32
  0
VERTEX
  8
APL_JOINERY
  5
7360
 10
130.541
 20
353.205
 30
0.000000
  70
    32
  0
VERTEX
  8
APL_JOINERY
  5
7361
 10
130.714
 20
353.207
 30
0.000000
  70
    32
  0
VERTEX
  8
APL_JOINERY
  5
7362
 10
130.886
 20
353.210
 30
0.000000
  70
    32
  0
VERTEX
  8
APL_JOINERY
  5
7363
 10
131.059
 20
353.213
 30
0.000000
  70
    32
  0
VERTEX
  8
APL_JOINERY
  5
7364
 10
131.231
 20
353.216
 30
0.000000
  70
    32
  0
VERTEX
  8
APL_JOINERY
  5
7365
 10
131.404
 20
353.219
 30
0.000000
  70
    32
  0
VERTEX
  8
APL_JOINERY
  5
7366
 10
131.577
 20
353.222
 30
0.000000
  70
    32
  0
VERTEX
  8
APL_JOINERY
  5
7367
 10
131.749
 20
353.225
 30
0.000000
  70
    32
  0
VERTEX
  8
APL_JOINERY
  5
7368
 10
131.922
 20
353.228
 30
0.000000
  70
    32
  0
VERTEX
  8
APL_JOINERY
  5
7369
 10
132.094
 20
353.231
 30
0.000000
  70
    32
  0
VERTEX
  8
APL_JOINERY
  5
736A
 10
132.267
 20
353.234
 30
0.000000
  70
    32
  0
VERTEX
  8
APL_JOINERY
  5
736B
 10
132.440
 20
353.238
 30
0.000000
  70
    32
  0
VERTEX
  8
APL_JOINERY
  5
736C
 10
132.612
 20
353.241
 30
0.000000
  70
    32
  0
VERTEX
  8
APL_JOINERY
  5
736D
 10
132.785
 20
353.245
 30
0.000000
  70
    32
  0
VERTEX
  8
APL_JOINERY
  5
736E
 10
132.957
 20
353.249
 30
0.000000
  70
    32
  0
VERTEX
  8
APL_JOINERY
  5
736F
 10
133.130
 20
353.253
 30
0.000000
  70
    32
  0
VERTEX
  8
APL_JOINERY
  5
7370
 10
133.302
 20
353.257
 30
0.000000
  70
    32
  0
VERTEX
  8
APL_JOINERY
  5
7371
 10
133.475
 20
353.261
 30
0.000000
  70
    32
  0
VERTEX
  8
APL_JOINERY
  5
7372
 10
133.648
 20
353.265
 30
0.000000
  70
    32
  0
VERTEX
  8
APL_JOINERY
  5
7373
 10
133.820
 20
353.269
 30
0.000000
  70
    32
  0
VERTEX
  8
APL_JOINERY
  5
7374
 10
133.993
 20
353.274
 30
0.000000
  70
    32
  0
VERTEX
  8
APL_JOINERY
  5
7375
 10
134.165
 20
353.279
 30
0.000000
  70
    32
  0
VERTEX
  8
APL_JOINERY
  5
7376
 10
134.338
 20
353.283
 30
0.000000
  70
    32
  0
VERTEX
  8
APL_JOINERY
  5
7377
 10
134.510
 20
353.288
 30
0.000000
  70
    32
  0
VERTEX
  8
APL_JOINERY
  5
7378
 10
134.683
 20
353.293
 30
0.000000
  70
    32
  0
VERTEX
  8
APL_JOINERY
  5
7379
 10
134.856
 20
353.298
 30
0.000000
  70
    32
  0
VERTEX
  8
APL_JOINERY
  5
737A
 10
135.028
 20
353.303
 30
0.000000
  70
    32
  0
VERTEX
  8
APL_JOINERY
  5
737B
 10
135.201
 20
353.309
 30
0.000000
  70
    32
  0
VERTEX
  8
APL_JOINERY
  5
737C
 10
135.373
 20
353.314
 30
0.000000
  70
    32
  0
VERTEX
  8
APL_JOINERY
  5
737D
 10
135.546
 20
353.319
 30
0.000000
  70
    32
  0
VERTEX
  8
APL_JOINERY
  5
737E
 10
135.718
 20
353.324
 30
0.000000
  70
    32
  0
VERTEX
  8
APL_JOINERY
  5
737F
 10
135.891
 20
353.330
 30
0.000000
  70
    32
  0
VERTEX
  8
APL_JOINERY
  5
7380
 10
136.063
 20
353.335
 30
0.000000
  70
    32
  0
VERTEX
  8
APL_JOINERY
  5
7381
 10
136.236
 20
353.340
 30
0.000000
  70
    32
  0
VERTEX
  8
APL_JOINERY
  5
7382
 10
136.408
 20
353.345
 30
0.000000
  70
    32
  0
VERTEX
  8
APL_JOINERY
  5
7383
 10
136.581
 20
353.350
 30
0.000000
  70
    32
  0
VERTEX
  8
APL_JOINERY
  5
7384
 10
136.754
 20
353.356
 30
0.000000
  70
    32
  0
VERTEX
  8
APL_JOINERY
  5
7385
 10
136.926
 20
353.361
 30
0.000000
  70
    32
  0
VERTEX
  8
APL_JOINERY
  5
7386
 10
137.099
 20
353.366
 30
0.000000
  70
    32
  0
VERTEX
  8
APL_JOINERY
  5
7387
 10
137.271
 20
353.370
 30
0.000000
  70
    32
  0
VERTEX
  8
APL_JOINERY
  5
7388
 10
137.444
 20
353.375
 30
0.000000
  70
    32
  0
VERTEX
  8
APL_JOINERY
  5
7389
 10
137.616
 20
353.380
 30
0.000000
  70
    32
  0
VERTEX
  8
APL_JOINERY
  5
738A
 10
137.789
 20
353.384
 30
0.000000
  70
    32
  0
VERTEX
  8
APL_JOINERY
  5
738B
 10
137.961
 20
353.389
 30
0.000000
  70
    32
  0
VERTEX
  8
APL_JOINERY
  5
738C
 10
138.134
 20
353.393
 30
0.000000
  70
    32
  0
VERTEX
  8
APL_JOINERY
  5
738D
 10
138.306
 20
353.397
 30
0.000000
  70
    32
  0
VERTEX
  8
APL_JOINERY
  5
738E
 10
138.479
 20
353.401
 30
0.000000
  70
    32
  0
VERTEX
  8
APL_JOINERY
  5
738F
 10
138.652
 20
353.404
 30
0.000000
  70
    32
  0
VERTEX
  8
APL_JOINERY
  5
7390
 10
138.824
 20
353.408
 30
0.000000
  70
    32
  0
VERTEX
  8
APL_JOINERY
  5
7391
 10
138.997
 20
353.411
 30
0.000000
  70
    32
  0
VERTEX
  8
APL_JOINERY
  5
7392
 10
139.169
 20
353.414
 30
0.000000
  70
    32
  0
VERTEX
  8
APL_JOINERY
  5
7393
 10
139.342
 20
353.416
 30
0.000000
  70
    32
  0
VERTEX
  8
APL_JOINERY
  5
7394
 10
139.514
 20
353.419
 30
0.000000
  70
    32
  0
VERTEX
  8
APL_JOINERY
  5
7395
 10
139.687
 20
353.421
 30
0.000000
  70
    32
  0
VERTEX
  8
APL_JOINERY
  5
7396
 10
139.859
 20
353.423
 30
0.000000
  70
    32
  0
VERTEX
  8
APL_JOINERY
  5
7397
 10
140.032
 20
353.424
 30
0.000000
  70
    32
  0
VERTEX
  8
APL_JOINERY
  5
7398
 10
140.204
 20
353.426
 30
0.000000
  70
    32
  0
VERTEX
  8
APL_JOINERY
  5
7399
 10
140.377
 20
353.426
 30
0.000000
  70
    32
  0
VERTEX
  8
APL_JOINERY
  5
739A
 10
140.549
 20
353.427
 30
0.000000
  70
    32
  0
VERTEX
  8
APL_JOINERY
  5
739B
 10
140.722
 20
353.427
 30
0.000000
  70
    32
  0
VERTEX
  8
APL_JOINERY
  5
739C
 10
140.895
 20
353.427
 30
0.000000
  70
    32
  0
VERTEX
  8
APL_JOINERY
  5
739D
 10
141.067
 20
353.427
 30
0.000000
  70
    32
  0
VERTEX
  8
APL_JOINERY
  5
739E
 10
141.240
 20
353.426
 30
0.000000
  70
    32
  0
VERTEX
  8
APL_JOINERY
  5
739F
 10
141.412
 20
353.424
 30
0.000000
  70
    32
  0
VERTEX
  8
APL_JOINERY
  5
73A0
 10
141.585
 20
353.422
 30
0.000000
  70
    32
  0
VERTEX
  8
APL_JOINERY
  5
73A1
 10
141.757
 20
353.420
 30
0.000000
  70
    32
  0
VERTEX
  8
APL_JOINERY
  5
73A2
 10
141.930
 20
353.418
 30
0.000000
  70
    32
  0
VERTEX
  8
APL_JOINERY
  5
73A3
 10
142.102
 20
353.414
 30
0.000000
  70
    32
  0
VERTEX
  8
APL_JOINERY
  5
73A4
 10
142.275
 20
353.411
 30
0.000000
  70
    32
  0
VERTEX
  8
APL_JOINERY
  5
73A5
 10
142.448
 20
353.407
 30
0.000000
  70
    32
  0
VERTEX
  8
APL_JOINERY
  5
73A6
 10
142.620
 20
353.402
 30
0.000000
  70
    32
  0
VERTEX
  8
APL_JOINERY
  5
73A7
 10
142.793
 20
353.397
 30
0.000000
  70
    32
  0
VERTEX
  8
APL_JOINERY
  5
73A8
 10
142.965
 20
353.392
 30
0.000000
  70
    32
  0
VERTEX
  8
APL_JOINERY
  5
73A9
 10
143.138
 20
353.386
 30
0.000000
  70
    32
  0
VERTEX
  8
APL_JOINERY
  5
73AA
 10
143.310
 20
353.379
 30
0.000000
  70
    32
  0
VERTEX
  8
APL_JOINERY
  5
73AB
 10
143.483
 20
353.372
 30
0.000000
  70
    32
  0
VERTEX
  8
APL_JOINERY
  5
73AC
 10
143.656
 20
353.364
 30
0.000000
  70
    32
  0
VERTEX
  8
APL_JOINERY
  5
73AD
 10
143.828
 20
353.355
 30
0.000000
  70
    32
  0
VERTEX
  8
APL_JOINERY
  5
73AE
 10
144.001
 20
353.346
 30
0.000000
  70
    32
  0
VERTEX
  8
APL_JOINERY
  5
73AF
 10
144.173
 20
353.337
 30
0.000000
  70
    32
  0
VERTEX
  8
APL_JOINERY
  5
73B0
 10
144.346
 20
353.327
 30
0.000000
  70
    32
  0
VERTEX
  8
APL_JOINERY
  5
73B1
 10
144.519
 20
353.316
 30
0.000000
  70
    32
  0
VERTEX
  8
APL_JOINERY
  5
73B2
 10
144.691
 20
353.304
 30
0.000000
  70
    32
  0
VERTEX
  8
APL_JOINERY
  5
73B3
 10
144.864
 20
353.292
 30
0.000000
  70
    32
  0
VERTEX
  8
APL_JOINERY
  5
73B4
 10
145.036
 20
353.279
 30
0.000000
  70
    32
  0
VERTEX
  8
APL_JOINERY
  5
73B5
 10
145.209
 20
353.266
 30
0.000000
  70
    32
  0
VERTEX
  8
APL_JOINERY
  5
73B6
 10
145.381
 20
353.252
 30
0.000000
  70
    32
  0
VERTEX
  8
APL_JOINERY
  5
73B7
 10
145.554
 20
353.237
 30
0.000000
  70
    32
  0
VERTEX
  8
APL_JOINERY
  5
73B8
 10
145.726
 20
353.222
 30
0.000000
  70
    32
  0
VERTEX
  8
APL_JOINERY
  5
73B9
 10
145.899
 20
353.206
 30
0.000000
  70
    32
  0
VERTEX
  8
APL_JOINERY
  5
73BA
 10
146.071
 20
353.189
 30
0.000000
  70
    32
  0
VERTEX
  8
APL_JOINERY
  5
73BB
 10
146.243
 20
353.172
 30
0.000000
  70
    32
  0
VERTEX
  8
APL_JOINERY
  5
73BC
 10
146.416
 20
353.154
 30
0.000000
  70
    32
  0
VERTEX
  8
APL_JOINERY
  5
73BD
 10
146.588
 20
353.135
 30
0.000000
  70
    32
  0
VERTEX
  8
APL_JOINERY
  5
73BE
 10
146.760
 20
353.115
 30
0.000000
  70
    32
  0
VERTEX
  8
APL_JOINERY
  5
73BF
 10
146.932
 20
353.095
 30
0.000000
  70
    32
  0
VERTEX
  8
APL_JOINERY
  5
73C0
 10
147.104
 20
353.074
 30
0.000000
  70
    32
  0
VERTEX
  8
APL_JOINERY
  5
73C1
 10
147.276
 20
353.053
 30
0.000000
  70
    32
  0
VERTEX
  8
APL_JOINERY
  5
73C2
 10
147.447
 20
353.031
 30
0.000000
  70
    32
  0
VERTEX
  8
APL_JOINERY
  5
73C3
 10
147.619
 20
353.008
 30
0.000000
  70
    32
  0
VERTEX
  8
APL_JOINERY
  5
73C4
 10
147.790
 20
352.984
 30
0.000000
  70
    32
  0
VERTEX
  8
APL_JOINERY
  5
73C5
 10
147.962
 20
352.959
 30
0.000000
  70
    32
  0
VERTEX
  8
APL_JOINERY
  5
73C6
 10
148.133
 20
352.934
 30
0.000000
  70
    32
  0
VERTEX
  8
APL_JOINERY
  5
73C7
 10
148.305
 20
352.908
 30
0.000000
  70
    32
  0
VERTEX
  8
APL_JOINERY
  5
73C8
 10
148.476
 20
352.882
 30
0.000000
  70
    32
  0
VERTEX
  8
APL_JOINERY
  5
73C9
 10
148.647
 20
352.854
 30
0.000000
  70
    32
  0
VERTEX
  8
APL_JOINERY
  5
73CA
 10
148.817
 20
352.826
 30
0.000000
  70
    32
  0
VERTEX
  8
APL_JOINERY
  5
73CB
 10
148.988
 20
352.797
 30
0.000000
  70
    32
  0
VERTEX
  8
APL_JOINERY
  5
73CC
 10
149.159
 20
352.767
 30
0.000000
  70
    32
  0
VERTEX
  8
APL_JOINERY
  5
73CD
 10
149.329
 20
352.737
 30
0.000000
  70
    32
  0
VERTEX
  8
APL_JOINERY
  5
73CE
 10
149.499
 20
352.706
 30
0.000000
  70
    32
  0
VERTEX
  8
APL_JOINERY
  5
73CF
 10
149.669
 20
352.674
 30
0.000000
  70
    32
  0
VERTEX
  8
APL_JOINERY
  5
73D0
 10
149.839
 20
352.641
 30
0.000000
  70
    32
  0
VERTEX
  8
APL_JOINERY
  5
73D1
 10
150.009
 20
352.607
 30
0.000000
  70
    32
  0
VERTEX
  8
APL_JOINERY
  5
73D2
 10
150.179
 20
352.573
 30
0.000000
  70
    32
  0
VERTEX
  8
APL_JOINERY
  5
73D3
 10
150.348
 20
352.538
 30
0.000000
  70
    32
  0
VERTEX
  8
APL_JOINERY
  5
73D4
 10
150.517
 20
352.502
 30
0.000000
  70
    32
  0
VERTEX
  8
APL_JOINERY
  5
73D5
 10
150.687
 20
352.465
 30
0.000000
  70
    32
  0
VERTEX
  8
APL_JOINERY
  5
73D6
 10
150.855
 20
352.428
 30
0.000000
  70
    32
  0
VERTEX
  8
APL_JOINERY
  5
73D7
 10
151.024
 20
352.389
 30
0.000000
  70
    32
  0
VERTEX
  8
APL_JOINERY
  5
73D8
 10
151.193
 20
352.350
 30
0.000000
  70
    32
  0
VERTEX
  8
APL_JOINERY
  5
73D9
 10
151.361
 20
352.310
 30
0.000000
  70
    32
  0
VERTEX
  8
APL_JOINERY
  5
73DA
 10
151.529
 20
352.269
 30
0.000000
  70
    32
  0
VERTEX
  8
APL_JOINERY
  5
73DB
 10
151.697
 20
352.227
 30
0.000000
  70
    32
  0
VERTEX
  8
APL_JOINERY
  5
73DC
 10
151.864
 20
352.185
 30
0.000000
  70
    32
  0
VERTEX
  8
APL_JOINERY
  5
73DD
 10
152.032
 20
352.141
 30
0.000000
  70
    32
  0
VERTEX
  8
APL_JOINERY
  5
73DE
 10
152.199
 20
352.097
 30
0.000000
  70
    32
  0
VERTEX
  8
APL_JOINERY
  5
73DF
 10
152.366
 20
352.052
 30
0.000000
  70
    32
  0
VERTEX
  8
APL_JOINERY
  5
73E0
 10
152.532
 20
352.006
 30
0.000000
  70
    32
  0
VERTEX
  8
APL_JOINERY
  5
73E1
 10
152.699
 20
351.959
 30
0.000000
  70
    32
  0
VERTEX
  8
APL_JOINERY
  5
73E2
 10
152.865
 20
351.911
 30
0.000000
  70
    32
  0
VERTEX
  8
APL_JOINERY
  5
73E3
 10
153.031
 20
351.863
 30
0.000000
  70
    32
  0
VERTEX
  8
APL_JOINERY
  5
73E4
 10
153.196
 20
351.813
 30
0.000000
  70
    32
  0
VERTEX
  8
APL_JOINERY
  5
73E5
 10
153.362
 20
351.763
 30
0.000000
  70
    32
  0
VERTEX
  8
APL_JOINERY
  5
73E6
 10
153.527
 20
351.712
 30
0.000000
  70
    32
  0
VERTEX
  8
APL_JOINERY
  5
73E7
 10
153.691
 20
351.660
 30
0.000000
  70
    32
  0
VERTEX
  8
APL_JOINERY
  5
73E8
 10
153.856
 20
351.607
 30
0.000000
  70
    32
  0
VERTEX
  8
APL_JOINERY
  5
73E9
 10
154.020
 20
351.553
 30
0.000000
  70
    32
  0
VERTEX
  8
APL_JOINERY
  5
73EA
 10
154.184
 20
351.498
 30
0.000000
  70
    32
  0
VERTEX
  8
APL_JOINERY
  5
73EB
 10
154.348
 20
351.442
 30
0.000000
  70
    32
  0
VERTEX
  8
APL_JOINERY
  5
73EC
 10
154.511
 20
351.385
 30
0.000000
  70
    32
  0
VERTEX
  8
APL_JOINERY
  5
73ED
 10
154.674
 20
351.328
 30
0.000000
  70
    32
  0
VERTEX
  8
APL_JOINERY
  5
73EE
 10
154.837
 20
351.269
 30
0.000000
  70
    32
  0
VERTEX
  8
APL_JOINERY
  5
73EF
 10
154.999
 20
351.210
 30
0.000000
  70
    32
  0
VERTEX
  8
APL_JOINERY
  5
73F0
 10
155.161
 20
351.150
 30
0.000000
  70
    32
  0
VERTEX
  8
APL_JOINERY
  5
73F1
 10
155.323
 20
351.088
 30
0.000000
  70
    32
  0
VERTEX
  8
APL_JOINERY
  5
73F2
 10
155.484
 20
351.026
 30
0.000000
  70
    32
  0
VERTEX
  8
APL_JOINERY
  5
73F3
 10
155.645
 20
350.964
 30
0.000000
  70
    32
  0
VERTEX
  8
APL_JOINERY
  5
73F4
 10
155.806
 20
350.900
 30
0.000000
  70
    32
  0
VERTEX
  8
APL_JOINERY
  5
73F5
 10
155.966
 20
350.835
 30
0.000000
  70
    32
  0
VERTEX
  8
APL_JOINERY
  5
73F6
 10
156.126
 20
350.770
 30
0.000000
  70
    32
  0
VERTEX
  8
APL_JOINERY
  5
73F7
 10
156.286
 20
350.703
 30
0.000000
  70
    32
  0
VERTEX
  8
APL_JOINERY
  5
73F8
 10
156.445
 20
350.636
 30
0.000000
  70
    32
  0
VERTEX
  8
APL_JOINERY
  5
73F9
 10
156.604
 20
350.568
 30
0.000000
  70
    32
  0
VERTEX
  8
APL_JOINERY
  5
73FA
 10
156.762
 20
350.499
 30
0.000000
  70
    32
  0
VERTEX
  8
APL_JOINERY
  5
73FB
 10
156.920
 20
350.429
 30
0.000000
  70
    32
  0
VERTEX
  8
APL_JOINERY
  5
73FC
 10
157.078
 20
350.358
 30
0.000000
  70
    32
  0
VERTEX
  8
APL_JOINERY
  5
73FD
 10
157.235
 20
350.286
 30
0.000000
  70
    32
  0
VERTEX
  8
APL_JOINERY
  5
73FE
 10
157.392
 20
350.214
 30
0.000000
  70
    32
  0
VERTEX
  8
APL_JOINERY
  5
73FF
 10
157.549
 20
350.141
 30
0.000000
  70
    32
  0
VERTEX
  8
APL_JOINERY
  5
7400
 10
157.705
 20
350.066
 30
0.000000
  70
    32
  0
VERTEX
  8
APL_JOINERY
  5
7401
 10
157.861
 20
349.991
 30
0.000000
  70
    32
  0
VERTEX
  8
APL_JOINERY
  5
7402
 10
158.016
 20
349.915
 30
0.000000
  70
    32
  0
VERTEX
  8
APL_JOINERY
  5
7403
 10
158.171
 20
349.839
 30
0.000000
  70
    32
  0
VERTEX
  8
APL_JOINERY
  5
7404
 10
158.325
 20
349.761
 30
0.000000
  70
    32
  0
VERTEX
  8
APL_JOINERY
  5
7405
 10
158.479
 20
349.683
 30
0.000000
  70
    32
  0
VERTEX
  8
APL_JOINERY
  5
7406
 10
158.633
 20
349.603
 30
0.000000
  70
    32
  0
VERTEX
  8
APL_JOINERY
  5
7407
 10
158.786
 20
349.523
 30
0.000000
  70
    32
  0
VERTEX
  8
APL_JOINERY
  5
7408
 10
158.939
 20
349.442
 30
0.000000
  70
    32
  0
VERTEX
  8
APL_JOINERY
  5
7409
 10
159.091
 20
349.361
 30
0.000000
  70
    32
  0
VERTEX
  8
APL_JOINERY
  5
740A
 10
159.243
 20
349.278
 30
0.000000
  70
    32
  0
VERTEX
  8
APL_JOINERY
  5
740B
 10
159.394
 20
349.195
 30
0.000000
  70
    32
  0
VERTEX
  8
APL_JOINERY
  5
740C
 10
159.545
 20
349.110
 30
0.000000
  70
    32
  0
VERTEX
  8
APL_JOINERY
  5
740D
 10
159.695
 20
349.025
 30
0.000000
  70
    32
  0
VERTEX
  8
APL_JOINERY
  5
740E
 10
159.845
 20
348.939
 30
0.000000
  70
    32
  0
VERTEX
  8
APL_JOINERY
  5
740F
 10
159.995
 20
348.853
 30
0.000000
  70
    32
  0
VERTEX
  8
APL_JOINERY
  5
7410
 10
160.144
 20
348.765
 30
0.000000
  70
    32
  0
VERTEX
  8
APL_JOINERY
  5
7411
 10
160.292
 20
348.677
 30
0.000000
  70
    32
  0
VERTEX
  8
APL_JOINERY
  5
7412
 10
160.440
 20
348.588
 30
0.000000
  70
    32
  0
VERTEX
  8
APL_JOINERY
  5
7413
 10
160.588
 20
348.498
 30
0.000000
  70
    32
  0
VERTEX
  8
APL_JOINERY
  5
7414
 10
160.735
 20
348.407
 30
0.000000
  70
    32
  0
VERTEX
  8
APL_JOINERY
  5
7415
 10
160.881
 20
348.316
 30
0.000000
  70
    32
  0
VERTEX
  8
APL_JOINERY
  5
7416
 10
161.027
 20
348.223
 30
0.000000
  70
    32
  0
VERTEX
  8
APL_JOINERY
  5
7417
 10
161.173
 20
348.131
 30
0.000000
  70
    32
  0
VERTEX
  8
APL_JOINERY
  5
7418
 10
161.318
 20
348.037
 30
0.000000
  70
    32
  0
VERTEX
  8
APL_JOINERY
  5
7419
 10
161.463
 20
347.942
 30
0.000000
  70
    32
  0
VERTEX
  8
APL_JOINERY
  5
741A
 10
161.607
 20
347.847
 30
0.000000
  70
    32
  0
VERTEX
  8
APL_JOINERY
  5
741B
 10
161.751
 20
347.751
 30
0.000000
  70
    32
  0
VERTEX
  8
APL_JOINERY
  5
741C
 10
161.894
 20
347.655
 30
0.000000
  70
    32
  0
VERTEX
  8
APL_JOINERY
  5
741D
 10
162.036
 20
347.558
 30
0.000000
  70
    32
  0
VERTEX
  8
APL_JOINERY
  5
741E
 10
162.179
 20
347.460
 30
0.000000
  70
    32
  0
VERTEX
  8
APL_JOINERY
  5
741F
 10
162.321
 20
347.361
 30
0.000000
  70
    32
  0
VERTEX
  8
APL_JOINERY
  5
7420
 10
162.462
 20
347.262
 30
0.000000
  70
    32
  0
VERTEX
  8
APL_JOINERY
  5
7421
 10
162.603
 20
347.162
 30
0.000000
  70
    32
  0
VERTEX
  8
APL_JOINERY
  5
7422
 10
162.743
 20
347.061
 30
0.000000
  70
    32
  0
VERTEX
  8
APL_JOINERY
  5
7423
 10
162.883
 20
346.960
 30
0.000000
  70
    32
  0
VERTEX
  8
APL_JOINERY
  5
7424
 10
163.022
 20
346.858
 30
0.000000
  70
    32
  0
VERTEX
  8
APL_JOINERY
  5
7425
 10
163.161
 20
346.755
 30
0.000000
  70
    32
  0
VERTEX
  8
APL_JOINERY
  5
7426
 10
163.300
 20
346.652
 30
0.000000
  70
    32
  0
VERTEX
  8
APL_JOINERY
  5
7427
 10
163.437
 20
346.548
 30
0.000000
  70
    32
  0
VERTEX
  8
APL_JOINERY
  5
7428
 10
163.575
 20
346.443
 30
0.000000
  70
    32
  0
VERTEX
  8
APL_JOINERY
  5
7429
 10
163.712
 20
346.338
 30
0.000000
  70
    32
  0
VERTEX
  8
APL_JOINERY
  5
742A
 10
163.848
 20
346.233
 30
0.000000
  70
    32
  0
VERTEX
  8
APL_JOINERY
  5
742B
 10
163.984
 20
346.126
 30
0.000000
  70
    32
  0
VERTEX
  8
APL_JOINERY
  5
742C
 10
164.120
 20
346.019
 30
0.000000
  70
    32
  0
VERTEX
  8
APL_JOINERY
  5
742D
 10
164.255
 20
345.912
 30
0.000000
  70
    32
  0
VERTEX
  8
APL_JOINERY
  5
742E
 10
164.389
 20
345.804
 30
0.000000
  70
    32
  0
VERTEX
  8
APL_JOINERY
  5
742F
 10
164.524
 20
345.695
 30
0.000000
  70
    32
  0
VERTEX
  8
APL_JOINERY
  5
7430
 10
164.658
 20
345.587
 30
0.000000
  70
    32
  0
VERTEX
  8
APL_JOINERY
  5
7431
 10
164.791
 20
345.477
 30
0.000000
  70
    32
  0
VERTEX
  8
APL_JOINERY
  5
7432
 10
164.925
 20
345.368
 30
0.000000
  70
    32
  0
VERTEX
  8
APL_JOINERY
  5
7433
 10
165.058
 20
345.258
 30
0.000000
  70
    32
  0
VERTEX
  8
APL_JOINERY
  5
7434
 10
165.190
 20
345.148
 30
0.000000
  70
    32
  0
VERTEX
  8
APL_JOINERY
  5
7435
 10
165.323
 20
345.038
 30
0.000000
  70
    32
  0
VERTEX
  8
APL_JOINERY
  5
7436
 10
165.456
 20
344.927
 30
0.000000
  70
    32
  0
VERTEX
  8
APL_JOINERY
  5
7437
 10
165.588
 20
344.817
 30
0.000000
  70
    32
  0
VERTEX
  8
APL_JOINERY
  5
7438
 10
165.721
 20
344.706
 30
0.000000
  70
    32
  0
VERTEX
  8
APL_JOINERY
  5
7439
 10
165.853
 20
344.595
 30
0.000000
  70
    32
  0
SEQEND
  8
APL_JOINERY
  5
743A
  0
POLYLINE
  8
APL_JOINERY
  5
743B
  62
8
  66
     1
 10
0.000000
 20
0.000000
 30
0.000000
  70
     8
  0
VERTEX
  8
APL_JOINERY
  5
743C
 10
117.234
 20
346.478
 30
0.000000
  70
    32
  0
VERTEX
  8
APL_JOINERY
  5
743D
 10
117.391
 20
346.497
 30
0.000000
  70
    32
  0
VERTEX
  8
APL_JOINERY
  5
743E
 10
117.549
 20
346.517
 30
0.000000
  70
    32
  0
VERTEX
  8
APL_JOINERY
  5
743F
 10
117.707
 20
346.536
 30
0.000000
  70
    32
  0
VERTEX
  8
APL_JOINERY
  5
7440
 10
117.864
 20
346.556
 30
0.000000
  70
    32
  0
VERTEX
  8
APL_JOINERY
  5
7441
 10
118.022
 20
346.575
 30
0.000000
  70
    32
  0
VERTEX
  8
APL_JOINERY
  5
7442
 10
118.180
 20
346.594
 30
0.000000
  70
    32
  0
VERTEX
  8
APL_JOINERY
  5
7443
 10
118.337
 20
346.614
 30
0.000000
  70
    32
  0
VERTEX
  8
APL_JOINERY
  5
7444
 10
118.495
 20
346.633
 30
0.000000
  70
    32
  0
VERTEX
  8
APL_JOINERY
  5
7445
 10
118.653
 20
346.652
 30
0.000000
  70
    32
  0
VERTEX
  8
APL_JOINERY
  5
7446
 10
118.810
 20
346.671
 30
0.000000
  70
    32
  0
VERTEX
  8
APL_JOINERY
  5
7447
 10
118.968
 20
346.690
 30
0.000000
  70
    32
  0
VERTEX
  8
APL_JOINERY
  5
7448
 10
119.126
 20
346.709
 30
0.000000
  70
    32
  0
VERTEX
  8
APL_JOINERY
  5
7449
 10
119.283
 20
346.727
 30
0.000000
  70
    32
  0
VERTEX
  8
APL_JOINERY
  5
744A
 10
119.441
 20
346.746
 30
0.000000
  70
    32
  0
VERTEX
  8
APL_JOINERY
  5
744B
 10
119.599
 20
346.764
 30
0.000000
  70
    32
  0
VERTEX
  8
APL_JOINERY
  5
744C
 10
119.756
 20
346.783
 30
0.000000
  70
    32
  0
VERTEX
  8
APL_JOINERY
  5
744D
 10
119.914
 20
346.801
 30
0.000000
  70
    32
  0
VERTEX
  8
APL_JOINERY
  5
744E
 10
120.072
 20
346.819
 30
0.000000
  70
    32
  0
VERTEX
  8
APL_JOINERY
  5
744F
 10
120.230
 20
346.836
 30
0.000000
  70
    32
  0
VERTEX
  8
APL_JOINERY
  5
7450
 10
120.387
 20
346.854
 30
0.000000
  70
    32
  0
VERTEX
  8
APL_JOINERY
  5
7451
 10
120.545
 20
346.871
 30
0.000000
  70
    32
  0
VERTEX
  8
APL_JOINERY
  5
7452
 10
120.703
 20
346.889
 30
0.000000
  70
    32
  0
VERTEX
  8
APL_JOINERY
  5
7453
 10
120.861
 20
346.905
 30
0.000000
  70
    32
  0
VERTEX
  8
APL_JOINERY
  5
7454
 10
121.019
 20
346.922
 30
0.000000
  70
    32
  0
VERTEX
  8
APL_JOINERY
  5
7455
 10
121.176
 20
346.939
 30
0.000000
  70
    32
  0
VERTEX
  8
APL_JOINERY
  5
7456
 10
121.334
 20
346.955
 30
0.000000
  70
    32
  0
VERTEX
  8
APL_JOINERY
  5
7457
 10
121.492
 20
346.971
 30
0.000000
  70
    32
  0
VERTEX
  8
APL_JOINERY
  5
7458
 10
121.650
 20
346.987
 30
0.000000
  70
    32
  0
VERTEX
  8
APL_JOINERY
  5
7459
 10
121.808
 20
347.002
 30
0.000000
  70
    32
  0
VERTEX
  8
APL_JOINERY
  5
745A
 10
121.966
 20
347.017
 30
0.000000
  70
    32
  0
VERTEX
  8
APL_JOINERY
  5
745B
 10
122.124
 20
347.032
 30
0.000000
  70
    32
  0
VERTEX
  8
APL_JOINERY
  5
745C
 10
122.281
 20
347.046
 30
0.000000
  70
    32
  0
VERTEX
  8
APL_JOINERY
  5
745D
 10
122.439
 20
347.061
 30
0.000000
  70
    32
  0
VERTEX
  8
APL_JOINERY
  5
745E
 10
122.597
 20
347.074
 30
0.000000
  70
    32
  0
VERTEX
  8
APL_JOINERY
  5
745F
 10
122.755
 20
347.088
 30
0.000000
  70
    32
  0
VERTEX
  8
APL_JOINERY
  5
7460
 10
122.913
 20
347.101
 30
0.000000
  70
    32
  0
VERTEX
  8
APL_JOINERY
  5
7461
 10
123.071
 20
347.114
 30
0.000000
  70
    32
  0
VERTEX
  8
APL_JOINERY
  5
7462
 10
123.229
 20
347.126
 30
0.000000
  70
    32
  0
VERTEX
  8
APL_JOINERY
  5
7463
 10
123.387
 20
347.139
 30
0.000000
  70
    32
  0
VERTEX
  8
APL_JOINERY
  5
7464
 10
123.545
 20
347.150
 30
0.000000
  70
    32
  0
VERTEX
  8
APL_JOINERY
  5
7465
 10
123.703
 20
347.161
 30
0.000000
  70
    32
  0
VERTEX
  8
APL_JOINERY
  5
7466
 10
123.862
 20
347.172
 30
0.000000
  70
    32
  0
VERTEX
  8
APL_JOINERY
  5
7467
 10
124.020
 20
347.183
 30
0.000000
  70
    32
  0
VERTEX
  8
APL_JOINERY
  5
7468
 10
124.178
 20
347.193
 30
0.000000
  70
    32
  0
VERTEX
  8
APL_JOINERY
  5
7469
 10
124.336
 20
347.202
 30
0.000000
  70
    32
  0
VERTEX
  8
APL_JOINERY
  5
746A
 10
124.494
 20
347.212
 30
0.000000
  70
    32
  0
VERTEX
  8
APL_JOINERY
  5
746B
 10
124.652
 20
347.220
 30
0.000000
  70
    32
  0
VERTEX
  8
APL_JOINERY
  5
746C
 10
124.811
 20
347.228
 30
0.000000
  70
    32
  0
VERTEX
  8
APL_JOINERY
  5
746D
 10
124.969
 20
347.236
 30
0.000000
  70
    32
  0
VERTEX
  8
APL_JOINERY
  5
746E
 10
125.127
 20
347.243
 30
0.000000
  70
    32
  0
VERTEX
  8
APL_JOINERY
  5
746F
 10
125.286
 20
347.250
 30
0.000000
  70
    32
  0
VERTEX
  8
APL_JOINERY
  5
7470
 10
125.444
 20
347.256
 30
0.000000
  70
    32
  0
VERTEX
  8
APL_JOINERY
  5
7471
 10
125.602
 20
347.262
 30
0.000000
  70
    32
  0
VERTEX
  8
APL_JOINERY
  5
7472
 10
125.761
 20
347.267
 30
0.000000
  70
    32
  0
VERTEX
  8
APL_JOINERY
  5
7473
 10
125.919
 20
347.272
 30
0.000000
  70
    32
  0
VERTEX
  8
APL_JOINERY
  5
7474
 10
126.078
 20
347.277
 30
0.000000
  70
    32
  0
VERTEX
  8
APL_JOINERY
  5
7475
 10
126.236
 20
347.281
 30
0.000000
  70
    32
  0
VERTEX
  8
APL_JOINERY
  5
7476
 10
126.395
 20
347.284
 30
0.000000
  70
    32
  0
VERTEX
  8
APL_JOINERY
  5
7477
 10
126.553
 20
347.287
 30
0.000000
  70
    32
  0
VERTEX
  8
APL_JOINERY
  5
7478
 10
126.712
 20
347.290
 30
0.000000
  70
    32
  0
VERTEX
  8
APL_JOINERY
  5
7479
 10
126.870
 20
347.292
 30
0.000000
  70
    32
  0
VERTEX
  8
APL_JOINERY
  5
747A
 10
127.029
 20
347.294
 30
0.000000
  70
    32
  0
VERTEX
  8
APL_JOINERY
  5
747B
 10
127.187
 20
347.295
 30
0.000000
  70
    32
  0
VERTEX
  8
APL_JOINERY
  5
747C
 10
127.346
 20
347.296
 30
0.000000
  70
    32
  0
VERTEX
  8
APL_JOINERY
  5
747D
 10
127.504
 20
347.297
 30
0.000000
  70
    32
  0
VERTEX
  8
APL_JOINERY
  5
747E
 10
127.663
 20
347.297
 30
0.000000
  70
    32
  0
VERTEX
  8
APL_JOINERY
  5
747F
 10
127.822
 20
347.297
 30
0.000000
  70
    32
  0
VERTEX
  8
APL_JOINERY
  5
7480
 10
127.980
 20
347.296
 30
0.000000
  70
    32
  0
VERTEX
  8
APL_JOINERY
  5
7481
 10
128.139
 20
347.295
 30
0.000000
  70
    32
  0
VERTEX
  8
APL_JOINERY
  5
7482
 10
128.298
 20
347.294
 30
0.000000
  70
    32
  0
VERTEX
  8
APL_JOINERY
  5
7483
 10
128.456
 20
347.292
 30
0.000000
  70
    32
  0
VERTEX
  8
APL_JOINERY
  5
7484
 10
128.615
 20
347.290
 30
0.000000
  70
    32
  0
VERTEX
  8
APL_JOINERY
  5
7485
 10
128.774
 20
347.288
 30
0.000000
  70
    32
  0
VERTEX
  8
APL_JOINERY
  5
7486
 10
128.932
 20
347.285
 30
0.000000
  70
    32
  0
VERTEX
  8
APL_JOINERY
  5
7487
 10
129.091
 20
347.283
 30
0.000000
  70
    32
  0
VERTEX
  8
APL_JOINERY
  5
7488
 10
129.250
 20
347.279
 30
0.000000
  70
    32
  0
VERTEX
  8
APL_JOINERY
  5
7489
 10
129.408
 20
347.276
 30
0.000000
  70
    32
  0
VERTEX
  8
APL_JOINERY
  5
748A
 10
129.567
 20
347.272
 30
0.000000
  70
    32
  0
VERTEX
  8
APL_JOINERY
  5
748B
 10
129.726
 20
347.268
 30
0.000000
  70
    32
  0
VERTEX
  8
APL_JOINERY
  5
748C
 10
129.884
 20
347.263
 30
0.000000
  70
    32
  0
VERTEX
  8
APL_JOINERY
  5
748D
 10
130.043
 20
347.259
 30
0.000000
  70
    32
  0
VERTEX
  8
APL_JOINERY
  5
748E
 10
130.202
 20
347.254
 30
0.000000
  70
    32
  0
VERTEX
  8
APL_JOINERY
  5
748F
 10
130.361
 20
347.249
 30
0.000000
  70
    32
  0
VERTEX
  8
APL_JOINERY
  5
7490
 10
130.519
 20
347.243
 30
0.000000
  70
    32
  0
VERTEX
  8
APL_JOINERY
  5
7491
 10
130.678
 20
347.237
 30
0.000000
  70
    32
  0
VERTEX
  8
APL_JOINERY
  5
7492
 10
130.837
 20
347.231
 30
0.000000
  70
    32
  0
VERTEX
  8
APL_JOINERY
  5
7493
 10
130.995
 20
347.225
 30
0.000000
  70
    32
  0
VERTEX
  8
APL_JOINERY
  5
7494
 10
131.154
 20
347.219
 30
0.000000
  70
    32
  0
VERTEX
  8
APL_JOINERY
  5
7495
 10
131.313
 20
347.212
 30
0.000000
  70
    32
  0
VERTEX
  8
APL_JOINERY
  5
7496
 10
131.471
 20
347.205
 30
0.000000
  70
    32
  0
VERTEX
  8
APL_JOINERY
  5
7497
 10
131.630
 20
347.198
 30
0.000000
  70
    32
  0
VERTEX
  8
APL_JOINERY
  5
7498
 10
131.789
 20
347.191
 30
0.000000
  70
    32
  0
VERTEX
  8
APL_JOINERY
  5
7499
 10
131.947
 20
347.184
 30
0.000000
  70
    32
  0
VERTEX
  8
APL_JOINERY
  5
749A
 10
132.106
 20
347.176
 30
0.000000
  70
    32
  0
VERTEX
  8
APL_JOINERY
  5
749B
 10
132.265
 20
347.168
 30
0.000000
  70
    32
  0
VERTEX
  8
APL_JOINERY
  5
749C
 10
132.423
 20
347.160
 30
0.000000
  70
    32
  0
VERTEX
  8
APL_JOINERY
  5
749D
 10
132.582
 20
347.152
 30
0.000000
  70
    32
  0
VERTEX
  8
APL_JOINERY
  5
749E
 10
132.740
 20
347.144
 30
0.000000
  70
    32
  0
VERTEX
  8
APL_JOINERY
  5
749F
 10
132.899
 20
347.136
 30
0.000000
  70
    32
  0
VERTEX
  8
APL_JOINERY
  5
74A0
 10
133.057
 20
347.127
 30
0.000000
  70
    32
  0
VERTEX
  8
APL_JOINERY
  5
74A1
 10
133.216
 20
347.118
 30
0.000000
  70
    32
  0
VERTEX
  8
APL_JOINERY
  5
74A2
 10
133.374
 20
347.110
 30
0.000000
  70
    32
  0
VERTEX
  8
APL_JOINERY
  5
74A3
 10
133.533
 20
347.101
 30
0.000000
  70
    32
  0
VERTEX
  8
APL_JOINERY
  5
74A4
 10
133.691
 20
347.092
 30
0.000000
  70
    32
  0
VERTEX
  8
APL_JOINERY
  5
74A5
 10
133.850
 20
347.083
 30
0.000000
  70
    32
  0
VERTEX
  8
APL_JOINERY
  5
74A6
 10
134.008
 20
347.074
 30
0.000000
  70
    32
  0
VERTEX
  8
APL_JOINERY
  5
74A7
 10
134.167
 20
347.064
 30
0.000000
  70
    32
  0
VERTEX
  8
APL_JOINERY
  5
74A8
 10
134.325
 20
347.055
 30
0.000000
  70
    32
  0
VERTEX
  8
APL_JOINERY
  5
74A9
 10
134.484
 20
347.045
 30
0.000000
  70
    32
  0
VERTEX
  8
APL_JOINERY
  5
74AA
 10
134.642
 20
347.036
 30
0.000000
  70
    32
  0
VERTEX
  8
APL_JOINERY
  5
74AB
 10
134.800
 20
347.026
 30
0.000000
  70
    32
  0
VERTEX
  8
APL_JOINERY
  5
74AC
 10
134.959
 20
347.017
 30
0.000000
  70
    32
  0
VERTEX
  8
APL_JOINERY
  5
74AD
 10
135.117
 20
347.007
 30
0.000000
  70
    32
  0
VERTEX
  8
APL_JOINERY
  5
74AE
 10
135.275
 20
346.997
 30
0.000000
  70
    32
  0
VERTEX
  8
APL_JOINERY
  5
74AF
 10
135.433
 20
346.987
 30
0.000000
  70
    32
  0
VERTEX
  8
APL_JOINERY
  5
74B0
 10
135.592
 20
346.977
 30
0.000000
  70
    32
  0
VERTEX
  8
APL_JOINERY
  5
74B1
 10
135.750
 20
346.967
 30
0.000000
  70
    32
  0
VERTEX
  8
APL_JOINERY
  5
74B2
 10
135.908
 20
346.956
 30
0.000000
  70
    32
  0
VERTEX
  8
APL_JOINERY
  5
74B3
 10
136.066
 20
346.946
 30
0.000000
  70
    32
  0
VERTEX
  8
APL_JOINERY
  5
74B4
 10
136.224
 20
346.935
 30
0.000000
  70
    32
  0
VERTEX
  8
APL_JOINERY
  5
74B5
 10
136.382
 20
346.924
 30
0.000000
  70
    32
  0
VERTEX
  8
APL_JOINERY
  5
74B6
 10
136.541
 20
346.913
 30
0.000000
  70
    32
  0
VERTEX
  8
APL_JOINERY
  5
74B7
 10
136.699
 20
346.902
 30
0.000000
  70
    32
  0
VERTEX
  8
APL_JOINERY
  5
74B8
 10
136.857
 20
346.891
 30
0.000000
  70
    32
  0
VERTEX
  8
APL_JOINERY
  5
74B9
 10
137.015
 20
346.879
 30
0.000000
  70
    32
  0
VERTEX
  8
APL_JOINERY
  5
74BA
 10
137.173
 20
346.868
 30
0.000000
  70
    32
  0
VERTEX
  8
APL_JOINERY
  5
74BB
 10
137.331
 20
346.856
 30
0.000000
  70
    32
  0
VERTEX
  8
APL_JOINERY
  5
74BC
 10
137.489
 20
346.844
 30
0.000000
  70
    32
  0
VERTEX
  8
APL_JOINERY
  5
74BD
 10
137.647
 20
346.831
 30
0.000000
  70
    32
  0
VERTEX
  8
APL_JOINERY
  5
74BE
 10
137.805
 20
346.819
 30
0.000000
  70
    32
  0
VERTEX
  8
APL_JOINERY
  5
74BF
 10
137.963
 20
346.806
 30
0.000000
  70
    32
  0
VERTEX
  8
APL_JOINERY
  5
74C0
 10
138.121
 20
346.793
 30
0.000000
  70
    32
  0
VERTEX
  8
APL_JOINERY
  5
74C1
 10
138.279
 20
346.780
 30
0.000000
  70
    32
  0
VERTEX
  8
APL_JOINERY
  5
74C2
 10
138.437
 20
346.767
 30
0.000000
  70
    32
  0
VERTEX
  8
APL_JOINERY
  5
74C3
 10
138.595
 20
346.753
 30
0.000000
  70
    32
  0
VERTEX
  8
APL_JOINERY
  5
74C4
 10
138.753
 20
346.740
 30
0.000000
  70
    32
  0
VERTEX
  8
APL_JOINERY
  5
74C5
 10
138.911
 20
346.726
 30
0.000000
  70
    32
  0
VERTEX
  8
APL_JOINERY
  5
74C6
 10
139.069
 20
346.711
 30
0.000000
  70
    32
  0
VERTEX
  8
APL_JOINERY
  5
74C7
 10
139.227
 20
346.697
 30
0.000000
  70
    32
  0
VERTEX
  8
APL_JOINERY
  5
74C8
 10
139.385
 20
346.682
 30
0.000000
  70
    32
  0
VERTEX
  8
APL_JOINERY
  5
74C9
 10
139.542
 20
346.667
 30
0.000000
  70
    32
  0
VERTEX
  8
APL_JOINERY
  5
74CA
 10
139.700
 20
346.651
 30
0.000000
  70
    32
  0
VERTEX
  8
APL_JOINERY
  5
74CB
 10
139.858
 20
346.636
 30
0.000000
  70
    32
  0
VERTEX
  8
APL_JOINERY
  5
74CC
 10
140.016
 20
346.620
 30
0.000000
  70
    32
  0
VERTEX
  8
APL_JOINERY
  5
74CD
 10
140.174
 20
346.603
 30
0.000000
  70
    32
  0
VERTEX
  8
APL_JOINERY
  5
74CE
 10
140.332
 20
346.587
 30
0.000000
  70
    32
  0
VERTEX
  8
APL_JOINERY
  5
74CF
 10
140.490
 20
346.570
 30
0.000000
  70
    32
  0
VERTEX
  8
APL_JOINERY
  5
74D0
 10
140.648
 20
346.553
 30
0.000000
  70
    32
  0
VERTEX
  8
APL_JOINERY
  5
74D1
 10
140.806
 20
346.535
 30
0.000000
  70
    32
  0
VERTEX
  8
APL_JOINERY
  5
74D2
 10
140.963
 20
346.517
 30
0.000000
  70
    32
  0
VERTEX
  8
APL_JOINERY
  5
74D3
 10
141.121
 20
346.499
 30
0.000000
  70
    32
  0
VERTEX
  8
APL_JOINERY
  5
74D4
 10
141.279
 20
346.480
 30
0.000000
  70
    32
  0
VERTEX
  8
APL_JOINERY
  5
74D5
 10
141.437
 20
346.461
 30
0.000000
  70
    32
  0
VERTEX
  8
APL_JOINERY
  5
74D6
 10
141.595
 20
346.442
 30
0.000000
  70
    32
  0
VERTEX
  8
APL_JOINERY
  5
74D7
 10
141.753
 20
346.423
 30
0.000000
  70
    32
  0
VERTEX
  8
APL_JOINERY
  5
74D8
 10
141.911
 20
346.403
 30
0.000000
  70
    32
  0
VERTEX
  8
APL_JOINERY
  5
74D9
 10
142.069
 20
346.382
 30
0.000000
  70
    32
  0
VERTEX
  8
APL_JOINERY
  5
74DA
 10
142.226
 20
346.361
 30
0.000000
  70
    32
  0
VERTEX
  8
APL_JOINERY
  5
74DB
 10
142.384
 20
346.340
 30
0.000000
  70
    32
  0
VERTEX
  8
APL_JOINERY
  5
74DC
 10
142.542
 20
346.319
 30
0.000000
  70
    32
  0
VERTEX
  8
APL_JOINERY
  5
74DD
 10
142.700
 20
346.297
 30
0.000000
  70
    32
  0
VERTEX
  8
APL_JOINERY
  5
74DE
 10
142.858
 20
346.274
 30
0.000000
  70
    32
  0
VERTEX
  8
APL_JOINERY
  5
74DF
 10
143.015
 20
346.251
 30
0.000000
  70
    32
  0
VERTEX
  8
APL_JOINERY
  5
74E0
 10
143.173
 20
346.228
 30
0.000000
  70
    32
  0
VERTEX
  8
APL_JOINERY
  5
74E1
 10
143.331
 20
346.204
 30
0.000000
  70
    32
  0
VERTEX
  8
APL_JOINERY
  5
74E2
 10
143.488
 20
346.180
 30
0.000000
  70
    32
  0
VERTEX
  8
APL_JOINERY
  5
74E3
 10
143.646
 20
346.155
 30
0.000000
  70
    32
  0
VERTEX
  8
APL_JOINERY
  5
74E4
 10
143.803
 20
346.130
 30
0.000000
  70
    32
  0
VERTEX
  8
APL_JOINERY
  5
74E5
 10
143.960
 20
346.104
 30
0.000000
  70
    32
  0
VERTEX
  8
APL_JOINERY
  5
74E6
 10
144.118
 20
346.077
 30
0.000000
  70
    32
  0
VERTEX
  8
APL_JOINERY
  5
74E7
 10
144.275
 20
346.050
 30
0.000000
  70
    32
  0
VERTEX
  8
APL_JOINERY
  5
74E8
 10
144.432
 20
346.023
 30
0.000000
  70
    32
  0
VERTEX
  8
APL_JOINERY
  5
74E9
 10
144.589
 20
345.995
 30
0.000000
  70
    32
  0
VERTEX
  8
APL_JOINERY
  5
74EA
 10
144.745
 20
345.966
 30
0.000000
  70
    32
  0
VERTEX
  8
APL_JOINERY
  5
74EB
 10
144.902
 20
345.936
 30
0.000000
  70
    32
  0
VERTEX
  8
APL_JOINERY
  5
74EC
 10
145.059
 20
345.906
 30
0.000000
  70
    32
  0
VERTEX
  8
APL_JOINERY
  5
74ED
 10
145.215
 20
345.876
 30
0.000000
  70
    32
  0
VERTEX
  8
APL_JOINERY
  5
74EE
 10
145.371
 20
345.844
 30
0.000000
  70
    32
  0
VERTEX
  8
APL_JOINERY
  5
74EF
 10
145.527
 20
345.812
 30
0.000000
  70
    32
  0
VERTEX
  8
APL_JOINERY
  5
74F0
 10
145.683
 20
345.780
 30
0.000000
  70
    32
  0
VERTEX
  8
APL_JOINERY
  5
74F1
 10
145.839
 20
345.746
 30
0.000000
  70
    32
  0
VERTEX
  8
APL_JOINERY
  5
74F2
 10
145.994
 20
345.712
 30
0.000000
  70
    32
  0
VERTEX
  8
APL_JOINERY
  5
74F3
 10
146.149
 20
345.677
 30
0.000000
  70
    32
  0
VERTEX
  8
APL_JOINERY
  5
74F4
 10
146.304
 20
345.642
 30
0.000000
  70
    32
  0
VERTEX
  8
APL_JOINERY
  5
74F5
 10
146.459
 20
345.605
 30
0.000000
  70
    32
  0
VERTEX
  8
APL_JOINERY
  5
74F6
 10
146.614
 20
345.568
 30
0.000000
  70
    32
  0
VERTEX
  8
APL_JOINERY
  5
74F7
 10
146.768
 20
345.530
 30
0.000000
  70
    32
  0
VERTEX
  8
APL_JOINERY
  5
74F8
 10
146.923
 20
345.491
 30
0.000000
  70
    32
  0
VERTEX
  8
APL_JOINERY
  5
74F9
 10
147.076
 20
345.452
 30
0.000000
  70
    32
  0
VERTEX
  8
APL_JOINERY
  5
74FA
 10
147.230
 20
345.411
 30
0.000000
  70
    32
  0
VERTEX
  8
APL_JOINERY
  5
74FB
 10
147.384
 20
345.370
 30
0.000000
  70
    32
  0
VERTEX
  8
APL_JOINERY
  5
74FC
 10
147.537
 20
345.328
 30
0.000000
  70
    32
  0
VERTEX
  8
APL_JOINERY
  5
74FD
 10
147.690
 20
345.285
 30
0.000000
  70
    32
  0
VERTEX
  8
APL_JOINERY
  5
74FE
 10
147.842
 20
345.241
 30
0.000000
  70
    32
  0
VERTEX
  8
APL_JOINERY
  5
74FF
 10
147.995
 20
345.197
 30
0.000000
  70
    32
  0
VERTEX
  8
APL_JOINERY
  5
7500
 10
148.147
 20
345.151
 30
0.000000
  70
    32
  0
VERTEX
  8
APL_JOINERY
  5
7501
 10
148.298
 20
345.105
 30
0.000000
  70
    32
  0
VERTEX
  8
APL_JOINERY
  5
7502
 10
148.450
 20
345.057
 30
0.000000
  70
    32
  0
VERTEX
  8
APL_JOINERY
  5
7503
 10
148.601
 20
345.009
 30
0.000000
  70
    32
  0
VERTEX
  8
APL_JOINERY
  5
7504
 10
148.752
 20
344.959
 30
0.000000
  70
    32
  0
VERTEX
  8
APL_JOINERY
  5
7505
 10
148.902
 20
344.909
 30
0.000000
  70
    32
  0
VERTEX
  8
APL_JOINERY
  5
7506
 10
149.052
 20
344.857
 30
0.000000
  70
    32
  0
VERTEX
  8
APL_JOINERY
  5
7507
 10
149.202
 20
344.805
 30
0.000000
  70
    32
  0
VERTEX
  8
APL_JOINERY
  5
7508
 10
149.352
 20
344.752
 30
0.000000
  70
    32
  0
VERTEX
  8
APL_JOINERY
  5
7509
 10
149.501
 20
344.697
 30
0.000000
  70
    32
  0
VERTEX
  8
APL_JOINERY
  5
750A
 10
149.649
 20
344.642
 30
0.000000
  70
    32
  0
VERTEX
  8
APL_JOINERY
  5
750B
 10
149.798
 20
344.585
 30
0.000000
  70
    32
  0
VERTEX
  8
APL_JOINERY
  5
750C
 10
149.946
 20
344.528
 30
0.000000
  70
    32
  0
VERTEX
  8
APL_JOINERY
  5
750D
 10
150.093
 20
344.469
 30
0.000000
  70
    32
  0
VERTEX
  8
APL_JOINERY
  5
750E
 10
150.240
 20
344.409
 30
0.000000
  70
    32
  0
VERTEX
  8
APL_JOINERY
  5
750F
 10
150.387
 20
344.348
 30
0.000000
  70
    32
  0
VERTEX
  8
APL_JOINERY
  5
7510
 10
150.533
 20
344.286
 30
0.000000
  70
    32
  0
VERTEX
  8
APL_JOINERY
  5
7511
 10
150.679
 20
344.223
 30
0.000000
  70
    32
  0
VERTEX
  8
APL_JOINERY
  5
7512
 10
150.825
 20
344.159
 30
0.000000
  70
    32
  0
VERTEX
  8
APL_JOINERY
  5
7513
 10
150.970
 20
344.094
 30
0.000000
  70
    32
  0
VERTEX
  8
APL_JOINERY
  5
7514
 10
151.114
 20
344.027
 30
0.000000
  70
    32
  0
VERTEX
  8
APL_JOINERY
  5
7515
 10
151.258
 20
343.960
 30
0.000000
  70
    32
  0
VERTEX
  8
APL_JOINERY
  5
7516
 10
151.402
 20
343.891
 30
0.000000
  70
    32
  0
VERTEX
  8
APL_JOINERY
  5
7517
 10
151.545
 20
343.822
 30
0.000000
  70
    32
  0
VERTEX
  8
APL_JOINERY
  5
7518
 10
151.688
 20
343.751
 30
0.000000
  70
    32
  0
VERTEX
  8
APL_JOINERY
  5
7519
 10
151.830
 20
343.679
 30
0.000000
  70
    32
  0
VERTEX
  8
APL_JOINERY
  5
751A
 10
151.972
 20
343.607
 30
0.000000
  70
    32
  0
VERTEX
  8
APL_JOINERY
  5
751B
 10
152.113
 20
343.533
 30
0.000000
  70
    32
  0
VERTEX
  8
APL_JOINERY
  5
751C
 10
152.254
 20
343.458
 30
0.000000
  70
    32
  0
VERTEX
  8
APL_JOINERY
  5
751D
 10
152.394
 20
343.383
 30
0.000000
  70
    32
  0
VERTEX
  8
APL_JOINERY
  5
751E
 10
152.533
 20
343.306
 30
0.000000
  70
    32
  0
VERTEX
  8
APL_JOINERY
  5
751F
 10
152.673
 20
343.228
 30
0.000000
  70
    32
  0
VERTEX
  8
APL_JOINERY
  5
7520
 10
152.811
 20
343.149
 30
0.000000
  70
    32
  0
VERTEX
  8
APL_JOINERY
  5
7521
 10
152.949
 20
343.070
 30
0.000000
  70
    32
  0
VERTEX
  8
APL_JOINERY
  5
7522
 10
153.087
 20
342.989
 30
0.000000
  70
    32
  0
VERTEX
  8
APL_JOINERY
  5
7523
 10
153.223
 20
342.907
 30
0.000000
  70
    32
  0
VERTEX
  8
APL_JOINERY
  5
7524
 10
153.360
 20
342.825
 30
0.000000
  70
    32
  0
VERTEX
  8
APL_JOINERY
  5
7525
 10
153.496
 20
342.741
 30
0.000000
  70
    32
  0
VERTEX
  8
APL_JOINERY
  5
7526
 10
153.631
 20
342.657
 30
0.000000
  70
    32
  0
VERTEX
  8
APL_JOINERY
  5
7527
 10
153.765
 20
342.571
 30
0.000000
  70
    32
  0
VERTEX
  8
APL_JOINERY
  5
7528
 10
153.899
 20
342.485
 30
0.000000
  70
    32
  0
VERTEX
  8
APL_JOINERY
  5
7529
 10
154.032
 20
342.398
 30
0.000000
  70
    32
  0
VERTEX
  8
APL_JOINERY
  5
752A
 10
154.165
 20
342.309
 30
0.000000
  70
    32
  0
VERTEX
  8
APL_JOINERY
  5
752B
 10
154.297
 20
342.220
 30
0.000000
  70
    32
  0
VERTEX
  8
APL_JOINERY
  5
752C
 10
154.429
 20
342.130
 30
0.000000
  70
    32
  0
VERTEX
  8
APL_JOINERY
  5
752D
 10
154.559
 20
342.039
 30
0.000000
  70
    32
  0
VERTEX
  8
APL_JOINERY
  5
752E
 10
154.689
 20
341.947
 30
0.000000
  70
    32
  0
VERTEX
  8
APL_JOINERY
  5
752F
 10
154.819
 20
341.855
 30
0.000000
  70
    32
  0
VERTEX
  8
APL_JOINERY
  5
7530
 10
154.948
 20
341.761
 30
0.000000
  70
    32
  0
VERTEX
  8
APL_JOINERY
  5
7531
 10
155.076
 20
341.667
 30
0.000000
  70
    32
  0
VERTEX
  8
APL_JOINERY
  5
7532
 10
155.203
 20
341.571
 30
0.000000
  70
    32
  0
VERTEX
  8
APL_JOINERY
  5
7533
 10
155.330
 20
341.475
 30
0.000000
  70
    32
  0
VERTEX
  8
APL_JOINERY
  5
7534
 10
155.456
 20
341.378
 30
0.000000
  70
    32
  0
VERTEX
  8
APL_JOINERY
  5
7535
 10
155.581
 20
341.280
 30
0.000000
  70
    32
  0
VERTEX
  8
APL_JOINERY
  5
7536
 10
155.706
 20
341.182
 30
0.000000
  70
    32
  0
VERTEX
  8
APL_JOINERY
  5
7537
 10
155.829
 20
341.082
 30
0.000000
  70
    32
  0
VERTEX
  8
APL_JOINERY
  5
7538
 10
155.952
 20
340.982
 30
0.000000
  70
    32
  0
VERTEX
  8
APL_JOINERY
  5
7539
 10
156.075
 20
340.881
 30
0.000000
  70
    32
  0
VERTEX
  8
APL_JOINERY
  5
753A
 10
156.196
 20
340.779
 30
0.000000
  70
    32
  0
VERTEX
  8
APL_JOINERY
  5
753B
 10
156.317
 20
340.676
 30
0.000000
  70
    32
  0
VERTEX
  8
APL_JOINERY
  5
753C
 10
156.438
 20
340.573
 30
0.000000
  70
    32
  0
VERTEX
  8
APL_JOINERY
  5
753D
 10
156.557
 20
340.469
 30
0.000000
  70
    32
  0
VERTEX
  8
APL_JOINERY
  5
753E
 10
156.676
 20
340.364
 30
0.000000
  70
    32
  0
VERTEX
  8
APL_JOINERY
  5
753F
 10
156.795
 20
340.258
 30
0.000000
  70
    32
  0
VERTEX
  8
APL_JOINERY
  5
7540
 10
156.913
 20
340.152
 30
0.000000
  70
    32
  0
VERTEX
  8
APL_JOINERY
  5
7541
 10
157.030
 20
340.045
 30
0.000000
  70
    32
  0
VERTEX
  8
APL_JOINERY
  5
7542
 10
157.147
 20
339.938
 30
0.000000
  70
    32
  0
VERTEX
  8
APL_JOINERY
  5
7543
 10
157.263
 20
339.830
 30
0.000000
  70
    32
  0
VERTEX
  8
APL_JOINERY
  5
7544
 10
157.378
 20
339.722
 30
0.000000
  70
    32
  0
VERTEX
  8
APL_JOINERY
  5
7545
 10
157.494
 20
339.613
 30
0.000000
  70
    32
  0
VERTEX
  8
APL_JOINERY
  5
7546
 10
157.608
 20
339.503
 30
0.000000
  70
    32
  0
VERTEX
  8
APL_JOINERY
  5
7547
 10
157.723
 20
339.393
 30
0.000000
  70
    32
  0
VERTEX
  8
APL_JOINERY
  5
7548
 10
157.837
 20
339.283
 30
0.000000
  70
    32
  0
VERTEX
  8
APL_JOINERY
  5
7549
 10
157.950
 20
339.172
 30
0.000000
  70
    32
  0
VERTEX
  8
APL_JOINERY
  5
754A
 10
158.063
 20
339.061
 30
0.000000
  70
    32
  0
VERTEX
  8
APL_JOINERY
  5
754B
 10
158.176
 20
338.949
 30
0.000000
  70
    32
  0
VERTEX
  8
APL_JOINERY
  5
754C
 10
158.288
 20
338.837
 30
0.000000
  70
    32
  0
VERTEX
  8
APL_JOINERY
  5
754D
 10
158.400
 20
338.725
 30
0.000000
  70
    32
  0
VERTEX
  8
APL_JOINERY
  5
754E
 10
158.512
 20
338.612
 30
0.000000
  70
    32
  0
VERTEX
  8
APL_JOINERY
  5
754F
 10
158.624
 20
338.499
 30
0.000000
  70
    32
  0
VERTEX
  8
APL_JOINERY
  5
7550
 10
158.735
 20
338.386
 30
0.000000
  70
    32
  0
VERTEX
  8
APL_JOINERY
  5
7551
 10
158.846
 20
338.272
 30
0.000000
  70
    32
  0
VERTEX
  8
APL_JOINERY
  5
7552
 10
158.957
 20
338.158
 30
0.000000
  70
    32
  0
VERTEX
  8
APL_JOINERY
  5
7553
 10
159.068
 20
338.044
 30
0.000000
  70
    32
  0
VERTEX
  8
APL_JOINERY
  5
7554
 10
159.178
 20
337.930
 30
0.000000
  70
    32
  0
VERTEX
  8
APL_JOINERY
  5
7555
 10
159.288
 20
337.816
 30
0.000000
  70
    32
  0
VERTEX
  8
APL_JOINERY
  5
7556
 10
159.399
 20
337.701
 30
0.000000
  70
    32
  0
VERTEX
  8
APL_JOINERY
  5
7557
 10
159.509
 20
337.587
 30
0.000000
  70
    32
  0
VERTEX
  8
APL_JOINERY
  5
7558
 10
159.619
 20
337.472
 30
0.000000
  70
    32
  0
VERTEX
  8
APL_JOINERY
  5
7559
 10
159.729
 20
337.357
 30
0.000000
  70
    32
  0
VERTEX
  8
APL_JOINERY
  5
755A
 10
159.839
 20
337.243
 30
0.000000
  70
    32
  0
VERTEX
  8
APL_JOINERY
  5
755B
 10
159.949
 20
337.128
 30
0.000000
  70
    32
  0
SEQEND
  8
APL_JOINERY
  5
755C
  0
LINE
  5
498F
  8
APL_JOINERY
 62
     3
 10
110.7399515078629
 20
336.76235108304837
 30
0.0
 11
110.7399515078629
 21
355.76235108304837
 31
0.0
  0
LINE
  5
4990
  8
APL_JOINERY
 62
     8
 10
130.19345899897721
 20
339.07609653975982
 30
0.0
 11
127.6670755755074
 21
350.20849832978848
 31
0.0
  0
POLYLINE
  8
APL_JOINERY
  5
755D
  62
8
  66
     1
 10
0.000000
 20
0.000000
 30
0.000000
  70
     8
  0
VERTEX
  8
APL_JOINERY
  5
755E
 10
115.877
 20
337.055
 30
0.000000
  70
    32
  0
VERTEX
  8
APL_JOINERY
  5
755F
 10
115.945
 20
337.112
 30
0.000000
  70
    32
  0
VERTEX
  8
APL_JOINERY
  5
7560
 10
116.013
 20
337.168
 30
0.000000
  70
    32
  0
VERTEX
  8
APL_JOINERY
  5
7561
 10
116.081
 20
337.224
 30
0.000000
  70
    32
  0
VERTEX
  8
APL_JOINERY
  5
7562
 10
116.148
 20
337.280
 30
0.000000
  70
    32
  0
VERTEX
  8
APL_JOINERY
  5
7563
 10
116.216
 20
337.336
 30
0.000000
  70
    32
  0
VERTEX
  8
APL_JOINERY
  5
7564
 10
116.284
 20
337.392
 30
0.000000
  70
    32
  0
VERTEX
  8
APL_JOINERY
  5
7565
 10
116.352
 20
337.448
 30
0.000000
  70
    32
  0
VERTEX
  8
APL_JOINERY
  5
7566
 10
116.420
 20
337.504
 30
0.000000
  70
    32
  0
VERTEX
  8
APL_JOINERY
  5
7567
 10
116.488
 20
337.560
 30
0.000000
  70
    32
  0
VERTEX
  8
APL_JOINERY
  5
7568
 10
116.557
 20
337.616
 30
0.000000
  70
    32
  0
VERTEX
  8
APL_JOINERY
  5
7569
 10
116.625
 20
337.671
 30
0.000000
  70
    32
  0
VERTEX
  8
APL_JOINERY
  5
756A
 10
116.693
 20
337.726
 30
0.000000
  70
    32
  0
VERTEX
  8
APL_JOINERY
  5
756B
 10
116.761
 20
337.781
 30
0.000000
  70
    32
  0
VERTEX
  8
APL_JOINERY
  5
756C
 10
116.830
 20
337.836
 30
0.000000
  70
    32
  0
VERTEX
  8
APL_JOINERY
  5
756D
 10
116.898
 20
337.891
 30
0.000000
  70
    32
  0
VERTEX
  8
APL_JOINERY
  5
756E
 10
116.967
 20
337.946
 30
0.000000
  70
    32
  0
VERTEX
  8
APL_JOINERY
  5
756F
 10
117.035
 20
338.000
 30
0.000000
  70
    32
  0
VERTEX
  8
APL_JOINERY
  5
7570
 10
117.104
 20
338.054
 30
0.000000
  70
    32
  0
VERTEX
  8
APL_JOINERY
  5
7571
 10
117.173
 20
338.108
 30
0.000000
  70
    32
  0
VERTEX
  8
APL_JOINERY
  5
7572
 10
117.242
 20
338.161
 30
0.000000
  70
    32
  0
VERTEX
  8
APL_JOINERY
  5
7573
 10
117.311
 20
338.214
 30
0.000000
  70
    32
  0
VERTEX
  8
APL_JOINERY
  5
7574
 10
117.381
 20
338.267
 30
0.000000
  70
    32
  0
VERTEX
  8
APL_JOINERY
  5
7575
 10
117.450
 20
338.320
 30
0.000000
  70
    32
  0
VERTEX
  8
APL_JOINERY
  5
7576
 10
117.520
 20
338.372
 30
0.000000
  70
    32
  0
VERTEX
  8
APL_JOINERY
  5
7577
 10
117.589
 20
338.424
 30
0.000000
  70
    32
  0
VERTEX
  8
APL_JOINERY
  5
7578
 10
117.659
 20
338.476
 30
0.000000
  70
    32
  0
VERTEX
  8
APL_JOINERY
  5
7579
 10
117.729
 20
338.527
 30
0.000000
  70
    32
  0
VERTEX
  8
APL_JOINERY
  5
757A
 10
117.799
 20
338.578
 30
0.000000
  70
    32
  0
VERTEX
  8
APL_JOINERY
  5
757B
 10
117.870
 20
338.628
 30
0.000000
  70
    32
  0
VERTEX
  8
APL_JOINERY
  5
757C
 10
117.940
 20
338.678
 30
0.000000
  70
    32
  0
VERTEX
  8
APL_JOINERY
  5
757D
 10
118.011
 20
338.728
 30
0.000000
  70
    32
  0
VERTEX
  8
APL_JOINERY
  5
757E
 10
118.082
 20
338.777
 30
0.000000
  70
    32
  0
VERTEX
  8
APL_JOINERY
  5
757F
 10
118.153
 20
338.825
 30
0.000000
  70
    32
  0
VERTEX
  8
APL_JOINERY
  5
7580
 10
118.224
 20
338.873
 30
0.000000
  70
    32
  0
VERTEX
  8
APL_JOINERY
  5
7581
 10
118.296
 20
338.921
 30
0.000000
  70
    32
  0
VERTEX
  8
APL_JOINERY
  5
7582
 10
118.367
 20
338.968
 30
0.000000
  70
    32
  0
VERTEX
  8
APL_JOINERY
  5
7583
 10
118.439
 20
339.015
 30
0.000000
  70
    32
  0
VERTEX
  8
APL_JOINERY
  5
7584
 10
118.512
 20
339.061
 30
0.000000
  70
    32
  0
VERTEX
  8
APL_JOINERY
  5
7585
 10
118.584
 20
339.107
 30
0.000000
  70
    32
  0
VERTEX
  8
APL_JOINERY
  5
7586
 10
118.657
 20
339.152
 30
0.000000
  70
    32
  0
VERTEX
  8
APL_JOINERY
  5
7587
 10
118.729
 20
339.196
 30
0.000000
  70
    32
  0
VERTEX
  8
APL_JOINERY
  5
7588
 10
118.803
 20
339.240
 30
0.000000
  70
    32
  0
VERTEX
  8
APL_JOINERY
  5
7589
 10
118.876
 20
339.283
 30
0.000000
  70
    32
  0
VERTEX
  8
APL_JOINERY
  5
758A
 10
118.950
 20
339.326
 30
0.000000
  70
    32
  0
VERTEX
  8
APL_JOINERY
  5
758B
 10
119.024
 20
339.368
 30
0.000000
  70
    32
  0
VERTEX
  8
APL_JOINERY
  5
758C
 10
119.098
 20
339.409
 30
0.000000
  70
    32
  0
VERTEX
  8
APL_JOINERY
  5
758D
 10
119.172
 20
339.450
 30
0.000000
  70
    32
  0
VERTEX
  8
APL_JOINERY
  5
758E
 10
119.247
 20
339.490
 30
0.000000
  70
    32
  0
VERTEX
  8
APL_JOINERY
  5
758F
 10
119.322
 20
339.529
 30
0.000000
  70
    32
  0
VERTEX
  8
APL_JOINERY
  5
7590
 10
119.398
 20
339.568
 30
0.000000
  70
    32
  0
VERTEX
  8
APL_JOINERY
  5
7591
 10
119.473
 20
339.606
 30
0.000000
  70
    32
  0
VERTEX
  8
APL_JOINERY
  5
7592
 10
119.549
 20
339.643
 30
0.000000
  70
    32
  0
VERTEX
  8
APL_JOINERY
  5
7593
 10
119.626
 20
339.679
 30
0.000000
  70
    32
  0
VERTEX
  8
APL_JOINERY
  5
7594
 10
119.702
 20
339.715
 30
0.000000
  70
    32
  0
VERTEX
  8
APL_JOINERY
  5
7595
 10
119.779
 20
339.750
 30
0.000000
  70
    32
  0
VERTEX
  8
APL_JOINERY
  5
7596
 10
119.857
 20
339.784
 30
0.000000
  70
    32
  0
VERTEX
  8
APL_JOINERY
  5
7597
 10
119.934
 20
339.817
 30
0.000000
  70
    32
  0
VERTEX
  8
APL_JOINERY
  5
7598
 10
120.012
 20
339.849
 30
0.000000
  70
    32
  0
VERTEX
  8
APL_JOINERY
  5
7599
 10
120.091
 20
339.881
 30
0.000000
  70
    32
  0
VERTEX
  8
APL_JOINERY
  5
759A
 10
120.169
 20
339.912
 30
0.000000
  70
    32
  0
VERTEX
  8
APL_JOINERY
  5
759B
 10
120.248
 20
339.942
 30
0.000000
  70
    32
  0
VERTEX
  8
APL_JOINERY
  5
759C
 10
120.328
 20
339.971
 30
0.000000
  70
    32
  0
VERTEX
  8
APL_JOINERY
  5
759D
 10
120.407
 20
340.000
 30
0.000000
  70
    32
  0
VERTEX
  8
APL_JOINERY
  5
759E
 10
120.487
 20
340.028
 30
0.000000
  70
    32
  0
VERTEX
  8
APL_JOINERY
  5
759F
 10
120.568
 20
340.055
 30
0.000000
  70
    32
  0
VERTEX
  8
APL_JOINERY
  5
75A0
 10
120.648
 20
340.082
 30
0.000000
  70
    32
  0
VERTEX
  8
APL_JOINERY
  5
75A1
 10
120.729
 20
340.108
 30
0.000000
  70
    32
  0
VERTEX
  8
APL_JOINERY
  5
75A2
 10
120.810
 20
340.133
 30
0.000000
  70
    32
  0
VERTEX
  8
APL_JOINERY
  5
75A3
 10
120.891
 20
340.158
 30
0.000000
  70
    32
  0
VERTEX
  8
APL_JOINERY
  5
75A4
 10
120.973
 20
340.182
 30
0.000000
  70
    32
  0
VERTEX
  8
APL_JOINERY
  5
75A5
 10
121.055
 20
340.205
 30
0.000000
  70
    32
  0
VERTEX
  8
APL_JOINERY
  5
75A6
 10
121.137
 20
340.228
 30
0.000000
  70
    32
  0
VERTEX
  8
APL_JOINERY
  5
75A7
 10
121.219
 20
340.250
 30
0.000000
  70
    32
  0
VERTEX
  8
APL_JOINERY
  5
75A8
 10
121.302
 20
340.272
 30
0.000000
  70
    32
  0
VERTEX
  8
APL_JOINERY
  5
75A9
 10
121.385
 20
340.293
 30
0.000000
  70
    32
  0
VERTEX
  8
APL_JOINERY
  5
75AA
 10
121.468
 20
340.313
 30
0.000000
  70
    32
  0
VERTEX
  8
APL_JOINERY
  5
75AB
 10
121.551
 20
340.333
 30
0.000000
  70
    32
  0
VERTEX
  8
APL_JOINERY
  5
75AC
 10
121.635
 20
340.353
 30
0.000000
  70
    32
  0
VERTEX
  8
APL_JOINERY
  5
75AD
 10
121.718
 20
340.372
 30
0.000000
  70
    32
  0
VERTEX
  8
APL_JOINERY
  5
75AE
 10
121.802
 20
340.390
 30
0.000000
  70
    32
  0
VERTEX
  8
APL_JOINERY
  5
75AF
 10
121.887
 20
340.408
 30
0.000000
  70
    32
  0
VERTEX
  8
APL_JOINERY
  5
75B0
 10
121.971
 20
340.426
 30
0.000000
  70
    32
  0
VERTEX
  8
APL_JOINERY
  5
75B1
 10
122.055
 20
340.443
 30
0.000000
  70
    32
  0
VERTEX
  8
APL_JOINERY
  5
75B2
 10
122.140
 20
340.460
 30
0.000000
  70
    32
  0
VERTEX
  8
APL_JOINERY
  5
75B3
 10
122.225
 20
340.476
 30
0.000000
  70
    32
  0
VERTEX
  8
APL_JOINERY
  5
75B4
 10
122.310
 20
340.492
 30
0.000000
  70
    32
  0
VERTEX
  8
APL_JOINERY
  5
75B5
 10
122.395
 20
340.508
 30
0.000000
  70
    32
  0
VERTEX
  8
APL_JOINERY
  5
75B6
 10
122.480
 20
340.523
 30
0.000000
  70
    32
  0
VERTEX
  8
APL_JOINERY
  5
75B7
 10
122.566
 20
340.538
 30
0.000000
  70
    32
  0
VERTEX
  8
APL_JOINERY
  5
75B8
 10
122.651
 20
340.552
 30
0.000000
  70
    32
  0
VERTEX
  8
APL_JOINERY
  5
75B9
 10
122.737
 20
340.566
 30
0.000000
  70
    32
  0
VERTEX
  8
APL_JOINERY
  5
75BA
 10
122.823
 20
340.580
 30
0.000000
  70
    32
  0
VERTEX
  8
APL_JOINERY
  5
75BB
 10
122.909
 20
340.594
 30
0.000000
  70
    32
  0
VERTEX
  8
APL_JOINERY
  5
75BC
 10
122.995
 20
340.607
 30
0.000000
  70
    32
  0
VERTEX
  8
APL_JOINERY
  5
75BD
 10
123.081
 20
340.620
 30
0.000000
  70
    32
  0
VERTEX
  8
APL_JOINERY
  5
75BE
 10
123.168
 20
340.633
 30
0.000000
  70
    32
  0
VERTEX
  8
APL_JOINERY
  5
75BF
 10
123.254
 20
340.645
 30
0.000000
  70
    32
  0
VERTEX
  8
APL_JOINERY
  5
75C0
 10
123.340
 20
340.658
 30
0.000000
  70
    32
  0
VERTEX
  8
APL_JOINERY
  5
75C1
 10
123.427
 20
340.670
 30
0.000000
  70
    32
  0
VERTEX
  8
APL_JOINERY
  5
75C2
 10
123.514
 20
340.682
 30
0.000000
  70
    32
  0
VERTEX
  8
APL_JOINERY
  5
75C3
 10
123.600
 20
340.693
 30
0.000000
  70
    32
  0
VERTEX
  8
APL_JOINERY
  5
75C4
 10
123.687
 20
340.705
 30
0.000000
  70
    32
  0
VERTEX
  8
APL_JOINERY
  5
75C5
 10
123.774
 20
340.716
 30
0.000000
  70
    32
  0
VERTEX
  8
APL_JOINERY
  5
75C6
 10
123.861
 20
340.728
 30
0.000000
  70
    32
  0
VERTEX
  8
APL_JOINERY
  5
75C7
 10
123.948
 20
340.739
 30
0.000000
  70
    32
  0
VERTEX
  8
APL_JOINERY
  5
75C8
 10
124.035
 20
340.750
 30
0.000000
  70
    32
  0
VERTEX
  8
APL_JOINERY
  5
75C9
 10
124.122
 20
340.761
 30
0.000000
  70
    32
  0
VERTEX
  8
APL_JOINERY
  5
75CA
 10
124.209
 20
340.772
 30
0.000000
  70
    32
  0
VERTEX
  8
APL_JOINERY
  5
75CB
 10
124.296
 20
340.783
 30
0.000000
  70
    32
  0
VERTEX
  8
APL_JOINERY
  5
75CC
 10
124.383
 20
340.793
 30
0.000000
  70
    32
  0
VERTEX
  8
APL_JOINERY
  5
75CD
 10
124.470
 20
340.804
 30
0.000000
  70
    32
  0
VERTEX
  8
APL_JOINERY
  5
75CE
 10
124.557
 20
340.815
 30
0.000000
  70
    32
  0
VERTEX
  8
APL_JOINERY
  5
75CF
 10
124.644
 20
340.825
 30
0.000000
  70
    32
  0
VERTEX
  8
APL_JOINERY
  5
75D0
 10
124.731
 20
340.836
 30
0.000000
  70
    32
  0
VERTEX
  8
APL_JOINERY
  5
75D1
 10
124.818
 20
340.847
 30
0.000000
  70
    32
  0
VERTEX
  8
APL_JOINERY
  5
75D2
 10
124.905
 20
340.858
 30
0.000000
  70
    32
  0
VERTEX
  8
APL_JOINERY
  5
75D3
 10
124.992
 20
340.868
 30
0.000000
  70
    32
  0
VERTEX
  8
APL_JOINERY
  5
75D4
 10
125.079
 20
340.879
 30
0.000000
  70
    32
  0
VERTEX
  8
APL_JOINERY
  5
75D5
 10
125.166
 20
340.890
 30
0.000000
  70
    32
  0
VERTEX
  8
APL_JOINERY
  5
75D6
 10
125.252
 20
340.901
 30
0.000000
  70
    32
  0
VERTEX
  8
APL_JOINERY
  5
75D7
 10
125.339
 20
340.912
 30
0.000000
  70
    32
  0
VERTEX
  8
APL_JOINERY
  5
75D8
 10
125.426
 20
340.924
 30
0.000000
  70
    32
  0
VERTEX
  8
APL_JOINERY
  5
75D9
 10
125.512
 20
340.935
 30
0.000000
  70
    32
  0
VERTEX
  8
APL_JOINERY
  5
75DA
 10
125.599
 20
340.947
 30
0.000000
  70
    32
  0
VERTEX
  8
APL_JOINERY
  5
75DB
 10
125.685
 20
340.958
 30
0.000000
  70
    32
  0
VERTEX
  8
APL_JOINERY
  5
75DC
 10
125.772
 20
340.970
 30
0.000000
  70
    32
  0
VERTEX
  8
APL_JOINERY
  5
75DD
 10
125.858
 20
340.982
 30
0.000000
  70
    32
  0
VERTEX
  8
APL_JOINERY
  5
75DE
 10
125.944
 20
340.994
 30
0.000000
  70
    32
  0
VERTEX
  8
APL_JOINERY
  5
75DF
 10
126.031
 20
341.006
 30
0.000000
  70
    32
  0
VERTEX
  8
APL_JOINERY
  5
75E0
 10
126.117
 20
341.018
 30
0.000000
  70
    32
  0
VERTEX
  8
APL_JOINERY
  5
75E1
 10
126.203
 20
341.030
 30
0.000000
  70
    32
  0
VERTEX
  8
APL_JOINERY
  5
75E2
 10
126.289
 20
341.043
 30
0.000000
  70
    32
  0
VERTEX
  8
APL_JOINERY
  5
75E3
 10
126.375
 20
341.055
 30
0.000000
  70
    32
  0
VERTEX
  8
APL_JOINERY
  5
75E4
 10
126.461
 20
341.067
 30
0.000000
  70
    32
  0
VERTEX
  8
APL_JOINERY
  5
75E5
 10
126.547
 20
341.080
 30
0.000000
  70
    32
  0
VERTEX
  8
APL_JOINERY
  5
75E6
 10
126.633
 20
341.092
 30
0.000000
  70
    32
  0
VERTEX
  8
APL_JOINERY
  5
75E7
 10
126.718
 20
341.105
 30
0.000000
  70
    32
  0
VERTEX
  8
APL_JOINERY
  5
75E8
 10
126.804
 20
341.117
 30
0.000000
  70
    32
  0
VERTEX
  8
APL_JOINERY
  5
75E9
 10
126.890
 20
341.130
 30
0.000000
  70
    32
  0
VERTEX
  8
APL_JOINERY
  5
75EA
 10
126.975
 20
341.142
 30
0.000000
  70
    32
  0
VERTEX
  8
APL_JOINERY
  5
75EB
 10
127.061
 20
341.155
 30
0.000000
  70
    32
  0
VERTEX
  8
APL_JOINERY
  5
75EC
 10
127.147
 20
341.167
 30
0.000000
  70
    32
  0
VERTEX
  8
APL_JOINERY
  5
75ED
 10
127.232
 20
341.180
 30
0.000000
  70
    32
  0
VERTEX
  8
APL_JOINERY
  5
75EE
 10
127.318
 20
341.192
 30
0.000000
  70
    32
  0
VERTEX
  8
APL_JOINERY
  5
75EF
 10
127.403
 20
341.204
 30
0.000000
  70
    32
  0
VERTEX
  8
APL_JOINERY
  5
75F0
 10
127.489
 20
341.217
 30
0.000000
  70
    32
  0
VERTEX
  8
APL_JOINERY
  5
75F1
 10
127.574
 20
341.229
 30
0.000000
  70
    32
  0
VERTEX
  8
APL_JOINERY
  5
75F2
 10
127.659
 20
341.241
 30
0.000000
  70
    32
  0
VERTEX
  8
APL_JOINERY
  5
75F3
 10
127.745
 20
341.253
 30
0.000000
  70
    32
  0
VERTEX
  8
APL_JOINERY
  5
75F4
 10
127.830
 20
341.265
 30
0.000000
  70
    32
  0
VERTEX
  8
APL_JOINERY
  5
75F5
 10
127.916
 20
341.277
 30
0.000000
  70
    32
  0
VERTEX
  8
APL_JOINERY
  5
75F6
 10
128.001
 20
341.289
 30
0.000000
  70
    32
  0
VERTEX
  8
APL_JOINERY
  5
75F7
 10
128.086
 20
341.300
 30
0.000000
  70
    32
  0
VERTEX
  8
APL_JOINERY
  5
75F8
 10
128.171
 20
341.312
 30
0.000000
  70
    32
  0
VERTEX
  8
APL_JOINERY
  5
75F9
 10
128.257
 20
341.323
 30
0.000000
  70
    32
  0
VERTEX
  8
APL_JOINERY
  5
75FA
 10
128.342
 20
341.334
 30
0.000000
  70
    32
  0
VERTEX
  8
APL_JOINERY
  5
75FB
 10
128.427
 20
341.345
 30
0.000000
  70
    32
  0
VERTEX
  8
APL_JOINERY
  5
75FC
 10
128.512
 20
341.356
 30
0.000000
  70
    32
  0
VERTEX
  8
APL_JOINERY
  5
75FD
 10
128.598
 20
341.367
 30
0.000000
  70
    32
  0
VERTEX
  8
APL_JOINERY
  5
75FE
 10
128.683
 20
341.377
 30
0.000000
  70
    32
  0
VERTEX
  8
APL_JOINERY
  5
75FF
 10
128.768
 20
341.388
 30
0.000000
  70
    32
  0
VERTEX
  8
APL_JOINERY
  5
7600
 10
128.853
 20
341.398
 30
0.000000
  70
    32
  0
VERTEX
  8
APL_JOINERY
  5
7601
 10
128.938
 20
341.408
 30
0.000000
  70
    32
  0
VERTEX
  8
APL_JOINERY
  5
7602
 10
129.024
 20
341.417
 30
0.000000
  70
    32
  0
VERTEX
  8
APL_JOINERY
  5
7603
 10
129.109
 20
341.427
 30
0.000000
  70
    32
  0
VERTEX
  8
APL_JOINERY
  5
7604
 10
129.194
 20
341.436
 30
0.000000
  70
    32
  0
VERTEX
  8
APL_JOINERY
  5
7605
 10
129.279
 20
341.445
 30
0.000000
  70
    32
  0
VERTEX
  8
APL_JOINERY
  5
7606
 10
129.365
 20
341.453
 30
0.000000
  70
    32
  0
VERTEX
  8
APL_JOINERY
  5
7607
 10
129.450
 20
341.462
 30
0.000000
  70
    32
  0
VERTEX
  8
APL_JOINERY
  5
7608
 10
129.535
 20
341.470
 30
0.000000
  70
    32
  0
VERTEX
  8
APL_JOINERY
  5
7609
 10
129.621
 20
341.478
 30
0.000000
  70
    32
  0
VERTEX
  8
APL_JOINERY
  5
760A
 10
129.706
 20
341.485
 30
0.000000
  70
    32
  0
VERTEX
  8
APL_JOINERY
  5
760B
 10
129.791
 20
341.493
 30
0.000000
  70
    32
  0
VERTEX
  8
APL_JOINERY
  5
760C
 10
129.877
 20
341.500
 30
0.000000
  70
    32
  0
VERTEX
  8
APL_JOINERY
  5
760D
 10
129.962
 20
341.506
 30
0.000000
  70
    32
  0
VERTEX
  8
APL_JOINERY
  5
760E
 10
130.048
 20
341.513
 30
0.000000
  70
    32
  0
VERTEX
  8
APL_JOINERY
  5
760F
 10
130.133
 20
341.519
 30
0.000000
  70
    32
  0
VERTEX
  8
APL_JOINERY
  5
7610
 10
130.218
 20
341.524
 30
0.000000
  70
    32
  0
VERTEX
  8
APL_JOINERY
  5
7611
 10
130.304
 20
341.529
 30
0.000000
  70
    32
  0
VERTEX
  8
APL_JOINERY
  5
7612
 10
130.390
 20
341.534
 30
0.000000
  70
    32
  0
VERTEX
  8
APL_JOINERY
  5
7613
 10
130.475
 20
341.539
 30
0.000000
  70
    32
  0
VERTEX
  8
APL_JOINERY
  5
7614
 10
130.561
 20
341.543
 30
0.000000
  70
    32
  0
VERTEX
  8
APL_JOINERY
  5
7615
 10
130.646
 20
341.547
 30
0.000000
  70
    32
  0
VERTEX
  8
APL_JOINERY
  5
7616
 10
130.732
 20
341.550
 30
0.000000
  70
    32
  0
VERTEX
  8
APL_JOINERY
  5
7617
 10
130.818
 20
341.553
 30
0.000000
  70
    32
  0
VERTEX
  8
APL_JOINERY
  5
7618
 10
130.904
 20
341.556
 30
0.000000
  70
    32
  0
VERTEX
  8
APL_JOINERY
  5
7619
 10
130.990
 20
341.558
 30
0.000000
  70
    32
  0
VERTEX
  8
APL_JOINERY
  5
761A
 10
131.075
 20
341.559
 30
0.000000
  70
    32
  0
VERTEX
  8
APL_JOINERY
  5
761B
 10
131.161
 20
341.561
 30
0.000000
  70
    32
  0
VERTEX
  8
APL_JOINERY
  5
761C
 10
131.247
 20
341.561
 30
0.000000
  70
    32
  0
VERTEX
  8
APL_JOINERY
  5
761D
 10
131.333
 20
341.562
 30
0.000000
  70
    32
  0
VERTEX
  8
APL_JOINERY
  5
761E
 10
131.419
 20
341.562
 30
0.000000
  70
    32
  0
VERTEX
  8
APL_JOINERY
  5
761F
 10
131.506
 20
341.561
 30
0.000000
  70
    32
  0
VERTEX
  8
APL_JOINERY
  5
7620
 10
131.592
 20
341.560
 30
0.000000
  70
    32
  0
VERTEX
  8
APL_JOINERY
  5
7621
 10
131.678
 20
341.559
 30
0.000000
  70
    32
  0
VERTEX
  8
APL_JOINERY
  5
7622
 10
131.764
 20
341.557
 30
0.000000
  70
    32
  0
VERTEX
  8
APL_JOINERY
  5
7623
 10
131.850
 20
341.555
 30
0.000000
  70
    32
  0
VERTEX
  8
APL_JOINERY
  5
7624
 10
131.936
 20
341.553
 30
0.000000
  70
    32
  0
VERTEX
  8
APL_JOINERY
  5
7625
 10
132.023
 20
341.550
 30
0.000000
  70
    32
  0
VERTEX
  8
APL_JOINERY
  5
7626
 10
132.109
 20
341.546
 30
0.000000
  70
    32
  0
VERTEX
  8
APL_JOINERY
  5
7627
 10
132.195
 20
341.542
 30
0.000000
  70
    32
  0
VERTEX
  8
APL_JOINERY
  5
7628
 10
132.281
 20
341.538
 30
0.000000
  70
    32
  0
VERTEX
  8
APL_JOINERY
  5
7629
 10
132.367
 20
341.533
 30
0.000000
  70
    32
  0
VERTEX
  8
APL_JOINERY
  5
762A
 10
132.454
 20
341.528
 30
0.000000
  70
    32
  0
VERTEX
  8
APL_JOINERY
  5
762B
 10
132.540
 20
341.523
 30
0.000000
  70
    32
  0
VERTEX
  8
APL_JOINERY
  5
762C
 10
132.626
 20
341.517
 30
0.000000
  70
    32
  0
VERTEX
  8
APL_JOINERY
  5
762D
 10
132.712
 20
341.511
 30
0.000000
  70
    32
  0
VERTEX
  8
APL_JOINERY
  5
762E
 10
132.798
 20
341.504
 30
0.000000
  70
    32
  0
VERTEX
  8
APL_JOINERY
  5
762F
 10
132.884
 20
341.497
 30
0.000000
  70
    32
  0
VERTEX
  8
APL_JOINERY
  5
7630
 10
132.970
 20
341.490
 30
0.000000
  70
    32
  0
VERTEX
  8
APL_JOINERY
  5
7631
 10
133.056
 20
341.482
 30
0.000000
  70
    32
  0
VERTEX
  8
APL_JOINERY
  5
7632
 10
133.142
 20
341.473
 30
0.000000
  70
    32
  0
VERTEX
  8
APL_JOINERY
  5
7633
 10
133.228
 20
341.465
 30
0.000000
  70
    32
  0
VERTEX
  8
APL_JOINERY
  5
7634
 10
133.314
 20
341.456
 30
0.000000
  70
    32
  0
VERTEX
  8
APL_JOINERY
  5
7635
 10
133.400
 20
341.446
 30
0.000000
  70
    32
  0
VERTEX
  8
APL_JOINERY
  5
7636
 10
133.486
 20
341.436
 30
0.000000
  70
    32
  0
VERTEX
  8
APL_JOINERY
  5
7637
 10
133.572
 20
341.426
 30
0.000000
  70
    32
  0
VERTEX
  8
APL_JOINERY
  5
7638
 10
133.658
 20
341.415
 30
0.000000
  70
    32
  0
VERTEX
  8
APL_JOINERY
  5
7639
 10
133.743
 20
341.404
 30
0.000000
  70
    32
  0
VERTEX
  8
APL_JOINERY
  5
763A
 10
133.829
 20
341.393
 30
0.000000
  70
    32
  0
VERTEX
  8
APL_JOINERY
  5
763B
 10
133.914
 20
341.381
 30
0.000000
  70
    32
  0
VERTEX
  8
APL_JOINERY
  5
763C
 10
134.000
 20
341.369
 30
0.000000
  70
    32
  0
VERTEX
  8
APL_JOINERY
  5
763D
 10
134.085
 20
341.356
 30
0.000000
  70
    32
  0
VERTEX
  8
APL_JOINERY
  5
763E
 10
134.171
 20
341.343
 30
0.000000
  70
    32
  0
VERTEX
  8
APL_JOINERY
  5
763F
 10
134.256
 20
341.330
 30
0.000000
  70
    32
  0
VERTEX
  8
APL_JOINERY
  5
7640
 10
134.341
 20
341.316
 30
0.000000
  70
    32
  0
VERTEX
  8
APL_JOINERY
  5
7641
 10
134.426
 20
341.302
 30
0.000000
  70
    32
  0
VERTEX
  8
APL_JOINERY
  5
7642
 10
134.511
 20
341.288
 30
0.000000
  70
    32
  0
VERTEX
  8
APL_JOINERY
  5
7643
 10
134.596
 20
341.273
 30
0.000000
  70
    32
  0
VERTEX
  8
APL_JOINERY
  5
7644
 10
134.681
 20
341.258
 30
0.000000
  70
    32
  0
VERTEX
  8
APL_JOINERY
  5
7645
 10
134.766
 20
341.242
 30
0.000000
  70
    32
  0
VERTEX
  8
APL_JOINERY
  5
7646
 10
134.850
 20
341.227
 30
0.000000
  70
    32
  0
VERTEX
  8
APL_JOINERY
  5
7647
 10
134.935
 20
341.211
 30
0.000000
  70
    32
  0
VERTEX
  8
APL_JOINERY
  5
7648
 10
135.020
 20
341.195
 30
0.000000
  70
    32
  0
VERTEX
  8
APL_JOINERY
  5
7649
 10
135.104
 20
341.179
 30
0.000000
  70
    32
  0
VERTEX
  8
APL_JOINERY
  5
764A
 10
135.189
 20
341.162
 30
0.000000
  70
    32
  0
VERTEX
  8
APL_JOINERY
  5
764B
 10
135.273
 20
341.146
 30
0.000000
  70
    32
  0
VERTEX
  8
APL_JOINERY
  5
764C
 10
135.358
 20
341.129
 30
0.000000
  70
    32
  0
VERTEX
  8
APL_JOINERY
  5
764D
 10
135.442
 20
341.112
 30
0.000000
  70
    32
  0
VERTEX
  8
APL_JOINERY
  5
764E
 10
135.527
 20
341.096
 30
0.000000
  70
    32
  0
VERTEX
  8
APL_JOINERY
  5
764F
 10
135.611
 20
341.079
 30
0.000000
  70
    32
  0
VERTEX
  8
APL_JOINERY
  5
7650
 10
135.696
 20
341.062
 30
0.000000
  70
    32
  0
VERTEX
  8
APL_JOINERY
  5
7651
 10
135.780
 20
341.045
 30
0.000000
  70
    32
  0
VERTEX
  8
APL_JOINERY
  5
7652
 10
135.865
 20
341.029
 30
0.000000
  70
    32
  0
VERTEX
  8
APL_JOINERY
  5
7653
 10
135.949
 20
341.012
 30
0.000000
  70
    32
  0
VERTEX
  8
APL_JOINERY
  5
7654
 10
136.034
 20
340.996
 30
0.000000
  70
    32
  0
VERTEX
  8
APL_JOINERY
  5
7655
 10
136.118
 20
340.979
 30
0.000000
  70
    32
  0
VERTEX
  8
APL_JOINERY
  5
7656
 10
136.203
 20
340.963
 30
0.000000
  70
    32
  0
VERTEX
  8
APL_JOINERY
  5
7657
 10
136.287
 20
340.947
 30
0.000000
  70
    32
  0
VERTEX
  8
APL_JOINERY
  5
7658
 10
136.372
 20
340.932
 30
0.000000
  70
    32
  0
VERTEX
  8
APL_JOINERY
  5
7659
 10
136.457
 20
340.916
 30
0.000000
  70
    32
  0
VERTEX
  8
APL_JOINERY
  5
765A
 10
136.542
 20
340.901
 30
0.000000
  70
    32
  0
VERTEX
  8
APL_JOINERY
  5
765B
 10
136.627
 20
340.886
 30
0.000000
  70
    32
  0
VERTEX
  8
APL_JOINERY
  5
765C
 10
136.711
 20
340.871
 30
0.000000
  70
    32
  0
VERTEX
  8
APL_JOINERY
  5
765D
 10
136.797
 20
340.857
 30
0.000000
  70
    32
  0
VERTEX
  8
APL_JOINERY
  5
765E
 10
136.882
 20
340.843
 30
0.000000
  70
    32
  0
VERTEX
  8
APL_JOINERY
  5
765F
 10
136.967
 20
340.830
 30
0.000000
  70
    32
  0
VERTEX
  8
APL_JOINERY
  5
7660
 10
137.052
 20
340.817
 30
0.000000
  70
    32
  0
VERTEX
  8
APL_JOINERY
  5
7661
 10
137.138
 20
340.805
 30
0.000000
  70
    32
  0
VERTEX
  8
APL_JOINERY
  5
7662
 10
137.223
 20
340.793
 30
0.000000
  70
    32
  0
VERTEX
  8
APL_JOINERY
  5
7663
 10
137.309
 20
340.781
 30
0.000000
  70
    32
  0
VERTEX
  8
APL_JOINERY
  5
7664
 10
137.394
 20
340.770
 30
0.000000
  70
    32
  0
VERTEX
  8
APL_JOINERY
  5
7665
 10
137.480
 20
340.759
 30
0.000000
  70
    32
  0
VERTEX
  8
APL_JOINERY
  5
7666
 10
137.566
 20
340.748
 30
0.000000
  70
    32
  0
VERTEX
  8
APL_JOINERY
  5
7667
 10
137.652
 20
340.738
 30
0.000000
  70
    32
  0
VERTEX
  8
APL_JOINERY
  5
7668
 10
137.738
 20
340.728
 30
0.000000
  70
    32
  0
VERTEX
  8
APL_JOINERY
  5
7669
 10
137.824
 20
340.718
 30
0.000000
  70
    32
  0
VERTEX
  8
APL_JOINERY
  5
766A
 10
137.910
 20
340.708
 30
0.000000
  70
    32
  0
VERTEX
  8
APL_JOINERY
  5
766B
 10
137.996
 20
340.698
 30
0.000000
  70
    32
  0
VERTEX
  8
APL_JOINERY
  5
766C
 10
138.082
 20
340.688
 30
0.000000
  70
    32
  0
VERTEX
  8
APL_JOINERY
  5
766D
 10
138.168
 20
340.678
 30
0.000000
  70
    32
  0
VERTEX
  8
APL_JOINERY
  5
766E
 10
138.254
 20
340.668
 30
0.000000
  70
    32
  0
VERTEX
  8
APL_JOINERY
  5
766F
 10
138.340
 20
340.658
 30
0.000000
  70
    32
  0
VERTEX
  8
APL_JOINERY
  5
7670
 10
138.426
 20
340.647
 30
0.000000
  70
    32
  0
VERTEX
  8
APL_JOINERY
  5
7671
 10
138.512
 20
340.637
 30
0.000000
  70
    32
  0
VERTEX
  8
APL_JOINERY
  5
7672
 10
138.597
 20
340.626
 30
0.000000
  70
    32
  0
VERTEX
  8
APL_JOINERY
  5
7673
 10
138.683
 20
340.615
 30
0.000000
  70
    32
  0
VERTEX
  8
APL_JOINERY
  5
7674
 10
138.769
 20
340.603
 30
0.000000
  70
    32
  0
VERTEX
  8
APL_JOINERY
  5
7675
 10
138.854
 20
340.591
 30
0.000000
  70
    32
  0
VERTEX
  8
APL_JOINERY
  5
7676
 10
138.940
 20
340.579
 30
0.000000
  70
    32
  0
VERTEX
  8
APL_JOINERY
  5
7677
 10
139.025
 20
340.566
 30
0.000000
  70
    32
  0
VERTEX
  8
APL_JOINERY
  5
7678
 10
139.110
 20
340.552
 30
0.000000
  70
    32
  0
VERTEX
  8
APL_JOINERY
  5
7679
 10
139.195
 20
340.538
 30
0.000000
  70
    32
  0
VERTEX
  8
APL_JOINERY
  5
767A
 10
139.280
 20
340.524
 30
0.000000
  70
    32
  0
VERTEX
  8
APL_JOINERY
  5
767B
 10
139.365
 20
340.508
 30
0.000000
  70
    32
  0
VERTEX
  8
APL_JOINERY
  5
767C
 10
139.449
 20
340.492
 30
0.000000
  70
    32
  0
VERTEX
  8
APL_JOINERY
  5
767D
 10
139.534
 20
340.475
 30
0.000000
  70
    32
  0
VERTEX
  8
APL_JOINERY
  5
767E
 10
139.618
 20
340.458
 30
0.000000
  70
    32
  0
VERTEX
  8
APL_JOINERY
  5
767F
 10
139.702
 20
340.439
 30
0.000000
  70
    32
  0
VERTEX
  8
APL_JOINERY
  5
7680
 10
139.786
 20
340.420
 30
0.000000
  70
    32
  0
VERTEX
  8
APL_JOINERY
  5
7681
 10
139.869
 20
340.399
 30
0.000000
  70
    32
  0
VERTEX
  8
APL_JOINERY
  5
7682
 10
139.953
 20
340.378
 30
0.000000
  70
    32
  0
VERTEX
  8
APL_JOINERY
  5
7683
 10
140.036
 20
340.355
 30
0.000000
  70
    32
  0
VERTEX
  8
APL_JOINERY
  5
7684
 10
140.118
 20
340.332
 30
0.000000
  70
    32
  0
VERTEX
  8
APL_JOINERY
  5
7685
 10
140.201
 20
340.307
 30
0.000000
  70
    32
  0
VERTEX
  8
APL_JOINERY
  5
7686
 10
140.283
 20
340.281
 30
0.000000
  70
    32
  0
VERTEX
  8
APL_JOINERY
  5
7687
 10
140.365
 20
340.254
 30
0.000000
  70
    32
  0
VERTEX
  8
APL_JOINERY
  5
7688
 10
140.447
 20
340.226
 30
0.000000
  70
    32
  0
VERTEX
  8
APL_JOINERY
  5
7689
 10
140.528
 20
340.196
 30
0.000000
  70
    32
  0
VERTEX
  8
APL_JOINERY
  5
768A
 10
140.609
 20
340.165
 30
0.000000
  70
    32
  0
VERTEX
  8
APL_JOINERY
  5
768B
 10
140.690
 20
340.132
 30
0.000000
  70
    32
  0
VERTEX
  8
APL_JOINERY
  5
768C
 10
140.770
 20
340.099
 30
0.000000
  70
    32
  0
VERTEX
  8
APL_JOINERY
  5
768D
 10
140.850
 20
340.064
 30
0.000000
  70
    32
  0
VERTEX
  8
APL_JOINERY
  5
768E
 10
140.929
 20
340.028
 30
0.000000
  70
    32
  0
VERTEX
  8
APL_JOINERY
  5
768F
 10
141.008
 20
339.990
 30
0.000000
  70
    32
  0
VERTEX
  8
APL_JOINERY
  5
7690
 10
141.086
 20
339.951
 30
0.000000
  70
    32
  0
VERTEX
  8
APL_JOINERY
  5
7691
 10
141.164
 20
339.911
 30
0.000000
  70
    32
  0
VERTEX
  8
APL_JOINERY
  5
7692
 10
141.241
 20
339.870
 30
0.000000
  70
    32
  0
VERTEX
  8
APL_JOINERY
  5
7693
 10
141.317
 20
339.827
 30
0.000000
  70
    32
  0
VERTEX
  8
APL_JOINERY
  5
7694
 10
141.392
 20
339.784
 30
0.000000
  70
    32
  0
VERTEX
  8
APL_JOINERY
  5
7695
 10
141.467
 20
339.739
 30
0.000000
  70
    32
  0
VERTEX
  8
APL_JOINERY
  5
7696
 10
141.541
 20
339.692
 30
0.000000
  70
    32
  0
VERTEX
  8
APL_JOINERY
  5
7697
 10
141.614
 20
339.645
 30
0.000000
  70
    32
  0
VERTEX
  8
APL_JOINERY
  5
7698
 10
141.686
 20
339.596
 30
0.000000
  70
    32
  0
VERTEX
  8
APL_JOINERY
  5
7699
 10
141.758
 20
339.546
 30
0.000000
  70
    32
  0
VERTEX
  8
APL_JOINERY
  5
769A
 10
141.828
 20
339.495
 30
0.000000
  70
    32
  0
VERTEX
  8
APL_JOINERY
  5
769B
 10
141.897
 20
339.443
 30
0.000000
  70
    32
  0
VERTEX
  8
APL_JOINERY
  5
769C
 10
141.966
 20
339.390
 30
0.000000
  70
    32
  0
VERTEX
  8
APL_JOINERY
  5
769D
 10
142.033
 20
339.335
 30
0.000000
  70
    32
  0
VERTEX
  8
APL_JOINERY
  5
769E
 10
142.099
 20
339.280
 30
0.000000
  70
    32
  0
VERTEX
  8
APL_JOINERY
  5
769F
 10
142.164
 20
339.223
 30
0.000000
  70
    32
  0
VERTEX
  8
APL_JOINERY
  5
76A0
 10
142.228
 20
339.165
 30
0.000000
  70
    32
  0
VERTEX
  8
APL_JOINERY
  5
76A1
 10
142.291
 20
339.106
 30
0.000000
  70
    32
  0
VERTEX
  8
APL_JOINERY
  5
76A2
 10
142.352
 20
339.045
 30
0.000000
  70
    32
  0
VERTEX
  8
APL_JOINERY
  5
76A3
 10
142.412
 20
338.984
 30
0.000000
  70
    32
  0
VERTEX
  8
APL_JOINERY
  5
76A4
 10
142.471
 20
338.921
 30
0.000000
  70
    32
  0
VERTEX
  8
APL_JOINERY
  5
76A5
 10
142.528
 20
338.858
 30
0.000000
  70
    32
  0
VERTEX
  8
APL_JOINERY
  5
76A6
 10
142.585
 20
338.793
 30
0.000000
  70
    32
  0
VERTEX
  8
APL_JOINERY
  5
76A7
 10
142.640
 20
338.728
 30
0.000000
  70
    32
  0
VERTEX
  8
APL_JOINERY
  5
76A8
 10
142.694
 20
338.661
 30
0.000000
  70
    32
  0
VERTEX
  8
APL_JOINERY
  5
76A9
 10
142.747
 20
338.594
 30
0.000000
  70
    32
  0
VERTEX
  8
APL_JOINERY
  5
76AA
 10
142.799
 20
338.526
 30
0.000000
  70
    32
  0
VERTEX
  8
APL_JOINERY
  5
76AB
 10
142.851
 20
338.457
 30
0.000000
  70
    32
  0
VERTEX
  8
APL_JOINERY
  5
76AC
 10
142.901
 20
338.387
 30
0.000000
  70
    32
  0
VERTEX
  8
APL_JOINERY
  5
76AD
 10
142.950
 20
338.317
 30
0.000000
  70
    32
  0
VERTEX
  8
APL_JOINERY
  5
76AE
 10
142.999
 20
338.246
 30
0.000000
  70
    32
  0
VERTEX
  8
APL_JOINERY
  5
76AF
 10
143.047
 20
338.174
 30
0.000000
  70
    32
  0
VERTEX
  8
APL_JOINERY
  5
76B0
 10
143.094
 20
338.102
 30
0.000000
  70
    32
  0
VERTEX
  8
APL_JOINERY
  5
76B1
 10
143.141
 20
338.029
 30
0.000000
  70
    32
  0
VERTEX
  8
APL_JOINERY
  5
76B2
 10
143.187
 20
337.956
 30
0.000000
  70
    32
  0
VERTEX
  8
APL_JOINERY
  5
76B3
 10
143.232
 20
337.882
 30
0.000000
  70
    32
  0
VERTEX
  8
APL_JOINERY
  5
76B4
 10
143.277
 20
337.808
 30
0.000000
  70
    32
  0
VERTEX
  8
APL_JOINERY
  5
76B5
 10
143.322
 20
337.733
 30
0.000000
  70
    32
  0
VERTEX
  8
APL_JOINERY
  5
76B6
 10
143.366
 20
337.658
 30
0.000000
  70
    32
  0
VERTEX
  8
APL_JOINERY
  5
76B7
 10
143.409
 20
337.583
 30
0.000000
  70
    32
  0
VERTEX
  8
APL_JOINERY
  5
76B8
 10
143.453
 20
337.508
 30
0.000000
  70
    32
  0
VERTEX
  8
APL_JOINERY
  5
76B9
 10
143.496
 20
337.432
 30
0.000000
  70
    32
  0
VERTEX
  8
APL_JOINERY
  5
76BA
 10
143.539
 20
337.356
 30
0.000000
  70
    32
  0
VERTEX
  8
APL_JOINERY
  5
76BB
 10
143.582
 20
337.280
 30
0.000000
  70
    32
  0
VERTEX
  8
APL_JOINERY
  5
76BC
 10
143.625
 20
337.204
 30
0.000000
  70
    32
  0
VERTEX
  8
APL_JOINERY
  5
76BD
 10
143.668
 20
337.128
 30
0.000000
  70
    32
  0
SEQEND
  8
APL_JOINERY
  5
76BE
  0
LINE
  5
4992
  8
APL_JOINERY
 62
     8
 10
122.8950179978421
 20
338.24116640550761
 30
0.0
 11
112.44540775874221
 21
345.19014632269102
 31
0.0
  0
LINE
  5
4993
  8
APL_JOINERY
 62
     3
 10
177.73995150786311
 20
336.76235108304849
 30
0.0
 11
170.73995150786311
 21
336.76235108304849
 31
0.0
  0
POLYLINE
  8
APL_JOINERY
  5
76BF
  62
8
  66
     1
 10
0.000000
 20
0.000000
 30
0.000000
  70
     8
  0
VERTEX
  8
APL_JOINERY
  5
76C0
 10
165.282
 20
355.218
 30
0.000000
  70
    32
  0
VERTEX
  8
APL_JOINERY
  5
76C1
 10
165.346
 20
355.197
 30
0.000000
  70
    32
  0
VERTEX
  8
APL_JOINERY
  5
76C2
 10
165.409
 20
355.175
 30
0.000000
  70
    32
  0
VERTEX
  8
APL_JOINERY
  5
76C3
 10
165.473
 20
355.154
 30
0.000000
  70
    32
  0
VERTEX
  8
APL_JOINERY
  5
76C4
 10
165.536
 20
355.132
 30
0.000000
  70
    32
  0
VERTEX
  8
APL_JOINERY
  5
76C5
 10
165.599
 20
355.111
 30
0.000000
  70
    32
  0
VERTEX
  8
APL_JOINERY
  5
76C6
 10
165.663
 20
355.089
 30
0.000000
  70
    32
  0
VERTEX
  8
APL_JOINERY
  5
76C7
 10
165.726
 20
355.068
 30
0.000000
  70
    32
  0
VERTEX
  8
APL_JOINERY
  5
76C8
 10
165.790
 20
355.046
 30
0.000000
  70
    32
  0
VERTEX
  8
APL_JOINERY
  5
76C9
 10
165.853
 20
355.025
 30
0.000000
  70
    32
  0
VERTEX
  8
APL_JOINERY
  5
76CA
 10
165.916
 20
355.003
 30
0.000000
  70
    32
  0
VERTEX
  8
APL_JOINERY
  5
76CB
 10
165.980
 20
354.981
 30
0.000000
  70
    32
  0
VERTEX
  8
APL_JOINERY
  5
76CC
 10
166.043
 20
354.960
 30
0.000000
  70
    32
  0
VERTEX
  8
APL_JOINERY
  5
76CD
 10
166.107
 20
354.938
 30
0.000000
  70
    32
  0
VERTEX
  8
APL_JOINERY
  5
76CE
 10
166.170
 20
354.916
 30
0.000000
  70
    32
  0
VERTEX
  8
APL_JOINERY
  5
76CF
 10
166.233
 20
354.894
 30
0.000000
  70
    32
  0
VERTEX
  8
APL_JOINERY
  5
76D0
 10
166.296
 20
354.872
 30
0.000000
  70
    32
  0
VERTEX
  8
APL_JOINERY
  5
76D1
 10
166.360
 20
354.850
 30
0.000000
  70
    32
  0
VERTEX
  8
APL_JOINERY
  5
76D2
 10
166.423
 20
354.828
 30
0.000000
  70
    32
  0
VERTEX
  8
APL_JOINERY
  5
76D3
 10
166.486
 20
354.806
 30
0.000000
  70
    32
  0
VERTEX
  8
APL_JOINERY
  5
76D4
 10
166.549
 20
354.784
 30
0.000000
  70
    32
  0
VERTEX
  8
APL_JOINERY
  5
76D5
 10
166.612
 20
354.761
 30
0.000000
  70
    32
  0
VERTEX
  8
APL_JOINERY
  5
76D6
 10
166.675
 20
354.739
 30
0.000000
  70
    32
  0
VERTEX
  8
APL_JOINERY
  5
76D7
 10
166.738
 20
354.717
 30
0.000000
  70
    32
  0
VERTEX
  8
APL_JOINERY
  5
76D8
 10
166.801
 20
354.694
 30
0.000000
  70
    32
  0
VERTEX
  8
APL_JOINERY
  5
76D9
 10
166.864
 20
354.671
 30
0.000000
  70
    32
  0
VERTEX
  8
APL_JOINERY
  5
76DA
 10
166.927
 20
354.649
 30
0.000000
  70
    32
  0
VERTEX
  8
APL_JOINERY
  5
76DB
 10
166.990
 20
354.626
 30
0.000000
  70
    32
  0
VERTEX
  8
APL_JOINERY
  5
76DC
 10
167.053
 20
354.603
 30
0.000000
  70
    32
  0
VERTEX
  8
APL_JOINERY
  5
76DD
 10
167.116
 20
354.580
 30
0.000000
  70
    32
  0
VERTEX
  8
APL_JOINERY
  5
76DE
 10
167.178
 20
354.557
 30
0.000000
  70
    32
  0
VERTEX
  8
APL_JOINERY
  5
76DF
 10
167.241
 20
354.533
 30
0.000000
  70
    32
  0
VERTEX
  8
APL_JOINERY
  5
76E0
 10
167.304
 20
354.510
 30
0.000000
  70
    32
  0
VERTEX
  8
APL_JOINERY
  5
76E1
 10
167.366
 20
354.486
 30
0.000000
  70
    32
  0
VERTEX
  8
APL_JOINERY
  5
76E2
 10
167.429
 20
354.463
 30
0.000000
  70
    32
  0
VERTEX
  8
APL_JOINERY
  5
76E3
 10
167.491
 20
354.439
 30
0.000000
  70
    32
  0
VERTEX
  8
APL_JOINERY
  5
76E4
 10
167.554
 20
354.415
 30
0.000000
  70
    32
  0
VERTEX
  8
APL_JOINERY
  5
76E5
 10
167.616
 20
354.391
 30
0.000000
  70
    32
  0
VERTEX
  8
APL_JOINERY
  5
76E6
 10
167.678
 20
354.367
 30
0.000000
  70
    32
  0
VERTEX
  8
APL_JOINERY
  5
76E7
 10
167.740
 20
354.342
 30
0.000000
  70
    32
  0
VERTEX
  8
APL_JOINERY
  5
76E8
 10
167.803
 20
354.318
 30
0.000000
  70
    32
  0
VERTEX
  8
APL_JOINERY
  5
76E9
 10
167.865
 20
354.293
 30
0.000000
  70
    32
  0
VERTEX
  8
APL_JOINERY
  5
76EA
 10
167.927
 20
354.268
 30
0.000000
  70
    32
  0
VERTEX
  8
APL_JOINERY
  5
76EB
 10
167.988
 20
354.243
 30
0.000000
  70
    32
  0
VERTEX
  8
APL_JOINERY
  5
76EC
 10
168.050
 20
354.218
 30
0.000000
  70
    32
  0
VERTEX
  8
APL_JOINERY
  5
76ED
 10
168.112
 20
354.192
 30
0.000000
  70
    32
  0
VERTEX
  8
APL_JOINERY
  5
76EE
 10
168.174
 20
354.167
 30
0.000000
  70
    32
  0
VERTEX
  8
APL_JOINERY
  5
76EF
 10
168.235
 20
354.141
 30
0.000000
  70
    32
  0
VERTEX
  8
APL_JOINERY
  5
76F0
 10
168.297
 20
354.115
 30
0.000000
  70
    32
  0
VERTEX
  8
APL_JOINERY
  5
76F1
 10
168.358
 20
354.089
 30
0.000000
  70
    32
  0
VERTEX
  8
APL_JOINERY
  5
76F2
 10
168.420
 20
354.063
 30
0.000000
  70
    32
  0
VERTEX
  8
APL_JOINERY
  5
76F3
 10
168.481
 20
354.036
 30
0.000000
  70
    32
  0
VERTEX
  8
APL_JOINERY
  5
76F4
 10
168.542
 20
354.010
 30
0.000000
  70
    32
  0
VERTEX
  8
APL_JOINERY
  5
76F5
 10
168.603
 20
353.983
 30
0.000000
  70
    32
  0
VERTEX
  8
APL_JOINERY
  5
76F6
 10
168.664
 20
353.955
 30
0.000000
  70
    32
  0
VERTEX
  8
APL_JOINERY
  5
76F7
 10
168.725
 20
353.928
 30
0.000000
  70
    32
  0
VERTEX
  8
APL_JOINERY
  5
76F8
 10
168.786
 20
353.901
 30
0.000000
  70
    32
  0
VERTEX
  8
APL_JOINERY
  5
76F9
 10
168.847
 20
353.873
 30
0.000000
  70
    32
  0
VERTEX
  8
APL_JOINERY
  5
76FA
 10
168.908
 20
353.845
 30
0.000000
  70
    32
  0
VERTEX
  8
APL_JOINERY
  5
76FB
 10
168.968
 20
353.817
 30
0.000000
  70
    32
  0
VERTEX
  8
APL_JOINERY
  5
76FC
 10
169.029
 20
353.788
 30
0.000000
  70
    32
  0
VERTEX
  8
APL_JOINERY
  5
76FD
 10
169.089
 20
353.759
 30
0.000000
  70
    32
  0
VERTEX
  8
APL_JOINERY
  5
76FE
 10
169.149
 20
353.730
 30
0.000000
  70
    32
  0
VERTEX
  8
APL_JOINERY
  5
76FF
 10
169.209
 20
353.701
 30
0.000000
  70
    32
  0
VERTEX
  8
APL_JOINERY
  5
7700
 10
169.269
 20
353.672
 30
0.000000
  70
    32
  0
VERTEX
  8
APL_JOINERY
  5
7701
 10
169.329
 20
353.642
 30
0.000000
  70
    32
  0
VERTEX
  8
APL_JOINERY
  5
7702
 10
169.389
 20
353.612
 30
0.000000
  70
    32
  0
VERTEX
  8
APL_JOINERY
  5
7703
 10
169.449
 20
353.582
 30
0.000000
  70
    32
  0
VERTEX
  8
APL_JOINERY
  5
7704
 10
169.508
 20
353.551
 30
0.000000
  70
    32
  0
VERTEX
  8
APL_JOINERY
  5
7705
 10
169.568
 20
353.521
 30
0.000000
  70
    32
  0
VERTEX
  8
APL_JOINERY
  5
7706
 10
169.627
 20
353.490
 30
0.000000
  70
    32
  0
VERTEX
  8
APL_JOINERY
  5
7707
 10
169.686
 20
353.459
 30
0.000000
  70
    32
  0
VERTEX
  8
APL_JOINERY
  5
7708
 10
169.746
 20
353.427
 30
0.000000
  70
    32
  0
VERTEX
  8
APL_JOINERY
  5
7709
 10
169.805
 20
353.396
 30
0.000000
  70
    32
  0
VERTEX
  8
APL_JOINERY
  5
770A
 10
169.863
 20
353.364
 30
0.000000
  70
    32
  0
VERTEX
  8
APL_JOINERY
  5
770B
 10
169.922
 20
353.332
 30
0.000000
  70
    32
  0
VERTEX
  8
APL_JOINERY
  5
770C
 10
169.981
 20
353.300
 30
0.000000
  70
    32
  0
VERTEX
  8
APL_JOINERY
  5
770D
 10
170.039
 20
353.267
 30
0.000000
  70
    32
  0
VERTEX
  8
APL_JOINERY
  5
770E
 10
170.098
 20
353.234
 30
0.000000
  70
    32
  0
VERTEX
  8
APL_JOINERY
  5
770F
 10
170.156
 20
353.201
 30
0.000000
  70
    32
  0
VERTEX
  8
APL_JOINERY
  5
7710
 10
170.214
 20
353.168
 30
0.000000
  70
    32
  0
VERTEX
  8
APL_JOINERY
  5
7711
 10
170.272
 20
353.134
 30
0.000000
  70
    32
  0
VERTEX
  8
APL_JOINERY
  5
7712
 10
170.330
 20
353.101
 30
0.000000
  70
    32
  0
VERTEX
  8
APL_JOINERY
  5
7713
 10
170.388
 20
353.067
 30
0.000000
  70
    32
  0
VERTEX
  8
APL_JOINERY
  5
7714
 10
170.445
 20
353.033
 30
0.000000
  70
    32
  0
VERTEX
  8
APL_JOINERY
  5
7715
 10
170.503
 20
352.998
 30
0.000000
  70
    32
  0
VERTEX
  8
APL_JOINERY
  5
7716
 10
170.560
 20
352.963
 30
0.000000
  70
    32
  0
VERTEX
  8
APL_JOINERY
  5
7717
 10
170.617
 20
352.929
 30
0.000000
  70
    32
  0
VERTEX
  8
APL_JOINERY
  5
7718
 10
170.674
 20
352.893
 30
0.000000
  70
    32
  0
VERTEX
  8
APL_JOINERY
  5
7719
 10
170.731
 20
352.858
 30
0.000000
  70
    32
  0
VERTEX
  8
APL_JOINERY
  5
771A
 10
170.788
 20
352.822
 30
0.000000
  70
    32
  0
VERTEX
  8
APL_JOINERY
  5
771B
 10
170.844
 20
352.787
 30
0.000000
  70
    32
  0
VERTEX
  8
APL_JOINERY
  5
771C
 10
170.901
 20
352.750
 30
0.000000
  70
    32
  0
VERTEX
  8
APL_JOINERY
  5
771D
 10
170.957
 20
352.714
 30
0.000000
  70
    32
  0
VERTEX
  8
APL_JOINERY
  5
771E
 10
171.013
 20
352.678
 30
0.000000
  70
    32
  0
VERTEX
  8
APL_JOINERY
  5
771F
 10
171.069
 20
352.641
 30
0.000000
  70
    32
  0
VERTEX
  8
APL_JOINERY
  5
7720
 10
171.125
 20
352.604
 30
0.000000
  70
    32
  0
VERTEX
  8
APL_JOINERY
  5
7721
 10
171.181
 20
352.567
 30
0.000000
  70
    32
  0
VERTEX
  8
APL_JOINERY
  5
7722
 10
171.236
 20
352.529
 30
0.000000
  70
    32
  0
VERTEX
  8
APL_JOINERY
  5
7723
 10
171.292
 20
352.492
 30
0.000000
  70
    32
  0
VERTEX
  8
APL_JOINERY
  5
7724
 10
171.347
 20
352.454
 30
0.000000
  70
    32
  0
VERTEX
  8
APL_JOINERY
  5
7725
 10
171.402
 20
352.415
 30
0.000000
  70
    32
  0
VERTEX
  8
APL_JOINERY
  5
7726
 10
171.457
 20
352.377
 30
0.000000
  70
    32
  0
VERTEX
  8
APL_JOINERY
  5
7727
 10
171.511
 20
352.338
 30
0.000000
  70
    32
  0
VERTEX
  8
APL_JOINERY
  5
7728
 10
171.566
 20
352.300
 30
0.000000
  70
    32
  0
VERTEX
  8
APL_JOINERY
  5
7729
 10
171.620
 20
352.261
 30
0.000000
  70
    32
  0
VERTEX
  8
APL_JOINERY
  5
772A
 10
171.675
 20
352.221
 30
0.000000
  70
    32
  0
VERTEX
  8
APL_JOINERY
  5
772B
 10
171.729
 20
352.182
 30
0.000000
  70
    32
  0
VERTEX
  8
APL_JOINERY
  5
772C
 10
171.782
 20
352.142
 30
0.000000
  70
    32
  0
VERTEX
  8
APL_JOINERY
  5
772D
 10
171.836
 20
352.102
 30
0.000000
  70
    32
  0
VERTEX
  8
APL_JOINERY
  5
772E
 10
171.890
 20
352.062
 30
0.000000
  70
    32
  0
VERTEX
  8
APL_JOINERY
  5
772F
 10
171.943
 20
352.022
 30
0.000000
  70
    32
  0
VERTEX
  8
APL_JOINERY
  5
7730
 10
171.996
 20
351.981
 30
0.000000
  70
    32
  0
VERTEX
  8
APL_JOINERY
  5
7731
 10
172.049
 20
351.940
 30
0.000000
  70
    32
  0
VERTEX
  8
APL_JOINERY
  5
7732
 10
172.102
 20
351.899
 30
0.000000
  70
    32
  0
VERTEX
  8
APL_JOINERY
  5
7733
 10
172.155
 20
351.858
 30
0.000000
  70
    32
  0
VERTEX
  8
APL_JOINERY
  5
7734
 10
172.207
 20
351.816
 30
0.000000
  70
    32
  0
VERTEX
  8
APL_JOINERY
  5
7735
 10
172.259
 20
351.774
 30
0.000000
  70
    32
  0
VERTEX
  8
APL_JOINERY
  5
7736
 10
172.312
 20
351.733
 30
0.000000
  70
    32
  0
VERTEX
  8
APL_JOINERY
  5
7737
 10
172.363
 20
351.690
 30
0.000000
  70
    32
  0
VERTEX
  8
APL_JOINERY
  5
7738
 10
172.415
 20
351.648
 30
0.000000
  70
    32
  0
VERTEX
  8
APL_JOINERY
  5
7739
 10
172.467
 20
351.606
 30
0.000000
  70
    32
  0
VERTEX
  8
APL_JOINERY
  5
773A
 10
172.518
 20
351.563
 30
0.000000
  70
    32
  0
VERTEX
  8
APL_JOINERY
  5
773B
 10
172.570
 20
351.520
 30
0.000000
  70
    32
  0
VERTEX
  8
APL_JOINERY
  5
773C
 10
172.621
 20
351.477
 30
0.000000
  70
    32
  0
VERTEX
  8
APL_JOINERY
  5
773D
 10
172.672
 20
351.433
 30
0.000000
  70
    32
  0
VERTEX
  8
APL_JOINERY
  5
773E
 10
172.723
 20
351.390
 30
0.000000
  70
    32
  0
VERTEX
  8
APL_JOINERY
  5
773F
 10
172.773
 20
351.346
 30
0.000000
  70
    32
  0
VERTEX
  8
APL_JOINERY
  5
7740
 10
172.824
 20
351.302
 30
0.000000
  70
    32
  0
VERTEX
  8
APL_JOINERY
  5
7741
 10
172.874
 20
351.258
 30
0.000000
  70
    32
  0
VERTEX
  8
APL_JOINERY
  5
7742
 10
172.924
 20
351.214
 30
0.000000
  70
    32
  0
VERTEX
  8
APL_JOINERY
  5
7743
 10
172.974
 20
351.169
 30
0.000000
  70
    32
  0
VERTEX
  8
APL_JOINERY
  5
7744
 10
173.024
 20
351.125
 30
0.000000
  70
    32
  0
VERTEX
  8
APL_JOINERY
  5
7745
 10
173.074
 20
351.080
 30
0.000000
  70
    32
  0
VERTEX
  8
APL_JOINERY
  5
7746
 10
173.123
 20
351.035
 30
0.000000
  70
    32
  0
VERTEX
  8
APL_JOINERY
  5
7747
 10
173.173
 20
350.990
 30
0.000000
  70
    32
  0
VERTEX
  8
APL_JOINERY
  5
7748
 10
173.222
 20
350.944
 30
0.000000
  70
    32
  0
VERTEX
  8
APL_JOINERY
  5
7749
 10
173.271
 20
350.899
 30
0.000000
  70
    32
  0
VERTEX
  8
APL_JOINERY
  5
774A
 10
173.320
 20
350.853
 30
0.000000
  70
    32
  0
VERTEX
  8
APL_JOINERY
  5
774B
 10
173.369
 20
350.807
 30
0.000000
  70
    32
  0
VERTEX
  8
APL_JOINERY
  5
774C
 10
173.417
 20
350.761
 30
0.000000
  70
    32
  0
VERTEX
  8
APL_JOINERY
  5
774D
 10
173.466
 20
350.715
 30
0.000000
  70
    32
  0
VERTEX
  8
APL_JOINERY
  5
774E
 10
173.514
 20
350.669
 30
0.000000
  70
    32
  0
VERTEX
  8
APL_JOINERY
  5
774F
 10
173.562
 20
350.623
 30
0.000000
  70
    32
  0
VERTEX
  8
APL_JOINERY
  5
7750
 10
173.610
 20
350.576
 30
0.000000
  70
    32
  0
VERTEX
  8
APL_JOINERY
  5
7751
 10
173.658
 20
350.529
 30
0.000000
  70
    32
  0
VERTEX
  8
APL_JOINERY
  5
7752
 10
173.706
 20
350.482
 30
0.000000
  70
    32
  0
VERTEX
  8
APL_JOINERY
  5
7753
 10
173.754
 20
350.435
 30
0.000000
  70
    32
  0
VERTEX
  8
APL_JOINERY
  5
7754
 10
173.801
 20
350.388
 30
0.000000
  70
    32
  0
VERTEX
  8
APL_JOINERY
  5
7755
 10
173.849
 20
350.341
 30
0.000000
  70
    32
  0
VERTEX
  8
APL_JOINERY
  5
7756
 10
173.896
 20
350.293
 30
0.000000
  70
    32
  0
VERTEX
  8
APL_JOINERY
  5
7757
 10
173.943
 20
350.246
 30
0.000000
  70
    32
  0
VERTEX
  8
APL_JOINERY
  5
7758
 10
173.990
 20
350.198
 30
0.000000
  70
    32
  0
VERTEX
  8
APL_JOINERY
  5
7759
 10
174.037
 20
350.150
 30
0.000000
  70
    32
  0
VERTEX
  8
APL_JOINERY
  5
775A
 10
174.083
 20
350.102
 30
0.000000
  70
    32
  0
VERTEX
  8
APL_JOINERY
  5
775B
 10
174.130
 20
350.054
 30
0.000000
  70
    32
  0
VERTEX
  8
APL_JOINERY
  5
775C
 10
174.176
 20
350.006
 30
0.000000
  70
    32
  0
VERTEX
  8
APL_JOINERY
  5
775D
 10
174.222
 20
349.957
 30
0.000000
  70
    32
  0
VERTEX
  8
APL_JOINERY
  5
775E
 10
174.269
 20
349.909
 30
0.000000
  70
    32
  0
VERTEX
  8
APL_JOINERY
  5
775F
 10
174.315
 20
349.860
 30
0.000000
  70
    32
  0
VERTEX
  8
APL_JOINERY
  5
7760
 10
174.360
 20
349.812
 30
0.000000
  70
    32
  0
VERTEX
  8
APL_JOINERY
  5
7761
 10
174.406
 20
349.763
 30
0.000000
  70
    32
  0
VERTEX
  8
APL_JOINERY
  5
7762
 10
174.452
 20
349.714
 30
0.000000
  70
    32
  0
VERTEX
  8
APL_JOINERY
  5
7763
 10
174.497
 20
349.665
 30
0.000000
  70
    32
  0
VERTEX
  8
APL_JOINERY
  5
7764
 10
174.543
 20
349.616
 30
0.000000
  70
    32
  0
VERTEX
  8
APL_JOINERY
  5
7765
 10
174.588
 20
349.566
 30
0.000000
  70
    32
  0
VERTEX
  8
APL_JOINERY
  5
7766
 10
174.633
 20
349.517
 30
0.000000
  70
    32
  0
VERTEX
  8
APL_JOINERY
  5
7767
 10
174.678
 20
349.467
 30
0.000000
  70
    32
  0
VERTEX
  8
APL_JOINERY
  5
7768
 10
174.723
 20
349.418
 30
0.000000
  70
    32
  0
VERTEX
  8
APL_JOINERY
  5
7769
 10
174.768
 20
349.368
 30
0.000000
  70
    32
  0
VERTEX
  8
APL_JOINERY
  5
776A
 10
174.812
 20
349.318
 30
0.000000
  70
    32
  0
VERTEX
  8
APL_JOINERY
  5
776B
 10
174.857
 20
349.269
 30
0.000000
  70
    32
  0
VERTEX
  8
APL_JOINERY
  5
776C
 10
174.901
 20
349.219
 30
0.000000
  70
    32
  0
VERTEX
  8
APL_JOINERY
  5
776D
 10
174.946
 20
349.169
 30
0.000000
  70
    32
  0
VERTEX
  8
APL_JOINERY
  5
776E
 10
174.990
 20
349.118
 30
0.000000
  70
    32
  0
VERTEX
  8
APL_JOINERY
  5
776F
 10
175.034
 20
349.068
 30
0.000000
  70
    32
  0
VERTEX
  8
APL_JOINERY
  5
7770
 10
175.078
 20
349.018
 30
0.000000
  70
    32
  0
VERTEX
  8
APL_JOINERY
  5
7771
 10
175.122
 20
348.968
 30
0.000000
  70
    32
  0
VERTEX
  8
APL_JOINERY
  5
7772
 10
175.166
 20
348.917
 30
0.000000
  70
    32
  0
VERTEX
  8
APL_JOINERY
  5
7773
 10
175.209
 20
348.866
 30
0.000000
  70
    32
  0
VERTEX
  8
APL_JOINERY
  5
7774
 10
175.253
 20
348.816
 30
0.000000
  70
    32
  0
VERTEX
  8
APL_JOINERY
  5
7775
 10
175.297
 20
348.765
 30
0.000000
  70
    32
  0
VERTEX
  8
APL_JOINERY
  5
7776
 10
175.340
 20
348.714
 30
0.000000
  70
    32
  0
VERTEX
  8
APL_JOINERY
  5
7777
 10
175.383
 20
348.664
 30
0.000000
  70
    32
  0
VERTEX
  8
APL_JOINERY
  5
7778
 10
175.427
 20
348.613
 30
0.000000
  70
    32
  0
VERTEX
  8
APL_JOINERY
  5
7779
 10
175.470
 20
348.562
 30
0.000000
  70
    32
  0
VERTEX
  8
APL_JOINERY
  5
777A
 10
175.513
 20
348.511
 30
0.000000
  70
    32
  0
VERTEX
  8
APL_JOINERY
  5
777B
 10
175.556
 20
348.459
 30
0.000000
  70
    32
  0
VERTEX
  8
APL_JOINERY
  5
777C
 10
175.599
 20
348.408
 30
0.000000
  70
    32
  0
VERTEX
  8
APL_JOINERY
  5
777D
 10
175.642
 20
348.357
 30
0.000000
  70
    32
  0
VERTEX
  8
APL_JOINERY
  5
777E
 10
175.685
 20
348.306
 30
0.000000
  70
    32
  0
VERTEX
  8
APL_JOINERY
  5
777F
 10
175.728
 20
348.254
 30
0.000000
  70
    32
  0
VERTEX
  8
APL_JOINERY
  5
7780
 10
175.770
 20
348.203
 30
0.000000
  70
    32
  0
VERTEX
  8
APL_JOINERY
  5
7781
 10
175.813
 20
348.151
 30
0.000000
  70
    32
  0
VERTEX
  8
APL_JOINERY
  5
7782
 10
175.855
 20
348.100
 30
0.000000
  70
    32
  0
VERTEX
  8
APL_JOINERY
  5
7783
 10
175.898
 20
348.048
 30
0.000000
  70
    32
  0
VERTEX
  8
APL_JOINERY
  5
7784
 10
175.940
 20
347.997
 30
0.000000
  70
    32
  0
VERTEX
  8
APL_JOINERY
  5
7785
 10
175.983
 20
347.945
 30
0.000000
  70
    32
  0
VERTEX
  8
APL_JOINERY
  5
7786
 10
176.025
 20
347.893
 30
0.000000
  70
    32
  0
VERTEX
  8
APL_JOINERY
  5
7787
 10
176.067
 20
347.842
 30
0.000000
  70
    32
  0
VERTEX
  8
APL_JOINERY
  5
7788
 10
176.110
 20
347.790
 30
0.000000
  70
    32
  0
VERTEX
  8
APL_JOINERY
  5
7789
 10
176.152
 20
347.738
 30
0.000000
  70
    32
  0
VERTEX
  8
APL_JOINERY
  5
778A
 10
176.194
 20
347.686
 30
0.000000
  70
    32
  0
VERTEX
  8
APL_JOINERY
  5
778B
 10
176.236
 20
347.634
 30
0.000000
  70
    32
  0
VERTEX
  8
APL_JOINERY
  5
778C
 10
176.278
 20
347.582
 30
0.000000
  70
    32
  0
VERTEX
  8
APL_JOINERY
  5
778D
 10
176.320
 20
347.530
 30
0.000000
  70
    32
  0
VERTEX
  8
APL_JOINERY
  5
778E
 10
176.362
 20
347.478
 30
0.000000
  70
    32
  0
VERTEX
  8
APL_JOINERY
  5
778F
 10
176.404
 20
347.426
 30
0.000000
  70
    32
  0
VERTEX
  8
APL_JOINERY
  5
7790
 10
176.446
 20
347.374
 30
0.000000
  70
    32
  0
VERTEX
  8
APL_JOINERY
  5
7791
 10
176.488
 20
347.322
 30
0.000000
  70
    32
  0
VERTEX
  8
APL_JOINERY
  5
7792
 10
176.530
 20
347.270
 30
0.000000
  70
    32
  0
VERTEX
  8
APL_JOINERY
  5
7793
 10
176.571
 20
347.218
 30
0.000000
  70
    32
  0
VERTEX
  8
APL_JOINERY
  5
7794
 10
176.613
 20
347.165
 30
0.000000
  70
    32
  0
VERTEX
  8
APL_JOINERY
  5
7795
 10
176.655
 20
347.113
 30
0.000000
  70
    32
  0
VERTEX
  8
APL_JOINERY
  5
7796
 10
176.697
 20
347.061
 30
0.000000
  70
    32
  0
VERTEX
  8
APL_JOINERY
  5
7797
 10
176.739
 20
347.009
 30
0.000000
  70
    32
  0
VERTEX
  8
APL_JOINERY
  5
7798
 10
176.780
 20
346.956
 30
0.000000
  70
    32
  0
VERTEX
  8
APL_JOINERY
  5
7799
 10
176.822
 20
346.904
 30
0.000000
  70
    32
  0
VERTEX
  8
APL_JOINERY
  5
779A
 10
176.864
 20
346.852
 30
0.000000
  70
    32
  0
VERTEX
  8
APL_JOINERY
  5
779B
 10
176.905
 20
346.800
 30
0.000000
  70
    32
  0
VERTEX
  8
APL_JOINERY
  5
779C
 10
176.947
 20
346.747
 30
0.000000
  70
    32
  0
VERTEX
  8
APL_JOINERY
  5
779D
 10
176.989
 20
346.695
 30
0.000000
  70
    32
  0
VERTEX
  8
APL_JOINERY
  5
779E
 10
177.030
 20
346.643
 30
0.000000
  70
    32
  0
VERTEX
  8
APL_JOINERY
  5
779F
 10
177.072
 20
346.590
 30
0.000000
  70
    32
  0
SEQEND
  8
APL_JOINERY
  5
77A0
  0
LINE
  5
4995
  8
APL_JOINERY
 62
     3
 10
160.73995150786311
 20
343.76235108304837
 30
0.0
 11
170.73995150786311
 21
343.76235108304837
 31
0.0
  0
LINE
  5
4996
  8
APL_JOINERY
 62
     8
 10
145.91317807834531
 20
339.63271662926121
 30
0.0
 11
175.10694208288589
 21
352.71328873254492
 31
0.0
  0
LINE
  5
4997
  8
APL_JOINERY
 62
     3
 10
160.73995150786311
 20
336.76235108304849
 30
0.0
 11
160.73995150786311
 21
343.76235108304837
 31
0.0
  0
LINE
  5
4998
  8
APL_JOINERY
 62
     3
 10
170.73995150786311
 20
336.76235108304849
 30
0.0
 11
170.73995150786311
 21
343.76235108304837
 31
0.0
  0
LINE
  5
4999
  8
APL_JOINERY
 62
     3
 10
177.73995150786311
 20
336.76235108304849
 30
0.0
 11
177.73995150786311
 21
355.76235108304837
 31
0.0
  0
ENDBLK
  5
3F28
  8
0
  0
BLOCK
  8
0
  2
6GLASS
 70
     0
 10
101.8368839708302
 20
399.41113487330011
 30
0.0
  3
6GLASS
  1
6Glass.dwg
  0
LINE
  5
499B
  8
APL_JOINERY
 62
     7
 10
95.336883970830286
 20
412.41113487329989
 30
0.0
 11
95.336883970830286
 21
392.41113487329989
 31
0.0
  0
LINE
  5
499C
  8
APL_JOINERY
 62
     7
 10
89.336883970830286
 20
412.41113487329989
 30
0.0
 11
95.336883970830286
 21
412.41113487329989
 31
0.0
  0
LINE
  5
499D
  8
APL_JOINERY
 62
     8
 10
93.336883970830286
 20
412.41113487329989
 30
0.0
 11
93.336883970830286
 21
392.41113487329989
 31
0.0
  0
LINE
  5
499E
  8
APL_JOINERY
 62
     7
 10
89.336883970830286
 20
412.41113487329989
 30
0.0
 11
89.336883970830286
 21
392.41113487329989
 31
0.0
  0
LINE
  5
499F
  8
APL_JOINERY
 62
     8
 10
91.336883970830286
 20
412.41113487329989
 30
0.0
 11
91.336883970830286
 21
392.41113487329989
 31
0.0
  0
ENDBLK
  5
3F30
  8
0
  0
BLOCK
  8
0
  2
ALTH
 70
    36
 10
0.0
 20
0.0
 30
0.0
  3
ALTH
  1
altherm a4 SM border.dwg
  0
ENDBLK
  5
4920
  8
0
  0
BLOCK
  8
0
  2
FIRS
 70
    36
 10
0.0
 20
0.0
 30
0.0
  3
FIRS
  1
first a4 SM border.dwg
  0
ENDBLK
  5
4E25
  8
0
  0
BLOCK
  8
0
  2
VANT
 70
    36
 10
0.0
 20
0.0
 30
0.0
  3
VANT
  1
I:\DWG Borders\vantage a4 SM border.dwg
  0
ENDBLK
  5
4E56
  8
0
  0
BLOCK
  8
0
  2
ALTHERM_A4_SM_ATTRIBUTES__
 70
     2
 10
0.0
 20
0.0
 30
0.0
  3
ALTHERM_A4_SM_ATTRIBUTES__
  1

  0
ATTDEF
  5
54CA
  8
APL_BORDER
 10
52.850746347538013
 20
277.19000000000062
 30
0.0
 40
3.6000000000000001
  1
Drawing Title Line 1
  7
ARIAL-BOLD
  3
Drawing Title Line 1
  2
DRAWINGTITLE_1
 70
     0
  0
ATTDEF
  5
54CB
  8
APL_BORDER
 10
52.850746347538013
 20
271.19000000000062
 30
0.0
 40
3.6000000000000001
  1
Drawing Title Line 2
  7
ARIAL-BOLD
  3
Drawing Title Line 2
  2
DRAWINGTITLE_2
 70
     0
  0
ATTDEF
  5
54CC
  8
APL_BORDER
 10
52.850746347538013
 20
265.19000000000068
 30
0.0
 40
3.0
  1
CROSS SECTION
  7
ARIAL-REGULAR
  3
Drawing Title Line 3
  2
DRAWINGTITLE_3
 70
     0
  0
ATTDEF
  5
54CD
  8
APL_BORDER
 10
67.85074634753795
 20
258.19
 30
0.0
 40
2.399999999999999
  1
AAW01-0
  7
ARIAL-REGULAR
  3
CAD Reference
  2
AW123-456
 70
     0
  0
ATTDEF
  5
54CE
  8
APL_BORDER
 10
100.35074634753791
 20
258.19
 30
0.0
 40
2.399999999999999
  1
1:2
  7
ARIAL-REGULAR
  3
Scale
  2
1:2
 70
     0
  0
ATTDEF
  5
54CF
  8
APL_BORDER
 10
119.35074634753791
 20
258.19
 30
0.0
 40
2.399999999999999
  1
20.09.02
  7
ARIAL-REGULAR
  3
Date
  2
20.09.02
 70
     0
  0
ATTDEF
  5
54D0
  8
APL_BORDER
 10
11.59500000000001
 20
1.1899999999999971
 30
0.0
 40
4.5
  1

  7
ARIAL-BOLD
  3
Page Number (Left)
  2
1.2.34
 70
     0
  0
ATTDEF
  5
54D1
  8
APL_BORDER
 10
189.595
 20
1.1899999999999971
 30
0.0
 40
4.5
  1

  7
ARIAL-BOLD
 72
     2
 11
189.595
 21
1.1899999999999971
 31
0.0
  3
Page Number (Right)
  2
1.2.34
 70
     0
  0
ENDBLK
  5
54D3
  8
0
  0
BLOCK
  8
0
  2
92000
 70
    36
 10
0.0
 20
0.0
 30
0.0
  3
92000
  1
I:\DWG Master Blocks\92000.dwg
  0
ENDBLK
  5
59B7
  8
0
  0
BLOCK
  8
0
 62
     9
  2
92185
 70
    36
 10
0.0
 20
0.0
 30
0.0
  3
92185
  1
I:\DWG Master Blocks\92185.dwg
  0
ENDBLK
  5
59BA
  8
0
 62
     9
  0
BLOCK
  8
0
 62
     9
  2
9010250L
 70
     0
 10
0.0
 20
0.0
 30
0.0
  3
9010250L
  1

  0
POLYLINE
  5
59CE
  8
APL_JOINERY
  6
CONTINUOUS
 62
   252
 66
     1
 10
0.0
 20
0.0
 30
0.0
 70
   129
  0
VERTEX
  5
7196
  8
APL_JOINERY
  6
CONTINUOUS
 62
   252
 10
6.4470375976913203
 20
-5.2238142390825573
 30
0.0
 42
0.4340964952257526
  0
VERTEX
  5
7197
  8
APL_JOINERY
  6
CONTINUOUS
 62
   252
 10
6.082059843849577
 20
-5.2093090342319073
 30
0.0
 42
-0.1536145893906839
  0
VERTEX
  5
7198
  8
APL_JOINERY
  6
CONTINUOUS
 62
   252
 10
4.3922182319103618
 20
-6.0773483254691589
 30
0.0
 42
-0.4648333009751577
  0
VERTEX
  5
7199
  8
APL_JOINERY
  6
CONTINUOUS
 62
   252
 10
4.0999999956442252
 20
-5.8309388684132841
 30
0.0
  0
VERTEX
  5
719A
  8
APL_JOINERY
  6
CONTINUOUS
 62
   252
 10
4.0999999956442252
 20
-4.6515715290138644
 30
0.0
 42
-0.2915390373815183
  0
VERTEX
  5
719B
  8
APL_JOINERY
  6
CONTINUOUS
 62
   252
 10
4.3888004953632844
 20
-4.1983665300552673
 30
0.0
 42
0.122912838877769
  0
VERTEX
  5
719C
  8
APL_JOINERY
  6
CONTINUOUS
 62
   252
 10
6.5627297006770098
 20
-2.4379143971859341
 30
0.0
 42
0.3152263475814818
  0
VERTEX
  5
719D
  8
APL_JOINERY
  6
CONTINUOUS
 62
   252
 10
6.5899349381517993
 20
-1.6559035779819591
 30
0.0
  0
VERTEX
  5
719E
  8
APL_JOINERY
  6
CONTINUOUS
 62
   252
 10
6.5310876201565122
 20
-1.5652866547864901
 30
0.0
 42
0.3630140704661038
  0
VERTEX
  5
719F
  8
APL_JOINERY
  6
CONTINUOUS
 62
   252
 10
6.1632006988570112
 20
-1.4521324845877499
 30
0.0
 42
-0.1219902707494916
  0
VERTEX
  5
71A0
  8
APL_JOINERY
  6
CONTINUOUS
 62
   252
 10
4.4192084308972417
 20
-2.4582821913020458
 30
0.0
 42
-0.4989702342470917
  0
VERTEX
  5
71A1
  8
APL_JOINERY
  6
CONTINUOUS
 62
   252
 10
4.0999999956442252
 20
-2.218052733304404
 30
0.0
  0
VERTEX
  5
71A2
  8
APL_JOINERY
  6
CONTINUOUS
 62
   252
 10
4.099999995644338
 20
-1.17280761364293
 30
0.0
 42
-0.3136800272017972
  0
VERTEX
  5
71A3
  8
APL_JOINERY
  6
CONTINUOUS
 62
   252
 10
4.4262244433663511
 20
-0.7039770926329397
 30
0.0
 42
0.1785411124350255
  0
VERTEX
  5
71A4
  8
APL_JOINERY
  6
CONTINUOUS
 62
   252
 10
6.6365868074227592
 20
1.1894340053230641
 30
0.0
 42
0.1279718777770435
  0
VERTEX
  5
71A5
  8
APL_JOINERY
  6
CONTINUOUS
 62
   252
 10
6.6999999956442471
 20
1.433138653988336
 30
0.0
  0
VERTEX
  5
71A6
  8
APL_JOINERY
  6
CONTINUOUS
 62
   252
 10
6.6999999956442471
 20
2.7268693830826152
 30
0.0
 42
0.4607623830565047
  0
VERTEX
  5
71A7
  8
APL_JOINERY
  6
CONTINUOUS
 62
   252
 10
6.4110901097051283
 20
2.9738228620542619
 30
0.0
  0
VERTEX
  5
71A8
  8
APL_JOINERY
  6
CONTINUOUS
 62
   252
 10
0.2110901140605677
 20
1.9969534789715899
 30
0.0
 42
0.3941429072290372
  0
VERTEX
  5
71A9
  8
APL_JOINERY
  6
CONTINUOUS
 62
   252
 10
0.0009513254767768
 20
1.728211064312986
 30
0.0
  0
VERTEX
  5
71AA
  8
APL_JOINERY
  6
CONTINUOUS
 62
   252
 10
0.1521502017843375
 20
-0.000000000000199
 30
0.0
  0
VERTEX
  5
71AB
  8
APL_JOINERY
  6
CONTINUOUS
 62
   252
 10
1.6999999956442471
 20
-0.000000000000199
 30
0.0
  0
VERTEX
  5
71AC
  8
APL_JOINERY
  6
CONTINUOUS
 62
   252
 10
1.6999999956442471
 20
-2.900000000000289
 30
0.0
  0
VERTEX
  5
71AD
  8
APL_JOINERY
  6
CONTINUOUS
 62
   252
 10
1.1999999956442471
 20
-2.900000000000289
 30
0.0
 42
0.5486826681767417
  0
VERTEX
  5
71AE
  8
APL_JOINERY
  6
CONTINUOUS
 62
   252
 10
0.9734438043265214
 20
-3.2556990642137711
 30
0.0
  0
VERTEX
  5
71AF
  8
APL_JOINERY
  6
CONTINUOUS
 62
   252
 10
2.1999999956442471
 20
-5.8847090862979314
 30
0.0
  0
VERTEX
  5
71B0
  8
APL_JOINERY
  6
CONTINUOUS
 62
   252
 10
2.1999999956442471
 20
-6.364392571535034
 30
0.0
  0
VERTEX
  5
71B1
  8
APL_JOINERY
  6
CONTINUOUS
 62
   252
 10
1.9366025360229739
 20
-6.364392571535034
 30
0.0
 42
0.5773502691896264
  0
VERTEX
  5
71B2
  8
APL_JOINERY
  6
CONTINUOUS
 62
   252
 10
1.7316987254551319
 20
-6.7192963821030096
 30
0.0
  0
VERTEX
  5
71B3
  8
APL_JOINERY
  6
CONTINUOUS
 62
   252
 10
2.8258330205639481
 20
-8.6143925715350331
 30
0.0
 42
0.2487009021145858
  0
VERTEX
  5
71B4
  8
APL_JOINERY
  6
CONTINUOUS
 62
   252
 10
3.2227894892429272
 20
-8.8630908250375597
 30
0.0
 42
0.3109226116934106
  0
VERTEX
  5
71B5
  8
APL_JOINERY
  6
CONTINUOUS
 62
   252
 10
4.122894280104048
 20
-8.1732368486052422
 30
0.0
 42
-0.2088596723963019
  0
VERTEX
  5
71B6
  8
APL_JOINERY
  6
CONTINUOUS
 62
   252
 10
4.3885530458027651
 20
-7.8738495323338924
 30
0.0
 42
0.1426663047989766
  0
VERTEX
  5
71B7
  8
APL_JOINERY
  6
CONTINUOUS
 62
   252
 10
6.6296988457712009
 20
-5.9214978730621217
 30
0.0
 42
0.3321417186747404
  0
VERTEX
  5
71B8
  8
APL_JOINERY
  6
CONTINUOUS
 62
   252
 10
6.5922501222335654
 20
-5.3920854336048052
 30
0.0
  0
SEQEND
  5
71B9
  8
APL_JOINERY
  6
CONTINUOUS
 62
   252
  0
ENDBLK
  5
59CF
  8
0
 62
     9
  0
BLOCK
  8
0
  2
92110
 70
    36
 10
0.0
 20
0.0
 30
0.0
  3
92110
  1
I:\DWG Master Blocks\92110.dwg
  0
ENDBLK
  5
59D2
  8
0
  0
BLOCK
  8
0
  2
92120
 70
    36
 10
0.0
 20
0.0
 30
0.0
  3
92120
  1
I:\DWG Master Blocks\92120.dwg
  0
ENDBLK
  5
59D5
  8
0
  0
BLOCK
  8
0
  2
01219
 70
    36
 10
0.0
 20
0.0
 30
0.0
  3
01219
  1
I:\DWG Master Blocks\01219.dwg
  0
ENDBLK
  5
59D8
  8
0
  0
BLOCK
  8
0
  2
9010311
 70
     0
 10
0.0
 20
0.0
 30
0.0
  3
9010311
  1

  0
POLYLINE
  5
5A17
  8
APL_JOINERY
 62
   252
 66
     1
 10
0.0
 20
0.0
 30
0.0
 70
     1
  0
VERTEX
  5
71BA
  8
APL_JOINERY
 62
   252
 10
1.999999999969456
 20
8.2384489735283228
 30
0.0
 42
0.9481240591635071
  0
VERTEX
  5
71BB
  8
APL_JOINERY
 62
   252
 10
1.501416162380091
 20
8.2650210583041588
 30
0.0
  0
VERTEX
  5
71BC
  8
APL_JOINERY
 62
   252
 10
1.1339754902589989
 20
4.8275861286486634
 30
0.0
 42
0.1769198979162575
  0
VERTEX
  5
71BD
  8
APL_JOINERY
 62
   252
 10
1.2995698605774579
 20
4.1616654209283448
 30
0.0
 42
-1.804611820488411
  0
VERTEX
  5
71BE
  8
APL_JOINERY
 62
   252
 10
0.4521866686656982
 20
4.1318492366198578
 30
0.0
  0
VERTEX
  5
71BF
  8
APL_JOINERY
 62
   252
 10
0.8660254037843576
 20
4.8486389519854507
 30
0.0
 42
0.1316524975873965
  0
VERTEX
  5
71C0
  8
APL_JOINERY
 62
   252
 10
0.9999999999999236
 20
5.3486389519854507
 30
0.0
  0
VERTEX
  5
71C1
  8
APL_JOINERY
 62
   252
 10
0.9999999999999245
 20
8.5500000000000007
 30
0.0
 42
0.4142135623730951
  0
VERTEX
  5
71C2
  8
APL_JOINERY
 62
   252
 10
0.7499999999999245
 20
8.8000000000000007
 30
0.0
  0
VERTEX
  5
71C3
  8
APL_JOINERY
 62
   252
 10
0.2499999999999813
 20
8.8000000000000007
 30
0.0
 42
0.4142135623730951
  0
VERTEX
  5
71C4
  8
APL_JOINERY
 62
   252
 10
-0.0000000000000187
 20
8.5500000000000007
 30
0.0
  0
VERTEX
  5
71C5
  8
APL_JOINERY
 62
   252
 10
-0.0000000000000195
 20
5.5499999999999989
 30
0.0
 42
-0.4142135623730951
  0
VERTEX
  5
71C6
  8
APL_JOINERY
 62
   252
 10
-0.2500000000000195
 20
5.2999999999999989
 30
0.0
  0
VERTEX
  5
71C7
  8
APL_JOINERY
 62
   252
 10
-1.0000000000000191
 20
5.2999999999999989
 30
0.0
 42
-0.4142135623730951
  0
VERTEX
  5
71C8
  8
APL_JOINERY
 62
   252
 10
-1.2500000000000191
 20
5.5499999999999989
 30
0.0
  0
VERTEX
  5
71C9
  8
APL_JOINERY
 62
   252
 10
-1.2500000000000331
 20
6.000000000000016
 30
0.0
 42
0.7207592200561545
  0
VERTEX
  5
71CA
  8
APL_JOINERY
 62
   252
 10
-1.7900000000000109
 20
6.1800000000000228
 30
0.0
 42
0.333333333333335
  0
VERTEX
  5
71CB
  8
APL_JOINERY
 62
   252
 10
-1.7899999999999681
 20
1.9199999999999899
 30
0.0
 42
0.7207592200561037
  0
VERTEX
  5
71CC
  8
APL_JOINERY
 62
   252
 10
-1.2500000000000191
 20
2.1000000000000112
 30
0.0
  0
VERTEX
  5
71CD
  8
APL_JOINERY
 62
   252
 10
-1.2500000000000191
 20
2.5499999999999989
 30
0.0
 42
-0.4142135623730909
  0
VERTEX
  5
71CE
  8
APL_JOINERY
 62
   252
 10
-1.0000000000000191
 20
2.7999999999999989
 30
0.0
  0
VERTEX
  5
71CF
  8
APL_JOINERY
 62
   252
 10
-0.2500000000000195
 20
2.7999999999999989
 30
0.0
 42
-0.4142135623730951
  0
VERTEX
  5
71D0
  8
APL_JOINERY
 62
   252
 10
-0.0000000000000195
 20
2.5499999999999989
 30
0.0
  0
VERTEX
  5
71D1
  8
APL_JOINERY
 62
   252
 10
-0.0000000000000631
 20
0.0533409567051582
 30
0.0
 42
-0.4931454260313018
  0
VERTEX
  5
71D2
  8
APL_JOINERY
 62
   252
 10
-0.2517638090205514
 20
-0.1398442085526437
 30
0.0
  0
VERTEX
  5
71D3
  8
APL_JOINERY
 62
   252
 10
-0.7482361909794612
 20
-0.006814834742384
 30
0.0
 42
0.4931454260313245
  0
VERTEX
  5
71D4
  8
APL_JOINERY
 62
   252
 10
-1.0000000000000191
 20
-0.2000000000002
 30
0.0
  0
VERTEX
  5
71D5
  8
APL_JOINERY
 62
   252
 10
-1.000000000000034
 20
-0.5500000000001944
 30
0.0
 42
0.3103288092888158
  0
VERTEX
  5
71D6
  8
APL_JOINERY
 62
   252
 10
-0.8717958158618079
 20
-0.7366691212408068
 30
0.0
  0
VERTEX
  5
71D7
  8
APL_JOINERY
 62
   252
 10
1.7282041841382709
 20
-1.7366691212408061
 30
0.0
 42
0.7069755773754159
  0
VERTEX
  5
71D8
  8
APL_JOINERY
 62
   252
 10
1.9732050807568631
 20
-1.4500000000002
 30
0.0
  0
VERTEX
  5
71D9
  8
APL_JOINERY
 62
   252
 10
1.1339745962154879
 20
0.003589838486123
 30
0.0
 42
-0.1316524975873965
  0
VERTEX
  5
71DA
  8
APL_JOINERY
 62
   252
 10
0.9999999999999227
 20
0.5035898384861232
 30
0.0
  0
VERTEX
  5
71DB
  8
APL_JOINERY
 62
   252
 10
0.9999999999999227
 20
1.503589838486123
 30
0.0
 42
-0.2679491924263967
  0
VERTEX
  5
71DC
  8
APL_JOINERY
 62
   252
 10
1.4999999999846461
 20
2.369615242261732
 30
0.0
 42
0.2679491924264052
  0
VERTEX
  5
71DD
  8
APL_JOINERY
 62
   252
 10
1.999999999969398
 20
3.235640646037369
 30
0.0
  0
SEQEND
  5
71DE
  8
APL_JOINERY
 62
   252
  0
ENDBLK
  5
5A18
  8
0
  0
BLOCK
  8
0
  2
92195
 70
    36
 10
0.0
 20
0.0
 30
0.0
  3
92195
  1
I:\DWG Master Blocks\92195.dwg
  0
ENDBLK
  5
5D14
  8
0
  0
BLOCK
  8
0
  2
9010235L
 70
     0
 10
0.0
 20
0.0
 30
0.0
  3
9010235L
  1

  0
POLYLINE
  5
5D17
  8
APL_JOINERY
  6
CONTINUOUS
 62
   252
 66
     1
 10
0.0
 20
0.0
 30
0.0
 70
   129
  0
VERTEX
  5
71DF
  8
APL_JOINERY
  6
CONTINUOUS
 62
   252
 10
3.9197564210527669
 20
-3.691290414508841
 30
0.0
 42
0.0448122221323767
  0
VERTEX
  5
71E0
  8
APL_JOINERY
  6
CONTINUOUS
 62
   252
 10
5.132007852245394
 20
-1.9830361651190169
 30
0.0
 42
0.1326713627927197
  0
VERTEX
  5
71E1
  8
APL_JOINERY
  6
CONTINUOUS
 62
   252
 10
5.1999999956442471
 20
-1.7313037440150081
 30
0.0
  0
VERTEX
  5
71E2
  8
APL_JOINERY
  6
CONTINUOUS
 62
   252
 10
5.1999999956442622
 20
-1.3035430704649109
 30
0.0
 42
0.7074891526715601
  0
VERTEX
  5
71E3
  8
APL_JOINERY
  6
CONTINUOUS
 62
   252
 10
4.8443163651017747
 20
-1.1779938483203971
 30
0.0
 42
-0.0787540803841858
  0
VERTEX
  5
71E4
  8
APL_JOINERY
  6
CONTINUOUS
 62
   252
 10
4.1092322087664277
 20
-1.842426563473736
 30
0.0
 42
-0.5955522935141967
  0
VERTEX
  5
71E5
  8
APL_JOINERY
  6
CONTINUOUS
 62
   252
 10
3.7999999999997551
 20
-1.674890523864462
 30
0.0
  0
VERTEX
  5
71E6
  8
APL_JOINERY
  6
CONTINUOUS
 62
   252
 10
3.799999999999812
 20
-0.930713455096793
 30
0.0
 42
-0.1718314268301011
  0
VERTEX
  5
71E7
  8
APL_JOINERY
  6
CONTINUOUS
 62
   252
 10
3.9114270192713141
 20
-0.6160532595719133
 30
0.0
  0
VERTEX
  5
71E8
  8
APL_JOINERY
  6
CONTINUOUS
 62
   252
 10
5.0885729763727161
 20
0.8376009356794043
 30
0.0
 42
0.1718314268301038
  0
VERTEX
  5
71E9
  8
APL_JOINERY
  6
CONTINUOUS
 62
   252
 10
5.1999999956442471
 20
1.1522611312042841
 30
0.0
  0
VERTEX
  5
71EA
  8
APL_JOINERY
  6
CONTINUOUS
 62
   252
 10
5.1999999956442471
 20
2.4041906490008378
 30
0.0
 42
0.4607623830565128
  0
VERTEX
  5
71EB
  8
APL_JOINERY
  6
CONTINUOUS
 62
   252
 10
4.9110901097051283
 20
2.6511441279725432
 30
0.0
  0
VERTEX
  5
71EC
  8
APL_JOINERY
  6
CONTINUOUS
 62
   252
 10
0.2110901140605677
 20
1.9969534789715899
 30
0.0
 42
0.39414290722904
  0
VERTEX
  5
71ED
  8
APL_JOINERY
  6
CONTINUOUS
 62
   252
 10
0.0009513254767768
 20
1.728211064312972
 30
0.0
  0
VERTEX
  5
71EE
  8
APL_JOINERY
  6
CONTINUOUS
 62
   252
 10
0.1521502017843375
 20
-0.0000000000002274
 30
0.0
  0
VERTEX
  5
71EF
  8
APL_JOINERY
  6
CONTINUOUS
 62
   252
 10
1.6999999956442471
 20
-0.0000000000002274
 30
0.0
  0
VERTEX
  5
71F0
  8
APL_JOINERY
  6
CONTINUOUS
 62
   252
 10
1.6999999956442471
 20
-2.9000000000003179
 30
0.0
  0
VERTEX
  5
71F1
  8
APL_JOINERY
  6
CONTINUOUS
 62
   252
 10
1.1999999956442471
 20
-2.9000000000003179
 30
0.0
 42
0.5486826681767499
  0
VERTEX
  5
71F2
  8
APL_JOINERY
  6
CONTINUOUS
 62
   252
 10
0.9734438043265214
 20
-3.2556990642137862
 30
0.0
  0
VERTEX
  5
71F3
  8
APL_JOINERY
  6
CONTINUOUS
 62
   252
 10
2.668906038458231
 20
-6.8897659232371211
 30
0.0
 42
0.4856171064271721
  0
VERTEX
  5
71F4
  8
APL_JOINERY
  6
CONTINUOUS
 62
   252
 10
3.3461710604736079
 20
-7.048426725471244
 30
0.0
 42
0.1189847234789825
  0
VERTEX
  5
71F5
  8
APL_JOINERY
  6
CONTINUOUS
 62
   252
 10
5.1559202525524341
 20
-4.7161438120199932
 30
0.0
 42
0.1061589305037454
  0
VERTEX
  5
71F6
  8
APL_JOINERY
  6
CONTINUOUS
 62
   252
 10
5.1999999956442471
 20
-4.5108715066771756
 30
0.0
  0
VERTEX
  5
71F7
  8
APL_JOINERY
  6
CONTINUOUS
 62
   252
 10
5.1999999956442471
 20
-3.8769296122827082
 30
0.0
 42
0.6875343511490382
  0
VERTEX
  5
71F8
  8
APL_JOINERY
  6
CONTINUOUS
 62
   252
 10
4.8512789506751943
 20
-3.7432058268767028
 30
0.0
 42
-0.0714619067173368
  0
VERTEX
  5
71F9
  8
APL_JOINERY
  6
CONTINUOUS
 62
   252
 10
4.1050627572147533
 20
-4.3663521038586159
 30
0.0
 42
-0.5872208088415986
  0
VERTEX
  5
71FA
  8
APL_JOINERY
  6
CONTINUOUS
 62
   252
 10
3.7999999999997689
 20
-4.1961703861379069
 30
0.0
  0
VERTEX
  5
71FB
  8
APL_JOINERY
  6
CONTINUOUS
 62
   252
 10
3.7999999999997831
 20
-4.0159669006756067
 30
0.0
 42
-0.1785450887879461
  0
SEQEND
  5
71FC
  8
APL_JOINERY
  6
CONTINUOUS
 62
   252
  0
ENDBLK
  5
5D18
  8
0
  0
BLOCK
  8
0
  2
24MM_IGU
 70
     0
 10
0.0
 20
0.0
 30
0.0
  3
24MM_IGU
  1

  0
LINE
  5
69D9
  8
APL_JOINERY
 62
     7
 10
6.0000174555055841
 20
6.000392998950459
 30
0.0
 11
18.000017455505581
 21
6.000392998950459
 31
0.0
  0
LINE
  5
69DA
  8
APL_JOINERY
 62
     7
 10
6.0000174555055841
 20
0.0003929989504599
 30
0.0
 11
18.000017455505581
 21
0.0003929989504599
 31
0.0
  0
LINE
  5
69DB
  8
APL_JOINERY
 62
     7
 10
24.000017455505581
 20
0.0003929989504599
 30
0.0
 11
24.000017455505581
 21
20.00039299895046
 31
0.0
  0
LINE
  5
69DC
  8
APL_JOINERY
 62
     7
 10
18.000017455505581
 20
0.0003929989504599
 30
0.0
 11
24.000017455505581
 21
0.0003929989504599
 31
0.0
  0
LINE
  5
69DD
  8
APL_JOINERY
 62
     8
 10
22.000017455505581
 20
0.0003929989504599
 30
0.0
 11
22.000017455505581
 21
20.00039299895046
 31
0.0
  0
LINE
  5
69DE
  8
APL_JOINERY
 62
     7
 10
18.000017455505581
 20
0.0003929989504599
 30
0.0
 11
18.000017455505581
 21
20.00039299895046
 31
0.0
  0
LINE
  5
69DF
  8
APL_JOINERY
 62
     8
 10
20.000017455505581
 20
0.0003929989504599
 30
0.0
 11
20.000017455505581
 21
20.00039299895046
 31
0.0
  0
LINE
  5
69E0
  8
APL_JOINERY
 62
     7
 10
6.0000174555055841
 20
0.0003929989504599
 30
0.0
 11
6.0000174555055841
 21
20.00039299895046
 31
0.0
  0
LINE
  5
69E1
  8
APL_JOINERY
 62
     7
 10
0.000017455505585
 20
0.0003929989504599
 30
0.0
 11
6.0000174555055841
 21
0.0003929989504599
 31
0.0
  0
LINE
  5
69E2
  8
APL_JOINERY
 62
     8
 10
4.0000174555055841
 20
0.0003929989504599
 30
0.0
 11
4.0000174555055841
 21
20.00039299895046
 31
0.0
  0
LINE
  5
69E3
  8
APL_JOINERY
 62
     7
 10
0.000017455505585
 20
0.0003929989504599
 30
0.0
 11
0.000017455505585
 21
20.00039299895046
 31
0.0
  0
LINE
  5
69E4
  8
APL_JOINERY
 62
     8
 10
2.0000174555055841
 20
0.0003929989504599
 30
0.0
 11
2.0000174555055841
 21
20.00039299895046
 31
0.0
  0
ENDBLK
  5
6938
  8
0
  0
BLOCK
  8
0
  2
32MM_IGU
 70
     0
 10
0.0
 20
0.0
 30
0.0
  3
32MM_IGU
  1

  0
LINE
  5
6B14
  8
APL_JOINERY
 62
     7
 10
6.0000174555055992
 20
6.000392998950459
 30
0.0
 11
26.000017455505599
 21
6.000392998950459
 31
0.0
  0
LINE
  5
6B15
  8
APL_JOINERY
 62
     7
 10
6.000017455505577
 20
0.0003929989504599
 30
0.0
 11
26.000017455505599
 21
0.0003929989504599
 31
0.0
  0
INSERT
  5
6B16
  8
APL_JOINERY
  2
6GLASS
 10
12.500017455505541
 20
13.00039299895028
 30
0.0
 41
-1.0
 50
180.0
  0
INSERT
  5
6B17
  8
APL_JOINERY
  2
6GLASS
 10
38.500017455505549
 20
13.00039299895028
 30
0.0
 41
-1.0
 50
180.0
  0
ENDBLK
  5
6972
  8
0
  0
BLOCK
  8
0
  2
*U38
 70
     1
 10
0.0
 20
0.0
 30
0.0
  3
*U38
  1

  0
TEXT
  5
7210
  8
APL_JOINERY
 10
191.6611025847107
 20
22.870850457827249
 30
0.0
 40
5.0
  1
Folded
  7
ARIAL-BOLD
  0
TEXT
  5
7211
  8
APL_JOINERY
 10
192.09425401717999
 20
14.45225109448028
 30
0.0
 40
5.0
  1
flashing
  7
ARIAL-BOLD
  0
ENDBLK
  5
7213
  8
0
  0
BLOCK
  8
0
  2
*U39
 70
     1
 10
0.0
 20
0.0
 30
0.0
  3
*U39
  1

  0
TEXT
  5
7215
  8
APL_JOINERY
 10
316.33553115807098
 20
166.65021122194671
 30
0.0
 40
5.0
  1
Folded
  7
ARIAL-BOLD
  0
TEXT
  5
7216
  8
APL_JOINERY
 10
316.76868259054032
 20
158.23161185859979
 30
0.0
 40
5.0
  1
flashing
  7
ARIAL-BOLD
  0
ENDBLK
  5
7218
  8
0
  0
BLOCK
  8
0
  2
*U40
 70
     1
 10
0.0
 20
0.0
 30
0.0
  3
*U40
  1

  0
SOLID
  5
721A
  8
APL_HATCH
  6
CONTINUOUS
 10
180.17164059110411
 20
19.487907886737108
 30
0.0
 11
154.8555071015341
 21
19.48444687977587
 31
0.0
 12
180.04828560718229
 22
19.484446879776321
 32
0.0
 13
180.04828560718229
 23
19.484446879776321
 33
0.0
210
0.0
220
0.0
230
1.0
  0
SOLID
  5
721B
  8
APL_HATCH
  6
CONTINUOUS
 10
180.2946074546096
 20
19.498280018011169
 30
0.0
 11
154.8555071015341
 21
19.48444687977587
 31
0.0
 12
180.17164059110411
 22
19.487907886737108
 32
0.0
 13
180.17164059110411
 23
19.487907886737108
 33
0.0
210
0.0
220
0.0
230
1.0
  0
SOLID
  5
721C
  8
APL_HATCH
  6
CONTINUOUS
 10
180.4167992984527
 20
19.515530639036172
 30
0.0
 11
154.8555071015341
 21
19.48444687977587
 31
0.0
 12
180.2946074546096
 22
19.498280018011169
 32
0.0
 13
180.2946074546096
 23
19.498280018011169
 33
0.0
210
0.0
220
0.0
230
1.0
  0
SOLID
  5
721D
  8
APL_HATCH
  6
CONTINUOUS
 10
180.5378316618862
 20
19.53960547297627
 30
0.0
 11
154.8555071015341
 21
19.48444687977587
 31
0.0
 12
180.4167992984527
 22
19.515530639036172
 32
0.0
 13
180.4167992984527
 23
19.515530639036172
 33
0.0
210
0.0
220
0.0
230
1.0
  0
SOLID
  5
721E
  8
APL_HATCH
  6
CONTINUOUS
 10
180.657323732317
 20
19.570428771497049
 30
0.0
 11
154.8555071015341
 21
19.48444687977587
 31
0.0
 12
180.5378316618862
 22
19.53960547297627
 32
0.0
 13
180.5378316618862
 23
19.53960547297627
 33
0.0
210
0.0
220
0.0
230
1.0
  0
SOLID
  5
721F
  8
APL_HATCH
  6
CONTINUOUS
 10
180.7748995434836
 20
19.607903553097842
 30
0.0
 11
154.8555071015341
 21
19.48444687977587
 31
0.0
 12
180.657323732317
 22
19.570428771497049
 32
0.0
 13
180.657323732317
 23
19.570428771497049
 33
0.0
210
0.0
220
0.0
230
1.0
  0
SOLID
  5
7220
  8
APL_HATCH
  6
CONTINUOUS
 10
180.89018915838551
 20
19.65191190825141
 30
0.0
 11
154.8555071015341
 21
19.48444687977587
 31
0.0
 12
180.7748995434836
 22
19.607903553097842
 32
0.0
 13
180.7748995434836
 23
19.607903553097842
 33
0.0
  0
SOLID
  5
7221
  8
APL_HATCH
  6
CONTINUOUS
 10
181.0028298332409
 20
19.702315370390899
 30
0.0
 11
154.8555071015341
 21
19.48444687977587
 31
0.0
 12
180.89018915838551
 22
19.65191190825141
 32
0.0
 13
180.89018915838551
 23
19.65191190825141
 33
0.0
210
0.0
220
0.0
230
1.0
  0
SOLID
  5
7222
  8
APL_HATCH
  6
CONTINUOUS
 10
181.11246715881381
 20
19.758955351576962
 30
0.0
 11
154.8555071015341
 21
19.48444687977587
 31
0.0
 12
181.0028298332409
 22
19.702315370390899
 32
0.0
 13
181.0028298332409
 23
19.702315370390899
 33
0.0
210
0.0
220
0.0
230
1.0
  0
SOLID
  5
7223
  8
APL_HATCH
  6
CONTINUOUS
 10
181.21875617551601
 20
19.821653641473979
 30
0.0
 11
154.8555071015341
 21
19.48444687977587
 31
0.0
 12
181.11246715881381
 22
19.758955351576962
 32
0.0
 13
181.11246715881381
 23
19.758955351576962
 33
0.0
210
0.0
220
0.0
230
1.0
  0
SOLID
  5
7224
  8
APL_HATCH
  6
CONTINUOUS
 10
181.32136245877791
 20
19.890212968065821
 30
0.0
 11
154.8555071015341
 21
19.48444687977587
 31
0.0
 12
181.21875617551601
 22
19.821653641473979
 32
0.0
 13
181.21875617551601
 23
19.821653641473979
 33
0.0
210
0.0
220
0.0
230
1.0
  0
SOLID
  5
7225
  8
APL_HATCH
  6
CONTINUOUS
 10
181.41996317127149
 20
19.964417618346509
 30
0.0
 11
154.8555071015341
 21
19.48444687977587
 31
0.0
 12
181.32136245877791
 22
19.890212968065821
 32
0.0
 13
181.32136245877791
 23
19.890212968065821
 33
0.0
210
0.0
220
0.0
230
1.0
  0
SOLID
  5
7226
  8
APL_HATCH
  6
CONTINUOUS
 10
181.5142480786767
 20
20.044034117033199
 30
0.0
 11
154.8555071015341
 21
19.48444687977587
 31
0.0
 12
181.41996317127149
 22
19.964417618346509
 32
0.0
 13
181.41996317127149
 23
19.964417618346509
 33
0.0
  0
SOLID
  5
7227
  8
APL_HATCH
  6
CONTINUOUS
 10
181.60392052579269
 20
20.128811961165749
 30
0.0
 11
154.8555071015341
 21
19.48444687977587
 31
0.0
 12
181.5142480786767
 22
20.044034117033199
 32
0.0
 13
181.5142480786767
 23
20.044034117033199
 33
0.0
210
0.0
220
0.0
230
1.0
  0
SOLID
  5
7228
  8
APL_HATCH
  6
CONTINUOUS
 10
154.8555071015339
 20
20.684446879776139
 30
0.0
 11
154.8555071015341
 21
19.48444687977587
 31
0.0
 12
181.60392052579269
 22
20.128811961165749
 32
0.0
 13
181.60392052579269
 23
20.128811961165749
 33
0.0
  0
SOLID
  5
7229
  8
APL_HATCH
  6
CONTINUOUS
 10
180.04828561047381
 20
20.684446881139468
 30
0.0
 11
154.8555071015339
 21
20.684446879776139
 31
0.0
 12
181.60392052579269
 22
20.128811961165749
 32
0.0
 13
181.60392052579269
 23
20.128811961165749
 33
0.0
  0
SOLID
  5
722A
  8
APL_HATCH
  6
CONTINUOUS
 10
180.13544135322141
 20
20.688252183047709
 30
0.0
 11
180.04828561047381
 21
20.684446881139468
 31
0.0
 12
181.60392052579269
 22
20.128811961165749
 32
0.0
 13
181.60392052579269
 23
20.128811961165749
 33
0.0
210
0.0
220
0.0
230
1.0
  0
SOLID
  5
722B
  8
APL_HATCH
  6
CONTINUOUS
 10
180.22193378814069
 20
20.699639128127231
 30
0.0
 11
180.13544135322141
 21
20.688252183047709
 31
0.0
 12
181.60392052579269
 22
20.128811961165749
 32
0.0
 13
181.60392052579269
 23
20.128811961165749
 33
0.0
  0
SOLID
  5
722C
  8
APL_HATCH
  6
CONTINUOUS
 10
180.3071046555763
 20
20.718521054850349
 30
0.0
 11
180.22193378814069
 21
20.699639128127231
 31
0.0
 12
181.60392052579269
 22
20.128811961165749
 32
0.0
 13
181.60392052579269
 23
20.128811961165749
 33
0.0
210
0.0
220
0.0
230
1.0
  0
SOLID
  5
722D
  8
APL_HATCH
  6
CONTINUOUS
 10
180.39030575379951
 20
20.744754260353499
 30
0.0
 11
180.3071046555763
 21
20.718521054850349
 31
0.0
 12
181.60392052579269
 22
20.128811961165749
 32
0.0
 13
181.60392052579269
 23
20.128811961165749
 33
0.0
210
0.0
220
0.0
230
1.0
  0
SOLID
  5
722E
  8
APL_HATCH
  6
CONTINUOUS
 10
180.47090387221451
 20
20.778139094102741
 30
0.0
 11
180.39030575379951
 21
20.744754260353499
 31
0.0
 12
181.60392052579269
 22
20.128811961165749
 32
0.0
 13
181.60392052579269
 23
20.128811961165749
 33
0.0
210
0.0
220
0.0
230
1.0
  0
SOLID
  5
722F
  8
APL_HATCH
  6
CONTINUOUS
 10
180.54828561047381
 20
20.818421477354939
 30
0.0
 11
180.47090387221451
 21
20.778139094102741
 31
0.0
 12
181.60392052579269
 22
20.128811961165749
 32
0.0
 13
181.60392052579269
 23
20.128811961165749
 33
0.0
210
0.0
220
0.0
230
1.0
  0
SOLID
  5
7230
  8
APL_HATCH
  6
CONTINUOUS
 10
180.6218620468249
 20
20.865294836850381
 30
0.0
 11
180.54828561047381
 21
20.818421477354939
 31
0.0
 12
181.60392052579269
 22
20.128811961165749
 32
0.0
 13
181.60392052579269
 23
20.128811961165749
 33
0.0
210
0.0
220
0.0
230
1.0
  0
SOLID
  5
7231
  8
APL_HATCH
  6
CONTINUOUS
 10
180.6910732201604
 20
20.918402438020379
 30
0.0
 11
180.6218620468249
 21
20.865294836850381
 31
0.0
 12
181.60392052579269
 22
20.128811961165749
 32
0.0
 13
181.60392052579269
 23
20.128811961165749
 33
0.0
  0
SOLID
  5
7232
  8
APL_HATCH
  6
CONTINUOUS
 10
180.75539239166039
 20
20.977340099952809
 30
0.0
 11
180.6910732201604
 21
20.918402438020379
 31
0.0
 12
181.60392052579269
 22
20.128811961165749
 32
0.0
 13
181.60392052579269
 23
20.128811961165749
 33
0.0
210
0.0
220
0.0
230
1.0
  0
SOLID
  5
7233
  8
APL_HATCH
  6
CONTINUOUS
 10
199.4179050440593
 20
37.942796479432097
 30
0.0
 11
180.75539239166039
 21
20.977340099952809
 31
0.0
 12
181.60392052579269
 22
20.128811961165749
 32
0.0
 13
181.60392052579269
 23
20.128811961165749
 33
0.0
  0
SOLID
  5
7234
  8
APL_HATCH
  6
CONTINUOUS
 10
198.56937690663511
 20
38.791324616855832
 30
0.0
 11
180.75539239166039
 21
20.977340099952809
 31
0.0
 12
199.4179050440593
 22
37.942796479432097
 32
0.0
 13
199.4179050440593
 23
37.942796479432097
 33
0.0
210
0.0
220
0.0
230
1.0
  0
ENDBLK
  5
7236
  8
0
  0
BLOCK
  8
0
  2
*U41
 70
     1
 10
0.0
 20
0.0
 30
0.0
  3
*U41
  1

  0
SOLID
  5
7238
  8
APL_HATCH
  6
CONTINUOUS
 10
-312.19113315787109
 20
150.7160245932445
 30
0.0
 11
-294.3771486396048
 21
132.90204007497769
 31
0.0
 12
-293.52862050218113
 22
133.75056821240179
 32
0.0
 13
-293.52862050218113
 23
133.75056821240179
 33
0.0
210
0.0
220
0.0
230
-1.0
  0
SOLID
  5
7239
  8
APL_HATCH
  6
CONTINUOUS
 10
-312.27591100200368
 20
150.80569704036051
 30
0.0
 11
-312.19113315787109
 21
150.7160245932445
 31
0.0
 12
-293.52862050218113
 22
133.75056821240179
 32
0.0
 13
-293.52862050218113
 23
133.75056821240179
 33
0.0
210
0.0
220
0.0
230
-1.0
  0
SOLID
  5
723A
  8
APL_HATCH
  6
CONTINUOUS
 10
-312.3555275006903
 20
150.8999819477657
 30
0.0
 11
-312.27591100200368
 21
150.80569704036051
 31
0.0
 12
-293.52862050218113
 22
133.75056821240179
 32
0.0
 13
-293.52862050218113
 23
133.75056821240179
 33
0.0
210
0.0
220
0.0
230
-1.0
  0
SOLID
  5
723B
  8
APL_HATCH
  6
CONTINUOUS
 10
-312.42973215097112
 20
150.9985826602593
 30
0.0
 11
-312.3555275006903
 21
150.8999819477657
 31
0.0
 12
-293.52862050218113
 22
133.75056821240179
 32
0.0
 13
-293.52862050218113
 23
133.75056821240179
 33
0.0
210
0.0
220
0.0
230
-1.0
  0
SOLID
  5
723C
  8
APL_HATCH
  6
CONTINUOUS
 10
-312.49829147756299
 20
151.10118894352121
 30
0.0
 11
-312.42973215097112
 21
150.9985826602593
 31
0.0
 12
-293.52862050218113
 22
133.75056821240179
 32
0.0
 13
-293.52862050218113
 23
133.75056821240179
 33
0.0
210
0.0
220
0.0
230
-1.0
  0
SOLID
  5
723D
  8
APL_HATCH
  6
CONTINUOUS
 10
-312.56098976746
 20
151.2074779602234
 30
0.0
 11
-312.49829147756299
 21
151.10118894352121
 31
0.0
 12
-293.52862050218113
 22
133.75056821240179
 32
0.0
 13
-293.52862050218113
 23
133.75056821240179
 33
0.0
210
0.0
220
0.0
230
-1.0
  0
SOLID
  5
723E
  8
APL_HATCH
  6
CONTINUOUS
 10
-312.61762974864598
 20
151.31711528579629
 30
0.0
 11
-312.56098976746
 21
151.2074779602234
 31
0.0
 12
-293.52862050218113
 22
133.75056821240179
 32
0.0
 13
-293.52862050218113
 23
133.75056821240179
 33
0.0
210
0.0
220
0.0
230
-1.0
  0
SOLID
  5
723F
  8
APL_HATCH
  6
CONTINUOUS
 10
-312.6680332107855
 20
151.4297559606517
 30
0.0
 11
-312.61762974864598
 21
151.31711528579629
 31
0.0
 12
-293.52862050218113
 22
133.75056821240179
 32
0.0
 13
-293.52862050218113
 23
133.75056821240179
 33
0.0
210
0.0
220
0.0
230
-1.0
  0
SOLID
  5
7240
  8
APL_HATCH
  6
CONTINUOUS
 10
-312.7120415659391
 20
151.5450455755535
 30
0.0
 11
-312.6680332107855
 21
151.4297559606517
 31
0.0
 12
-293.52862050218113
 22
133.75056821240179
 32
0.0
 13
-293.52862050218113
 23
133.75056821240179
 33
0.0
210
0.0
220
0.0
230
-1.0
  0
SOLID
  5
7241
  8
APL_HATCH
  6
CONTINUOUS
 10
-311.34260501908392
 20
151.56455272737671
 30
0.0
 11
-312.7120415659391
 21
151.5450455755535
 31
0.0
 12
-293.52862050218113
 22
133.75056821240179
 32
0.0
 13
-293.52862050218113
 23
133.75056821240179
 33
0.0
210
0.0
220
0.0
230
-1.0
  0
SOLID
  5
7242
  8
APL_HATCH
  6
CONTINUOUS
 10
-311.40154268101628
 20
151.62887189887681
 30
0.0
 11
-312.7120415659391
 21
151.5450455755535
 31
0.0
 12
-311.34260501908392
 22
151.56455272737671
 32
0.0
 13
-311.34260501908392
 23
151.56455272737671
 33
0.0
210
0.0
220
0.0
230
-1.0
  0
SOLID
  5
7243
  8
APL_HATCH
  6
CONTINUOUS
 10
-312.7495163475399
 20
151.66262138672019
 30
0.0
 11
-312.7120415659391
 21
151.5450455755535
 31
0.0
 12
-311.40154268101628
 22
151.62887189887681
 32
0.0
 13
-311.40154268101628
 23
151.62887189887681
 33
0.0
210
0.0
220
0.0
230
-1.0
  0
SOLID
  5
7244
  8
APL_HATCH
  6
CONTINUOUS
 10
-311.45465028218632
 20
151.69808307221231
 30
0.0
 11
-312.7495163475399
 21
151.66262138672019
 31
0.0
 12
-311.40154268101628
 22
151.62887189887681
 32
0.0
 13
-311.40154268101628
 23
151.62887189887681
 33
0.0
210
0.0
220
0.0
230
-1.0
  0
SOLID
  5
7245
  8
APL_HATCH
  6
CONTINUOUS
 10
-311.50152364168167
 20
151.77165950856329
 30
0.0
 11
-312.7495163475399
 21
151.66262138672019
 31
0.0
 12
-311.45465028218632
 22
151.69808307221231
 32
0.0
 13
-311.45465028218632
 23
151.69808307221231
 33
0.0
210
0.0
220
0.0
230
-1.0
  0
SOLID
  5
7246
  8
APL_HATCH
  6
CONTINUOUS
 10
-312.78033964606061
 20
151.78211345715101
 30
0.0
 11
-312.7495163475399
 21
151.66262138672019
 31
0.0
 12
-311.50152364168167
 22
151.77165950856329
 32
0.0
 13
-311.50152364168167
 23
151.77165950856329
 33
0.0
210
0.0
220
0.0
230
-1.0
  0
SOLID
  5
7247
  8
APL_HATCH
  6
CONTINUOUS
 10
-311.54180602493392
 20
151.84904124682271
 30
0.0
 11
-312.78033964606061
 21
151.78211345715101
 31
0.0
 12
-311.50152364168167
 22
151.77165950856329
 32
0.0
 13
-311.50152364168167
 23
151.77165950856329
 33
0.0
210
0.0
220
0.0
230
-1.0
  0
SOLID
  5
7248
  8
APL_HATCH
  6
CONTINUOUS
 10
-312.80441448000079
 20
151.90314582058451
 30
0.0
 11
-312.78033964606061
 21
151.78211345715101
 31
0.0
 12
-311.54180602493392
 22
151.84904124682271
 32
0.0
 13
-311.54180602493392
 23
151.84904124682271
 33
0.0
210
0.0
220
0.0
230
-1.0
  0
SOLID
  5
7249
  8
APL_HATCH
  6
CONTINUOUS
 10
-311.57519085868319
 20
151.9296393652377
 30
0.0
 11
-312.80441448000079
 21
151.90314582058451
 31
0.0
 12
-311.54180602493392
 22
151.84904124682271
 32
0.0
 13
-311.54180602493392
 23
151.84904124682271
 33
0.0
210
0.0
220
0.0
230
-1.0
  0
SOLID
  5
724A
  8
APL_HATCH
  6
CONTINUOUS
 10
-311.6014240641864
 20
152.01284046346089
 30
0.0
 11
-312.80441448000079
 21
151.90314582058451
 31
0.0
 12
-311.57519085868319
 22
151.9296393652377
 32
0.0
 13
-311.57519085868319
 23
151.9296393652377
 33
0.0
210
0.0
220
0.0
230
-1.0
  0
SOLID
  5
724B
  8
APL_HATCH
  6
CONTINUOUS
 10
-312.82166510102581
 20
152.02533766442761
 30
0.0
 11
-312.80441448000079
 21
151.90314582058451
 31
0.0
 12
-311.6014240641864
 22
152.01284046346089
 32
0.0
 13
-311.6014240641864
 23
152.01284046346089
 33
0.0
210
0.0
220
0.0
230
-1.0
  0
SOLID
  5
724C
  8
APL_HATCH
  6
CONTINUOUS
 10
-311.62030599090951
 20
152.0980113308965
 30
0.0
 11
-312.82166510102581
 21
152.02533766442761
 31
0.0
 12
-311.6014240641864
 22
152.01284046346089
 32
0.0
 13
-311.6014240641864
 23
152.01284046346089
 33
0.0
210
0.0
220
0.0
230
-1.0
  0
SOLID
  5
724D
  8
APL_HATCH
  6
CONTINUOUS
 10
-312.8320372322998
 20
152.14830452793311
 30
0.0
 11
-312.82166510102581
 21
152.02533766442761
 31
0.0
 12
-311.62030599090951
 22
152.0980113308965
 32
0.0
 13
-311.62030599090951
 23
152.0980113308965
 33
0.0
210
0.0
220
0.0
230
-1.0
  0
SOLID
  5
724E
  8
APL_HATCH
  6
CONTINUOUS
 10
-311.63169293598901
 20
152.1845037658158
 30
0.0
 11
-312.8320372322998
 21
152.14830452793311
 31
0.0
 12
-311.62030599090951
 22
152.0980113308965
 32
0.0
 13
-311.62030599090951
 23
152.0980113308965
 33
0.0
210
0.0
220
0.0
230
-1.0
  0
SOLID
  5
724F
  8
APL_HATCH
  6
CONTINUOUS
 10
-311.6354982378972
 20
152.2716595085634
 30
0.0
 11
-312.8320372322998
 21
152.14830452793311
 31
0.0
 12
-311.63169293598901
 22
152.1845037658158
 32
0.0
 13
-311.63169293598901
 23
152.1845037658158
 33
0.0
210
0.0
220
0.0
230
-1.0
  0
SOLID
  5
7250
  8
APL_HATCH
  6
CONTINUOUS
 10
-312.83549823926057
 20
152.27165951185489
 30
0.0
 11
-312.8320372322998
 21
152.14830452793311
 31
0.0
 12
-311.6354982378972
 22
152.2716595085634
 32
0.0
 13
-311.6354982378972
 23
152.2716595085634
 33
0.0
210
0.0
220
0.0
230
-1.0
  0
SOLID
  5
7251
  8
APL_HATCH
  6
CONTINUOUS
 10
-312.83549823926057
 20
152.27165951185489
 30
0.0
 11
-311.6354982392607
 21
177.46443801750311
 31
0.0
 12
-312.8354982392608
 22
177.46443801750311
 32
0.0
 13
-312.8354982392608
 23
177.46443801750311
 33
0.0
210
0.0
220
0.0
230
-1.0
  0
SOLID
  5
7252
  8
APL_HATCH
  6
CONTINUOUS
 10
-311.6354982392607
 20
177.46443801750311
 30
0.0
 11
-312.83549823926057
 21
152.27165951185489
 31
0.0
 12
-311.6354982378972
 22
152.2716595085634
 32
0.0
 13
-311.6354982378972
 23
152.2716595085634
 33
0.0
210
0.0
220
0.0
230
-1.0
  0
ENDBLK
  5
7254
  8
0
  0
BLOCK
  8
0
  2
*X42
 70
     1
 10
0.0
 20
0.0
 30
0.0
  3
*X42
  1

  0
LINE
  5
725B
  8
0
 62
     0
 10
165.62461654557569
 20
21.042492802415818
 30
0.0
 11
166.53061111454409
 21
21.948487371384211
 31
0.0
  0
LINE
  5
725C
  8
0
 62
     0
 10
164.27757812741541
 20
21.042492802415829
 30
0.0
 11
165.19718877800531
 21
21.962103453005739
 31
0.0
  0
LINE
  5
725D
  8
0
 62
     0
 10
162.93053970925499
 20
21.042492802415818
 30
0.0
 11
163.85015035984489
 21
21.962103453005739
 31
0.0
  0
LINE
  5
725E
  8
0
 62
     0
 10
161.58350129109459
 20
21.042492802415829
 30
0.0
 11
162.50311194168449
 21
21.962103453005721
 31
0.0
  0
LINE
  5
725F
  8
0
 62
     0
 10
160.2364628729342
 20
21.042492802415818
 30
0.0
 11
161.1560735235241
 21
21.962103453005739
 31
0.0
  0
LINE
  5
7260
  8
0
 62
     0
 10
158.88942445477389
 20
21.042492802415818
 30
0.0
 11
159.80903510536379
 21
21.962103453005721
 31
0.0
  0
LINE
  5
7261
  8
0
 62
     0
 10
158.08172373991411
 20
21.581830505716479
 30
0.0
 11
158.4619966872034
 21
21.962103453005721
 31
0.0
  0
LINE
  5
7262
  8
0
 62
     0
 10
166.52264196373611
 20
21.042492802415829
 30
0.0
 11
166.53061111454409
 21
21.050461953223842
 31
0.0
  0
LINE
  5
7263
  8
0
 62
     0
 10
165.17560354557571
 20
21.042492802415818
 30
0.0
 11
166.09521419616561
 21
21.96210345300571
 31
0.0
  0
LINE
  5
7264
  8
0
 62
     0
 10
163.8285651274154
 20
21.042492802415829
 30
0.0
 11
164.7481757780053
 21
21.962103453005739
 31
0.0
  0
LINE
  5
7265
  8
0
 62
     0
 10
162.48152670925501
 20
21.042492802415818
 30
0.0
 11
163.40113735984491
 21
21.962103453005739
 31
0.0
  0
LINE
  5
7266
  8
0
 62
     0
 10
161.13448829109461
 20
21.042492802415829
 30
0.0
 11
162.05409894168449
 21
21.962103453005721
 31
0.0
  0
LINE
  5
7267
  8
0
 62
     0
 10
159.7874498729343
 20
21.042492802415818
 30
0.0
 11
160.70706052352421
 21
21.962103453005739
 31
0.0
  0
LINE
  5
7268
  8
0
 62
     0
 10
158.44041145477391
 20
21.042492802415818
 30
0.0
 11
159.36002210536381
 21
21.962103453005721
 31
0.0
  0
ENDBLK
  5
726A
  8
0
  0
BLOCK
  8
0
  2
*X43
 70
     1
 10
0.0
 20
0.0
 30
0.0
  3
*X43
  1

  0
LINE
  5
7271
  8
0
 62
     0
 10
195.65355125349799
 20
37.144590953698973
 30
0.0
 11
195.1157640940379
 21
37.14459095544084
 31
0.0
  0
LINE
  5
7272
  8
0
 62
     0
 10
195.4637899451198
 20
36.192090954313599
 30
0.0
 11
194.16326409095279
 21
36.192090958525952
 31
0.0
  0
LINE
  5
7273
  8
0
 62
     0
 10
194.51128994203469
 20
35.239590957398711
 30
0.0
 11
193.21076408786769
 21
35.239590961611057
 31
0.0
  0
LINE
  5
7274
  8
0
 62
     0
 10
193.5587899389495
 20
34.287090960483823
 30
0.0
 11
192.25826408478261
 21
34.287090964696169
 31
0.0
  0
LINE
  5
7275
  8
0
 62
     0
 10
192.6062899358644
 20
33.334590963568928
 30
0.0
 11
191.3057640816975
 21
33.334590967781288
 31
0.0
  0
LINE
  5
7276
  8
0
 62
     0
 10
191.65378993277929
 20
32.38209096665404
 30
0.0
 11
190.35326407861231
 21
32.382090970866393
 31
0.0
  0
LINE
  5
7277
  8
0
 62
     0
 10
190.70128992969421
 20
31.429590969739149
 30
0.0
 11
189.42002012282271
 21
31.429590973889141
 31
0.0
  0
LINE
  5
7278
  8
0
 62
     0
 10
195.78129008328909
 20
36.509591090426149
 30
0.0
 11
194.48076422912209
 21
36.509591094638509
 31
0.0
  0
LINE
  5
7279
  8
0
 62
     0
 10
194.82879008020399
 20
35.557091093511268
 30
0.0
 11
193.52826422603701
 21
35.557091097723621
 31
0.0
  0
LINE
  5
727A
  8
0
 62
     0
 10
193.87629007711891
 20
34.604591096596373
 30
0.0
 11
192.5757642229519
 21
34.604591100808733
 31
0.0
  0
LINE
  5
727B
  8
0
 62
     0
 10
192.92379007403369
 20
33.652091099681492
 30
0.0
 11
191.6232642198668
 21
33.652091103893838
 31
0.0
  0
LINE
  5
727C
  8
0
 62
     0
 10
191.97129007094861
 20
32.69959110276659
 30
0.0
 11
190.67076421678161
 21
32.69959110697895
 31
0.0
  0
LINE
  5
727D
  8
0
 62
     0
 10
191.01879006786351
 20
31.747091105851709
 30
0.0
 11
189.7182642136965
 21
31.747091110064058
 31
0.0
  0
LINE
  5
727E
  8
0
 62
     0
 10
190.0662900647784
 20
30.794591108936821
 30
0.0
 11
190.0550199836251
 21
30.794591108973322
 31
0.0
  0
ENDBLK
  5
7280
  8
0
  0
BLOCK
  8
0
  2
*X44
 70
     1
 10
0.0
 20
0.0
 30
0.0
  3
*X44
  1

  0
LINE
  5
7287
  8
0
 62
     0
 10
301.19736059777148
 20
142.60741978185729
 30
0.0
 11
300.6595734383115
 21
142.60741978359911
 31
0.0
  0
LINE
  5
7288
  8
0
 62
     0
 10
301.00759928939323
 20
141.65491978247189
 30
0.0
 11
299.70707343522639
 21
141.65491978668419
 31
0.0
  0
LINE
  5
7289
  8
0
 62
     0
 10
300.05509928630818
 20
140.702419785557
 30
0.0
 11
298.75457343214123
 21
140.70241978976941
 31
0.0
  0
LINE
  5
728A
  8
0
 62
     0
 10
299.10259928322301
 20
139.7499197886421
 30
0.0
 11
297.80207342905612
 21
139.74991979285451
 31
0.0
  0
LINE
  5
728B
  8
0
 62
     0
 10
298.15009928013791
 20
138.79741979172721
 30
0.0
 11
296.84957342597102
 21
138.79741979593959
 31
0.0
  0
LINE
  5
728C
  8
0
 62
     0
 10
297.1975992770528
 20
137.84491979481231
 30
0.0
 11
295.89707342288591
 21
137.84491979902469
 31
0.0
  0
LINE
  5
728D
  8
0
 62
     0
 10
296.2450992739677
 20
136.8924197978975
 30
0.0
 11
294.96382946709628
 21
136.89241980204741
 31
0.0
  0
LINE
  5
728E
  8
0
 62
     0
 10
301.32509942756258
 20
141.97241991858451
 30
0.0
 11
300.02457357339568
 21
141.9724199227968
 31
0.0
  0
LINE
  5
728F
  8
0
 62
     0
 10
300.37259942447753
 20
141.01991992166961
 30
0.0
 11
299.07207357031058
 21
141.01991992588191
 31
0.0
  0
LINE
  5
7290
  8
0
 62
     0
 10
299.42009942139242
 20
140.0674199247546
 30
0.0
 11
298.11957356722542
 21
140.06741992896701
 31
0.0
  0
LINE
  5
7291
  8
0
 62
     0
 10
298.46759941830732
 20
139.11491992783979
 30
0.0
 11
297.16707356414031
 21
139.11491993205209
 31
0.0
  0
LINE
  5
7292
  8
0
 62
     0
 10
297.5150994152221
 20
138.1624199309249
 30
0.0
 11
296.21457356105509
 21
138.16241993513731
 31
0.0
  0
LINE
  5
7293
  8
0
 62
     0
 10
296.56259941213699
 20
137.20991993401
 30
0.0
 11
295.2620735579701
 21
137.20991993822241
 31
0.0
  0
LINE
  5
7294
  8
0
 62
     0
 10
295.610099409052
 20
136.25741993709511
 30
0.0
 11
295.59882932789861
 21
136.2574199371316
 31
0.0
  0
ENDBLK
  5
7296
  8
0
  0
BLOCK
  8
0
  2
*X45
 70
     1
 10
0.0
 20
0.0
 30
0.0
  3
*X45
  1

  0
LINE
  5
729D
  8
0
 62
     0
 10
311.33471423815149
 20
173.321972895426
 30
0.0
 11
310.42871966624858
 21
174.22796746145971
 31
0.0
  0
LINE
  5
729E
  8
0
 62
     0
 10
311.33471424251462
 20
171.97493447726569
 30
0.0
 11
310.4151035889459
 21
172.89454512487691
 31
0.0
  0
LINE
  5
729F
  8
0
 62
     0
 10
311.33471424687781
 20
170.6278960591053
 30
0.0
 11
310.41510359330908
 21
171.54750670671649
 31
0.0
  0
LINE
  5
72A0
  8
0
 62
     0
 10
311.334714251241
 20
169.2808576409449
 30
0.0
 11
310.41510359767238
 21
170.2004682885561
 31
0.0
  0
LINE
  5
72A1
  8
0
 62
     0
 10
311.3347142556043
 20
167.93381922278459
 30
0.0
 11
310.41510360203557
 21
168.8534298703957
 31
0.0
  0
LINE
  5
72A2
  8
0
 62
     0
 10
311.33471425996748
 20
166.5867808046242
 30
0.0
 11
310.41510360639887
 21
167.50639145223539
 31
0.0
  0
LINE
  5
72A3
  8
0
 62
     0
 10
310.79537655928311
 20
165.77908008801739
 30
0.0
 11
310.41510361076212
 21
166.159353034075
 31
0.0
  0
LINE
  5
72A4
  8
0
 62
     0
 10
311.33471423524259
 20
174.21999831358639
 30
0.0
 11
311.3267450844088
 21
174.2279674643685
 31
0.0
  0
LINE
  5
72A5
  8
0
 62
     0
 10
311.33471423960589
 20
172.87295989542599
 30
0.0
 11
310.41510358603711
 21
173.79257054303719
 31
0.0
  0
LINE
  5
72A6
  8
0
 62
     0
 10
311.33471424396902
 20
171.5259214772656
 30
0.0
 11
310.41510359040029
 21
172.44553212487679
 31
0.0
  0
LINE
  5
72A7
  8
0
 62
     0
 10
311.3347142483322
 20
170.17888305910529
 30
0.0
 11
310.41510359476359
 21
171.0984937067164
 31
0.0
  0
LINE
  5
72A8
  8
0
 62
     0
 10
311.33471425269551
 20
168.83184464094489
 30
0.0
 11
310.41510359912678
 21
169.751455288556
 31
0.0
  0
LINE
  5
72A9
  8
0
 62
     0
 10
311.33471425705858
 20
167.4848062227845
 30
0.0
 11
310.41510360349008
 21
168.40441687039569
 31
0.0
  0
LINE
  5
72AA
  8
0
 62
     0
 10
311.33471426142188
 20
166.13776780462419
 30
0.0
 11
310.41510360785333
 21
167.0573784522353
 31
0.0
  0
ENDBLK
  5
72AC
  8
0
  0
BLOCK
  8
0
  2
*X46
 70
     1
 10
0.0
 20
0.0
 30
0.0
  3
*X46
  1

  0
LINE
  5
72B3
  8
0
 62
     0
 10
166.87856275678399
 20
278.1461048569808
 30
0.0
 11
167.78455732575239
 21
279.05209942594922
 31
0.0
  0
LINE
  5
72B4
  8
0
 62
     0
 10
165.5315243386236
 20
278.1461048569808
 30
0.0
 11
166.45113498921361
 21
279.0657155075707
 31
0.0
  0
LINE
  5
72B5
  8
0
 62
     0
 10
164.18448592046329
 20
278.1461048569808
 30
0.0
 11
165.10409657105319
 21
279.0657155075707
 31
0.0
  0
LINE
  5
72B6
  8
0
 62
     0
 10
162.83744750230289
 20
278.14610485698068
 30
0.0
 11
163.7570581528928
 21
279.0657155075707
 31
0.0
  0
LINE
  5
72B7
  8
0
 62
     0
 10
161.4904090841425
 20
278.1461048569808
 30
0.0
 11
162.4100197347324
 21
279.0657155075707
 31
0.0
  0
LINE
  5
72B8
  8
0
 62
     0
 10
160.14337066598219
 20
278.1461048569808
 30
0.0
 11
161.06298131657209
 21
279.0657155075707
 31
0.0
  0
LINE
  5
72B9
  8
0
 62
     0
 10
159.33566995112241
 20
278.6854425602815
 30
0.0
 11
159.7159428984117
 21
279.0657155075707
 31
0.0
  0
LINE
  5
72BA
  8
0
 62
     0
 10
167.77658817494441
 20
278.14610485698068
 30
0.0
 11
167.78455732575239
 21
278.15407400778878
 31
0.0
  0
LINE
  5
72BB
  8
0
 62
     0
 10
166.42954975678401
 20
278.1461048569808
 30
0.0
 11
167.34916040737389
 21
279.0657155075707
 31
0.0
  0
LINE
  5
72BC
  8
0
 62
     0
 10
165.0825113386237
 20
278.1461048569808
 30
0.0
 11
166.00212198921361
 21
279.0657155075707
 31
0.0
  0
LINE
  5
72BD
  8
0
 62
     0
 10
163.73547292046331
 20
278.1461048569808
 30
0.0
 11
164.65508357105321
 21
279.0657155075707
 31
0.0
  0
LINE
  5
72BE
  8
0
 62
     0
 10
162.38843450230291
 20
278.1461048569808
 30
0.0
 11
163.30804515289279
 21
279.0657155075707
 31
0.0
  0
LINE
  5
72BF
  8
0
 62
     0
 10
161.0413960841426
 20
278.1461048569808
 30
0.0
 11
161.96100673473239
 21
279.0657155075707
 31
0.0
  0
LINE
  5
72C0
  8
0
 62
     0
 10
159.69435766598221
 20
278.1461048569808
 30
0.0
 11
160.61396831657211
 21
279.0657155075707
 31
0.0
  0
ENDBLK
  5
72C2
  8
0
  0
BLOCK
  8
0
  2
*X47
 70
     1
 10
0.0
 20
0.0
 30
0.0
  3
*X47
  1

  0
LINE
  5
72C9
  8
0
 62
     0
 10
203.7015071408203
 20
323.05127974997862
 30
0.0
 11
203.32123419353121
 21
322.67100680268948
 31
0.0
  0
LINE
  5
72CA
  8
0
 62
     0
 10
204.24084484412111
 20
322.24357903511901
 30
0.0
 11
203.32123419353121
 21
321.32396838452911
 31
0.0
  0
LINE
  5
72CB
  8
0
 62
     0
 10
204.24084484412111
 20
320.89654061695859
 30
0.0
 11
203.3212341935311
 21
319.97692996636869
 31
0.0
  0
LINE
  5
72CC
  8
0
 62
     0
 10
204.24084484412111
 20
319.54950219879828
 30
0.0
 11
203.3212341935311
 21
318.62989154820838
 31
0.0
  0
LINE
  5
72CD
  8
0
 62
     0
 10
204.240844844121
 20
318.20246378063791
 30
0.0
 11
203.32123419353101
 21
317.28285313004801
 31
0.0
  0
LINE
  5
72CE
  8
0
 62
     0
 10
204.240844844121
 20
316.8554253624776
 30
0.0
 11
203.3212341935311
 21
315.9358147118877
 31
0.0
  0
LINE
  5
72CF
  8
0
 62
     0
 10
204.240844844121
 20
315.50838694431712
 30
0.0
 11
203.33485027515241
 21
314.6023923753487
 31
0.0
  0
LINE
  5
72D0
  8
0
 62
     0
 10
204.240844844121
 20
322.69259203511888
 30
0.0
 11
203.3212341935311
 21
321.77298138452898
 31
0.0
  0
LINE
  5
72D1
  8
0
 62
     0
 10
204.24084484412111
 20
321.34555361695851
 30
0.0
 11
203.3212341935311
 21
320.42594296636861
 31
0.0
  0
LINE
  5
72D2
  8
0
 62
     0
 10
204.240844844121
 20
319.9985151987982
 30
0.0
 11
203.3212341935311
 21
319.0789045482083
 31
0.0
  0
LINE
  5
72D3
  8
0
 62
     0
 10
204.240844844121
 20
318.65147678063778
 30
0.0
 11
203.3212341935311
 21
317.73186613004788
 31
0.0
  0
LINE
  5
72D4
  8
0
 62
     0
 10
204.240844844121
 20
317.30443836247741
 30
0.0
 11
203.32123419353101
 21
316.38482771188751
 31
0.0
  0
LINE
  5
72D5
  8
0
 62
     0
 10
204.24084484412089
 20
315.9573999443171
 30
0.0
 11
203.32123419353101
 21
315.03778929372709
 31
0.0
  0
LINE
  5
72D6
  8
0
 62
     0
 10
204.24084484412089
 20
314.61036152615679
 30
0.0
 11
204.23287569331279
 21
314.6023923753487
 31
0.0
  0
ENDBLK
  5
72D8
  8
0
  0
ENDSEC
  0
SECTION
  2
ENTITIES
  0
INSERT
  5
3EA1
  8
0
  2
A4_SPECIFIERS_MANUAL
 10
0.0
 20
0.0
 30
0.0
  0
INSERT
  5
55C2
  8
APL_JOINERY
  2
19MMLINER
 10
161.92879397222711
 20
437.5440436983863
 30
0.0
 50
180.0
  0
LINE
  5
55E5
  8
APL_NOTES
 62
     2
 10
298.42221121832188
 20
416.49228473323359
 30
0.0
 11
298.42221121832182
 21
371.24965138896511
 31
0.0
  0
LINE
  5
55E8
  8
APL_NOTES
 62
     2
 10
294.29721121832188
 20
415.74159612505952
 30
0.0
 11
294.29721121832182
 21
370.4989627807912
 31
0.0
  0
LINE
  5
55ED
  8
APL_NOTES
 62
     8
 10
248.92221121832179
 20
370.4989627807912
 30
0.0
 11
246.85971121832191
 21
368.4364627807912
 31
0.0
  0
LINE
  5
55EE
  8
APL_NOTES
 62
     8
 10
285.0159612183221
 20
392.5384711250594
 30
0.0
 11
296.35971121832199
 21
392.5384711250594
 31
0.0
  0
LINE
  5
55EF
  8
APL_NOTES
 62
     8
 10
334.09164786799857
 20
384.23226460249151
 30
0.0
 11
336.15414786799857
 21
382.78808655493401
 31
0.0
  0
LINE
  5
55F4
  8
APL_NOTES
 62
     8
 10
248.92221121832179
 20
415.74159612505952
 30
0.0
 11
246.85971121832191
 21
417.8040961250594
 31
0.0
  0
LINE
  5
55F5
  8
APL_NOTES
 62
     8
 10
334.09164786799857
 20
429.47489794676
 30
0.0
 11
336.15414786799857
 21
432.42045321066553
 31
0.0
  0
LINE
  5
55F6
  8
APL_NOTES
 62
     2
 10
296.35971121832199
 20
415.74159612505957
 30
0.0
 11
296.35971121832199
 21
370.4989627807912
 31
0.0
  0
LINE
  5
55F7
  8
APL_NOTES
 62
     8
 10
296.35971121832199
 20
392.5384711250594
 30
0.0
 11
306.06973510869722
 21
396.07263079516957
 31
0.0
  0
POLYLINE
  8
APL_NOTES
  5
77A1
  62
8
  66
     1
 10
0.000000
 20
0.000000
 30
0.000000
  70
     8
  0
VERTEX
  8
APL_NOTES
  5
77A2
 10
237.297
 20
377.538
 30
0.000000
  70
    32
  0
VERTEX
  8
APL_NOTES
  5
77A3
 10
237.297
 20
392.538
 30
0.000000
  70
    32
  0
SEQEND
  8
APL_NOTES
  5
77A4
  0
LINE
  5
55F9
  8
APL_NOTES
 62
     8
 10
266.45346121832182
 20
392.5384711250594
 30
0.0
 11
237.29721121832191
 21
392.5384711250594
 31
0.0
  0
POLYLINE
  8
APL_NOTES
  5
77A5
  62
8
  66
     1
 10
0.000000
 20
0.000000
 30
0.000000
  70
     8
  0
VERTEX
  8
APL_NOTES
  5
77A6
 10
347.513
 20
396.157
 30
0.000000
  70
    32
  0
VERTEX
  8
APL_NOTES
  5
77A7
 10
347.513
 20
411.157
 30
0.000000
  70
    32
  0
SEQEND
  8
APL_NOTES
  5
77A8
  0
LINE
  5
55FB
  8
APL_NOTES
 62
     8
 10
347.51282295271261
 20
411.15668118647062
 30
0.0
 11
319.68016160984558
 21
401.02642091725551
 31
0.0
  0
LINE
  5
55FD
  8
APL_NOTES
 62
     8
 10
204.6694156768956
 20
186.9611486459423
 30
0.0
 11
206.7319156768956
 21
185.5169705983848
 31
0.0
  0
LINE
  5
55FF
  8
APL_NOTES
 62
     8
 10
204.6694156768956
 20
232.2037819902107
 30
0.0
 11
206.7319156768956
 21
235.14933725411629
 31
0.0
  0
LINE
  5
5600
  8
APL_NOTES
 62
     2
 10
128.75623832997829
 20
211.73809727666259
 30
0.0
 11
128.7562383299782
 21
166.4954639323943
 31
0.0
  0
LINE
  5
5604
  8
APL_NOTES
 62
     8
 10
79.256238329978231
 20
211.37442287895141
 30
0.0
 11
77.193738329978345
 21
213.43692287895129
 31
0.0
  0
LINE
  5
5608
  8
APL_NOTES
 62
     8
 10
96.787488329978245
 20
195.35724075776761
 30
0.0
 11
68.712291563425623
 21
195.35724075776761
 31
0.0
  0
LINE
  5
560A
  8
APL_NOTES
 62
     8
 10
79.256238329978231
 20
166.13178953468309
 30
0.0
 11
77.193738329978345
 21
164.06928953468309
 31
0.0
  0
POLYLINE
  8
APL_NOTES
  5
77A9
  62
8
  66
     1
 10
0.000000
 20
0.000000
 30
0.000000
  70
     8
  0
VERTEX
  8
APL_NOTES
  5
77AA
 10
68.7123
 20
180.357
 30
0.000000
  70
    32
  0
VERTEX
  8
APL_NOTES
  5
77AB
 10
68.7123
 20
195.357
 30
0.000000
  70
    32
  0
SEQEND
  8
APL_NOTES
  5
77AC
  0
LINE
  5
560C
  8
APL_NOTES
 62
     2
 10
124.6312383299783
 20
211.37442287895141
 30
0.0
 11
124.6312383299782
 21
166.13178953468309
 31
0.0
  0
LINE
  5
560D
  8
APL_NOTES
 62
     2
 10
126.6937383299784
 20
211.37442287895161
 30
0.0
 11
126.6937383299784
 21
166.13178953468309
 31
0.0
  0
LINE
  5
560F
  8
APL_NOTES
 62
     8
 10
166.93747902721901
 20
202.45329804732651
 30
0.0
 11
176.6475029175939
 21
205.9874577174366
 31
0.0
  0
LINE
  5
5610
  8
APL_NOTES
 62
     8
 10
115.3499883299784
 20
195.35724075776761
 30
0.0
 11
126.6937383299784
 21
195.35724075776761
 31
0.0
  0
POLYLINE
  8
APL_NOTES
  5
77AD
  62
8
  66
     1
 10
0.000000
 20
0.000000
 30
0.000000
  70
     8
  0
VERTEX
  8
APL_NOTES
  5
77AE
 10
176.648
 20
190.987
 30
0.000000
  70
    32
  0
VERTEX
  8
APL_NOTES
  5
77AF
 10
176.648
 20
205.987
 30
0.000000
  70
    32
  0
SEQEND
  8
APL_NOTES
  5
77B0
  0
LINE
  5
5614
  8
APL_NOTES
 62
     2
 10
166.93747902721901
 20
218.47048016851031
 30
0.0
 11
166.9374790272189
 21
173.22784682424179
 31
0.0
  0
LINE
  5
5615
  8
APL_NOTES
 62
     2
 10
164.87497902721901
 20
218.1068057707991
 30
0.0
 11
164.8749790272189
 21
172.86417242653059
 31
0.0
  0
LINE
  5
5616
  8
APL_NOTES
 62
     2
 10
168.99997902721901
 20
219.22116877668429
 30
0.0
 11
168.9999790272189
 21
173.9785354324159
 31
0.0
  0
LINE
  5
561B
  8
APL_NOTES
 62
     8
 10
126.6937383299784
 20
195.35724075776761
 30
0.0
 11
136.62987897687151
 21
197.10925043792889
 31
0.0
  0
LINE
  5
561C
  8
APL_NOTES
 62
     8
 10
166.93747902721901
 20
202.45329804732651
 30
0.0
 11
156.66826095228069
 21
200.6425578299357
 31
0.0
  0
TEXT
  5
561D
  8
APL_JOINERY
 10
256.13996080665493
 20
355.33477849038519
 30
0.0
 40
5.0
  1
90º CORNER OPTION
  7
ARIAL-BOLD
  0
TEXT
  5
561E
  8
APL_JOINERY
 10
121.65992609791211
 20
153.3792940861498
 30
0.0
 40
5.0
  1
FACET OPTION
  7
ARIAL-BOLD
  0
TEXT
  5
561F
  8
APL_NOTES
 10
66.665845212503854
 20
173.23053356700279
 30
0.0
 40
5.0
  1
B
  7
ARIAL-BOLD
  0
TEXT
  5
5620
  8
APL_NOTES
 10
174.8305088486604
 20
184.5232369719636
 30
0.0
 40
5.0
  1
B
  7
ARIAL-BOLD
  0
TEXT
  5
5621
  8
APL_NOTES
 10
234.67043253351579
 20
371.32194112005033
 30
0.0
 40
5.0
  1
A
  7
ARIAL-BOLD
  0
TEXT
  5
5622
  8
APL_NOTES
 10
345.01736502075011
 20
389.69577565780111
 30
0.0
 40
5.0
  1
A
  7
ARIAL-BOLD
  0
POLYLINE
  5
5631
  8
APL_NOTES
 66
     1
 10
0.0
 20
0.0
 30
0.0
 70
     1
 40
0.3
 41
0.3
  0
VERTEX
  5
718C
  8
APL_NOTES
 10
133.48633587113579
 20
384.41669251731582
 30
0.0
  0
VERTEX
  5
718D
  8
APL_NOTES
 10
133.48633587113579
 20
395.41669251731582
 30
0.0
  0
VERTEX
  5
718E
  8
APL_NOTES
 10
82.486335871135907
 20
395.41669251731582
 30
0.0
  0
VERTEX
  5
718F
  8
APL_NOTES
 10
82.486335871135907
 20
384.41669251731582
 30
0.0
  0
SEQEND
  5
7190
  8
APL_NOTES
  0
TEXT
  5
5632
  8
APL_NOTES
 10
85.486335871135907
 20
387.41669251731582
 30
0.0
 40
5.0
  1
SECTION A-A
  7
ARIAL-BOLD
  0
POLYLINE
  5
5633
  8
APL_NOTES
 66
     1
 10
0.0
 20
0.0
 30
0.0
 70
     1
 40
0.3
 41
0.3
  0
VERTEX
  5
7191
  8
APL_NOTES
 10
161.4240575539383
 20
105.04980547469791
 30
0.0
  0
VERTEX
  5
7192
  8
APL_NOTES
 10
161.4240575539383
 20
116.04980547469781
 30
0.0
  0
VERTEX
  5
7193
  8
APL_NOTES
 10
110.4240575539383
 20
116.04980547469781
 30
0.0
  0
VERTEX
  5
7194
  8
APL_NOTES
 10
110.4240575539383
 20
105.04980547469791
 30
0.0
  0
SEQEND
  5
7195
  8
APL_NOTES
  0
TEXT
  5
5634
  8
APL_NOTES
 10
113.4240575539383
 20
108.04980547469781
 30
0.0
 40
5.0
  1
SECTION B-B
  7
ARIAL-BOLD
  0
INSERT
  5
5A7F
  8
APL_JOINERY
  2
92000
 10
22.069040679966921
 20
284.45815572851097
 30
0.0
 41
-1.0
 50
270.0
  0
INSERT
  5
5A83
  8
APL_JOINERY
  2
92110
 10
165.4306534568245
 20
316.95629624427932
 30
0.0
  0
INSERT
  5
5A84
  8
APL_JOINERY
  2
92120
 10
165.43065345682089
 20
316.95629624427471
 30
0.0
 50
90.0
  0
INSERT
  5
5A86
  8
APL_JOINERY
  2
01219
 10
205.9287939723049
 20
276.45815572879621
 30
0.0
 50
90.0
  0
INSERT
  5
5A8A
  8
APL_JOINERY
  2
92000
 10
197.92879397232579
 20
463.19375249606759
 30
0.0
 50
180.0
  0
INSERT
  5
5A8B
  8
APL_JOINERY
  2
92185
 10
205.9287939723076
 20
436.19404369801441
 30
0.0
 50
180.0
  0
INSERT
  5
5A8D
  8
APL_JOINERY
  2
9010250L
 10
198.12879397230719
 20
418.19404369801532
 30
0.0
 50
180.0
  0
INSERT
  5
5A8E
  8
APL_JOINERY
  2
92185
 10
205.92879397230629
 20
356.24320177042171
 30
0.0
 41
-1.0
  0
INSERT
  5
5A90
  8
APL_JOINERY
  2
9010250L
 10
198.1287939723064
 20
374.24320177042119
 30
0.0
 41
-1.0
  0
TEXT
  5
5A99
  8
APL_NOTES
 10
6.5702812036932254
 20
289.18784704482169
 30
0.0
 40
5.0
  1
92000
  7
ARIAL-BOLD
  0
TEXT
  5
5A9C
  8
APL_NOTES
 10
105.3950378403692
 20
324.49617392120382
 30
0.0
 40
5.0
  1
92110
  7
ARIAL-BOLD
  0
TEXT
  5
5A9D
  8
APL_NOTES
 10
139.6617975071417
 20
351.28998686368578
 30
0.0
 40
5.0
  1
92120
  7
ARIAL-BOLD
  0
TEXT
  5
5A9E
  8
APL_NOTES
 10
209.01455963101901
 20
365.5005473808622
 30
0.0
 40
5.0
  1
92185
  7
ARIAL-BOLD
  0
TEXT
  5
5A9F
  8
APL_NOTES
 10
168.8916313764889
 20
465.83222102556527
 30
0.0
 40
5.0
  1
92000
  7
ARIAL-BOLD
  0
TEXT
  5
5AA0
  8
APL_NOTES
 10
208.7174680224702
 20
422.42199273514478
 30
0.0
 40
5.0
  1
92185
  7
ARIAL-BOLD
  0
TEXT
  5
5AA1
  8
APL_NOTES
 10
170.6713902742699
 20
267.7105052630439
 30
0.0
 40
5.0
  1
01219
  7
ARIAL-BOLD
  0
INSERT
  5
5AA3
  8
APL_JOINERY
  2
9010311
 10
165.43065344936849
 20
376.46070519233609
 30
0.0
 41
-1.0
 50
180.0
  0
INSERT
  5
5AA5
  8
APL_JOINERY
  2
9010311
 10
165.42879397235589
 20
416.19404369837429
 30
0.0
  0
INSERT
  5
5C7D
  8
APL_JOINERY
  2
19MMLINER
 10
47.718749477716237
 20
320.4581508145921
 30
0.0
 41
-1.0
 50
270.0
  0
TEXT
  5
5D35
  8
APL_NOTES
 10
49.934356948690812
 20
267.93830076787589
 30
0.0
 40
5.0
  1
92195
  7
ARIAL-BOLD
  0
INSERT
  5
5D36
  8
APL_JOINERY
  2
9010311
 10
69.068749477653881
 20
316.95815572860971
 30
0.0
 41
-1.0
 50
90.0
  0
INSERT
  5
5D49
  8
APL_JOINERY
  2
92195
 10
49.068749478020521
 20
276.45815572865808
 30
0.0
 41
-1.0
 50
270.0
  0
INSERT
  5
5D4A
  8
APL_JOINERY
  2
9010235L
 10
67.068749478020351
 20
277.75553227006901
 30
0.0
 41
-1.0
 50
270.0
  0
TEXT
  5
5D53
  8
APL_NOTES
 10
105.6268034770281
 20
267.93830076787589
 30
0.0
 40
5.0
  1
92195
 50
359.99999999999989
  7
ARIAL-BOLD
  0
INSERT
  5
5D54
  8
APL_JOINERY
  2
9010311
 10
105.9262445087745
 20
316.95815572860971
 30
0.0
 50
270.0
  0
INSERT
  5
5D66
  8
APL_JOINERY
  2
92195
 10
125.9262445084079
 20
276.45815572865808
 30
0.0
 50
90.0
  0
INSERT
  5
5D67
  8
APL_JOINERY
  2
9010235L
 10
107.926244508408
 20
277.75553227006901
 30
0.0
 50
90.0
  0
INSERT
  5
5F15
  8
APL_JOINERY
  2
92000
 10
25.744573219702229
 20
27.48444687861263
 30
0.0
 41
-1.0
 50
270.0
  0
INSERT
  5
5F16
  8
APL_JOINERY
  2
92185
 10
52.744282017755459
 20
19.484446878630362
 30
0.0
 41
-1.0
 50
270.0
  0
INSERT
  5
5F18
  8
APL_JOINERY
  2
9010250L
 10
70.744282017754784
 20
27.284446878630551
 30
0.0
 41
-1.0
 50
270.0
  0
INSERT
  5
5F19
  8
APL_JOINERY
  2
92110
 10
164.18467639642421
 20
59.98258739438085
 30
0.0
  0
INSERT
  5
5F1A
  8
APL_JOINERY
  2
92120
 10
164.18467639642171
 20
59.982587394379038
 30
0.0
 50
44.999999999990997
  0
INSERT
  5
5F1C
  8
APL_JOINERY
  2
92185
 10
124.68005917092481
 20
19.484446878630362
 30
0.0
 50
90.0
  0
INSERT
  5
5F1E
  8
APL_JOINERY
  2
9010250L
 10
106.6800591709255
 20
27.284446878630551
 30
0.0
 50
90.0
  0
POLYLINE
  5
5F22
  8
APL_JOINERY
 66
     1
 10
0.0
 20
0.0
 30
0.0
 70
     1
  0
VERTEX
  5
71FD
  8
APL_JOINERY
 10
199.4179050440593
 20
37.942796479432097
 30
0.0
  0
VERTEX
  5
71FE
  8
APL_JOINERY
 10
198.56937690663511
 20
38.791324616855832
 30
0.0
  0
VERTEX
  5
71FF
  8
APL_JOINERY
 10
180.75539239166039
 20
20.977340099952809
 30
0.0
 42
-0.1989123673796589
  0
VERTEX
  5
7200
  8
APL_JOINERY
 10
180.04828561047381
 20
20.684446881139468
 30
0.0
  0
VERTEX
  5
7201
  8
APL_JOINERY
 10
154.8555071015339
 20
20.684446879776139
 30
0.0
  0
VERTEX
  5
7202
  8
APL_JOINERY
 10
154.8555071015341
 20
19.48444687977587
 30
0.0
  0
VERTEX
  5
7203
  8
APL_JOINERY
 10
180.04828560718229
 20
19.484446879776321
 30
0.0
 42
0.1989123673796585
  0
VERTEX
  5
7204
  8
APL_JOINERY
 10
181.60392052579269
 20
20.128811961165749
 30
0.0
  0
SEQEND
  5
7205
  8
APL_JOINERY
  0
INSERT
  5
5F23
  8
APL_JOINERY
  2
92110
 10
272.3373577246561
 20
168.13526872261249
 30
0.0
 41
-1.0
 50
90.0
  0
INSERT
  5
5F24
  8
APL_JOINERY
  2
92120
 10
272.33735772465758
 20
168.13526872261531
 30
0.0
 41
-1.0
 50
44.99999999999104
  0
INSERT
  5
5F25
  8
APL_JOINERY
  2
92185
 10
312.83549824040671
 20
207.63988594811181
 30
0.0
 41
-1.0
  0
INSERT
  5
5F27
  8
APL_JOINERY
  2
9010250L
 10
305.03549824040653
 20
225.6398859481113
 30
0.0
 41
-1.0
  0
POLYLINE
  5
5F2B
  8
APL_JOINERY
 66
     1
 10
0.0
 20
0.0
 30
0.0
 70
     1
  0
VERTEX
  5
7206
  8
APL_JOINERY
 10
294.3771486396048
 20
132.90204007497769
 30
0.0
  0
VERTEX
  5
7207
  8
APL_JOINERY
 10
293.52862050218113
 20
133.75056821240179
 30
0.0
  0
VERTEX
  5
7208
  8
APL_JOINERY
 10
311.34260501908392
 20
151.56455272737671
 30
0.0
 42
0.1989123673796589
  0
VERTEX
  5
7209
  8
APL_JOINERY
 10
311.6354982378972
 20
152.2716595085634
 30
0.0
  0
VERTEX
  5
720A
  8
APL_JOINERY
 10
311.6354982392607
 20
177.46443801750311
 30
0.0
  0
VERTEX
  5
720B
  8
APL_JOINERY
 10
312.8354982392608
 20
177.46443801750311
 30
0.0
  0
VERTEX
  5
720C
  8
APL_JOINERY
 10
312.83549823926057
 20
152.27165951185489
 30
0.0
 42
-0.1989123673796585
  0
VERTEX
  5
720D
  8
APL_JOINERY
 10
312.19113315787109
 20
150.7160245932445
 30
0.0
  0
SEQEND
  5
720E
  8
APL_JOINERY
  0
TEXT
  5
5F4A
  8
APL_NOTES
 10
10.43852494281316
 20
32.429994529601679
 30
0.0
 40
5.0
  1
92000
  7
ARIAL-BOLD
  0
TEXT
  5
5F4B
  8
APL_NOTES
 10
53.652677789734717
 20
11.106858728996601
 30
0.0
 40
5.0
  1
92185
  7
ARIAL-BOLD
  0
TEXT
  5
5F4C
  8
APL_NOTES
 10
104.3371687984648
 20
10.916904661570859
 30
0.0
 40
5.0
  1
92185
  7
ARIAL-BOLD
  0
TEXT
  5
5F4D
  8
APL_NOTES
 10
132.68527478265949
 20
10.732175409232861
 30
0.0
 40
5.0
  1
92110
  7
ARIAL-BOLD
  0
TEXT
  5
5F4E
  8
APL_NOTES
 10
209.8541874979
 20
42.125027333447058
 30
0.0
 40
5.0
  1
92120
  7
ARIAL-BOLD
  0
TEXT
  5
5F4F
  8
APL_NOTES
 10
228.5286766704705
 20
60.054947396817738
 30
0.0
 40
5.0
  1
92195
  7
ARIAL-BOLD
  0
TEXT
  5
5F50
  8
APL_NOTES
 10
267.05848134642548
 20
99.274942110332404
 30
0.0
 40
5.0
  1
92195
  7
ARIAL-BOLD
  0
TEXT
  5
5F51
  8
APL_NOTES
 10
314.7438546711839
 20
188.63309066402769
 30
0.0
 40
5.0
  1
92120
  7
ARIAL-BOLD
  0
TEXT
  5
5F52
  8
APL_NOTES
 10
315.6017640956108
 20
216.05033248612281
 30
0.0
 40
5.0
  1
92185
  7
ARIAL-BOLD
  0
TEXT
  5
5F53
  8
APL_NOTES
 10
285.909333814089
 20
117.8623306972364
 30
0.0
 40
5.0
  1
92110
  7
ARIAL-BOLD
  0
INSERT
  5
5F54
  8
APL_JOINERY
  2
*U38
 10
0.0
 20
0.0
 30
0.0
  0
INSERT
  5
5F55
  8
APL_JOINERY
  2
*U39
 10
0.0
 20
0.0
 30
0.0
  0
INSERT
  5
5F56
  8
APL_JOINERY
  2
9010311
 10
72.744282017395761
 20
59.984446878581927
 30
0.0
 41
-1.0
 50
90.0
  0
INSERT
  5
5F59
  8
APL_JOINERY
  2
9010311
 10
272.3373577170741
 20
227.6396776706155
 30
0.0
 41
-1.0
 50
180.0
  0
INSERT
  5
5F5A
  8
APL_JOINERY
  2
9010311
 10
104.6802674483672
 20
59.982587401833712
 30
0.0
 50
270.0
  0
INSERT
  5
6182
  8
APL_JOINERY
  2
19MMLINER
 10
51.394282017451559
 20
63.484441964693701
 30
0.0
 41
-1.0
 50
270.0
  0
INSERT
  5
6238
  8
APL_JOINERY
  2
9010311
 10
206.26064746873399
 20
102.05855847740111
 30
0.0
 41
-1.0
 50
134.99999999999969
  0
INSERT
  5
624B
  8
APL_JOINERY
  2
92195
 10
220.75633648328329
 20
59.278598215908573
 30
0.0
 41
-1.0
 50
314.99999999999972
  0
INSERT
  5
624C
  8
APL_JOINERY
  2
9010235L
 10
232.56687479445699
 20
72.923904027450192
 30
0.0
 41
-1.0
 50
314.99999999999972
  0
INSERT
  5
6295
  8
APL_JOINERY
  2
9010311
 10
230.26138664163611
 20
126.05929765030319
 30
0.0
 50
315.0
  0
INSERT
  5
62A8
  8
APL_JOINERY
  2
92195
 10
273.04134690312873
 20
111.56360863575379
 30
0.0
 50
135.0
  0
INSERT
  5
62A9
  8
APL_JOINERY
  2
9010235L
 10
259.39604109158711
 20
99.753070324580193
 30
0.0
 50
135.0
  0
INSERT
  5
6939
  8
APL_JOINERY
  2
24MM_IGU
 10
191.42879397222529
 20
430.19404369801219
 30
0.0
 50
180.00000000000011
  0
INSERT
  5
693A
  8
APL_JOINERY
  2
24MM_IGU
 10
191.42879397222529
 20
362.24320177042392
 30
0.0
 41
-1.0
  0
INSERT
  5
6973
  8
APL_JOINERY
  2
32MM_IGU
 10
119.92624450841009
 20
282.95815572873909
 30
0.0
 50
90.0
  0
INSERT
  5
6976
  8
APL_JOINERY
  2
32MM_IGU
 10
55.068749478018361
 20
282.95815572873909
 30
0.0
 41
-1.0
 50
270.0
  0
INSERT
  5
69E5
  8
APL_JOINERY
  2
24MM_IGU
 10
274.33549824032559
 20
213.40601302427521
 30
0.0
  0
INSERT
  5
69ED
  8
APL_JOINERY
  2
24MM_IGU
 10
118.6802502078372
 20
33.984054386480217
 30
0.0
 50
89.999958842800865
  0
INSERT
  5
69EE
  8
APL_JOINERY
  2
24MM_IGU
 10
58.744090980843133
 20
33.984054386480217
 30
0.0
 41
-1.0
 50
270.00004115719912
  0
INSERT
  5
6A27
  8
APL_JOINERY
  2
32MM_IGU
 10
264.20280157760533
 20
111.91742753045411
 30
0.0
 50
135.0
  0
INSERT
  5
6A28
  8
APL_JOINERY
  2
32MM_IGU
 10
220.40251754331439
 20
68.117142745667081
 30
0.0
 41
-1.0
 50
315.0
  0
INSERT
  5
6B74
  8
APL_HATCH
  6
CONTINUOUS
  2
*U40
 10
0.0
 20
0.0
 30
0.0
1001
ACAD
1002
{
1000
R14_HATCH_DATA
1000
6B74
1011
1.0
1021
0.0
1031
0.0
1021
0.0
1031
0.0
1011
0.0
1021
0.0
1031
0.0
1021
1.0
1031
0.0
1011
0.0
1021
0.0
1031
0.0
1021
0.0
1031
1.0
1040
0.0
1010
0.0
1020
0.0
1030
1.0
1000
SOLID
1070
     1
1070
     1
1071
        1
1071
        1
1071
        8
1070
     1
1040
199.4179050440593
1040
37.942796479432097
1040
198.56937690663511
1040
38.791324616855832
1070
     1
1040
198.56937690663511
1040
38.791324616855832
1040
180.75539239166039
1040
20.977340099952809
1070
     2
1040
180.04828561047401
1040
21.68444688113955
1040
1.000000000000083
1040
0.7853981633976446
1040
1.5707963267950951
1070
     0
1070
     1
1040
180.04828561047381
1040
20.684446881139468
1040
154.8555071015339
1040
20.684446879776139
1070
     1
1040
154.8555071015339
1040
20.684446879776139
1040
154.8555071015341
1040
19.48444687977587
1070
     1
1040
154.8555071015341
1040
19.48444687977587
1040
180.04828560718229
1040
19.484446879776321
1070
     2
1040
180.04828560718249
1040
21.684446879776221
1040
2.1999999999998958
1040
4.7123889803845991
1040
5.4977871437820491
1070
     1
1070
     1
1040
181.60392052579269
1040
20.128811961165749
1040
199.4179050440593
1040
37.942796479432097
1071
        1
1005
5F22
1070
     0
1070
     1
1071
        1
1040
0.0
1040
0.0
1040
0.0
1002
}
  0
INSERT
  5
6B82
  8
APL_HATCH
  6
CONTINUOUS
  2
*U41
 10
0.0
 20
0.0
 30
0.0
1001
ACAD
1002
{
1000
R14_HATCH_DATA
1000
6B82
1011
1.0
1021
0.0
1031
0.0
1021
0.0
1031
0.0
1011
0.0
1021
0.0
1031
0.0
1021
1.0
1031
0.0
1011
0.0
1021
0.0
1031
0.0
1021
0.0
1031
1.0
1040
0.0
1010
0.0
1020
0.0
1030
1.0
1000
SOLID
1070
     1
1070
     1
1071
        1
1071
        1
1071
        8
1070
     1
1040
294.3771486396048
1040
132.90204007497769
1040
293.52862050218113
1040
133.75056821240179
1070
     1
1040
293.52862050218113
1040
133.75056821240179
1040
311.34260501908392
1040
151.56455272737671
1070
     2
1040
310.6354982378972
1040
152.2716595085632
1040
1.0000000000000679
1040
5.4977871437823191
1040
6.2831853071797852
1070
     1
1070
     1
1040
311.6354982378972
1040
152.2716595085634
1040
311.6354982392607
1040
177.46443801750311
1070
     1
1040
311.6354982392607
1040
177.46443801750311
1040
312.8354982392608
1040
177.46443801750311
1070
     1
1040
312.8354982392608
1040
177.46443801750311
1040
312.83549823926057
1040
152.27165951185489
1070
     2
1040
310.6354982392607
1040
152.27165951185469
1040
2.1999999999998741
1040
6.2831853071794947
1040
7.068583470576951
1070
     0
1070
     1
1040
312.19113315787109
1040
150.7160245932445
1040
294.3771486396048
1040
132.90204007497769
1071
        1
1005
5F2B
1070
     0
1070
     1
1071
        1
1040
0.0
1040
0.0
1040
0.0
1002
}
  0
POLYLINE
  5
6B9B
  8
APL_JOINERY
 62
     9
 66
     1
 10
0.0
 20
0.0
 30
0.0
 70
     1
1001
ACAD
1000
ASC_BOUNDS
1002
{
1070
    19
1005
6BD9
1005
6B9C
1002
}
  0
VERTEX
  5
7255
  8
APL_JOINERY
 62
     9
 10
158.08172373991411
 20
21.962103453005739
 30
0.0
  0
VERTEX
  5
7256
  8
APL_JOINERY
 62
     9
 10
166.53061111454409
 20
21.962103453005739
 30
0.0
  0
VERTEX
  5
7257
  8
APL_JOINERY
 62
     9
 10
166.53061111454409
 20
21.042492802415829
 30
0.0
  0
VERTEX
  5
7258
  8
APL_JOINERY
 62
     9
 10
158.08172373991411
 20
21.042492802415829
 30
0.0
  0
SEQEND
  5
7259
  8
APL_JOINERY
 62
     9
  0
INSERT
  5
6B9C
  8
APL_HATCH
  6
CONTINUOUS
 62
     9
  2
*X42
 10
0.0
 20
0.0
 30
0.0
1001
ACAD
1000
HATCH
1002
{
1070
    19
1000
ANSI32
1040
0.1
1040
0.0
1000
ASC_BOUNDS
1070
     1
1070
     2
1070
     1
1005
6B9B
1000
ASC_SEEDPOINT
1011
0.0
1021
0.0
1031
0.0
1021
0.0
1031
0.0
1000
R14_HATCH_DATA
1000
6B9C
1011
1.0
1021
0.0
1031
0.0
1021
0.0
1031
0.0
1011
0.0
1021
0.0
1031
0.0
1021
1.0
1031
0.0
1011
0.0
1021
0.0
1031
0.0
1021
0.0
1031
1.0
1040
0.0
1010
0.0
1020
0.0
1030
1.0
1000
ANSI32
1070
     0
1070
     1
1071
        1
1071
        1
1071
        4
1070
     1
1040
158.08172373991411
1040
21.962103453005739
1040
166.53061111454409
1040
21.962103453005739
1070
     1
1040
166.53061111454409
1040
21.962103453005739
1040
166.53061111454409
1040
21.042492802415829
1070
     1
1040
166.53061111454409
1040
21.042492802415829
1040
158.08172373991411
1040
21.042492802415829
1070
     1
1040
158.08172373991411
1040
21.042492802415829
1040
158.08172373991411
1040
21.962103453005739
1071
        1
1005
6B9B
1070
     0
1070
     1
1040
0.0
1040
0.1
1070
     0
1070
     2
1040
0.7853981633974483
1040
0.0
1040
0.0
1040
-0.6735192090801866
1040
0.6735192090801867
1070
     0
1040
0.7853981633974483
1040
0.4490130000000001
1040
0.0
1040
-0.6735192090801866
1040
0.6735192090801867
1070
     0
1071
        1
1040
0.0
1040
0.0
1040
0.0
1002
}
  0
POLYLINE
  5
6BA9
  8
APL_JOINERY
 62
     9
 66
     1
 10
0.0
 20
0.0
 30
0.0
 70
     1
  0
VERTEX
  5
726B
  8
APL_JOINERY
 62
     9
 10
195.38465761711331
 20
37.413484581244127
 30
0.0
  0
VERTEX
  5
726C
  8
APL_JOINERY
 62
     9
 10
189.41039206102991
 20
31.439219025163041
 30
0.0
  0
VERTEX
  5
726D
  8
APL_JOINERY
 62
     9
 10
190.0606549881133
 20
30.788956098079421
 30
0.0
  0
VERTEX
  5
726E
  8
APL_JOINERY
 62
     9
 10
196.03492054419669
 20
36.76322165416051
 30
0.0
  0
SEQEND
  5
726F
  8
APL_JOINERY
 62
     9
  0
INSERT
  5
6BAA
  8
APL_HATCH
  6
CONTINUOUS
 62
     9
  2
*X43
 10
0.0
 20
0.0
 30
0.0
1001
ACAD
1000
HATCH
1002
{
1070
    19
1000
ANSI32
1040
0.1
1040
0.0
1000
R14_HATCH_DATA
1000
6BAA
1011
1.0
1021
0.0
1031
0.0
1021
0.0
1031
0.0
1011
0.0
1021
0.0
1031
0.0
1021
1.0
1031
0.0
1011
0.0
1021
0.0
1031
0.0
1021
0.0
1031
1.0
1040
0.0
1010
0.0
1020
0.0
1030
1.0
1000
ANSI32
1070
     0
1070
     0
1071
        1
1071
        1
1071
        4
1070
     1
1040
195.3846576746389
1040
37.413484534299918
1040
189.41039209920621
1040
31.43921899756808
1070
     1
1040
189.41039209920621
1040
31.439218997568069
1040
190.06065502418349
1040
30.788956068378411
1070
     1
1040
190.06065502418349
1040
30.788956068378411
1040
196.03492059961621
1040
36.76322160511026
1070
     1
1040
196.03492059961621
1040
36.763221605110239
1040
195.3846576746389
1040
37.413484534299918
1071
        0
1070
     0
1070
     1
1040
0.0
1040
0.1
1070
     0
1070
     2
1040
3.1415926503508311
1040
322.69486910528508
1040
133.6645906793579
1040
0.0000000030851108
1040
0.9525000000000002
1070
     0
1040
3.1415926503508311
1040
322.37736896711579
1040
133.3470905432454
1040
0.0000000030851108
1040
0.9525000000000002
1070
     0
1071
        1
1040
322.69486910528508
1040
133.6645906793579
1040
0.0
1002
}
  0
POLYLINE
  5
6BAB
  8
APL_JOINERY
 62
     9
 66
     1
 10
0.0
 20
0.0
 30
0.0
 70
     1
  0
VERTEX
  5
7281
  8
APL_JOINERY
 62
     9
 10
300.92846696138679
 20
142.8763134094024
 30
0.0
  0
VERTEX
  5
7282
  8
APL_JOINERY
 62
     9
 10
294.95420140530342
 20
136.90204785332131
 30
0.0
  0
VERTEX
  5
7283
  8
APL_JOINERY
 62
     9
 10
295.60446433238673
 20
136.25178492623769
 30
0.0
  0
VERTEX
  5
7284
  8
APL_JOINERY
 62
     9
 10
301.57872988847021
 20
142.22605048231881
 30
0.0
  0
SEQEND
  5
7285
  8
APL_JOINERY
 62
     9
  0
INSERT
  5
6BAC
  8
APL_HATCH
  6
CONTINUOUS
 62
     9
  2
*X44
 10
0.0
 20
0.0
 30
0.0
1001
ACAD
1000
HATCH
1002
{
1070
    19
1000
ANSI32
1040
0.1
1040
0.0
1000
R14_HATCH_DATA
1000
6BAC
1011
1.0
1021
0.0
1031
0.0
1021
0.0
1031
0.0
1011
0.0
1021
0.0
1031
0.0
1021
1.0
1031
0.0
1011
0.0
1021
0.0
1031
0.0
1021
0.0
1031
1.0
1040
0.0
1010
0.0
1020
0.0
1030
1.0
1000
ANSI32
1070
     0
1070
     0
1071
        1
1071
        1
1071
        4
1070
     1
1040
300.92846701891239
1040
142.87631336245821
1040
294.95420144347969
1040
136.90204782572641
1070
     1
1040
294.95420144347969
1040
136.90204782572641
1040
295.604464368457
1040
136.25178489653669
1070
     1
1040
295.604464368457
1040
136.25178489653669
1040
301.5787299438897
1040
142.22605043326851
1070
     1
1040
301.5787299438897
1040
142.22605043326851
1040
300.92846701891227
1040
142.87631336245821
1071
        0
1070
     0
1070
     1
1040
0.0
1040
0.1
1070
     0
1070
     2
1040
3.1415926503508311
1040
428.23867844955862
1040
239.12741950751621
1040
0.0000000030851108
1040
0.9525000000000002
1070
     0
1040
3.1415926503508311
1040
427.92117831138921
1040
238.80991937140371
1040
0.0000000030851108
1040
0.9525000000000002
1070
     0
1071
        1
1040
428.23867844955862
1040
239.12741950751621
1040
0.0
1002
}
  0
POLYLINE
  5
6BAD
  8
APL_JOINERY
 62
     9
 66
     1
 10
0.0
 20
0.0
 30
0.0
 70
     1
  0
VERTEX
  5
7297
  8
APL_JOINERY
 62
     9
 10
310.41510353812248
 20
165.77908009426781
 30
0.0
  0
VERTEX
  5
7298
  8
APL_JOINERY
 62
     9
 10
310.41510353811958
 20
174.22796746889779
 30
0.0
  0
VERTEX
  5
7299
  8
APL_JOINERY
 62
     9
 10
311.33471418870948
 20
174.2279674688981
 30
0.0
  0
VERTEX
  5
729A
  8
APL_JOINERY
 62
     9
 10
311.3347141887125
 20
165.7790800942681
 30
0.0
  0
SEQEND
  5
729B
  8
APL_JOINERY
 62
     9
  0
INSERT
  5
6BAE
  8
APL_HATCH
  6
CONTINUOUS
 62
     9
  2
*X45
 10
0.0
 20
0.0
 30
0.0
1001
ACAD
1000
HATCH
1002
{
1070
    19
1000
ANSI32
1040
0.1
1040
0.0
1000
R14_HATCH_DATA
1000
6BAE
1011
1.0
1021
0.0
1031
0.0
1021
0.0
1031
0.0
1011
0.0
1021
0.0
1031
0.0
1021
1.0
1031
0.0
1011
0.0
1021
0.0
1031
0.0
1021
0.0
1031
1.0
1040
0.0
1010
0.0
1020
0.0
1030
1.0
1000
ANSI32
1070
     0
1070
     0
1071
        1
1071
        1
1071
        4
1070
     1
1040
310.41510361199391
1040
165.7790800867856
1040
310.41510358462682
1040
174.2279674614156
1070
     1
1040
310.41510358462682
1040
174.2279674614156
1040
311.33471423521672
1040
174.22796746439431
1070
     1
1040
311.33471423521672
1040
174.22796746439431
1040
311.3347142625837
1040
165.77908008976439
1070
     1
1040
311.3347142625837
1040
165.77908008976439
1040
310.4151036119938
1040
165.77908008678571
1071
        0
1070
     0
1070
     1
1040
0.0
1040
0.1
1070
     0
1070
     2
1040
2.3561944934314689
1040
332.37720757704591
1040
7.6973564180095186
1040
-0.6735192068985743
1040
-0.6735192112617993
1070
     0
1040
2.3561944934314689
1040
332.37720757559151
1040
8.1463694180095558
1040
-0.6735192068985743
1040
-0.6735192112617993
1070
     0
1071
        1
1040
332.37720757704591
1040
7.6973564180095186
1040
0.0
1002
}
  0
POLYLINE
  5
6BD8
  8
APL_JOINERY
 62
     9
 66
     1
 10
0.0
 20
0.0
 30
0.0
 70
     1
  0
VERTEX
  5
72AD
  8
APL_JOINERY
 62
     9
 10
159.32770080031449
 20
279.0657155075707
 30
0.0
  0
VERTEX
  5
72AE
  8
APL_JOINERY
 62
     9
 10
167.77658817494441
 20
279.0657155075707
 30
0.0
  0
VERTEX
  5
72AF
  8
APL_JOINERY
 62
     9
 10
167.77658817494441
 20
278.1461048569808
 30
0.0
  0
VERTEX
  5
72B0
  8
APL_JOINERY
 62
     9
 10
159.32770080031449
 20
278.1461048569808
 30
0.0
  0
SEQEND
  5
72B1
  8
APL_JOINERY
 62
     9
  0
INSERT
  5
6BD9
  8
APL_HATCH
  6
CONTINUOUS
 62
     9
  2
*X46
 10
0.0
 20
0.0
 30
0.0
1001
ACAD
1000
HATCH
1002
{
1070
    19
1000
ANSI32
1040
0.1
1040
0.0
1000
ASC_BOUNDS
1070
     1
1070
     2
1070
     1
1005
6B9B
1000
ASC_SEEDPOINT
1011
1.2539462112083011
1021
0.0
1031
0.0
1021
257.10361205456502
1031
0.0
1000
R14_HATCH_DATA
1000
6BD9
1011
1.0
1021
0.0
1031
0.0
1021
0.0
1031
0.0
1011
0.0
1021
0.0
1031
0.0
1021
1.0
1031
0.0
1011
0.0
1021
0.0
1031
0.0
1021
0.0
1031
1.0
1040
0.0
1010
0.0
1020
0.0
1030
1.0
1000
ANSI32
1070
     0
1070
     1
1071
        1
1071
        1
1071
        4
1070
     1
1040
159.33566995112241
1040
279.0657155075707
1040
167.78455732575239
1040
279.0657155075707
1070
     1
1040
167.78455732575239
1040
279.0657155075707
1040
167.78455732575239
1040
278.1461048569808
1070
     1
1040
167.78455732575239
1040
278.1461048569808
1040
159.33566995112241
1040
278.1461048569808
1070
     1
1040
159.33566995112241
1040
278.1461048569808
1040
159.33566995112241
1040
279.0657155075707
1071
        1
1005
6B9B
1070
     0
1070
     1
1040
0.0
1040
0.1
1070
     0
1070
     2
1040
0.7853981633974483
1040
1.2539462112083011
1040
257.10361205456502
1040
-0.6735192090801866
1040
0.6735192090801867
1070
     0
1040
0.7853981633974483
1040
1.702959211208301
1040
257.10361205456502
1040
-0.6735192090801866
1040
0.6735192090801867
1070
     0
1071
        1
1040
1.2539462112083011
1040
257.10361205456502
1040
0.0
1002
}
  0
POLYLINE
  5
6BDA
  8
APL_JOINERY
 62
     9
 66
     1
 10
0.0
 20
0.0
 30
0.0
 70
     1
  0
VERTEX
  5
72C3
  8
APL_JOINERY
 62
     9
 10
203.32123419353121
 20
323.0592489007866
 30
0.0
  0
VERTEX
  5
72C4
  8
APL_JOINERY
 62
     9
 10
203.32123419353101
 20
314.61036152615662
 30
0.0
  0
VERTEX
  5
72C5
  8
APL_JOINERY
 62
     9
 10
204.24084484412089
 20
314.61036152615662
 30
0.0
  0
VERTEX
  5
72C6
  8
APL_JOINERY
 62
     9
 10
204.24084484412111
 20
323.0592489007866
 30
0.0
  0
SEQEND
  5
72C7
  8
APL_JOINERY
 62
     9
  0
INSERT
  5
6BDB
  8
APL_HATCH
  6
CONTINUOUS
 62
     9
  2
*X47
 10
0.0
 20
0.0
 30
0.0
1001
ACAD
1000
HATCH
1002
{
1070
    19
1000
ANSI32
1040
0.1
1040
0.0
1000
R14_HATCH_DATA
1000
6BDB
1011
1.0
1021
0.0
1031
0.0
1021
0.0
1031
0.0
1011
0.0
1021
0.0
1031
0.0
1021
1.0
1031
0.0
1011
0.0
1021
0.0
1031
0.0
1021
0.0
1031
1.0
1040
0.0
1010
0.0
1020
0.0
1030
1.0
1000
ANSI32
1070
     0
1070
     0
1071
        1
1071
        1
1071
        4
1070
     1
1040
203.32123419353121
1040
323.05127974997862
1040
203.32123419353101
1040
314.6023923753487
1070
     1
1040
203.32123419353101
1040
314.6023923753487
1040
204.24084484412089
1040
314.6023923753487
1070
     1
1040
204.24084484412089
1040
314.6023923753487
1040
204.24084484412111
1040
323.05127974997862
1070
     1
1040
204.24084484412111
1040
323.05127974997862
1040
203.32123419353121
1040
323.05127974997862
1071
        0
1070
     0
1070
     1
1040
0.0
1040
0.1
1070
     0
1070
     2
1040
3.9269908169872232
1040
225.28333764653971
1040
481.13300348989242
1040
-0.6735192090801747
1040
0.6735192090801986
1070
     0
1040
3.9269908169872232
1040
225.28333764653971
1040
480.68399048989238
1040
-0.6735192090801747
1040
0.6735192090801986
1070
     0
1071
        1
1040
225.28333764653971
1040
481.13300348989242
1040
0.0
1002
}
  0
POLYLINE
  5
6E39
  8
APL_NOTES
 62
     2
 66
     1
 10
0.0
 20
0.0
 30
0.0
 70
     1
  0
VERTEX
  5
72D9
  8
APL_NOTES
 62
     2
 10
336.15414786799857
 20
382.78808655493401
 30
0.0
  0
VERTEX
  5
72DA
  8
APL_NOTES
 62
     2
 10
336.15414786799857
 20
432.42045321066553
 30
0.0
  0
VERTEX
  5
72DB
  8
APL_NOTES
 62
     2
 10
295.99603682061053
 20
417.80409612505952
 30
0.0
  0
VERTEX
  5
72DC
  8
APL_NOTES
 62
     2
 10
246.85971121832191
 20
417.8040961250594
 30
0.0
  0
VERTEX
  5
72DD
  8
APL_NOTES
 62
     2
 10
246.85971121832191
 20
368.4364627807912
 30
0.0
  0
VERTEX
  5
72DE
  8
APL_NOTES
 62
     2
 10
296.72338561603277
 20
368.43646278079092
 30
0.0
  0
SEQEND
  5
72DF
  8
APL_NOTES
 62
     2
  0
POLYLINE
  5
6E3B
  8
APL_NOTES
 62
     2
 66
     1
 10
0.0
 20
0.0
 30
0.0
 70
     1
  0
VERTEX
  5
72E0
  8
APL_NOTES
 62
     2
 10
334.09164786799857
 20
384.23226460249151
 30
0.0
  0
VERTEX
  5
72E1
  8
APL_NOTES
 62
     2
 10
334.09164786799857
 20
429.47489794676
 30
0.0
  0
VERTEX
  5
72E2
  8
APL_NOTES
 62
     2
 10
296.35971121832199
 20
415.74159612505957
 30
0.0
  0
VERTEX
  5
72E3
  8
APL_NOTES
 62
     2
 10
248.92221121832179
 20
415.74159612505952
 30
0.0
  0
VERTEX
  5
72E4
  8
APL_NOTES
 62
     2
 10
248.92221121832179
 20
370.4989627807912
 30
0.0
  0
VERTEX
  5
72E5
  8
APL_NOTES
 62
     2
 10
296.35971121832159
 20
370.49896278079092
 30
0.0
  0
SEQEND
  5
72E6
  8
APL_NOTES
 62
     2
  0
POLYLINE
  5
6EAE
  8
APL_NOTES
 62
     2
 66
     1
 10
0.0
 20
0.0
 30
0.0
 70
     1
  0
VERTEX
  5
72E7
  8
APL_NOTES
 62
     2
 10
126.6937383299786
 20
211.37442287895161
 30
0.0
  0
VERTEX
  5
72E8
  8
APL_NOTES
 62
     2
 10
166.93747902721901
 20
218.47048016851031
 30
0.0
  0
VERTEX
  5
72E9
  8
APL_NOTES
 62
     2
 10
204.6694156768956
 20
232.2037819902107
 30
0.0
  0
VERTEX
  5
72EA
  8
APL_NOTES
 62
     2
 10
204.6694156768956
 20
186.9611486459423
 30
0.0
  0
VERTEX
  5
72EB
  8
APL_NOTES
 62
     2
 10
166.9374790272185
 20
173.22784682424171
 30
0.0
  0
VERTEX
  5
72EC
  8
APL_NOTES
 62
     2
 10
126.6937383299782
 20
166.13178953468309
 30
0.0
  0
VERTEX
  5
72ED
  8
APL_NOTES
 62
     2
 10
79.256238329978231
 20
166.13178953468309
 30
0.0
  0
VERTEX
  5
72EE
  8
APL_NOTES
 62
     2
 10
79.256238329978231
 20
211.37442287895141
 30
0.0
  0
SEQEND
  5
72EF
  8
APL_NOTES
 62
     2
  0
POLYLINE
  5
6EB0
  8
APL_NOTES
 62
     2
 66
     1
 10
0.0
 20
0.0
 30
0.0
 70
     1
  0
VERTEX
  5
72F0
  8
APL_NOTES
 62
     2
 10
166.40162566286489
 20
220.4703121496855
 30
0.0
  0
VERTEX
  5
72F1
  8
APL_NOTES
 62
     2
 10
206.7319156768956
 20
235.14933725411629
 30
0.0
  0
VERTEX
  5
72F2
  8
APL_NOTES
 62
     2
 10
206.7319156768956
 20
185.5169705983848
 30
0.0
  0
VERTEX
  5
72F3
  8
APL_NOTES
 62
     2
 10
167.4733323915728
 20
171.2280148430664
 30
0.0
  0
VERTEX
  5
72F4
  8
APL_NOTES
 62
     2
 10
126.8741836985004
 20
164.06928953468309
 30
0.0
  0
VERTEX
  5
72F5
  8
APL_NOTES
 62
     2
 10
77.193738329978345
 20
164.06928953468309
 30
0.0
  0
VERTEX
  5
72F6
  8
APL_NOTES
 62
     2
 10
77.193738329978345
 20
213.43692287895141
 30
0.0
  0
VERTEX
  5
72F7
  8
APL_NOTES
 62
     2
 10
126.5132929614567
 20
213.43692287895161
 30
0.0
  0
SEQEND
  5
72F8
  8
APL_NOTES
 62
     2
  0
VIEWPORT
  5
491B
 67
     1
  8
0
 10
99.197578430175767
 20
143.16075468063349
 30
0.0
 40
552.27863362389076
 41
299.29210206611668
 68
     1
 69
     1
1001
ACAD
1000
MVIEW
1002
{
1070
    16
1010
0.0
1020
0.0
1030
0.0
1010
0.0
1020
0.0
1030
1.0
1040
0.0
1040
299.29210206611668
1040
99.197578430175767
1040
143.16075468063349
1040
50.0
1040
0.0
1040
0.0
1070
     0
1070
 20000
1070
     1
1070
     1
1070
     0
1070
     0
1070
     0
1070
     0
1040
0.0
1040
0.0
1040
0.0
1040
10.0
1040
10.0
1040
10.0
1040
10.0
1070
     0
1002
{
1002
}
1002
}
  0
VIEWPORT
  5
491D
 67
     1
  8
0
 10
100.595
 20
133.19
 30
0.0
 40
178.0
 41
246.0
 68
     2
 69
     2
1001
ACAD
1000
MVIEW
1002
{
1070
    16
1010
0.0
1020
0.0
1030
0.0
1010
0.0
1020
0.0
1030
1.0
1040
0.0
1040
492.0
1040
177.00000084064069
1040
241.00000229999941
1040
50.0
1040
0.0
1040
0.0
1070
     0
1070
   100
1070
     1
1070
     3
1070
     0
1070
     0
1070
     0
1070
     0
1040
0.0
1040
0.0
1040
0.0
1040
1.0
1040
1.0
1040
1.0
1040
1.0
1070
     0
1002
{
1002
}
1002
}
  0
INSERT
  5
4922
 67
     1
  8
APL_BORDER
  2
ALTH
 10
0.0
 20
0.0
 30
0.0
  0
INSERT
  5
54D4
 67
     1
  8
APL_BORDER
 66
     1
  2
ALTHERM_A4_SM_ATTRIBUTES__
 10
0.0
 20
0.0
 30
0.0
  0
ATTRIB
  5
54D6
 67
     1
  8
APL_BORDER
 10
52.850746347538013
 20
277.19000000000062
 30
0.0
 40
3.6000000000000001
  1
METRO THERMAL HEART, A100MT AWNING WINDOW
  7
ARIAL-BOLD
  2
DRAWINGTITLE_1
 70
     0
  0
ATTRIB
  5
54D7
 67
     1
  8
APL_BORDER
 10
52.850746347538013
 20
271.19000000000062
 30
0.0
 40
3.6000000000000001
  1
90º CORNER WINDOW, FACET WINDOW
  7
ARIAL-BOLD
  2
DRAWINGTITLE_2
 70
     0
  0
ATTRIB
  5
54D8
 67
     1
  8
APL_BORDER
 10
52.850746347538013
 20
265.19000000000068
 30
0.0
 40
3.0
  1
CROSS SECTION
  7
ARIAL-REGULAR
  2
DRAWINGTITLE_3
 70
     0
  0
ATTRIB
  5
54D9
 67
     1
  8
APL_BORDER
 10
67.85074634753795
 20
258.19
 30
0.0
 40
2.399999999999999
  1
ATAW02-0
  7
ARIAL-REGULAR
  2
AW123-456
 70
     0
  0
ATTRIB
  5
54DA
 67
     1
  8
APL_BORDER
 10
100.35074634753791
 20
258.19
 30
0.0
 40
2.399999999999999
  1
1:2
  7
ARIAL-REGULAR
  2
1:2
 70
     0
  0
ATTRIB
  5
54DB
 67
     1
  8
APL_BORDER
 10
119.35074634753791
 20
258.19
 30
0.0
 40
2.399999999999999
  1
01.01.09
  7
ARIAL-REGULAR
  2
20.09.02
 70
     0
  0
ATTRIB
  5
54DC
 67
     1
  8
APL_BORDER
 10
11.59500000000001
 20
1.1899999999999971
 30
0.0
 40
4.5
  1

  7
ARIAL-BOLD
  2
1.2.34
 70
     0
  0
ATTRIB
  5
54DD
 67
     1
  8
APL_BORDER
 10
189.595
 20
1.1899999999999971
 30
0.0
 40
4.5
  1

  7
ARIAL-BOLD
 72
     2
 11
189.595
 21
1.1899999999999971
 31
0.0
  2
1.2.34
 70
     0
  0
SEQEND
  5
54D5
 67
     1
  8
APL_BORDER
  0
ENDSEC
  0
EOF
