  0
SECTION
  2
HEADER
  9
$ACADVER
  1
AC1015
  9
$ACADMAINTVER
 70
     6
  9
$DWGCODEPAGE
  3
ANSI_1252
  9
$INSBASE
 10
0.0
 20
0.0
 30
0.0
  9
$EXTMIN
 10
1.000000000000000E+20
 20
1.000000000000000E+20
 30
1.000000000000000E+20
  9
$EXTMAX
 10
-1.000000000000000E+20
 20
-1.000000000000000E+20
 30
-1.000000000000000E+20
  9
$LIMMIN
 10
0.0
 20
0.0
  9
$LIMMAX
 10
12.0
 20
9.0
  9
$ORTHOMODE
 70
     0
  9
$REGENMODE
 70
     1
  9
$FILLMODE
 70
     1
  9
$QTEXTMODE
 70
     0
  9
$MIRRTEXT
 70
     1
  9
$LTSCALE
 40
1.0
  9
$ATTMODE
 70
     1
  9
$TEXTSIZE
 40
0.2
  9
$TRACEWID
 40
0.05
  9
$TEXTSTYLE
  7
Standard
  9
$CLAYER
  8
0
  9
$CELTYPE
  6
ByLayer
  9
$CECOLOR
 62
   256
  9
$CELTSCALE
 40
1.0
  9
$DISPSILH
 70
     0
  9
$DIMSCALE
 40
1.0
  9
$DIMASZ
 40
0.18
  9
$DIMEXO
 40
0.0625
  9
$DIMDLI
 40
0.38
  9
$DIMRND
 40
0.0
  9
$DIMDLE
 40
0.0
  9
$DIMEXE
 40
0.18
  9
$DIMTP
 40
0.0
  9
$DIMTM
 40
0.0
  9
$DIMTXT
 40
0.18
  9
$DIMCEN
 40
0.09
  9
$DIMTSZ
 40
0.0
  9
$DIMTOL
 70
     0
  9
$DIMLIM
 70
     0
  9
$DIMTIH
 70
     1
  9
$DIMTOH
 70
     1
  9
$DIMSE1
 70
     0
  9
$DIMSE2
 70
     0
  9
$DIMTAD
 70
     0
  9
$DIMZIN
 70
     0
  9
$DIMBLK
  1

  9
$DIMASO
 70
     1
  9
$DIMSHO
 70
     1
  9
$DIMPOST
  1

  9
$DIMAPOST
  1

  9
$DIMALT
 70
     0
  9
$DIMALTD
 70
     2
  9
$DIMALTF
 40
25.4
  9
$DIMLFAC
 40
1.0
  9
$DIMTOFL
 70
     0
  9
$DIMTVP
 40
0.0
  9
$DIMTIX
 70
     0
  9
$DIMSOXD
 70
     0
  9
$DIMSAH
 70
     0
  9
$DIMBLK1
  1

  9
$DIMBLK2
  1

  9
$DIMSTYLE
  2
Standard
  9
$DIMCLRD
 70
     0
  9
$DIMCLRE
 70
     0
  9
$DIMCLRT
 70
     0
  9
$DIMTFAC
 40
1.0
  9
$DIMGAP
 40
0.09
  9
$DIMJUST
 70
     0
  9
$DIMSD1
 70
     0
  9
$DIMSD2
 70
     0
  9
$DIMTOLJ
 70
     1
  9
$DIMTZIN
 70
     0
  9
$DIMALTZ
 70
     0
  9
$DIMALTTZ
 70
     0
  9
$DIMUPT
 70
     0
  9
$DIMDEC
 70
     4
  9
$DIMTDEC
 70
     4
  9
$DIMALTU
 70
     2
  9
$DIMALTTD
 70
     2
  9
$DIMTXSTY
  7
Standard
  9
$DIMAUNIT
 70
     0
  9
$DIMADEC
 70
     0
  9
$DIMALTRND
 40
0.0
  9
$DIMAZIN
 70
     0
  9
$DIMDSEP
 70
    46
  9
$DIMATFIT
 70
     3
  9
$DIMFRAC
 70
     0
  9
$DIMLDRBLK
  1

  9
$DIMLUNIT
 70
     2
  9
$DIMLWD
 70
    -2
  9
$DIMLWE
 70
    -2
  9
$DIMTMOVE
 70
     0
  9
$LUNITS
 70
     2
  9
$LUPREC
 70
     4
  9
$SKETCHINC
 40
0.1
  9
$FILLETRAD
 40
0.5
  9
$AUNITS
 70
     0
  9
$AUPREC
 70
     0
  9
$MENU
  1
.
  9
$ELEVATION
 40
0.0
  9
$PELEVATION
 40
0.0
  9
$THICKNESS
 40
0.0
  9
$LIMCHECK
 70
     0
  9
$CHAMFERA
 40
0.5
  9
$CHAMFERB
 40
0.5
  9
$CHAMFERC
 40
1.0
  9
$CHAMFERD
 40
0.0
  9
$SKPOLY
 70
     0
  9
$TDCREATE
 40
2456020.401260208
  9
$TDUCREATE
 40
2456019.901260208
  9
$TDUPDATE
 40
2456020.40126022
  9
$TDUUPDATE
 40
2456019.90126022
  9
$TDINDWG
 40
0.0000000116
  9
$TDUSRTIMER
 40
0.0000000116
  9
$USRTIMER
 70
     1
  9
$ANGBASE
 50
0.0
  9
$ANGDIR
 70
     0
  9
$PDMODE
 70
     0
  9
$PDSIZE
 40
0.0
  9
$PLINEWID
 40
0.0
  9
$SPLFRAME
 70
     0
  9
$SPLINETYPE
 70
     6
  9
$SPLINESEGS
 70
     8
  9
$HANDSEED
  5
29C
  9
$SURFTAB1
 70
     6
  9
$SURFTAB2
 70
     6
  9
$SURFTYPE
 70
     6
  9
$SURFU
 70
     6
  9
$SURFV
 70
     6
  9
$UCSBASE
  2

  9
$UCSNAME
  2

  9
$UCSORG
 10
0.0
 20
0.0
 30
0.0
  9
$UCSXDIR
 10
1.0
 20
0.0
 30
0.0
  9
$UCSYDIR
 10
0.0
 20
1.0
 30
0.0
  9
$UCSORTHOREF
  2

  9
$UCSORTHOVIEW
 70
     0
  9
$UCSORGTOP
 10
0.0
 20
0.0
 30
0.0
  9
$UCSORGBOTTOM
 10
0.0
 20
0.0
 30
0.0
  9
$UCSORGLEFT
 10
0.0
 20
0.0
 30
0.0
  9
$UCSORGRIGHT
 10
0.0
 20
0.0
 30
0.0
  9
$UCSORGFRONT
 10
0.0
 20
0.0
 30
0.0
  9
$UCSORGBACK
 10
0.0
 20
0.0
 30
0.0
  9
$PUCSBASE
  2

  9
$PUCSNAME
  2

  9
$PUCSORG
 10
0.0
 20
0.0
 30
0.0
  9
$PUCSXDIR
 10
1.0
 20
0.0
 30
0.0
  9
$PUCSYDIR
 10
0.0
 20
1.0
 30
0.0
  9
$PUCSORTHOREF
  2

  9
$PUCSORTHOVIEW
 70
     0
  9
$PUCSORGTOP
 10
0.0
 20
0.0
 30
0.0
  9
$PUCSORGBOTTOM
 10
0.0
 20
0.0
 30
0.0
  9
$PUCSORGLEFT
 10
0.0
 20
0.0
 30
0.0
  9
$PUCSORGRIGHT
 10
0.0
 20
0.0
 30
0.0
  9
$PUCSORGFRONT
 10
0.0
 20
0.0
 30
0.0
  9
$PUCSORGBACK
 10
0.0
 20
0.0
 30
0.0
  9
$USERI1
 70
     0
  9
$USERI2
 70
     0
  9
$USERI3
 70
     0
  9
$USERI4
 70
     0
  9
$USERI5
 70
     0
  9
$USERR1
 40
0.0
  9
$USERR2
 40
0.0
  9
$USERR3
 40
0.0
  9
$USERR4
 40
0.0
  9
$USERR5
 40
0.0
  9
$WORLDVIEW
 70
     1
  9
$SHADEDGE
 70
     3
  9
$SHADEDIF
 70
    70
  9
$TILEMODE
 70
     1
  9
$MAXACTVP
 70
    64
  9
$PINSBASE
 10
0.0
 20
0.0
 30
0.0
  9
$PLIMCHECK
 70
     0
  9
$PEXTMIN
 10
1.000000000000000E+20
 20
1.000000000000000E+20
 30
1.000000000000000E+20
  9
$PEXTMAX
 10
-1.000000000000000E+20
 20
-1.000000000000000E+20
 30
-1.000000000000000E+20
  9
$PLIMMIN
 10
0.0
 20
0.0
  9
$PLIMMAX
 10
12.0
 20
9.0
  9
$UNITMODE
 70
     0
  9
$VISRETAIN
 70
     1
  9
$PLINEGEN
 70
     0
  9
$PSLTSCALE
 70
     1
  9
$TREEDEPTH
 70
  3020
  9
$CMLSTYLE
  2
Standard
  9
$CMLJUST
 70
     0
  9
$CMLSCALE
 40
1.0
  9
$PROXYGRAPHICS
 70
     1
  9
$MEASUREMENT
 70
     0
  9
$CELWEIGHT
370
    -1
  9
$ENDCAPS
280
     0
  9
$JOINSTYLE
280
     0
  9
$LWDISPLAY
290
     1
  9
$INSUNITS
 70
     1
  9
$HYPERLINKBASE
  1

  9
$STYLESHEET
  1

  9
$XEDIT
290
     1
  9
$CEPSNTYPE
380
     0
  9
$PSTYLEMODE
290
     1
  9
$FINGERPRINTGUID
  2
{E3F654E3-6EC5-455D-9238-8A56C356E3C3}
  9
$VERSIONGUID
  2
{FAEB1C32-E019-11D5-929B-00C0DF256EC4}
  9
$EXTNAMES
290
     1
  9
$PSVPSCALE
 40
0.0
  9
$OLESTARTUP
290
     0
  0
ENDSEC
  0
SECTION
  2
CLASSES
  0
CLASS
  1
ACDBDICTIONARYWDFLT
  2
AcDbDictionaryWithDefault
  3
ObjectDBX Classes
 90
        0
280
     0
281
     0
  0
CLASS
  1
VISUALSTYLE
  2
AcDbVisualStyle
  3
ObjectDBX Classes
 90
     4095
280
     0
281
     0
  0
CLASS
  1
ACDBPLACEHOLDER
  2
AcDbPlaceHolder
  3
ObjectDBX Classes
 90
        0
280
     0
281
     0
  0
CLASS
  1
LAYOUT
  2
AcDbLayout
  3
ObjectDBX Classes
 90
        0
280
     0
281
     0
  0
ENDSEC
  0
SECTION
  2
TABLES
  0
TABLE
  2
VPORT
  5
8
330
0
100
AcDbSymbolTable
 70
     1
  0
VPORT
  5
29
330
8
100
AcDbSymbolTableRecord
100
AcDbViewportTableRecord
  2
*Active
 70
     0
 10
0.0
 20
0.0
 11
1.0
 21
1.0
 12
0.0
 22
0.0
 13
0.0
 23
0.0
 14
0.5
 24
0.5
 15
0.5
 25
0.5
 16
0.0
 26
0.0
 36
1.0
 17
104.9999647089931
 27
148.4999796178229
 37
0.0
 40
296.9999592356459
 41
0.7070705664688927
 42
50.0
 43
0.0
 44
0.0
 50
0.0
 51
0.0
 71
     0
 72
   100
 73
     1
 74
     3
 75
     0
 76
     0
 77
     0
 78
     0
281
     0
 65
     1
110
0.0
120
0.0
130
0.0
111
1.0
121
0.0
131
0.0
112
0.0
122
1.0
132
0.0
 79
     0
146
0.0
  0
ENDTAB
  0
TABLE
  2
LTYPE
  5
5
330
0
100
AcDbSymbolTable
 70
     5
  0
LTYPE
  5
14
330
5
100
AcDbSymbolTableRecord
100
AcDbLinetypeTableRecord
  2
ByBlock
 70
     0
  3

 72
    65
 73
     0
 40
0.0
  0
LTYPE
  5
15
330
5
100
AcDbSymbolTableRecord
100
AcDbLinetypeTableRecord
  2
ByLayer
 70
     0
  3

 72
    65
 73
     0
 40
0.0
  0
LTYPE
  5
16
330
5
100
AcDbSymbolTableRecord
100
AcDbLinetypeTableRecord
  2
Continuous
 70
     0
  3
Solid line
 72
    65
 73
     0
 40
0.0
  0
LTYPE
  5
F9
330
5
100
AcDbSymbolTableRecord
100
AcDbLinetypeTableRecord
  2
AI-Linetype-1
 70
     0
  3
Adobe Illustrator Linetype No. 1
 72
    65
 73
     4
 40
6.349636606443653
 49
4.23308638890721
 74
     0
 49
-0.7055167391788141
 74
     0
 49
0.7055167391788141
 74
     0
 49
-0.7055167391788141
 74
     0
  0
LTYPE
  5
FE
330
5
100
AcDbSymbolTableRecord
100
AcDbLinetypeTableRecord
  2
AI-Linetype-2
 70
     0
  3
Adobe Illustrator Linetype No. 2
 72
    65
 73
     4
 40
6.349636606443653
 49
4.23308638890721
 74
     0
 49
-0.7055167391788141
 74
     0
 49
0.7055167391788141
 74
     0
 49
-0.7055167391788141
 74
     0
  0
LTYPE
  5
1C8
330
5
100
AcDbSymbolTableRecord
100
AcDbLinetypeTableRecord
  2
AI-Linetype-3
 70
     0
  3
Adobe Illustrator Linetype No. 3
 72
    65
 73
     2
 40
4.233061576818144
 49
2.822042228734967
 74
     0
 49
-1.411019348083177
 74
     0
  0
LTYPE
  5
1DD
330
5
100
AcDbSymbolTableRecord
100
AcDbLinetypeTableRecord
  2
AI-Linetype-4
 70
     0
  3
Adobe Illustrator Linetype No. 4
 72
    65
 73
     2
 40
4.233061576818144
 49
2.822042228734967
 74
     0
 49
-1.411019348083177
 74
     0
  0
ENDTAB
  0
TABLE
  2
LAYER
  5
2
330
0
100
AcDbSymbolTable
 70
     2
  0
LAYER
  5
10
330
2
100
AcDbSymbolTableRecord
100
AcDbLayerTableRecord
  2
0
 70
     0
 62
     7
  6
Continuous
370
    -3
390
F
  0
LAYER
  5
3B
330
2
100
AcDbSymbolTableRecord
100
AcDbLayerTableRecord
  2
Layer 1
 70
     0
 62
     7
  6
Continuous
370
    -3
390
F
  0
ENDTAB
  0
TABLE
  2
STYLE
  5
3
330
0
100
AcDbSymbolTable
 70
     1
  0
STYLE
  5
11
330
3
100
AcDbSymbolTableRecord
100
AcDbTextStyleTableRecord
  2
Standard
 70
     0
 40
0.0
 41
1.0
 50
0.0
 71
     0
 42
0.2
  3
txt
  4

  0
ENDTAB
  0
TABLE
  2
VIEW
  5
6
330
0
100
AcDbSymbolTable
 70
     0
  0
ENDTAB
  0
TABLE
  2
UCS
  5
7
330
0
100
AcDbSymbolTable
 70
     0
  0
ENDTAB
  0
TABLE
  2
APPID
  5
9
330
0
100
AcDbSymbolTable
 70
     1
  0
APPID
  5
12
330
9
100
AcDbSymbolTableRecord
100
AcDbRegAppTableRecord
  2
ACAD
 70
     0
  0
ENDTAB
  0
TABLE
  2
DIMSTYLE
  5
A
330
0
100
AcDbSymbolTable
 70
     1
100
AcDbDimStyleTable
  0
DIMSTYLE
105
27
330
A
100
AcDbSymbolTableRecord
100
AcDbDimStyleTableRecord
  2
Standard
 70
     0
340
11
  0
ENDTAB
  0
TABLE
  2
BLOCK_RECORD
  5
1
330
0
100
AcDbSymbolTable
 70
    21
  0
BLOCK_RECORD
  5
1F
330
1
100
AcDbSymbolTableRecord
100
AcDbBlockTableRecord
  2
*Model_Space
340
22
  0
BLOCK_RECORD
  5
1B
330
1
100
AcDbSymbolTableRecord
100
AcDbBlockTableRecord
  2
*Paper_Space
340
1E
  0
BLOCK_RECORD
  5
23
330
1
100
AcDbSymbolTableRecord
100
AcDbBlockTableRecord
  2
*Paper_Space0
340
26
  0
BLOCK_RECORD
  5
3C
330
1
100
AcDbSymbolTableRecord
100
AcDbBlockTableRecord
  2
block 2
340
0
102
{BLKREFS
331
3D
102
}
  0
BLOCK_RECORD
  5
AA
330
1
100
AcDbSymbolTableRecord
100
AcDbBlockTableRecord
  2
block 3
340
0
102
{BLKREFS
331
AB
102
}
  0
BLOCK_RECORD
  5
B6
330
1
100
AcDbSymbolTableRecord
100
AcDbBlockTableRecord
  2
block 4
340
0
102
{BLKREFS
331
B7
102
}
  0
BLOCK_RECORD
  5
C1
330
1
100
AcDbSymbolTableRecord
100
AcDbBlockTableRecord
  2
block 5
340
0
102
{BLKREFS
331
C2
102
}
  0
BLOCK_RECORD
  5
D1
330
1
100
AcDbSymbolTableRecord
100
AcDbBlockTableRecord
  2
block 6
340
0
102
{BLKREFS
331
D2
102
}
  0
BLOCK_RECORD
  5
DC
330
1
100
AcDbSymbolTableRecord
100
AcDbBlockTableRecord
  2
block 7
340
0
102
{BLKREFS
331
DD
102
}
  0
BLOCK_RECORD
  5
EC
330
1
100
AcDbSymbolTableRecord
100
AcDbBlockTableRecord
  2
block 8
340
0
102
{BLKREFS
331
ED
102
}
  0
BLOCK_RECORD
  5
137
330
1
100
AcDbSymbolTableRecord
100
AcDbBlockTableRecord
  2
block 9
340
0
102
{BLKREFS
331
138
102
}
  0
BLOCK_RECORD
  5
142
330
1
100
AcDbSymbolTableRecord
100
AcDbBlockTableRecord
  2
block 10
340
0
102
{BLKREFS
331
143
102
}
  0
BLOCK_RECORD
  5
152
330
1
100
AcDbSymbolTableRecord
100
AcDbBlockTableRecord
  2
block 11
340
0
102
{BLKREFS
331
153
102
}
  0
BLOCK_RECORD
  5
15A
330
1
100
AcDbSymbolTableRecord
100
AcDbBlockTableRecord
  2
block 12
340
0
102
{BLKREFS
331
15B
102
}
  0
BLOCK_RECORD
  5
165
330
1
100
AcDbSymbolTableRecord
100
AcDbBlockTableRecord
  2
block 13
340
0
102
{BLKREFS
331
166
102
}
  0
BLOCK_RECORD
  5
175
330
1
100
AcDbSymbolTableRecord
100
AcDbBlockTableRecord
  2
block 14
340
0
102
{BLKREFS
331
176
102
}
  0
BLOCK_RECORD
  5
17D
330
1
100
AcDbSymbolTableRecord
100
AcDbBlockTableRecord
  2
block 15
340
0
102
{BLKREFS
331
17E
102
}
  0
BLOCK_RECORD
  5
188
330
1
100
AcDbSymbolTableRecord
100
AcDbBlockTableRecord
  2
block 16
340
0
102
{BLKREFS
331
189
102
}
  0
BLOCK_RECORD
  5
198
330
1
100
AcDbSymbolTableRecord
100
AcDbBlockTableRecord
  2
block 17
340
0
102
{BLKREFS
331
199
102
}
  0
BLOCK_RECORD
  5
1A0
330
1
100
AcDbSymbolTableRecord
100
AcDbBlockTableRecord
  2
block 18
340
0
102
{BLKREFS
331
1A1
102
}
  0
BLOCK_RECORD
  5
22E
330
1
100
AcDbSymbolTableRecord
100
AcDbBlockTableRecord
  2
block 19
340
0
102
{BLKREFS
331
22F
102
}
  0
BLOCK_RECORD
  5
242
330
1
100
AcDbSymbolTableRecord
100
AcDbBlockTableRecord
  2
block 20
340
0
102
{BLKREFS
331
243
102
}
  0
BLOCK_RECORD
  5
269
330
1
100
AcDbSymbolTableRecord
100
AcDbBlockTableRecord
  2
block 21
340
0
102
{BLKREFS
331
26A
102
}
  0
ENDTAB
  0
ENDSEC
  0
SECTION
  2
BLOCKS
  0
BLOCK
  5
20
330
1F
100
AcDbEntity
  8
0
100
AcDbBlockBegin
  2
*Model_Space
 70
     0
 71
     0
 10
0.0
 20
0.0
 30
0.0
  3
*Model_Space
  1

  0
ENDBLK
  5
21
330
1F
100
AcDbEntity
  8
0
100
AcDbBlockEnd
  0
BLOCK
  5
1C
330
1B
100
AcDbEntity
 67
     1
  8
0
100
AcDbBlockBegin
  2
*Paper_Space
 70
     0
 71
     0
 10
0.0
 20
0.0
 30
0.0
  3
*Paper_Space
  1

  0
ENDBLK
  5
1D
330
1B
100
AcDbEntity
 67
     1
  8
0
100
AcDbBlockEnd
  0
BLOCK
  5
24
330
23
100
AcDbEntity
  8
0
100
AcDbBlockBegin
  2
*Paper_Space0
 70
     0
 71
     0
 10
0.0
 20
0.0
 30
0.0
  3
*Paper_Space0
  1

  0
ENDBLK
  5
25
330
23
100
AcDbEntity
  8
0
100
AcDbBlockEnd
  0
BLOCK
  5
3E
330
3C
100
AcDbEntity
  8
0
100
AcDbBlockBegin
  2
block 2
 70
     0
 71
     0
 10
0.0
 20
0.0
 30
0.0
  3
block 2
  1

  0
MTEXT
  5
40
330
3C
100
AcDbEntity
  8
Layer 1
 62
     7
100
AcDbMText
 10
357.9337075928083
 20
780.2583168622272
 30
0.0
 40
53.9719618429252
 41
0.0
 71
     7
 72
     1
  1
\fVerdana|b0|i0|c0|p34;\W1;The balustrade shall be fabricated from the 
 73
     1
 44
1.0
  0
MTEXT
  5
41
330
3C
100
AcDbEntity
  8
Layer 1
 62
     7
100
AcDbMText
 10
357.9337075928083
 20
685.0136567840417
 30
0.0
 40
53.9719618429252
 41
0.0
 71
     7
 72
     1
  1
\fVerdana|b0|i0|c0|p34;\W1;following items:
 73
     1
 44
1.0
  0
MTEXT
  5
42
330
3C
100
AcDbEntity
  8
Layer 1
 62
     7
100
AcDbMText
 10
357.9337075928083
 20
499.1092419542157
 30
0.0
 40
53.9719618429252
 41
0.0
 71
     7
 72
     1
  1
\fVerdana|b0|i0|c0|p34;\W1;TOP RAIL: E\H53.9715;RT / ERZ
 73
     1
 44
1.0
  0
MTEXT
  5
43
330
3C
100
AcDbEntity
  8
0
100
AcDbMText
 10
0.0
 20
0.0
 30
0.0
 40
0.0
 41
0.0
 71
     1
 72
     1
  1

 73
     1
 44
1.0
  0
MTEXT
  5
44
330
3C
100
AcDbEntity
  8
Layer 1
 62
     7
100
AcDbMText
 10
357.9337075928083
 20
308.6199217978451
 30
0.0
 40
53.9719618429252
 41
0.0
 71
     7
 72
     1
  1
\fVerdana|b0|i0|c0|p34;\W1;POSTS: EPU
 73
     1
 44
1.0
  0
MTEXT
  5
45
330
3C
100
AcDbEntity
  8
0
100
AcDbMText
 10
0.0
 20
0.0
 30
0.0
 40
0.0
 41
0.0
 71
     1
 72
     1
  1

 73
     1
 44
1.0
  0
MTEXT
  5
46
330
3C
100
AcDbEntity
  8
0
100
AcDbMText
 10
0.0
 20
0.0
 30
0.0
 40
0.0
 41
0.0
 71
     1
 72
     1
  1

 73
     1
 44
1.0
  0
MTEXT
  5
47
330
3C
100
AcDbEntity
  8
Layer 1
 62
     7
100
AcDbMText
 10
357.9337075928083
 20
22.88611381806319
 30
0.0
 40
53.9719618429252
 41
0.0
 71
     7
 72
     1
  1
\fVerdana|b0|i0|c0|p34;\W1;TOUGHENED GLASS PANELS
 73
     1
 44
1.0
  0
MTEXT
  5
48
330
3C
100
AcDbEntity
  8
0
100
AcDbMText
 10
0.0
 20
0.0
 30
0.0
 40
0.0
 41
0.0
 71
     1
 72
     1
  1

 73
     1
 44
1.0
  0
MTEXT
  5
49
330
3C
100
AcDbEntity
  8
Layer 1
 62
     7
100
AcDbMText
 10
357.9337075928083
 20
-167.6032063383075
 30
0.0
 40
53.9719618429252
 41
0.0
 71
     7
 72
     1
  1
\fVerdana|b0|i0|c0|p34;\W1;LOWER RAIL: ARN
 73
     1
 44
1.0
  0
MTEXT
  5
4A
330
3C
100
AcDbEntity
  8
0
100
AcDbMText
 10
0.0
 20
0.0
 30
0.0
 40
0.0
 41
0.0
 71
     1
 72
     1
  1

 73
     1
 44
1.0
  0
MTEXT
  5
4B
330
3C
100
AcDbEntity
  8
Layer 1
 62
     7
100
AcDbMText
 10
357.9337075928083
 20
-358.0925264946783
 30
0.0
 40
53.9719618429252
 41
0.0
 71
     7
 72
     1
  1
\fVerdana|b0|i0|c0|p34;\W1;INSERT: AIA
 73
     1
 44
1.0
  0
MTEXT
  5
4C
330
3C
100
AcDbEntity
  8
0
100
AcDbMText
 10
0.0
 20
0.0
 30
0.0
 40
0.0
 41
0.0
 71
     1
 72
     1
  1

 73
     1
 44
1.0
  0
MTEXT
  5
4D
330
3C
100
AcDbEntity
  8
Layer 1
 62
     7
100
AcDbMText
 10
357.9337075928083
 20
-550.6995468458321
 30
0.0
 40
55.17204685951157
 41
0.0
 71
     7
 72
     1
  1
\fVerdana|b0|i0|c0|p34;\W1;POST BASE: BUTV
 73
     1
 44
1.0
  0
POLYLINE
  5
4E
330
3C
100
AcDbEntity
  8
Layer 1
370
     0
100
AcDb2dPolyline
 66
     1
 10
0.0
 20
0.0
 30
0.0
  0
VERTEX
  5
4F
330
4E
100
AcDbEntity
  8
Layer 1
370
     0
100
AcDbVertex
100
AcDb2dVertex
 10
188.872536845143
 20
543.8343328176005
 30
0.0
  0
VERTEX
  5
50
330
4E
100
AcDbEntity
  8
Layer 1
370
     0
100
AcDbVertex
100
AcDb2dVertex
 10
186.7455348925497
 20
531.9013833305663
 30
0.0
  0
VERTEX
  5
51
330
4E
100
AcDbEntity
  8
Layer 1
370
     0
100
AcDbVertex
100
AcDb2dVertex
 10
159.0207844654531
 20
549.1570053423114
 30
0.0
  0
VERTEX
  5
52
330
4E
100
AcDbEntity
  8
Layer 1
370
     0
100
AcDbVertex
100
AcDb2dVertex
 10
191.0002278168333
 20
555.7715886739911
 30
0.0
  0
VERTEX
  5
53
330
4E
100
AcDbEntity
  8
Layer 1
370
     0
100
AcDbVertex
100
AcDb2dVertex
 10
188.872536845143
 20
543.8343328176005
 30
0.0
  0
SEQEND
  5
54
330
4E
100
AcDbEntity
  8
Layer 1
370
     0
  0
POLYLINE
  5
55
330
3C
100
AcDbEntity
  8
Layer 1
370
     0
100
AcDb2dPolyline
 66
     1
 10
0.0
 20
0.0
 30
0.0
  0
VERTEX
  5
56
330
55
100
AcDbEntity
  8
Layer 1
370
     0
100
AcDbVertex
100
AcDb2dVertex
 10
188.872536845143
 20
543.8429455563136
 30
0.0
  0
VERTEX
  5
57
330
55
100
AcDbEntity
  8
Layer 1
370
     0
100
AcDbVertex
100
AcDb2dVertex
 10
186.7455348925497
 20
531.9013833305663
 30
0.0
  0
VERTEX
  5
58
330
55
100
AcDbEntity
  8
Layer 1
370
     0
100
AcDbVertex
100
AcDb2dVertex
 10
186.7455348925497
 20
531.9013833305663
 30
0.0
  0
VERTEX
  5
59
330
55
100
AcDbEntity
  8
Layer 1
370
     0
100
AcDbVertex
100
AcDb2dVertex
 10
159.0297417137148
 20
549.1613117116681
 30
0.0
  0
VERTEX
  5
5A
330
55
100
AcDbEntity
  8
Layer 1
370
     0
100
AcDbVertex
100
AcDb2dVertex
 10
159.0297417137148
 20
549.1613117116681
 30
0.0
  0
VERTEX
  5
5B
330
55
100
AcDbEntity
  8
Layer 1
370
     0
100
AcDbVertex
100
AcDb2dVertex
 10
191.0002278168333
 20
555.7802014127043
 30
0.0
  0
VERTEX
  5
5C
330
55
100
AcDbEntity
  8
Layer 1
370
     0
100
AcDbVertex
100
AcDb2dVertex
 10
191.0002278168333
 20
555.7802014127043
 30
0.0
  0
VERTEX
  5
5D
330
55
100
AcDbEntity
  8
Layer 1
370
     0
100
AcDbVertex
100
AcDb2dVertex
 10
188.872536845143
 20
543.8429455563136
 30
0.0
  0
VERTEX
  5
5E
330
55
100
AcDbEntity
  8
Layer 1
370
     0
100
AcDbVertex
100
AcDb2dVertex
 10
188.872536845143
 20
543.8429455563136
 30
0.0
  0
SEQEND
  5
5F
330
55
100
AcDbEntity
  8
Layer 1
370
     0
  0
HATCH
  5
60
330
3C
100
AcDbEntity
  8
Layer 1
 62
     7
100
AcDbHatch
 10
0.0
 20
0.0
 30
0.0
210
0.0
220
0.0
230
1.0
  2
SOLID
 70
     1
 71
     0
 91
        1
 92
        1
 93
        4
 72
     1
 10
188.872536845143
 20
543.8429455563136
 11
186.7455348925497
 21
531.9013833305663
 72
     1
 10
186.7455348925497
 20
531.9013833305663
 11
159.0297417137148
 21
549.1613117116681
 72
     1
 10
159.0297417137148
 20
549.1613117116681
 11
191.0002278168333
 21
555.7802014127043
 72
     1
 10
191.0002278168333
 20
555.7802014127043
 11
188.872536845143
 21
543.8429455563136
 97
        0
 75
     0
 76
     1
 98
        0
  0
POLYLINE
  5
61
330
3C
100
AcDbEntity
  8
Layer 1
 62
     7
370
     9
100
AcDb2dPolyline
 66
     1
 10
0.0
 20
0.0
 30
0.0
  0
VERTEX
  5
62
330
61
100
AcDbEntity
  8
Layer 1
 62
     7
370
     9
100
AcDbVertex
100
AcDb2dVertex
 10
186.8916069411243
 20
544.1874551048386
 30
0.0
  0
VERTEX
  5
63
330
61
100
AcDbEntity
  8
Layer 1
 62
     7
370
     9
100
AcDbVertex
100
AcDb2dVertex
 10
307.9384819108626
 20
522.616850997818
 30
0.0
  0
SEQEND
  5
64
330
61
100
AcDbEntity
  8
Layer 1
370
     9
  0
POLYLINE
  5
65
330
3C
100
AcDbEntity
  8
Layer 1
370
     0
100
AcDb2dPolyline
 66
     1
 10
0.0
 20
0.0
 30
0.0
  0
VERTEX
  5
66
330
65
100
AcDbEntity
  8
Layer 1
370
     0
100
AcDbVertex
100
AcDb2dVertex
 10
183.0796087866954
 20
336.1794798964239
 30
0.0
  0
VERTEX
  5
67
330
65
100
AcDbEntity
  8
Layer 1
370
     0
100
AcDbVertex
100
AcDb2dVertex
 10
183.0796087866954
 20
324.057050157701
 30
0.0
  0
VERTEX
  5
68
330
65
100
AcDbEntity
  8
Layer 1
370
     0
100
AcDbVertex
100
AcDb2dVertex
 10
152.7627685164968
 20
336.1794798964239
 30
0.0
  0
VERTEX
  5
69
330
65
100
AcDbEntity
  8
Layer 1
370
     0
100
AcDbVertex
100
AcDb2dVertex
 10
183.0796087866954
 20
348.3062160045033
 30
0.0
  0
VERTEX
  5
6A
330
65
100
AcDbEntity
  8
Layer 1
370
     0
100
AcDbVertex
100
AcDb2dVertex
 10
183.0796087866954
 20
336.1794798964239
 30
0.0
  0
SEQEND
  5
6B
330
65
100
AcDbEntity
  8
Layer 1
370
     0
  0
POLYLINE
  5
6C
330
3C
100
AcDbEntity
  8
Layer 1
370
     0
100
AcDb2dPolyline
 66
     1
 10
0.0
 20
0.0
 30
0.0
  0
VERTEX
  5
6D
330
6C
100
AcDbEntity
  8
Layer 1
370
     0
100
AcDbVertex
100
AcDb2dVertex
 10
183.0796087866954
 20
336.1751735270673
 30
0.0
  0
VERTEX
  5
6E
330
6C
100
AcDbEntity
  8
Layer 1
370
     0
100
AcDbVertex
100
AcDb2dVertex
 10
183.0796087866954
 20
324.0656628964142
 30
0.0
  0
VERTEX
  5
6F
330
6C
100
AcDbEntity
  8
Layer 1
370
     0
100
AcDbVertex
100
AcDb2dVertex
 10
183.0796087866954
 20
324.0656628964142
 30
0.0
  0
VERTEX
  5
70
330
6C
100
AcDbEntity
  8
Layer 1
370
     0
100
AcDbVertex
100
AcDb2dVertex
 10
152.7627685164968
 20
336.1751735270673
 30
0.0
  0
VERTEX
  5
71
330
6C
100
AcDbEntity
  8
Layer 1
370
     0
100
AcDbVertex
100
AcDb2dVertex
 10
152.7627685164968
 20
336.1751735270673
 30
0.0
  0
VERTEX
  5
72
330
6C
100
AcDbEntity
  8
Layer 1
370
     0
100
AcDbVertex
100
AcDb2dVertex
 10
183.0796087866954
 20
348.3105223738599
 30
0.0
  0
VERTEX
  5
73
330
6C
100
AcDbEntity
  8
Layer 1
370
     0
100
AcDbVertex
100
AcDb2dVertex
 10
183.0796087866954
 20
348.3105223738599
 30
0.0
  0
VERTEX
  5
74
330
6C
100
AcDbEntity
  8
Layer 1
370
     0
100
AcDbVertex
100
AcDb2dVertex
 10
183.0796087866954
 20
336.1751735270673
 30
0.0
  0
VERTEX
  5
75
330
6C
100
AcDbEntity
  8
Layer 1
370
     0
100
AcDbVertex
100
AcDb2dVertex
 10
183.0796087866954
 20
336.1751735270673
 30
0.0
  0
SEQEND
  5
76
330
6C
100
AcDbEntity
  8
Layer 1
370
     0
  0
HATCH
  5
77
330
3C
100
AcDbEntity
  8
Layer 1
 62
     7
100
AcDbHatch
 10
0.0
 20
0.0
 30
0.0
210
0.0
220
0.0
230
1.0
  2
SOLID
 70
     1
 71
     0
 91
        1
 92
        1
 93
        4
 72
     1
 10
183.0796087866954
 20
336.1751735270673
 11
183.0796087866954
 21
324.0656628964142
 72
     1
 10
183.0796087866954
 20
324.0656628964142
 11
152.7627685164968
 21
336.1751735270673
 72
     1
 10
152.7627685164968
 20
336.1751735270673
 11
183.0796087866954
 21
348.3105223738599
 72
     1
 10
183.0796087866954
 20
348.3105223738599
 11
183.0796087866954
 21
336.1751735270673
 97
        0
 75
     0
 76
     1
 98
        0
  0
POLYLINE
  5
78
330
3C
100
AcDbEntity
  8
Layer 1
 62
     7
370
     9
100
AcDb2dPolyline
 66
     1
 10
0.0
 20
0.0
 30
0.0
  0
VERTEX
  5
79
330
78
100
AcDbEntity
  8
Layer 1
 62
     7
370
     9
100
AcDbVertex
100
AcDb2dVertex
 10
181.0642279278242
 20
336.1794798964239
 30
0.0
  0
VERTEX
  5
7A
330
78
100
AcDbEntity
  8
Layer 1
 62
     7
370
     9
100
AcDbVertex
100
AcDb2dVertex
 10
307.9384819108626
 20
336.1794798964239
 30
0.0
  0
SEQEND
  5
7B
330
78
100
AcDbEntity
  8
Layer 1
370
     9
  0
POLYLINE
  5
7C
330
3C
100
AcDbEntity
  8
Layer 1
370
     0
100
AcDb2dPolyline
 66
     1
 10
0.0
 20
0.0
 30
0.0
  0
VERTEX
  5
7D
330
7C
100
AcDbEntity
  8
Layer 1
370
     0
100
AcDbVertex
100
AcDb2dVertex
 10
142.6999891136306
 20
50.89267305585322
 30
0.0
  0
VERTEX
  5
7E
330
7C
100
AcDbEntity
  8
Layer 1
370
     0
100
AcDbVertex
100
AcDb2dVertex
 10
142.6999891136306
 20
38.7659369477738
 30
0.0
  0
VERTEX
  5
7F
330
7C
100
AcDbEntity
  8
Layer 1
370
     0
100
AcDbVertex
100
AcDb2dVertex
 10
112.383148843432
 20
50.89267305585322
 30
0.0
  0
VERTEX
  5
80
330
7C
100
AcDbEntity
  8
Layer 1
370
     0
100
AcDbVertex
100
AcDb2dVertex
 10
142.6999891136306
 20
63.01527504935035
 30
0.0
  0
VERTEX
  5
81
330
7C
100
AcDbEntity
  8
Layer 1
370
     0
100
AcDbVertex
100
AcDb2dVertex
 10
142.6999891136306
 20
50.89267305585322
 30
0.0
  0
SEQEND
  5
82
330
7C
100
AcDbEntity
  8
Layer 1
370
     0
  0
POLYLINE
  5
83
330
3C
100
AcDbEntity
  8
Layer 1
370
     0
100
AcDb2dPolyline
 66
     1
 10
0.0
 20
0.0
 30
0.0
  0
VERTEX
  5
84
330
83
100
AcDbEntity
  8
Layer 1
370
     0
100
AcDbVertex
100
AcDb2dVertex
 10
142.7082573427952
 20
50.87544757842697
 30
0.0
  0
VERTEX
  5
85
330
83
100
AcDbEntity
  8
Layer 1
370
     0
100
AcDbVertex
100
AcDb2dVertex
 10
142.7082573427952
 20
38.7659369477738
 30
0.0
  0
VERTEX
  5
86
330
83
100
AcDbEntity
  8
Layer 1
370
     0
100
AcDbVertex
100
AcDb2dVertex
 10
142.7082573427952
 20
38.7659369477738
 30
0.0
  0
VERTEX
  5
87
330
83
100
AcDbEntity
  8
Layer 1
370
     0
100
AcDbVertex
100
AcDb2dVertex
 10
112.383148843432
 20
50.87544757842697
 30
0.0
  0
VERTEX
  5
88
330
83
100
AcDbEntity
  8
Layer 1
370
     0
100
AcDbVertex
100
AcDb2dVertex
 10
112.383148843432
 20
50.87544757842697
 30
0.0
  0
VERTEX
  5
89
330
83
100
AcDbEntity
  8
Layer 1
370
     0
100
AcDbVertex
100
AcDb2dVertex
 10
142.7082573427952
 20
63.01114093476805
 30
0.0
  0
VERTEX
  5
8A
330
83
100
AcDbEntity
  8
Layer 1
370
     0
100
AcDbVertex
100
AcDb2dVertex
 10
142.7082573427952
 20
63.01114093476805
 30
0.0
  0
VERTEX
  5
8B
330
83
100
AcDbEntity
  8
Layer 1
370
     0
100
AcDbVertex
100
AcDb2dVertex
 10
142.7082573427952
 20
50.87544757842697
 30
0.0
  0
VERTEX
  5
8C
330
83
100
AcDbEntity
  8
Layer 1
370
     0
100
AcDbVertex
100
AcDb2dVertex
 10
142.7082573427952
 20
50.87544757842697
 30
0.0
  0
SEQEND
  5
8D
330
83
100
AcDbEntity
  8
Layer 1
370
     0
  0
HATCH
  5
8E
330
3C
100
AcDbEntity
  8
Layer 1
 62
     7
100
AcDbHatch
 10
0.0
 20
0.0
 30
0.0
210
0.0
220
0.0
230
1.0
  2
SOLID
 70
     1
 71
     0
 91
        1
 92
        1
 93
        4
 72
     1
 10
142.7082573427952
 20
50.87544757842697
 11
142.7082573427952
 21
38.7659369477738
 72
     1
 10
142.7082573427952
 20
38.7659369477738
 11
112.383148843432
 21
50.87544757842697
 72
     1
 10
112.383148843432
 20
50.87544757842697
 11
142.7082573427952
 21
63.01114093476805
 72
     1
 10
142.7082573427952
 20
63.01114093476805
 11
142.7082573427952
 21
50.87544757842697
 97
        0
 75
     0
 76
     1
 98
        0
  0
POLYLINE
  5
8F
330
3C
100
AcDbEntity
  8
Layer 1
 62
     7
370
     9
100
AcDb2dPolyline
 66
     1
 10
0.0
 20
0.0
 30
0.0
  0
VERTEX
  5
90
330
8F
100
AcDbEntity
  8
Layer 1
 62
     7
370
     9
100
AcDbVertex
100
AcDb2dVertex
 10
140.6673827773332
 20
50.89267305585322
 30
0.0
  0
VERTEX
  5
91
330
8F
100
AcDbEntity
  8
Layer 1
 62
     7
370
     9
100
AcDbVertex
100
AcDb2dVertex
 10
307.6167099925403
 20
50.89267305585322
 30
0.0
  0
SEQEND
  5
92
330
8F
100
AcDbEntity
  8
Layer 1
370
     9
  0
POLYLINE
  5
93
330
3C
100
AcDbEntity
  8
Layer 1
370
     0
100
AcDb2dPolyline
 66
     1
 10
0.0
 20
0.0
 30
0.0
  0
VERTEX
  5
94
330
93
100
AcDbEntity
  8
Layer 1
370
     0
100
AcDbVertex
100
AcDb2dVertex
 10
149.3466118333231
 20
-279.3937987582765
 30
0.0
  0
VERTEX
  5
95
330
93
100
AcDbEntity
  8
Layer 1
370
     0
100
AcDbVertex
100
AcDb2dVertex
 10
157.7733153902442
 20
-288.1102348455072
 30
0.0
  0
VERTEX
  5
96
330
93
100
AcDbEntity
  8
Layer 1
370
     0
100
AcDbVertex
100
AcDb2dVertex
 10
127.5457030931136
 20
-300.4553900073515
 30
0.0
  0
VERTEX
  5
97
330
93
100
AcDbEntity
  8
Layer 1
370
     0
100
AcDbVertex
100
AcDb2dVertex
 10
140.9226643527902
 20
-270.6653048368476
 30
0.0
  0
VERTEX
  5
98
330
93
100
AcDbEntity
  8
Layer 1
370
     0
100
AcDbVertex
100
AcDb2dVertex
 10
149.3466118333231
 20
-279.3937987582765
 30
0.0
  0
SEQEND
  5
99
330
93
100
AcDbEntity
  8
Layer 1
370
     0
  0
POLYLINE
  5
9A
330
3C
100
AcDbEntity
  8
Layer 1
370
     0
100
AcDb2dPolyline
 66
     1
 10
0.0
 20
0.0
 30
0.0
  0
VERTEX
  5
9B
330
9A
100
AcDbEntity
  8
Layer 1
370
     0
100
AcDbVertex
100
AcDb2dVertex
 10
149.3466118333231
 20
-279.3937987582765
 30
0.0
  0
VERTEX
  5
9C
330
9A
100
AcDbEntity
  8
Layer 1
370
     0
100
AcDbVertex
100
AcDb2dVertex
 10
157.7733153902442
 20
-288.1102348455072
 30
0.0
  0
VERTEX
  5
9D
330
9A
100
AcDbEntity
  8
Layer 1
370
     0
100
AcDbVertex
100
AcDb2dVertex
 10
157.7733153902442
 20
-288.1102348455072
 30
0.0
  0
VERTEX
  5
9E
330
9A
100
AcDbEntity
  8
Layer 1
370
     0
100
AcDbVertex
100
AcDb2dVertex
 10
127.5415689785313
 20
-300.4478107972839
 30
0.0
  0
VERTEX
  5
9F
330
9A
100
AcDbEntity
  8
Layer 1
370
     0
100
AcDbVertex
100
AcDb2dVertex
 10
127.5415689785313
 20
-300.4478107972839
 30
0.0
  0
VERTEX
  5
A0
330
9A
100
AcDbEntity
  8
Layer 1
370
     0
100
AcDbVertex
100
AcDb2dVertex
 10
140.9226643527902
 20
-270.6653048368476
 30
0.0
  0
VERTEX
  5
A1
330
9A
100
AcDbEntity
  8
Layer 1
370
     0
100
AcDbVertex
100
AcDb2dVertex
 10
140.9226643527902
 20
-270.6653048368476
 30
0.0
  0
VERTEX
  5
A2
330
9A
100
AcDbEntity
  8
Layer 1
370
     0
100
AcDbVertex
100
AcDb2dVertex
 10
149.3466118333231
 20
-279.3937987582765
 30
0.0
  0
VERTEX
  5
A3
330
9A
100
AcDbEntity
  8
Layer 1
370
     0
100
AcDbVertex
100
AcDb2dVertex
 10
149.3466118333231
 20
-279.3937987582765
 30
0.0
  0
SEQEND
  5
A4
330
9A
100
AcDbEntity
  8
Layer 1
370
     0
  0
HATCH
  5
A5
330
3C
100
AcDbEntity
  8
Layer 1
 62
     7
100
AcDbHatch
 10
0.0
 20
0.0
 30
0.0
210
0.0
220
0.0
230
1.0
  2
SOLID
 70
     1
 71
     0
 91
        1
 92
        1
 93
        4
 72
     1
 10
149.3466118333231
 20
-279.3937987582765
 11
157.7733153902442
 21
-288.1102348455072
 72
     1
 10
157.7733153902442
 20
-288.1102348455072
 11
127.5415689785313
 21
-300.4478107972839
 72
     1
 10
127.5415689785313
 20
-300.4478107972839
 11
140.9226643527902
 21
-270.6653048368476
 72
     1
 10
140.9226643527902
 20
-270.6653048368476
 11
149.3466118333231
 21
-279.3937987582765
 97
        0
 75
     0
 76
     1
 98
        0
  0
POLYLINE
  5
A6
330
3C
100
AcDbEntity
  8
Layer 1
 62
     7
370
     9
100
AcDb2dPolyline
 66
     1
 10
0.0
 20
0.0
 30
0.0
  0
VERTEX
  5
A7
330
A6
100
AcDbEntity
  8
Layer 1
 62
     7
370
     9
100
AcDbVertex
100
AcDb2dVertex
 10
147.8996717295181
 20
-280.7883734107057
 30
0.0
  0
VERTEX
  5
A8
330
A6
100
AcDbEntity
  8
Layer 1
 62
     7
370
     9
100
AcDbVertex
100
AcDb2dVertex
 10
307.6167099925403
 20
-136.8099093624989
 30
0.0
  0
SEQEND
  5
A9
330
A6
100
AcDbEntity
  8
Layer 1
370
     9
  0
INSERT
  5
AB
330
3C
100
AcDbEntity
  8
Layer 1
100
AcDbBlockReference
  2
block 3
 10
0.0
 20
0.0
 30
0.0
  0
MTEXT
  5
263
330
3C
100
AcDbEntity
  8
Layer 1
 62
     7
100
AcDbMText
 10
-646.6501069889451
 20
-931.9961694718621
 30
0.0
 40
53.97153723490664
 41
0.0
 71
     7
 72
     1
  1
\fVerdana|b0|i0|c0|p34;\W1;Balustrade supplied by Unex Systems
 73
     1
 44
1.0
  0
MTEXT
  5
264
330
3C
100
AcDbEntity
  8
Layer 1
 62
     7
100
AcDbMText
 10
-1120.524713532803
 20
-1027.239968276176
 30
0.0
 40
53.97153723490664
 41
0.0
 71
     7
 72
     1
  1
\fVerdana|b0|i0|c0|p34;\W1;Contact Unex for authorised fabricator/installer in the region.
 73
     1
 44
1.0
  0
MTEXT
  5
265
330
3C
100
AcDbEntity
  8
Layer 1
 62
     7
100
AcDbMText
 10
-651.8430716686365
 20
-1122.484111590039
 30
0.0
 40
53.97153723490664
 41
0.0
 71
     7
 72
     1
  1
\fVerdana|b0|i0|c0|p34;\W1;Ph 0800 333 777, or info@unex.co.nz
 73
     1
 44
1.0
  0
MTEXT
  5
266
330
3C
100
AcDbEntity
  8
0
100
AcDbMText
 10
0.0
 20
0.0
 30
0.0
 40
0.0
 41
0.0
 71
     1
 72
     1
  1

 73
     1
 44
1.0
  0
MTEXT
  5
267
330
3C
100
AcDbEntity
  8
Layer 1
 62
     7
100
AcDbMText
 10
-106.5821248105941
 20
-1312.971709198667
 30
0.0
 40
53.97153723490664
 41
0.0
 71
     7
 72
     1
  1
\fVerdana|b0|i0|c0|p34;\W1;SCALE 1:1
 73
     1
 44
1.0
  0
MTEXT
  5
268
330
3C
100
AcDbEntity
  8
Layer 1
 62
     7
100
AcDbMText
 10
-1482.127275562628
 20
-1408.215508002981
 30
0.0
 40
53.97153723490664
 41
0.0
 71
     7
 72
     1
  1
\fVerdana|b0|i0|c0|p34;\W1;Extreme Barriers X3000 4 Sided Glazed Style Specification (EX-BA.01)ST.26.51
 73
     1
 44
1.0
  0
INSERT
  5
26A
330
3C
100
AcDbEntity
  8
Layer 1
100
AcDbBlockReference
  2
block 21
 10
0.0
 20
0.0
 30
0.0
  0
POLYLINE
  5
284
330
3C
100
AcDbEntity
  8
Layer 1
370
     0
100
AcDb2dPolyline
 66
     1
 10
0.0
 20
0.0
 30
0.0
  0
VERTEX
  5
285
330
284
100
AcDbEntity
  8
Layer 1
370
     0
100
AcDbVertex
100
AcDb2dVertex
 10
208.2077907465592
 20
-437.0048501511655
 30
0.0
  0
VERTEX
  5
286
330
284
100
AcDbEntity
  8
Layer 1
370
     0
100
AcDbVertex
100
AcDb2dVertex
 10
216.6344943034803
 20
-428.2884140639349
 30
0.0
  0
VERTEX
  5
287
330
284
100
AcDbEntity
  8
Layer 1
370
     0
100
AcDbVertex
100
AcDb2dVertex
 10
186.4068820063497
 20
-415.9432589020906
 30
0.0
  0
VERTEX
  5
288
330
284
100
AcDbEntity
  8
Layer 1
370
     0
100
AcDbVertex
100
AcDb2dVertex
 10
199.7838432660263
 20
-445.7333440725944
 30
0.0
  0
VERTEX
  5
289
330
284
100
AcDbEntity
  8
Layer 1
370
     0
100
AcDbVertex
100
AcDb2dVertex
 10
208.2077907465592
 20
-437.0048501511655
 30
0.0
  0
SEQEND
  5
28A
330
284
100
AcDbEntity
  8
Layer 1
370
     0
  0
POLYLINE
  5
28B
330
3C
100
AcDbEntity
  8
Layer 1
370
     0
100
AcDb2dPolyline
 66
     1
 10
0.0
 20
0.0
 30
0.0
  0
VERTEX
  5
28C
330
28B
100
AcDbEntity
  8
Layer 1
370
     0
100
AcDbVertex
100
AcDb2dVertex
 10
208.2077907465592
 20
-437.0048501511655
 30
0.0
  0
VERTEX
  5
28D
330
28B
100
AcDbEntity
  8
Layer 1
370
     0
100
AcDbVertex
100
AcDb2dVertex
 10
216.6344943034803
 20
-428.2884140639349
 30
0.0
  0
VERTEX
  5
28E
330
28B
100
AcDbEntity
  8
Layer 1
370
     0
100
AcDbVertex
100
AcDb2dVertex
 10
216.6344943034803
 20
-428.2884140639349
 30
0.0
  0
VERTEX
  5
28F
330
28B
100
AcDbEntity
  8
Layer 1
370
     0
100
AcDbVertex
100
AcDb2dVertex
 10
186.4027478917674
 20
-415.9508381121581
 30
0.0
  0
VERTEX
  5
290
330
28B
100
AcDbEntity
  8
Layer 1
370
     0
100
AcDbVertex
100
AcDb2dVertex
 10
186.4027478917674
 20
-415.9508381121581
 30
0.0
  0
VERTEX
  5
291
330
28B
100
AcDbEntity
  8
Layer 1
370
     0
100
AcDbVertex
100
AcDb2dVertex
 10
199.7838432660263
 20
-445.7333440725944
 30
0.0
  0
VERTEX
  5
292
330
28B
100
AcDbEntity
  8
Layer 1
370
     0
100
AcDbVertex
100
AcDb2dVertex
 10
199.7838432660263
 20
-445.7333440725944
 30
0.0
  0
VERTEX
  5
293
330
28B
100
AcDbEntity
  8
Layer 1
370
     0
100
AcDbVertex
100
AcDb2dVertex
 10
208.2077907465592
 20
-437.0048501511655
 30
0.0
  0
VERTEX
  5
294
330
28B
100
AcDbEntity
  8
Layer 1
370
     0
100
AcDbVertex
100
AcDb2dVertex
 10
208.2077907465592
 20
-437.0048501511655
 30
0.0
  0
SEQEND
  5
295
330
28B
100
AcDbEntity
  8
Layer 1
370
     0
  0
HATCH
  5
296
330
3C
100
AcDbEntity
  8
Layer 1
 62
     7
100
AcDbHatch
 10
0.0
 20
0.0
 30
0.0
210
0.0
220
0.0
230
1.0
  2
SOLID
 70
     1
 71
     0
 91
        1
 92
        1
 93
        4
 72
     1
 10
208.2077907465592
 20
-437.0048501511655
 11
216.6344943034803
 21
-428.2884140639349
 72
     1
 10
216.6344943034803
 20
-428.2884140639349
 11
186.4027478917674
 21
-415.9508381121581
 72
     1
 10
186.4027478917674
 20
-415.9508381121581
 11
199.7838432660263
 21
-445.7333440725944
 72
     1
 10
199.7838432660263
 20
-445.7333440725944
 11
208.2077907465592
 21
-437.0048501511655
 97
        0
 75
     0
 76
     1
 98
        0
  0
POLYLINE
  5
297
330
3C
100
AcDbEntity
  8
Layer 1
 62
     7
370
     9
100
AcDb2dPolyline
 66
     1
 10
0.0
 20
0.0
 30
0.0
  0
VERTEX
  5
298
330
297
100
AcDbEntity
  8
Layer 1
 62
     7
370
     9
100
AcDbVertex
100
AcDb2dVertex
 10
206.7608506427542
 20
-435.6102754987363
 30
0.0
  0
VERTEX
  5
299
330
297
100
AcDbEntity
  8
Layer 1
 62
     7
370
     9
100
AcDbVertex
100
AcDb2dVertex
 10
307.6167099925403
 20
-526.5277233926737
 30
0.0
  0
SEQEND
  5
29A
330
297
100
AcDbEntity
  8
Layer 1
370
     9
  0
ENDBLK
  5
3F
330
3C
100
AcDbEntity
  8
0
100
AcDbBlockEnd
  0
BLOCK
  5
AC
330
AA
100
AcDbEntity
  8
0
100
AcDbBlockBegin
  2
block 3
 70
     0
 71
     0
 10
0.0
 20
0.0
 30
0.0
  3
block 3
  1

  0
POLYLINE
  5
AE
330
AA
100
AcDbEntity
  8
Layer 1
 62
     7
370
     9
100
AcDb2dPolyline
 66
     1
 10
0.0
 20
0.0
 30
0.0
  0
VERTEX
  5
AF
330
AE
100
AcDbEntity
  8
Layer 1
 62
     7
370
     9
100
AcDbVertex
100
AcDb2dVertex
 10
-1936.69212191166
 20
581.962927100603
 30
0.0
  0
VERTEX
  5
B0
330
AE
100
AcDbEntity
  8
Layer 1
 62
     7
370
     9
100
AcDbVertex
100
AcDb2dVertex
 10
-2005.15891605687
 20
581.962927100603
 30
0.0
  0
SEQEND
  5
B1
330
AE
100
AcDbEntity
  8
Layer 1
370
     9
  0
POLYLINE
  5
B2
330
AA
100
AcDbEntity
  8
Layer 1
 62
     7
370
     9
100
AcDb2dPolyline
 66
     1
 10
0.0
 20
0.0
 30
0.0
  0
VERTEX
  5
B3
330
B2
100
AcDbEntity
  8
Layer 1
 62
     7
370
     9
100
AcDbVertex
100
AcDb2dVertex
 10
-1936.69212191166
 20
-417.9848224866496
 30
0.0
  0
VERTEX
  5
B4
330
B2
100
AcDbEntity
  8
Layer 1
 62
     7
370
     9
100
AcDbVertex
100
AcDb2dVertex
 10
-2005.15891605687
 20
-417.9848224866496
 30
0.0
  0
SEQEND
  5
B5
330
B2
100
AcDbEntity
  8
Layer 1
370
     9
  0
INSERT
  5
B7
330
AA
100
AcDbEntity
  8
Layer 1
100
AcDbBlockReference
  2
block 4
 10
0.0
 20
0.0
 30
0.0
  0
INSERT
  5
C2
330
AA
100
AcDbEntity
  8
Layer 1
100
AcDbBlockReference
  2
block 5
 10
0.0
 20
0.0
 30
0.0
  0
INSERT
  5
D2
330
AA
100
AcDbEntity
  8
Layer 1
100
AcDbBlockReference
  2
block 6
 10
0.0
 20
0.0
 30
0.0
  0
INSERT
  5
DD
330
AA
100
AcDbEntity
  8
Layer 1
100
AcDbBlockReference
  2
block 7
 10
0.0
 20
0.0
 30
0.0
  0
INSERT
  5
ED
330
AA
100
AcDbEntity
  8
Layer 1
100
AcDbBlockReference
  2
block 8
 10
0.0
 20
0.0
 30
0.0
  0
MTEXT
  5
F4
330
AA
100
AcDbEntity
  8
Layer 1
 62
     7
100
AcDbMText
 10
-2020.811707394103
 20
-95.59898814884332
 30
0.0
 40
41.97819457806069
 41
0.0
 71
     7
 72
     1
  1
\fVerdana|b0|i0|c0|p34;\W1;HEIGHT ‘H’
 11
-4.371139000186241E-8
 21
0.999999999999999
 31
0.0
 73
     1
 44
1.0
  0
POLYLINE
  5
F5
330
AA
100
AcDbEntity
  8
Layer 1
  6
AI-Linetype-1
 62
     7
370
     9
100
AcDb2dPolyline
 66
     1
 10
0.0
 20
0.0
 30
0.0
  0
VERTEX
  5
F6
330
F5
100
AcDbEntity
  8
Layer 1
  6
AI-Linetype-1
 62
     7
370
     9
100
AcDbVertex
100
AcDb2dVertex
 10
-1729.499600804604
 20
604.8125229065226
 30
0.0
  0
VERTEX
  5
F7
330
F5
100
AcDbEntity
  8
Layer 1
  6
AI-Linetype-1
 62
     7
370
     9
100
AcDbVertex
100
AcDb2dVertex
 10
-1729.499600804604
 20
795.3564478263345
 30
0.0
  0
SEQEND
  5
F8
330
F5
100
AcDbEntity
  8
Layer 1
  6
AI-Linetype-1
370
     9
  0
POLYLINE
  5
FA
330
AA
100
AcDbEntity
  8
Layer 1
  6
AI-Linetype-2
 62
     7
370
     9
100
AcDb2dPolyline
 66
     1
 10
0.0
 20
0.0
 30
0.0
  0
VERTEX
  5
FB
330
FA
100
AcDbEntity
  8
Layer 1
  6
AI-Linetype-2
 62
     7
370
     9
100
AcDbVertex
100
AcDb2dVertex
 10
-310.7534694318603
 20
604.8125229065226
 30
0.0
  0
VERTEX
  5
FC
330
FA
100
AcDbEntity
  8
Layer 1
  6
AI-Linetype-2
 62
     7
370
     9
100
AcDbVertex
100
AcDb2dVertex
 10
-310.7534694318603
 20
795.3564478263345
 30
0.0
  0
SEQEND
  5
FD
330
FA
100
AcDbEntity
  8
Layer 1
  6
AI-Linetype-2
370
     9
  0
POLYLINE
  5
FF
330
AA
100
AcDbEntity
  8
Layer 1
370
     0
100
AcDb2dPolyline
 66
     1
 10
0.0
 20
0.0
 30
0.0
  0
VERTEX
  5
100
330
FF
100
AcDbEntity
  8
Layer 1
370
     0
100
AcDbVertex
100
AcDb2dVertex
 10
-1699.182760534406
 20
743.1847830715823
 30
0.0
  0
VERTEX
  5
101
330
FF
100
AcDbEntity
  8
Layer 1
370
     0
100
AcDbVertex
100
AcDb2dVertex
 10
-1699.182760534406
 20
731.0580469635029
 30
0.0
  0
VERTEX
  5
102
330
FF
100
AcDbEntity
  8
Layer 1
370
     0
100
AcDbVertex
100
AcDb2dVertex
 10
-1729.499600804604
 20
743.1847830715823
 30
0.0
  0
VERTEX
  5
103
330
FF
100
AcDbEntity
  8
Layer 1
370
     0
100
AcDbVertex
100
AcDb2dVertex
 10
-1699.182760534406
 20
755.3115191796618
 30
0.0
  0
VERTEX
  5
104
330
FF
100
AcDbEntity
  8
Layer 1
370
     0
100
AcDbVertex
100
AcDb2dVertex
 10
-1699.182760534406
 20
743.1847830715823
 30
0.0
  0
SEQEND
  5
105
330
FF
100
AcDbEntity
  8
Layer 1
370
     0
  0
POLYLINE
  5
106
330
AA
100
AcDbEntity
  8
Layer 1
370
     0
100
AcDb2dPolyline
 66
     1
 10
0.0
 20
0.0
 30
0.0
  0
VERTEX
  5
107
330
106
100
AcDbEntity
  8
Layer 1
370
     0
100
AcDbVertex
100
AcDb2dVertex
 10
-1699.187239158537
 20
743.1890894409389
 30
0.0
  0
VERTEX
  5
108
330
106
100
AcDbEntity
  8
Layer 1
370
     0
100
AcDbVertex
100
AcDb2dVertex
 10
-1699.187239158537
 20
731.0537405941463
 30
0.0
  0
VERTEX
  5
109
330
106
100
AcDbEntity
  8
Layer 1
370
     0
100
AcDbVertex
100
AcDb2dVertex
 10
-1699.187239158537
 20
731.0537405941463
 30
0.0
  0
VERTEX
  5
10A
330
106
100
AcDbEntity
  8
Layer 1
370
     0
100
AcDbVertex
100
AcDb2dVertex
 10
-1729.495466690022
 20
743.1890894409389
 30
0.0
  0
VERTEX
  5
10B
330
106
100
AcDbEntity
  8
Layer 1
370
     0
100
AcDbVertex
100
AcDb2dVertex
 10
-1729.495466690022
 20
743.1890894409389
 30
0.0
  0
VERTEX
  5
10C
330
106
100
AcDbEntity
  8
Layer 1
370
     0
100
AcDbVertex
100
AcDb2dVertex
 10
-1699.187239158537
 20
755.3201319183748
 30
0.0
  0
VERTEX
  5
10D
330
106
100
AcDbEntity
  8
Layer 1
370
     0
100
AcDbVertex
100
AcDb2dVertex
 10
-1699.187239158537
 20
755.3201319183748
 30
0.0
  0
VERTEX
  5
10E
330
106
100
AcDbEntity
  8
Layer 1
370
     0
100
AcDbVertex
100
AcDb2dVertex
 10
-1699.187239158537
 20
743.1890894409389
 30
0.0
  0
VERTEX
  5
10F
330
106
100
AcDbEntity
  8
Layer 1
370
     0
100
AcDbVertex
100
AcDb2dVertex
 10
-1699.187239158537
 20
743.1890894409389
 30
0.0
  0
SEQEND
  5
110
330
106
100
AcDbEntity
  8
Layer 1
370
     0
  0
HATCH
  5
111
330
AA
100
AcDbEntity
  8
Layer 1
 62
     7
100
AcDbHatch
 10
0.0
 20
0.0
 30
0.0
210
0.0
220
0.0
230
1.0
  2
SOLID
 70
     1
 71
     0
 91
        1
 92
        1
 93
        4
 72
     1
 10
-1699.187239158537
 20
743.1890894409389
 11
-1699.187239158537
 21
731.0537405941463
 72
     1
 10
-1699.187239158537
 20
731.0537405941463
 11
-1729.495466690022
 21
743.1890894409389
 72
     1
 10
-1729.495466690022
 20
743.1890894409389
 11
-1699.187239158537
 21
755.3201319183748
 72
     1
 10
-1699.187239158537
 20
755.3201319183748
 11
-1699.187239158537
 21
743.1890894409389
 97
        0
 75
     0
 76
     1
 98
        0
  0
POLYLINE
  5
112
330
AA
100
AcDbEntity
  8
Layer 1
370
     0
100
AcDb2dPolyline
 66
     1
 10
0.0
 20
0.0
 30
0.0
  0
VERTEX
  5
113
330
112
100
AcDbEntity
  8
Layer 1
370
     0
100
AcDbVertex
100
AcDb2dVertex
 10
-341.065831077928
 20
743.1847830715823
 30
0.0
  0
VERTEX
  5
114
330
112
100
AcDbEntity
  8
Layer 1
370
     0
100
AcDbVertex
100
AcDb2dVertex
 10
-341.065831077928
 20
755.3115191796618
 30
0.0
  0
VERTEX
  5
115
330
112
100
AcDbEntity
  8
Layer 1
370
     0
100
AcDbVertex
100
AcDb2dVertex
 10
-310.7534694318603
 20
743.1847830715823
 30
0.0
  0
VERTEX
  5
116
330
112
100
AcDbEntity
  8
Layer 1
370
     0
100
AcDbVertex
100
AcDb2dVertex
 10
-341.065831077928
 20
731.0580469635029
 30
0.0
  0
VERTEX
  5
117
330
112
100
AcDbEntity
  8
Layer 1
370
     0
100
AcDbVertex
100
AcDb2dVertex
 10
-341.065831077928
 20
743.1847830715823
 30
0.0
  0
SEQEND
  5
118
330
112
100
AcDbEntity
  8
Layer 1
370
     0
  0
POLYLINE
  5
119
330
AA
100
AcDbEntity
  8
Layer 1
370
     0
100
AcDb2dPolyline
 66
     1
 10
0.0
 20
0.0
 30
0.0
  0
VERTEX
  5
11A
330
119
100
AcDbEntity
  8
Layer 1
370
     0
100
AcDbVertex
100
AcDb2dVertex
 10
-341.0613524537972
 20
743.1890894409389
 30
0.0
  0
VERTEX
  5
11B
330
119
100
AcDbEntity
  8
Layer 1
370
     0
100
AcDbVertex
100
AcDb2dVertex
 10
-341.0613524537972
 20
755.3201319183748
 30
0.0
  0
VERTEX
  5
11C
330
119
100
AcDbEntity
  8
Layer 1
370
     0
100
AcDbVertex
100
AcDb2dVertex
 10
-341.0613524537972
 20
755.3201319183748
 30
0.0
  0
VERTEX
  5
11D
330
119
100
AcDbEntity
  8
Layer 1
370
     0
100
AcDbVertex
100
AcDb2dVertex
 10
-310.7534694318603
 20
743.1890894409389
 30
0.0
  0
VERTEX
  5
11E
330
119
100
AcDbEntity
  8
Layer 1
370
     0
100
AcDbVertex
100
AcDb2dVertex
 10
-310.7534694318603
 20
743.1890894409389
 30
0.0
  0
VERTEX
  5
11F
330
119
100
AcDbEntity
  8
Layer 1
370
     0
100
AcDbVertex
100
AcDb2dVertex
 10
-341.0613524537972
 20
731.0537405941463
 30
0.0
  0
VERTEX
  5
120
330
119
100
AcDbEntity
  8
Layer 1
370
     0
100
AcDbVertex
100
AcDb2dVertex
 10
-341.0613524537972
 20
731.0537405941463
 30
0.0
  0
VERTEX
  5
121
330
119
100
AcDbEntity
  8
Layer 1
370
     0
100
AcDbVertex
100
AcDb2dVertex
 10
-341.0613524537972
 20
743.1890894409389
 30
0.0
  0
VERTEX
  5
122
330
119
100
AcDbEntity
  8
Layer 1
370
     0
100
AcDbVertex
100
AcDb2dVertex
 10
-341.0613524537972
 20
743.1890894409389
 30
0.0
  0
SEQEND
  5
123
330
119
100
AcDbEntity
  8
Layer 1
370
     0
  0
HATCH
  5
124
330
AA
100
AcDbEntity
  8
Layer 1
 62
     7
100
AcDbHatch
 10
0.0
 20
0.0
 30
0.0
210
0.0
220
0.0
230
1.0
  2
SOLID
 70
     1
 71
     0
 91
        1
 92
        1
 93
        4
 72
     1
 10
-341.0613524537972
 20
743.1890894409389
 11
-341.0613524537972
 21
755.3201319183748
 72
     1
 10
-341.0613524537972
 20
755.3201319183748
 11
-310.7534694318603
 21
743.1890894409389
 72
     1
 10
-310.7534694318603
 20
743.1890894409389
 11
-341.0613524537972
 21
731.0537405941463
 72
     1
 10
-341.0613524537972
 20
731.0537405941463
 11
-341.0613524537972
 21
743.1890894409389
 97
        0
 75
     0
 76
     1
 98
        0
  0
POLYLINE
  5
125
330
AA
100
AcDbEntity
  8
Layer 1
 62
     7
370
     9
100
AcDb2dPolyline
 66
     1
 10
0.0
 20
0.0
 30
0.0
  0
VERTEX
  5
126
330
125
100
AcDbEntity
  8
Layer 1
 62
     7
370
     9
100
AcDbVertex
100
AcDb2dVertex
 10
-1699.182760534406
 20
743.1847830715823
 30
0.0
  0
VERTEX
  5
127
330
125
100
AcDbEntity
  8
Layer 1
 62
     7
370
     9
100
AcDbVertex
100
AcDb2dVertex
 10
-341.065831077928
 20
743.1847830715823
 30
0.0
  0
SEQEND
  5
128
330
125
100
AcDbEntity
  8
Layer 1
370
     9
  0
MTEXT
  5
129
330
AA
100
AcDbEntity
  8
Layer 1
 62
     7
100
AcDbMText
 10
-1642.785858421769
 20
793.3972220238729
 30
0.0
 40
41.97819457806069
 41
0.0
 71
     7
 72
     1
  1
\fVerdana|b0|i0|c0|p34;\W1;SPAN ‘S max’ BETWEEN POST CENTRES
 73
     1
 44
1.0
  0
MTEXT
  5
12A
330
AA
100
AcDbEntity
  8
Layer 1
 62
     7
100
AcDbMText
 10
-2035.106786600598
 20
-663.2907794565732
 30
0.0
 40
41.97819457806069
 41
0.0
 71
     7
 72
     1
  1
\fVerdana|b0|i0|c0|p34;\W1;SUBSTRATE LEVEL
 73
     1
 44
1.0
  0
MTEXT
  5
12B
330
AA
100
AcDbEntity
  8
Layer 1
 62
     7
100
AcDbMText
 10
-2035.106786600598
 20
-737.3699786568034
 30
0.0
 40
41.97819457806069
 41
0.0
 71
     7
 72
     1
  1
\fVerdana|b0|i0|c0|p34;\W1;(as defined by the 
 73
     1
 44
1.0
  0
MTEXT
  5
12C
330
AA
100
AcDbEntity
  8
Layer 1
 62
     7
100
AcDbMText
 10
-2035.106786600598
 20
-811.4491778570335
 30
0.0
 40
41.97819457806069
 41
0.0
 71
     7
 72
     1
  1
\fVerdana|b0|i0|c0|p34;\W1;Fixing Specification)
 73
     1
 44
1.0
  0
MTEXT
  5
12D
330
AA
100
AcDbEntity
  8
Layer 1
 62
     7
100
AcDbMText
 10
-283.9816324159838
 20
-663.2907794565732
 30
0.0
 40
41.97819457806069
 41
0.0
 71
     7
 72
     1
  1
\fVerdana|b0|i0|c0|p34;\W1;UNDERSPACE
 73
     1
 44
1.0
  0
MTEXT
  5
12E
330
AA
100
AcDbEntity
  8
Layer 1
 62
     7
100
AcDbMText
 10
-111.5794080667232
 20
-737.3699786568034
 30
0.0
 40
41.97819457806069
 41
0.0
 71
     7
 72
     1
  1
\fVerdana|b0|i0|c0|p34;\W1;‘U’
 73
     1
 44
1.0
  0
POLYLINE
  5
12F
330
AA
100
AcDbEntity
  8
Layer 1
 62
     7
370
     9
100
AcDb2dPolyline
 66
     1
 10
0.0
 20
0.0
 30
0.0
  0
VERTEX
  5
130
330
12F
100
AcDbEntity
  8
Layer 1
 62
     7
370
     9
100
AcDbVertex
100
AcDb2dVertex
 10
-111.4891465650097
 20
-330.77223027755
 30
0.0
  0
VERTEX
  5
131
330
12F
100
AcDbEntity
  8
Layer 1
 62
     7
370
     9
100
AcDbVertex
100
AcDb2dVertex
 10
-30.07706162442518
 20
-330.77223027755
 30
0.0
  0
SEQEND
  5
132
330
12F
100
AcDbEntity
  8
Layer 1
370
     9
  0
POLYLINE
  5
133
330
AA
100
AcDbEntity
  8
Layer 1
 62
     7
370
     9
100
AcDb2dPolyline
 66
     1
 10
0.0
 20
0.0
 30
0.0
  0
VERTEX
  5
134
330
133
100
AcDbEntity
  8
Layer 1
 62
     7
370
     9
100
AcDbVertex
100
AcDb2dVertex
 10
-111.4891465650097
 20
-417.9848224866496
 30
0.0
  0
VERTEX
  5
135
330
133
100
AcDbEntity
  8
Layer 1
 62
     7
370
     9
100
AcDbVertex
100
AcDb2dVertex
 10
-30.07706162442518
 20
-417.9848224866496
 30
0.0
  0
SEQEND
  5
136
330
133
100
AcDbEntity
  8
Layer 1
370
     9
  0
INSERT
  5
138
330
AA
100
AcDbEntity
  8
Layer 1
100
AcDbBlockReference
  2
block 9
 10
0.0
 20
0.0
 30
0.0
  0
INSERT
  5
143
330
AA
100
AcDbEntity
  8
Layer 1
100
AcDbBlockReference
  2
block 10
 10
0.0
 20
0.0
 30
0.0
  0
INSERT
  5
153
330
AA
100
AcDbEntity
  8
Layer 1
100
AcDbBlockReference
  2
block 11
 10
0.0
 20
0.0
 30
0.0
  0
INSERT
  5
15B
330
AA
100
AcDbEntity
  8
Layer 1
100
AcDbBlockReference
  2
block 12
 10
0.0
 20
0.0
 30
0.0
  0
INSERT
  5
166
330
AA
100
AcDbEntity
  8
Layer 1
100
AcDbBlockReference
  2
block 13
 10
0.0
 20
0.0
 30
0.0
  0
INSERT
  5
176
330
AA
100
AcDbEntity
  8
Layer 1
100
AcDbBlockReference
  2
block 14
 10
0.0
 20
0.0
 30
0.0
  0
INSERT
  5
17E
330
AA
100
AcDbEntity
  8
Layer 1
100
AcDbBlockReference
  2
block 15
 10
0.0
 20
0.0
 30
0.0
  0
INSERT
  5
189
330
AA
100
AcDbEntity
  8
Layer 1
100
AcDbBlockReference
  2
block 16
 10
0.0
 20
0.0
 30
0.0
  0
INSERT
  5
199
330
AA
100
AcDbEntity
  8
Layer 1
100
AcDbBlockReference
  2
block 17
 10
0.0
 20
0.0
 30
0.0
  0
INSERT
  5
1A1
330
AA
100
AcDbEntity
  8
Layer 1
100
AcDbBlockReference
  2
block 18
 10
0.0
 20
0.0
 30
0.0
  0
ENDBLK
  5
AD
330
AA
100
AcDbEntity
  8
0
100
AcDbBlockEnd
  0
BLOCK
  5
B8
330
B6
100
AcDbEntity
  8
0
100
AcDbBlockBegin
  2
block 4
 70
     0
 71
     0
 10
0.0
 20
0.0
 30
0.0
  3
block 4
  1

  0
POLYLINE
  5
BA
330
B6
100
AcDbEntity
  8
Layer 1
370
     0
100
AcDb2dPolyline
 66
     1
 10
0.0
 20
0.0
 30
0.0
  0
VERTEX
  5
BB
330
BA
100
AcDbEntity
  8
Layer 1
370
     0
100
AcDbVertex
100
AcDb2dVertex
 10
-1980.164748311382
 20
551.6460868304044
 30
0.0
  0
VERTEX
  5
BC
330
BA
100
AcDbEntity
  8
Layer 1
370
     0
100
AcDbVertex
100
AcDb2dVertex
 10
-1992.291484419462
 20
551.6460868304044
 30
0.0
  0
VERTEX
  5
BD
330
BA
100
AcDbEntity
  8
Layer 1
370
     0
100
AcDbVertex
100
AcDb2dVertex
 10
-1980.164748311382
 20
581.962927100603
 30
0.0
  0
VERTEX
  5
BE
330
BA
100
AcDbEntity
  8
Layer 1
370
     0
100
AcDbVertex
100
AcDb2dVertex
 10
-1968.038012203303
 20
551.6460868304044
 30
0.0
  0
VERTEX
  5
BF
330
BA
100
AcDbEntity
  8
Layer 1
370
     0
100
AcDbVertex
100
AcDb2dVertex
 10
-1980.164748311382
 20
551.6460868304044
 30
0.0
  0
SEQEND
  5
C0
330
BA
100
AcDbEntity
  8
Layer 1
370
     0
  0
ENDBLK
  5
B9
330
B6
100
AcDbEntity
  8
0
100
AcDbBlockEnd
  0
BLOCK
  5
C3
330
C1
100
AcDbEntity
  8
0
100
AcDbBlockBegin
  2
block 5
 70
     0
 71
     0
 10
0.0
 20
0.0
 30
0.0
  3
block 5
  1

  0
POLYLINE
  5
C5
330
C1
100
AcDbEntity
  8
Layer 1
370
     0
100
AcDb2dPolyline
 66
     1
 10
0.0
 20
0.0
 30
0.0
  0
VERTEX
  5
C6
330
C5
100
AcDbEntity
  8
Layer 1
370
     0
100
AcDbVertex
100
AcDb2dVertex
 10
-1980.164748311382
 20
551.6460868304044
 30
0.0
  0
VERTEX
  5
C7
330
C5
100
AcDbEntity
  8
Layer 1
370
     0
100
AcDbVertex
100
AcDb2dVertex
 10
-1992.28735030488
 20
551.6460868304044
 30
0.0
  0
VERTEX
  5
C8
330
C5
100
AcDbEntity
  8
Layer 1
370
     0
100
AcDbVertex
100
AcDb2dVertex
 10
-1992.28735030488
 20
551.6460868304044
 30
0.0
  0
VERTEX
  5
C9
330
C5
100
AcDbEntity
  8
Layer 1
370
     0
100
AcDbVertex
100
AcDb2dVertex
 10
-1980.164748311382
 20
581.9672334699596
 30
0.0
  0
VERTEX
  5
CA
330
C5
100
AcDbEntity
  8
Layer 1
370
     0
100
AcDbVertex
100
AcDb2dVertex
 10
-1980.164748311382
 20
581.9672334699596
 30
0.0
  0
VERTEX
  5
CB
330
C5
100
AcDbEntity
  8
Layer 1
370
     0
100
AcDbVertex
100
AcDb2dVertex
 10
-1968.033878088721
 20
551.6460868304044
 30
0.0
  0
VERTEX
  5
CC
330
C5
100
AcDbEntity
  8
Layer 1
370
     0
100
AcDbVertex
100
AcDb2dVertex
 10
-1968.033878088721
 20
551.6460868304044
 30
0.0
  0
VERTEX
  5
CD
330
C5
100
AcDbEntity
  8
Layer 1
370
     0
100
AcDbVertex
100
AcDb2dVertex
 10
-1980.164748311382
 20
551.6460868304044
 30
0.0
  0
VERTEX
  5
CE
330
C5
100
AcDbEntity
  8
Layer 1
370
     0
100
AcDbVertex
100
AcDb2dVertex
 10
-1980.164748311382
 20
551.6460868304044
 30
0.0
  0
SEQEND
  5
CF
330
C5
100
AcDbEntity
  8
Layer 1
370
     0
  0
HATCH
  5
D0
330
C1
100
AcDbEntity
  8
Layer 1
 62
     7
100
AcDbHatch
 10
0.0
 20
0.0
 30
0.0
210
0.0
220
0.0
230
1.0
  2
SOLID
 70
     1
 71
     0
 91
        1
 92
        1
 93
        4
 72
     1
 10
-1980.164748311382
 20
551.6460868304044
 11
-1992.28735030488
 21
551.6460868304044
 72
     1
 10
-1992.28735030488
 20
551.6460868304044
 11
-1980.164748311382
 21
581.9672334699596
 72
     1
 10
-1980.164748311382
 20
581.9672334699596
 11
-1968.033878088721
 21
551.6460868304044
 72
     1
 10
-1968.033878088721
 20
551.6460868304044
 11
-1980.164748311382
 21
551.6460868304044
 97
        0
 75
     0
 76
     1
 98
        0
  0
ENDBLK
  5
C4
330
C1
100
AcDbEntity
  8
0
100
AcDbBlockEnd
  0
BLOCK
  5
D3
330
D1
100
AcDbEntity
  8
0
100
AcDbBlockBegin
  2
block 6
 70
     0
 71
     0
 10
0.0
 20
0.0
 30
0.0
  3
block 6
  1

  0
POLYLINE
  5
D5
330
D1
100
AcDbEntity
  8
Layer 1
370
     0
100
AcDb2dPolyline
 66
     1
 10
0.0
 20
0.0
 30
0.0
  0
VERTEX
  5
D6
330
D5
100
AcDbEntity
  8
Layer 1
370
     0
100
AcDbVertex
100
AcDb2dVertex
 10
-1980.164748311382
 20
-387.6679822164511
 30
0.0
  0
VERTEX
  5
D7
330
D5
100
AcDbEntity
  8
Layer 1
370
     0
100
AcDbVertex
100
AcDb2dVertex
 10
-1968.038012203303
 20
-387.6679822164511
 30
0.0
  0
VERTEX
  5
D8
330
D5
100
AcDbEntity
  8
Layer 1
370
     0
100
AcDbVertex
100
AcDb2dVertex
 10
-1980.164748311382
 20
-417.9848224866496
 30
0.0
  0
VERTEX
  5
D9
330
D5
100
AcDbEntity
  8
Layer 1
370
     0
100
AcDbVertex
100
AcDb2dVertex
 10
-1992.291484419462
 20
-387.6679822164511
 30
0.0
  0
VERTEX
  5
DA
330
D5
100
AcDbEntity
  8
Layer 1
370
     0
100
AcDbVertex
100
AcDb2dVertex
 10
-1980.164748311382
 20
-387.6679822164511
 30
0.0
  0
SEQEND
  5
DB
330
D5
100
AcDbEntity
  8
Layer 1
370
     0
  0
ENDBLK
  5
D4
330
D1
100
AcDbEntity
  8
0
100
AcDbBlockEnd
  0
BLOCK
  5
DE
330
DC
100
AcDbEntity
  8
0
100
AcDbBlockBegin
  2
block 7
 70
     0
 71
     0
 10
0.0
 20
0.0
 30
0.0
  3
block 7
  1

  0
POLYLINE
  5
E0
330
DC
100
AcDbEntity
  8
Layer 1
370
     0
100
AcDb2dPolyline
 66
     1
 10
0.0
 20
0.0
 30
0.0
  0
VERTEX
  5
E1
330
E0
100
AcDbEntity
  8
Layer 1
370
     0
100
AcDbVertex
100
AcDb2dVertex
 10
-1980.164748311382
 20
-387.6590249681894
 30
0.0
  0
VERTEX
  5
E2
330
E0
100
AcDbEntity
  8
Layer 1
370
     0
100
AcDbVertex
100
AcDb2dVertex
 10
-1968.033878088721
 20
-387.6590249681894
 30
0.0
  0
VERTEX
  5
E3
330
E0
100
AcDbEntity
  8
Layer 1
370
     0
100
AcDbVertex
100
AcDb2dVertex
 10
-1968.033878088721
 20
-387.6590249681894
 30
0.0
  0
VERTEX
  5
E4
330
E0
100
AcDbEntity
  8
Layer 1
370
     0
100
AcDbVertex
100
AcDb2dVertex
 10
-1980.164748311382
 20
-417.975865238388
 30
0.0
  0
VERTEX
  5
E5
330
E0
100
AcDbEntity
  8
Layer 1
370
     0
100
AcDbVertex
100
AcDb2dVertex
 10
-1980.164748311382
 20
-417.975865238388
 30
0.0
  0
VERTEX
  5
E6
330
E0
100
AcDbEntity
  8
Layer 1
370
     0
100
AcDbVertex
100
AcDb2dVertex
 10
-1992.28735030488
 20
-387.6590249681894
 30
0.0
  0
VERTEX
  5
E7
330
E0
100
AcDbEntity
  8
Layer 1
370
     0
100
AcDbVertex
100
AcDb2dVertex
 10
-1992.28735030488
 20
-387.6590249681894
 30
0.0
  0
VERTEX
  5
E8
330
E0
100
AcDbEntity
  8
Layer 1
370
     0
100
AcDbVertex
100
AcDb2dVertex
 10
-1980.164748311382
 20
-387.6590249681894
 30
0.0
  0
VERTEX
  5
E9
330
E0
100
AcDbEntity
  8
Layer 1
370
     0
100
AcDbVertex
100
AcDb2dVertex
 10
-1980.164748311382
 20
-387.6590249681894
 30
0.0
  0
SEQEND
  5
EA
330
E0
100
AcDbEntity
  8
Layer 1
370
     0
  0
HATCH
  5
EB
330
DC
100
AcDbEntity
  8
Layer 1
 62
     7
100
AcDbHatch
 10
0.0
 20
0.0
 30
0.0
210
0.0
220
0.0
230
1.0
  2
SOLID
 70
     1
 71
     0
 91
        1
 92
        1
 93
        4
 72
     1
 10
-1980.164748311382
 20
-387.6590249681894
 11
-1968.033878088721
 21
-387.6590249681894
 72
     1
 10
-1968.033878088721
 20
-387.6590249681894
 11
-1980.164748311382
 21
-417.975865238388
 72
     1
 10
-1980.164748311382
 20
-417.975865238388
 11
-1992.28735030488
 21
-387.6590249681894
 72
     1
 10
-1992.28735030488
 20
-387.6590249681894
 11
-1980.164748311382
 21
-387.6590249681894
 97
        0
 75
     0
 76
     1
 98
        0
  0
ENDBLK
  5
DF
330
DC
100
AcDbEntity
  8
0
100
AcDbBlockEnd
  0
BLOCK
  5
EE
330
EC
100
AcDbEntity
  8
0
100
AcDbBlockBegin
  2
block 8
 70
     0
 71
     0
 10
0.0
 20
0.0
 30
0.0
  3
block 8
  1

  0
POLYLINE
  5
F0
330
EC
100
AcDbEntity
  8
Layer 1
 62
     7
370
     9
100
AcDb2dPolyline
 66
     1
 10
0.0
 20
0.0
 30
0.0
  0
VERTEX
  5
F1
330
F0
100
AcDbEntity
  8
Layer 1
 62
     7
370
     9
100
AcDbVertex
100
AcDb2dVertex
 10
-1980.1606141968
 20
553.6700804279888
 30
0.0
  0
VERTEX
  5
F2
330
F0
100
AcDbEntity
  8
Layer 1
 62
     7
370
     9
100
AcDbVertex
100
AcDb2dVertex
 10
-1980.1606141968
 20
-389.6916313044868
 30
0.0
  0
SEQEND
  5
F3
330
F0
100
AcDbEntity
  8
Layer 1
370
     9
  0
ENDBLK
  5
EF
330
EC
100
AcDbEntity
  8
0
100
AcDbBlockEnd
  0
BLOCK
  5
139
330
137
100
AcDbEntity
  8
0
100
AcDbBlockBegin
  2
block 9
 70
     0
 71
     0
 10
0.0
 20
0.0
 30
0.0
  3
block 9
  1

  0
POLYLINE
  5
13B
330
137
100
AcDbEntity
  8
Layer 1
370
     0
100
AcDb2dPolyline
 66
     1
 10
0.0
 20
0.0
 30
0.0
  0
VERTEX
  5
13C
330
13B
100
AcDbEntity
  8
Layer 1
370
     0
100
AcDbVertex
100
AcDb2dVertex
 10
-72.40453828485026
 20
-448.2927055085866
 30
0.0
  0
VERTEX
  5
13D
330
13B
100
AcDbEntity
  8
Layer 1
370
     0
100
AcDbVertex
100
AcDb2dVertex
 10
-84.53127439292969
 20
-448.2927055085866
 30
0.0
  0
VERTEX
  5
13E
330
13B
100
AcDbEntity
  8
Layer 1
370
     0
100
AcDbVertex
100
AcDb2dVertex
 10
-72.40453828485026
 20
-417.9848224866496
 30
0.0
  0
VERTEX
  5
13F
330
13B
100
AcDbEntity
  8
Layer 1
370
     0
100
AcDbVertex
100
AcDb2dVertex
 10
-60.27780217677083
 20
-448.2927055085866
 30
0.0
  0
VERTEX
  5
140
330
13B
100
AcDbEntity
  8
Layer 1
370
     0
100
AcDbVertex
100
AcDb2dVertex
 10
-72.40453828485026
 20
-448.2927055085866
 30
0.0
  0
SEQEND
  5
141
330
13B
100
AcDbEntity
  8
Layer 1
370
     0
  0
ENDBLK
  5
13A
330
137
100
AcDbEntity
  8
0
100
AcDbBlockEnd
  0
BLOCK
  5
144
330
142
100
AcDbEntity
  8
0
100
AcDbBlockBegin
  2
block 10
 70
     0
 71
     0
 10
0.0
 20
0.0
 30
0.0
  3
block 10
  1

  0
POLYLINE
  5
146
330
142
100
AcDbEntity
  8
Layer 1
370
     0
100
AcDb2dPolyline
 66
     1
 10
0.0
 20
0.0
 30
0.0
  0
VERTEX
  5
147
330
146
100
AcDbEntity
  8
Layer 1
370
     0
100
AcDbVertex
100
AcDb2dVertex
 10
-72.40005966071944
 20
-448.2927055085866
 30
0.0
  0
VERTEX
  5
148
330
146
100
AcDbEntity
  8
Layer 1
370
     0
100
AcDbVertex
100
AcDb2dVertex
 10
-84.53540850751199
 20
-448.2927055085866
 30
0.0
  0
VERTEX
  5
149
330
146
100
AcDbEntity
  8
Layer 1
370
     0
100
AcDbVertex
100
AcDb2dVertex
 10
-84.53540850751199
 20
-448.2927055085866
 30
0.0
  0
VERTEX
  5
14A
330
146
100
AcDbEntity
  8
Layer 1
370
     0
100
AcDbVertex
100
AcDb2dVertex
 10
-72.40005966071944
 20
-417.975865238388
 30
0.0
  0
VERTEX
  5
14B
330
146
100
AcDbEntity
  8
Layer 1
370
     0
100
AcDbVertex
100
AcDb2dVertex
 10
-72.40005966071944
 20
-417.975865238388
 30
0.0
  0
VERTEX
  5
14C
330
146
100
AcDbEntity
  8
Layer 1
370
     0
100
AcDbVertex
100
AcDb2dVertex
 10
-60.27780217677083
 20
-448.2927055085866
 30
0.0
  0
VERTEX
  5
14D
330
146
100
AcDbEntity
  8
Layer 1
370
     0
100
AcDbVertex
100
AcDb2dVertex
 10
-60.27780217677083
 20
-448.2927055085866
 30
0.0
  0
VERTEX
  5
14E
330
146
100
AcDbEntity
  8
Layer 1
370
     0
100
AcDbVertex
100
AcDb2dVertex
 10
-72.40005966071944
 20
-448.2927055085866
 30
0.0
  0
VERTEX
  5
14F
330
146
100
AcDbEntity
  8
Layer 1
370
     0
100
AcDbVertex
100
AcDb2dVertex
 10
-72.40005966071944
 20
-448.2927055085866
 30
0.0
  0
SEQEND
  5
150
330
146
100
AcDbEntity
  8
Layer 1
370
     0
  0
HATCH
  5
151
330
142
100
AcDbEntity
  8
Layer 1
 62
     7
100
AcDbHatch
 10
0.0
 20
0.0
 30
0.0
210
0.0
220
0.0
230
1.0
  2
SOLID
 70
     1
 71
     0
 91
        1
 92
        1
 93
        4
 72
     1
 10
-72.40005966071944
 20
-448.2927055085866
 11
-84.53540850751199
 21
-448.2927055085866
 72
     1
 10
-84.53540850751199
 20
-448.2927055085866
 11
-72.40005966071944
 21
-417.975865238388
 72
     1
 10
-72.40005966071944
 20
-417.975865238388
 11
-60.27780217677083
 21
-448.2927055085866
 72
     1
 10
-60.27780217677083
 20
-448.2927055085866
 11
-72.40005966071944
 21
-448.2927055085866
 97
        0
 75
     0
 76
     1
 98
        0
  0
ENDBLK
  5
145
330
142
100
AcDbEntity
  8
0
100
AcDbBlockEnd
  0
BLOCK
  5
154
330
152
100
AcDbEntity
  8
0
100
AcDbBlockBegin
  2
block 11
 70
     0
 71
     0
 10
0.0
 20
0.0
 30
0.0
  3
block 11
  1

  0
POLYLINE
  5
156
330
152
100
AcDbEntity
  8
Layer 1
 62
     7
370
     9
100
AcDb2dPolyline
 66
     1
 10
0.0
 20
0.0
 30
0.0
  0
VERTEX
  5
157
330
156
100
AcDbEntity
  8
Layer 1
 62
     7
370
     9
100
AcDbVertex
100
AcDb2dVertex
 10
-72.40867239943256
 20
-446.2690564205508
 30
0.0
  0
VERTEX
  5
158
330
156
100
AcDbEntity
  8
Layer 1
 62
     7
370
     9
100
AcDbVertex
100
AcDb2dVertex
 10
-72.40867239943256
 20
-579.5887395469431
 30
0.0
  0
SEQEND
  5
159
330
156
100
AcDbEntity
  8
Layer 1
370
     9
  0
ENDBLK
  5
155
330
152
100
AcDbEntity
  8
0
100
AcDbBlockEnd
  0
BLOCK
  5
15C
330
15A
100
AcDbEntity
  8
0
100
AcDbBlockBegin
  2
block 12
 70
     0
 71
     0
 10
0.0
 20
0.0
 30
0.0
  3
block 12
  1

  0
POLYLINE
  5
15E
330
15A
100
AcDbEntity
  8
Layer 1
370
     0
100
AcDb2dPolyline
 66
     1
 10
0.0
 20
0.0
 30
0.0
  0
VERTEX
  5
15F
330
15E
100
AcDbEntity
  8
Layer 1
370
     0
100
AcDbVertex
100
AcDb2dVertex
 10
-1822.301860438522
 20
-448.2927055085866
 30
0.0
  0
VERTEX
  5
160
330
15E
100
AcDbEntity
  8
Layer 1
370
     0
100
AcDbVertex
100
AcDb2dVertex
 10
-1834.428596546601
 20
-448.2927055085866
 30
0.0
  0
VERTEX
  5
161
330
15E
100
AcDbEntity
  8
Layer 1
370
     0
100
AcDbVertex
100
AcDb2dVertex
 10
-1822.301860438522
 20
-417.9848224866496
 30
0.0
  0
VERTEX
  5
162
330
15E
100
AcDbEntity
  8
Layer 1
370
     0
100
AcDbVertex
100
AcDb2dVertex
 10
-1810.175124330442
 20
-448.2927055085866
 30
0.0
  0
VERTEX
  5
163
330
15E
100
AcDbEntity
  8
Layer 1
370
     0
100
AcDbVertex
100
AcDb2dVertex
 10
-1822.301860438522
 20
-448.2927055085866
 30
0.0
  0
SEQEND
  5
164
330
15E
100
AcDbEntity
  8
Layer 1
370
     0
  0
ENDBLK
  5
15D
330
15A
100
AcDbEntity
  8
0
100
AcDbBlockEnd
  0
BLOCK
  5
167
330
165
100
AcDbEntity
  8
0
100
AcDbBlockBegin
  2
block 13
 70
     0
 71
     0
 10
0.0
 20
0.0
 30
0.0
  3
block 13
  1

  0
POLYLINE
  5
169
330
165
100
AcDbEntity
  8
Layer 1
370
     0
100
AcDb2dPolyline
 66
     1
 10
0.0
 20
0.0
 30
0.0
  0
VERTEX
  5
16A
330
169
100
AcDbEntity
  8
Layer 1
370
     0
100
AcDbVertex
100
AcDb2dVertex
 10
-1822.301860438522
 20
-448.2927055085866
 30
0.0
  0
VERTEX
  5
16B
330
169
100
AcDbEntity
  8
Layer 1
370
     0
100
AcDbVertex
100
AcDb2dVertex
 10
-1834.419983807888
 20
-448.2927055085866
 30
0.0
  0
VERTEX
  5
16C
330
169
100
AcDbEntity
  8
Layer 1
370
     0
100
AcDbVertex
100
AcDb2dVertex
 10
-1834.419983807888
 20
-448.2927055085866
 30
0.0
  0
VERTEX
  5
16D
330
169
100
AcDbEntity
  8
Layer 1
370
     0
100
AcDbVertex
100
AcDb2dVertex
 10
-1822.301860438522
 20
-417.975865238388
 30
0.0
  0
VERTEX
  5
16E
330
169
100
AcDbEntity
  8
Layer 1
370
     0
100
AcDbVertex
100
AcDb2dVertex
 10
-1822.301860438522
 20
-417.975865238388
 30
0.0
  0
VERTEX
  5
16F
330
169
100
AcDbEntity
  8
Layer 1
370
     0
100
AcDbVertex
100
AcDb2dVertex
 10
-1810.179602954573
 20
-448.2927055085866
 30
0.0
  0
VERTEX
  5
170
330
169
100
AcDbEntity
  8
Layer 1
370
     0
100
AcDbVertex
100
AcDb2dVertex
 10
-1810.179602954573
 20
-448.2927055085866
 30
0.0
  0
VERTEX
  5
171
330
169
100
AcDbEntity
  8
Layer 1
370
     0
100
AcDbVertex
100
AcDb2dVertex
 10
-1822.301860438522
 20
-448.2927055085866
 30
0.0
  0
VERTEX
  5
172
330
169
100
AcDbEntity
  8
Layer 1
370
     0
100
AcDbVertex
100
AcDb2dVertex
 10
-1822.301860438522
 20
-448.2927055085866
 30
0.0
  0
SEQEND
  5
173
330
169
100
AcDbEntity
  8
Layer 1
370
     0
  0
HATCH
  5
174
330
165
100
AcDbEntity
  8
Layer 1
 62
     7
100
AcDbHatch
 10
0.0
 20
0.0
 30
0.0
210
0.0
220
0.0
230
1.0
  2
SOLID
 70
     1
 71
     0
 91
        1
 92
        1
 93
        4
 72
     1
 10
-1822.301860438522
 20
-448.2927055085866
 11
-1834.419983807888
 21
-448.2927055085866
 72
     1
 10
-1834.419983807888
 20
-448.2927055085866
 11
-1822.301860438522
 21
-417.975865238388
 72
     1
 10
-1822.301860438522
 20
-417.975865238388
 11
-1810.179602954573
 21
-448.2927055085866
 72
     1
 10
-1810.179602954573
 20
-448.2927055085866
 11
-1822.301860438522
 21
-448.2927055085866
 97
        0
 75
     0
 76
     1
 98
        0
  0
ENDBLK
  5
168
330
165
100
AcDbEntity
  8
0
100
AcDbBlockEnd
  0
BLOCK
  5
177
330
175
100
AcDbEntity
  8
0
100
AcDbBlockBegin
  2
block 14
 70
     0
 71
     0
 10
0.0
 20
0.0
 30
0.0
  3
block 14
  1

  0
POLYLINE
  5
179
330
175
100
AcDbEntity
  8
Layer 1
 62
     7
370
     9
100
AcDb2dPolyline
 66
     1
 10
0.0
 20
0.0
 30
0.0
  0
VERTEX
  5
17A
330
179
100
AcDbEntity
  8
Layer 1
 62
     7
370
     9
100
AcDbVertex
100
AcDb2dVertex
 10
-1822.29772632394
 20
-446.2690564205508
 30
0.0
  0
VERTEX
  5
17B
330
179
100
AcDbEntity
  8
Layer 1
 62
     7
370
     9
100
AcDbVertex
100
AcDb2dVertex
 10
-1822.29772632394
 20
-579.5887395469431
 30
0.0
  0
SEQEND
  5
17C
330
179
100
AcDbEntity
  8
Layer 1
370
     9
  0
ENDBLK
  5
178
330
175
100
AcDbEntity
  8
0
100
AcDbBlockEnd
  0
BLOCK
  5
17F
330
17D
100
AcDbEntity
  8
0
100
AcDbBlockBegin
  2
block 15
 70
     0
 71
     0
 10
0.0
 20
0.0
 30
0.0
  3
block 15
  1

  0
POLYLINE
  5
181
330
17D
100
AcDbEntity
  8
Layer 1
370
     0
100
AcDb2dPolyline
 66
     1
 10
0.0
 20
0.0
 30
0.0
  0
VERTEX
  5
182
330
181
100
AcDbEntity
  8
Layer 1
370
     0
100
AcDbVertex
100
AcDb2dVertex
 10
-72.40453828485026
 20
-300.4553900073515
 30
0.0
  0
VERTEX
  5
183
330
181
100
AcDbEntity
  8
Layer 1
370
     0
100
AcDbVertex
100
AcDb2dVertex
 10
-60.27780217677083
 20
-300.4553900073515
 30
0.0
  0
VERTEX
  5
184
330
181
100
AcDbEntity
  8
Layer 1
370
     0
100
AcDbVertex
100
AcDb2dVertex
 10
-72.40453828485026
 20
-330.77223027755
 30
0.0
  0
VERTEX
  5
185
330
181
100
AcDbEntity
  8
Layer 1
370
     0
100
AcDbVertex
100
AcDb2dVertex
 10
-84.53127439292969
 20
-300.4553900073515
 30
0.0
  0
VERTEX
  5
186
330
181
100
AcDbEntity
  8
Layer 1
370
     0
100
AcDbVertex
100
AcDb2dVertex
 10
-72.40453828485026
 20
-300.4553900073515
 30
0.0
  0
SEQEND
  5
187
330
181
100
AcDbEntity
  8
Layer 1
370
     0
  0
ENDBLK
  5
180
330
17D
100
AcDbEntity
  8
0
100
AcDbBlockEnd
  0
BLOCK
  5
18A
330
188
100
AcDbEntity
  8
0
100
AcDbBlockBegin
  2
block 16
 70
     0
 71
     0
 10
0.0
 20
0.0
 30
0.0
  3
block 16
  1

  0
POLYLINE
  5
18C
330
188
100
AcDbEntity
  8
Layer 1
370
     0
100
AcDb2dPolyline
 66
     1
 10
0.0
 20
0.0
 30
0.0
  0
VERTEX
  5
18D
330
18C
100
AcDbEntity
  8
Layer 1
370
     0
100
AcDbVertex
100
AcDb2dVertex
 10
-72.40005966071944
 20
-300.4553900073515
 30
0.0
  0
VERTEX
  5
18E
330
18C
100
AcDbEntity
  8
Layer 1
370
     0
100
AcDbVertex
100
AcDb2dVertex
 10
-60.27780217677083
 20
-300.4553900073515
 30
0.0
  0
VERTEX
  5
18F
330
18C
100
AcDbEntity
  8
Layer 1
370
     0
100
AcDbVertex
100
AcDb2dVertex
 10
-60.27780217677083
 20
-300.4553900073515
 30
0.0
  0
VERTEX
  5
190
330
18C
100
AcDbEntity
  8
Layer 1
370
     0
100
AcDbVertex
100
AcDb2dVertex
 10
-72.40005966071944
 20
-330.77223027755
 30
0.0
  0
VERTEX
  5
191
330
18C
100
AcDbEntity
  8
Layer 1
370
     0
100
AcDbVertex
100
AcDb2dVertex
 10
-72.40005966071944
 20
-330.77223027755
 30
0.0
  0
VERTEX
  5
192
330
18C
100
AcDbEntity
  8
Layer 1
370
     0
100
AcDbVertex
100
AcDb2dVertex
 10
-84.53540850751199
 20
-300.4553900073515
 30
0.0
  0
VERTEX
  5
193
330
18C
100
AcDbEntity
  8
Layer 1
370
     0
100
AcDbVertex
100
AcDb2dVertex
 10
-84.53540850751199
 20
-300.4553900073515
 30
0.0
  0
VERTEX
  5
194
330
18C
100
AcDbEntity
  8
Layer 1
370
     0
100
AcDbVertex
100
AcDb2dVertex
 10
-72.40005966071944
 20
-300.4553900073515
 30
0.0
  0
VERTEX
  5
195
330
18C
100
AcDbEntity
  8
Layer 1
370
     0
100
AcDbVertex
100
AcDb2dVertex
 10
-72.40005966071944
 20
-300.4553900073515
 30
0.0
  0
SEQEND
  5
196
330
18C
100
AcDbEntity
  8
Layer 1
370
     0
  0
HATCH
  5
197
330
188
100
AcDbEntity
  8
Layer 1
 62
     7
100
AcDbHatch
 10
0.0
 20
0.0
 30
0.0
210
0.0
220
0.0
230
1.0
  2
SOLID
 70
     1
 71
     0
 91
        1
 92
        1
 93
        4
 72
     1
 10
-72.40005966071944
 20
-300.4553900073515
 11
-60.27780217677083
 21
-300.4553900073515
 72
     1
 10
-60.27780217677083
 20
-300.4553900073515
 11
-72.40005966071944
 21
-330.77223027755
 72
     1
 10
-72.40005966071944
 20
-330.77223027755
 11
-84.53540850751199
 21
-300.4553900073515
 72
     1
 10
-84.53540850751199
 20
-300.4553900073515
 11
-72.40005966071944
 21
-300.4553900073515
 97
        0
 75
     0
 76
     1
 98
        0
  0
ENDBLK
  5
18B
330
188
100
AcDbEntity
  8
0
100
AcDbBlockEnd
  0
BLOCK
  5
19A
330
198
100
AcDbEntity
  8
0
100
AcDbBlockBegin
  2
block 17
 70
     0
 71
     0
 10
0.0
 20
0.0
 30
0.0
  3
block 17
  1

  0
POLYLINE
  5
19C
330
198
100
AcDbEntity
  8
Layer 1
 62
     7
370
     9
100
AcDb2dPolyline
 66
     1
 10
0.0
 20
0.0
 30
0.0
  0
VERTEX
  5
19D
330
19C
100
AcDbEntity
  8
Layer 1
 62
     7
370
     9
100
AcDbVertex
100
AcDb2dVertex
 10
-72.40867239943256
 20
-195.9911376463147
 30
0.0
  0
VERTEX
  5
19E
330
19C
100
AcDbEntity
  8
Layer 1
 62
     7
370
     9
100
AcDbVertex
100
AcDb2dVertex
 10
-72.40867239943256
 20
-302.4790390953872
 30
0.0
  0
SEQEND
  5
19F
330
19C
100
AcDbEntity
  8
Layer 1
370
     9
  0
ENDBLK
  5
19B
330
198
100
AcDbEntity
  8
0
100
AcDbBlockEnd
  0
BLOCK
  5
1A2
330
1A0
100
AcDbEntity
  8
0
100
AcDbBlockBegin
  2
block 18
 70
     0
 71
     0
 10
0.0
 20
0.0
 30
0.0
  3
block 18
  1

  0
POLYLINE
  5
1A4
330
1A0
100
AcDbEntity
  8
Layer 1
 62
     7
370
    20
100
AcDb2dPolyline
 66
     1
 10
0.0
 20
0.0
 30
0.0
  0
VERTEX
  5
1A5
330
1A4
100
AcDbEntity
  8
Layer 1
 62
     7
370
    20
100
AcDbVertex
100
AcDb2dVertex
 10
-1699.737593162305
 20
-299.9847899640663
 30
0.0
  0
VERTEX
  5
1A6
330
1A4
100
AcDbEntity
  8
Layer 1
 62
     7
370
    20
100
AcDbVertex
100
AcDb2dVertex
 10
-333.737768471253
 20
-299.9847899640663
 30
0.0
  0
SEQEND
  5
1A7
330
1A4
100
AcDbEntity
  8
Layer 1
370
    20
  0
POLYLINE
  5
1A8
330
1A0
100
AcDbEntity
  8
Layer 1
 62
     7
370
    20
100
AcDb2dPolyline
 66
     1
 10
0.0
 20
0.0
 30
0.0
  0
VERTEX
  5
1A9
330
1A8
100
AcDbEntity
  8
Layer 1
 62
     7
370
    20
100
AcDbVertex
100
AcDb2dVertex
 10
-1699.737593162305
 20
-329.9846814496219
 30
0.0
  0
VERTEX
  5
1AA
330
1A8
100
AcDbEntity
  8
Layer 1
 62
     7
370
    20
100
AcDbVertex
100
AcDb2dVertex
 10
-333.737768471253
 20
-329.9846814496219
 30
0.0
  0
SEQEND
  5
1AB
330
1A8
100
AcDbEntity
  8
Layer 1
370
    20
  0
POLYLINE
  5
1AC
330
1A0
100
AcDbEntity
  8
Layer 1
 62
     7
370
    20
100
AcDb2dPolyline
 66
     1
 10
0.0
 20
0.0
 30
0.0
  0
VERTEX
  5
1AD
330
1AC
100
AcDbEntity
  8
Layer 1
 62
     7
370
    20
100
AcDbVertex
100
AcDb2dVertex
 10
-273.7376409905934
 20
-299.9847899640663
 30
0.0
  0
VERTEX
  5
1AE
330
1AC
100
AcDbEntity
  8
Layer 1
 62
     7
370
    20
100
AcDbVertex
100
AcDb2dVertex
 10
-141.7377739446003
 20
-299.9847899640663
 30
0.0
  0
SEQEND
  5
1AF
330
1AC
100
AcDbEntity
  8
Layer 1
370
    20
  0
POLYLINE
  5
1B0
330
1A0
100
AcDbEntity
  8
Layer 1
 62
     7
370
    20
100
AcDb2dPolyline
 66
     1
 10
0.0
 20
0.0
 30
0.0
  0
VERTEX
  5
1B1
330
1B0
100
AcDbEntity
  8
Layer 1
 62
     7
370
    20
100
AcDbVertex
100
AcDb2dVertex
 10
-273.7376409905934
 20
-329.9846814496219
 30
0.0
  0
VERTEX
  5
1B2
330
1B0
100
AcDbEntity
  8
Layer 1
 62
     7
370
    20
100
AcDbVertex
100
AcDb2dVertex
 10
-141.7377739446003
 20
-329.9846814496219
 30
0.0
  0
SEQEND
  5
1B3
330
1B0
100
AcDbEntity
  8
Layer 1
370
    20
  0
POLYLINE
  5
1B4
330
1A0
100
AcDbEntity
  8
Layer 1
 62
     7
370
    20
100
AcDb2dPolyline
 66
     1
 10
0.0
 20
0.0
 30
0.0
  0
VERTEX
  5
1B5
330
1B4
100
AcDbEntity
  8
Layer 1
 62
     7
370
    20
100
AcDbVertex
100
AcDb2dVertex
 10
-1891.737759943732
 20
582.0151202972046
 30
0.0
  0
VERTEX
  5
1B6
330
1B4
100
AcDbEntity
  8
Layer 1
 62
     7
370
    20
100
AcDbVertex
100
AcDb2dVertex
 10
-141.7377739446003
 20
582.0151202972046
 30
0.0
  0
SEQEND
  5
1B7
330
1B4
100
AcDbEntity
  8
Layer 1
370
    20
  0
POLYLINE
  5
1B8
330
1A0
100
AcDbEntity
  8
Layer 1
 62
     7
370
    20
100
AcDb2dPolyline
 66
     1
 10
0.0
 20
0.0
 30
0.0
  0
VERTEX
  5
1B9
330
1B8
100
AcDbEntity
  8
Layer 1
 62
     7
370
    20
100
AcDbVertex
100
AcDb2dVertex
 10
-1891.737759943732
 20
532.0150714815796
 30
0.0
  0
VERTEX
  5
1BA
330
1B8
100
AcDbEntity
  8
Layer 1
 62
     7
370
    20
100
AcDbVertex
100
AcDb2dVertex
 10
-141.7377739446003
 20
532.0150714815796
 30
0.0
  0
SEQEND
  5
1BB
330
1B8
100
AcDbEntity
  8
Layer 1
370
    20
  0
POLYLINE
  5
1BC
330
1A0
100
AcDbEntity
  8
Layer 1
 62
     7
370
    20
100
AcDb2dPolyline
 66
     1
 10
0.0
 20
0.0
 30
0.0
  0
VERTEX
  5
1BD
330
1BC
100
AcDbEntity
  8
Layer 1
 62
     7
370
    20
100
AcDbVertex
100
AcDb2dVertex
 10
-1891.737759943732
 20
-299.9847899640663
 30
0.0
  0
VERTEX
  5
1BE
330
1BC
100
AcDbEntity
  8
Layer 1
 62
     7
370
    20
100
AcDbVertex
100
AcDb2dVertex
 10
-1759.737548388191
 20
-299.9847899640663
 30
0.0
  0
SEQEND
  5
1BF
330
1BC
100
AcDbEntity
  8
Layer 1
370
    20
  0
POLYLINE
  5
1C0
330
1A0
100
AcDbEntity
  8
Layer 1
 62
     7
370
    20
100
AcDb2dPolyline
 66
     1
 10
0.0
 20
0.0
 30
0.0
  0
VERTEX
  5
1C1
330
1C0
100
AcDbEntity
  8
Layer 1
 62
     7
370
    20
100
AcDbVertex
100
AcDb2dVertex
 10
-1891.737759943732
 20
-329.9846814496219
 30
0.0
  0
VERTEX
  5
1C2
330
1C0
100
AcDbEntity
  8
Layer 1
 62
     7
370
    20
100
AcDbVertex
100
AcDb2dVertex
 10
-1759.737548388191
 20
-329.9846814496219
 30
0.0
  0
SEQEND
  5
1C3
330
1C0
100
AcDbEntity
  8
Layer 1
370
    20
  0
POLYLINE
  5
1C4
330
1A0
100
AcDbEntity
  8
Layer 1
  6
AI-Linetype-3
 62
     7
370
    20
100
AcDb2dPolyline
 66
     1
 10
0.0
 20
0.0
 30
0.0
  0
VERTEX
  5
1C5
330
1C4
100
AcDbEntity
  8
Layer 1
  6
AI-Linetype-3
 62
     7
370
    20
100
AcDbVertex
100
AcDb2dVertex
 10
-1891.737759943732
 20
-417.9848224866496
 30
0.0
  0
VERTEX
  5
1C6
330
1C4
100
AcDbEntity
  8
Layer 1
  6
AI-Linetype-3
 62
     7
370
    20
100
AcDbVertex
100
AcDb2dVertex
 10
-141.7377739446003
 20
-417.9848224866496
 30
0.0
  0
SEQEND
  5
1C7
330
1C4
100
AcDbEntity
  8
Layer 1
  6
AI-Linetype-3
370
    20
  0
POLYLINE
  5
1C9
330
1A0
100
AcDbEntity
  8
Layer 1
 62
     7
370
    20
100
AcDb2dPolyline
 66
     1
 10
0.0
 20
0.0
 30
0.0
  0
VERTEX
  5
1CA
330
1C9
100
AcDbEntity
  8
Layer 1
 62
     7
370
    20
100
AcDbVertex
100
AcDb2dVertex
 10
-1699.737593162305
 20
-401.9847655245038
 30
0.0
  0
VERTEX
  5
1CB
330
1C9
100
AcDbEntity
  8
Layer 1
 62
     7
370
    20
100
AcDbVertex
100
AcDb2dVertex
 10
-1699.737593162305
 20
532.0150714815796
 30
0.0
  0
SEQEND
  5
1CC
330
1C9
100
AcDbEntity
  8
Layer 1
370
    20
  0
POLYLINE
  5
1CD
330
1A0
100
AcDbEntity
  8
Layer 1
 62
     7
370
    20
100
AcDb2dPolyline
 66
     1
 10
0.0
 20
0.0
 30
0.0
  0
VERTEX
  5
1CE
330
1CD
100
AcDbEntity
  8
Layer 1
 62
     7
370
    20
100
AcDbVertex
100
AcDb2dVertex
 10
-1759.737548388191
 20
-401.9847655245038
 30
0.0
  0
VERTEX
  5
1CF
330
1CD
100
AcDbEntity
  8
Layer 1
 62
     7
370
    20
100
AcDbVertex
100
AcDb2dVertex
 10
-1759.737548388191
 20
532.0150714815796
 30
0.0
  0
SEQEND
  5
1D0
330
1CD
100
AcDbEntity
  8
Layer 1
370
    20
  0
POLYLINE
  5
1D1
330
1A0
100
AcDbEntity
  8
Layer 1
 62
     7
370
    20
100
AcDb2dPolyline
 66
     1
 10
0.0
 20
0.0
 30
0.0
  0
VERTEX
  5
1D2
330
1D1
100
AcDbEntity
  8
Layer 1
 62
     7
370
    20
100
AcDbVertex
100
AcDb2dVertex
 10
-273.7376409905934
 20
-401.9847655245038
 30
0.0
  0
VERTEX
  5
1D3
330
1D1
100
AcDbEntity
  8
Layer 1
 62
     7
370
    20
100
AcDbVertex
100
AcDb2dVertex
 10
-273.7376409905934
 20
532.0150714815796
 30
0.0
  0
SEQEND
  5
1D4
330
1D1
100
AcDbEntity
  8
Layer 1
370
    20
  0
POLYLINE
  5
1D5
330
1A0
100
AcDbEntity
  8
Layer 1
 62
     7
370
    20
100
AcDb2dPolyline
 66
     1
 10
0.0
 20
0.0
 30
0.0
  0
VERTEX
  5
1D6
330
1D5
100
AcDbEntity
  8
Layer 1
 62
     7
370
    20
100
AcDbVertex
100
AcDb2dVertex
 10
-333.737768471253
 20
-401.9847655245038
 30
0.0
  0
VERTEX
  5
1D7
330
1D5
100
AcDbEntity
  8
Layer 1
 62
     7
370
    20
100
AcDbVertex
100
AcDb2dVertex
 10
-333.737768471253
 20
532.0150714815796
 30
0.0
  0
SEQEND
  5
1D8
330
1D5
100
AcDbEntity
  8
Layer 1
370
    20
  0
POLYLINE
  5
1D9
330
1A0
100
AcDbEntity
  8
Layer 1
  6
AI-Linetype-4
 62
     7
370
    20
100
AcDb2dPolyline
 66
     1
 10
0.0
 20
0.0
 30
0.0
  0
VERTEX
  5
1DA
330
1D9
100
AcDbEntity
  8
Layer 1
  6
AI-Linetype-4
 62
     7
370
    20
100
AcDbVertex
100
AcDb2dVertex
 10
20.05734591512455
 20
-417.9848224866496
 30
0.0
  0
VERTEX
  5
1DB
330
1D9
100
AcDbEntity
  8
Layer 1
  6
AI-Linetype-4
 62
     7
370
    20
100
AcDbVertex
100
AcDb2dVertex
 10
196.2309162920881
 20
-417.9848224866496
 30
0.0
  0
SEQEND
  5
1DC
330
1D9
100
AcDbEntity
  8
Layer 1
  6
AI-Linetype-4
370
    20
  0
POLYLINE
  5
1DE
330
1A0
100
AcDbEntity
  8
Layer 1
 62
     7
370
    20
100
AcDb2dPolyline
 66
     1
 10
0.0
 20
0.0
 30
0.0
  0
VERTEX
  5
1DF
330
1DE
100
AcDbEntity
  8
Layer 1
 62
     7
370
    20
100
AcDbVertex
100
AcDb2dVertex
 10
63.13516437223704
 20
532.0155882459023
 30
0.0
  0
VERTEX
  5
1E0
330
1DE
100
AcDbEntity
  8
Layer 1
 62
     7
370
    20
100
AcDbVertex
100
AcDb2dVertex
 10
63.13516437223704
 20
-401.9847655245038
 30
0.0
  0
SEQEND
  5
1E1
330
1DE
100
AcDbEntity
  8
Layer 1
370
    20
  0
POLYLINE
  5
1E2
330
1A0
100
AcDbEntity
  8
Layer 1
 62
     7
370
    20
100
AcDb2dPolyline
 66
     1
 10
0.0
 20
0.0
 30
0.0
  0
VERTEX
  5
1E3
330
1E2
100
AcDbEntity
  8
Layer 1
 62
     7
370
    20
100
AcDbVertex
100
AcDb2dVertex
 10
153.1351833384523
 20
532.0155882459023
 30
0.0
  0
VERTEX
  5
1E4
330
1E2
100
AcDbEntity
  8
Layer 1
 62
     7
370
    20
100
AcDbVertex
100
AcDb2dVertex
 10
153.1351833384523
 20
-401.9847655245038
 30
0.0
  0
SEQEND
  5
1E5
330
1E2
100
AcDbEntity
  8
Layer 1
370
    20
  0
POLYLINE
  5
1E6
330
1A0
100
AcDbEntity
  8
Layer 1
 62
     7
370
    20
100
AcDb2dPolyline
 66
     1
 10
0.0
 20
0.0
 30
0.0
  0
VERTEX
  5
1E7
330
1E6
100
AcDbEntity
  8
Layer 1
 62
     7
370
    20
100
AcDbVertex
100
AcDb2dVertex
 10
112.1354464780425
 20
542.0154946561628
 30
0.0
  0
VERTEX
  5
1E8
330
1E6
100
AcDbEntity
  8
Layer 1
 62
     7
370
    20
100
AcDbVertex
100
AcDb2dVertex
 10
112.1354464780425
 20
-309.984868629101
 30
0.0
  0
VERTEX
  5
1E9
330
1E6
100
AcDbEntity
  8
Layer 1
 62
     7
370
    20
100
AcDbVertex
100
AcDb2dVertex
 10
104.1354179969696
 20
-309.984868629101
 30
0.0
  0
VERTEX
  5
1EA
330
1E6
100
AcDbEntity
  8
Layer 1
 62
     7
370
    20
100
AcDbVertex
100
AcDb2dVertex
 10
104.1354179969696
 20
542.0154946561628
 30
0.0
  0
VERTEX
  5
1EB
330
1E6
100
AcDbEntity
  8
Layer 1
 62
     7
370
    20
100
AcDbVertex
100
AcDb2dVertex
 10
112.1354464780425
 20
542.0154946561628
 30
0.0
  0
SEQEND
  5
1EC
330
1E6
100
AcDbEntity
  8
Layer 1
370
    20
  0
POLYLINE
  5
1ED
330
1A0
100
AcDbEntity
  8
Layer 1
 62
     7
370
     9
100
AcDb2dPolyline
 66
     1
 10
0.0
 20
0.0
 30
0.0
  0
VERTEX
  5
1EE
330
1ED
100
AcDbEntity
  8
Layer 1
 62
     7
370
     9
100
AcDbVertex
100
AcDb2dVertex
 10
-1888.107662830924
 20
487.6405190838191
 30
0.0
  0
VERTEX
  5
1EF
330
1ED
100
AcDbEntity
  8
Layer 1
 62
     7
370
     9
100
AcDbVertex
100
AcDb2dVertex
 10
-1846.402370415136
 20
532.0150714815796
 30
0.0
  0
SEQEND
  5
1F0
330
1ED
100
AcDbEntity
  8
Layer 1
370
     9
  0
POLYLINE
  5
1F1
330
1A0
100
AcDbEntity
  8
Layer 1
 62
     7
370
     9
100
AcDb2dPolyline
 66
     1
 10
0.0
 20
0.0
 30
0.0
  0
VERTEX
  5
1F2
330
1F1
100
AcDbEntity
  8
Layer 1
 62
     7
370
     9
100
AcDbVertex
100
AcDb2dVertex
 10
-1891.298510269363
 20
312.5004773524304
 30
0.0
  0
VERTEX
  5
1F3
330
1F1
100
AcDbEntity
  8
Layer 1
 62
     7
370
     9
100
AcDbVertex
100
AcDb2dVertex
 10
-1759.737548388191
 20
451.25583213545
 30
0.0
  0
SEQEND
  5
1F4
330
1F1
100
AcDbEntity
  8
Layer 1
370
     9
  0
POLYLINE
  5
1F5
330
1A0
100
AcDbEntity
  8
Layer 1
 62
     7
370
     9
100
AcDb2dPolyline
 66
     1
 10
0.0
 20
0.0
 30
0.0
  0
VERTEX
  5
1F6
330
1F5
100
AcDbEntity
  8
Layer 1
 62
     7
370
     9
100
AcDbVertex
100
AcDb2dVertex
 10
-1890.450327760894
 20
-29.92926702810796
 30
0.0
  0
VERTEX
  5
1F7
330
1F5
100
AcDbEntity
  8
Layer 1
 62
     7
370
     9
100
AcDbVertex
100
AcDb2dVertex
 10
-1759.737548388191
 20
107.839412407936
 30
0.0
  0
SEQEND
  5
1F8
330
1F5
100
AcDbEntity
  8
Layer 1
370
     9
  0
POLYLINE
  5
1F9
330
1A0
100
AcDbEntity
  8
Layer 1
 62
     7
370
     9
100
AcDb2dPolyline
 66
     1
 10
0.0
 20
0.0
 30
0.0
  0
VERTEX
  5
1FA
330
1F9
100
AcDbEntity
  8
Layer 1
 62
     7
370
     9
100
AcDbVertex
100
AcDb2dVertex
 10
-1873.504592088048
 20
-183.666653057382
 30
0.0
  0
VERTEX
  5
1FB
330
1F9
100
AcDbEntity
  8
Layer 1
 62
     7
370
     9
100
AcDbVertex
100
AcDb2dVertex
 10
-1759.737548388191
 20
-63.83934188942211
 30
0.0
  0
SEQEND
  5
1FC
330
1F9
100
AcDbEntity
  8
Layer 1
370
     9
  0
POLYLINE
  5
1FD
330
1A0
100
AcDbEntity
  8
Layer 1
 62
     7
370
     9
100
AcDb2dPolyline
 66
     1
 10
0.0
 20
0.0
 30
0.0
  0
VERTEX
  5
1FE
330
1FD
100
AcDbEntity
  8
Layer 1
 62
     7
370
     9
100
AcDbVertex
100
AcDb2dVertex
 10
-1699.737593162305
 20
-168.1106689032848
 30
0.0
  0
VERTEX
  5
1FF
330
1FD
100
AcDbEntity
  8
Layer 1
 62
     7
370
     9
100
AcDbVertex
100
AcDb2dVertex
 10
-1038.009164508293
 20
532.0150714815796
 30
0.0
  0
SEQEND
  5
200
330
1FD
100
AcDbEntity
  8
Layer 1
370
     9
  0
POLYLINE
  5
201
330
1A0
100
AcDbEntity
  8
Layer 1
 62
     7
370
     9
100
AcDb2dPolyline
 66
     1
 10
0.0
 20
0.0
 30
0.0
  0
VERTEX
  5
202
330
201
100
AcDbEntity
  8
Layer 1
 62
     7
370
     9
100
AcDbVertex
100
AcDb2dVertex
 10
-1699.737593162305
 20
342.2521497082738
 30
0.0
  0
VERTEX
  5
203
330
201
100
AcDbEntity
  8
Layer 1
 62
     7
370
     9
100
AcDbVertex
100
AcDb2dVertex
 10
-1518.989452745253
 20
532.0150714815796
 30
0.0
  0
SEQEND
  5
204
330
201
100
AcDbEntity
  8
Layer 1
370
     9
  0
POLYLINE
  5
205
330
1A0
100
AcDbEntity
  8
Layer 1
 62
     7
370
     9
100
AcDb2dPolyline
 66
     1
 10
0.0
 20
0.0
 30
0.0
  0
VERTEX
  5
206
330
205
100
AcDbEntity
  8
Layer 1
 62
     7
370
     9
100
AcDbVertex
100
AcDb2dVertex
 10
-1699.737593162305
 20
172.308000987739
 30
0.0
  0
VERTEX
  5
207
330
205
100
AcDbEntity
  8
Layer 1
 62
     7
370
     9
100
AcDbVertex
100
AcDb2dVertex
 10
-1358.926613022899
 20
532.0152437363538
 30
0.0
  0
SEQEND
  5
208
330
205
100
AcDbEntity
  8
Layer 1
370
     9
  0
POLYLINE
  5
209
330
1A0
100
AcDbEntity
  8
Layer 1
 62
     7
370
     9
100
AcDb2dPolyline
 66
     1
 10
0.0
 20
0.0
 30
0.0
  0
VERTEX
  5
20A
330
209
100
AcDbEntity
  8
Layer 1
 62
     7
370
     9
100
AcDbVertex
100
AcDb2dVertex
 10
-1657.991304110242
 20
-299.9847899640663
 30
0.0
  0
VERTEX
  5
20B
330
209
100
AcDbEntity
  8
Layer 1
 62
     7
370
     9
100
AcDbVertex
100
AcDb2dVertex
 10
-877.3833100562618
 20
532.0152437363538
 30
0.0
  0
SEQEND
  5
20C
330
209
100
AcDbEntity
  8
Layer 1
370
     9
  0
POLYLINE
  5
20D
330
1A0
100
AcDbEntity
  8
Layer 1
 62
     7
370
     9
100
AcDb2dPolyline
 66
     1
 10
0.0
 20
0.0
 30
0.0
  0
VERTEX
  5
20E
330
20D
100
AcDbEntity
  8
Layer 1
 62
     7
370
     9
100
AcDbVertex
100
AcDb2dVertex
 10
-1331.356289000928
 20
-299.9847899640663
 30
0.0
  0
VERTEX
  5
20F
330
20D
100
AcDbEntity
  8
Layer 1
 62
     7
370
     9
100
AcDbVertex
100
AcDb2dVertex
 10
-550.7589747429527
 20
532.0150714815796
 30
0.0
  0
SEQEND
  5
210
330
20D
100
AcDbEntity
  8
Layer 1
370
     9
  0
POLYLINE
  5
211
330
1A0
100
AcDbEntity
  8
Layer 1
 62
     7
370
     9
100
AcDb2dPolyline
 66
     1
 10
0.0
 20
0.0
 30
0.0
  0
VERTEX
  5
212
330
211
100
AcDbEntity
  8
Layer 1
 62
     7
370
     9
100
AcDbVertex
100
AcDb2dVertex
 10
-1168.045843892016
 20
-299.9847899640663
 30
0.0
  0
VERTEX
  5
213
330
211
100
AcDbEntity
  8
Layer 1
 62
     7
370
     9
100
AcDbVertex
100
AcDb2dVertex
 10
-387.1798121861912
 20
532.0150714815796
 30
0.0
  0
SEQEND
  5
214
330
211
100
AcDbEntity
  8
Layer 1
370
     9
  0
POLYLINE
  5
215
330
1A0
100
AcDbEntity
  8
Layer 1
 62
     7
370
     9
100
AcDb2dPolyline
 66
     1
 10
0.0
 20
0.0
 30
0.0
  0
VERTEX
  5
216
330
215
100
AcDbEntity
  8
Layer 1
 62
     7
370
     9
100
AcDbVertex
100
AcDb2dVertex
 10
-273.7374687358191
 20
468.5195501215854
 30
0.0
  0
VERTEX
  5
217
330
215
100
AcDbEntity
  8
Layer 1
 62
     7
370
     9
100
AcDbVertex
100
AcDb2dVertex
 10
-213.3530408537798
 20
532.0150714815796
 30
0.0
  0
SEQEND
  5
218
330
215
100
AcDbEntity
  8
Layer 1
370
     9
  0
POLYLINE
  5
219
330
1A0
100
AcDbEntity
  8
Layer 1
 62
     7
370
     9
100
AcDb2dPolyline
 66
     1
 10
0.0
 20
0.0
 30
0.0
  0
VERTEX
  5
21A
330
219
100
AcDbEntity
  8
Layer 1
 62
     7
370
     9
100
AcDbVertex
100
AcDb2dVertex
 10
-841.4163409354793
 20
-299.9847899640663
 30
0.0
  0
VERTEX
  5
21B
330
219
100
AcDbEntity
  8
Layer 1
 62
     7
370
     9
100
AcDbVertex
100
AcDb2dVertex
 10
-333.737768471253
 20
239.8349730845725
 30
0.0
  0
SEQEND
  5
21C
330
219
100
AcDbEntity
  8
Layer 1
370
     9
  0
POLYLINE
  5
21D
330
1A0
100
AcDbEntity
  8
Layer 1
 62
     7
370
     9
100
AcDb2dPolyline
 66
     1
 10
0.0
 20
0.0
 30
0.0
  0
VERTEX
  5
21E
330
21D
100
AcDbEntity
  8
Layer 1
 62
     7
370
     9
100
AcDbVertex
100
AcDb2dVertex
 10
-678.0914264255292
 20
-299.9847899640663
 30
0.0
  0
VERTEX
  5
21F
330
21D
100
AcDbEntity
  8
Layer 1
 62
     7
370
     9
100
AcDbVertex
100
AcDb2dVertex
 10
-333.737768471253
 20
65.85747882468146
 30
0.0
  0
SEQEND
  5
220
330
21D
100
AcDbEntity
  8
Layer 1
370
     9
  0
POLYLINE
  5
221
330
1A0
100
AcDbEntity
  8
Layer 1
 62
     7
370
     9
100
AcDb2dPolyline
 66
     1
 10
0.0
 20
0.0
 30
0.0
  0
VERTEX
  5
222
330
221
100
AcDbEntity
  8
Layer 1
 62
     7
370
     9
100
AcDbVertex
100
AcDb2dVertex
 10
-273.7374687358191
 20
134.6904866199732
 30
0.0
  0
VERTEX
  5
223
330
221
100
AcDbEntity
  8
Layer 1
 62
     7
370
     9
100
AcDbVertex
100
AcDb2dVertex
 10
-141.7377739446003
 20
274.55705695176
 30
0.0
  0
SEQEND
  5
224
330
221
100
AcDbEntity
  8
Layer 1
370
     9
  0
POLYLINE
  5
225
330
1A0
100
AcDbEntity
  8
Layer 1
 62
     7
370
     9
100
AcDb2dPolyline
 66
     1
 10
0.0
 20
0.0
 30
0.0
  0
VERTEX
  5
226
330
225
100
AcDbEntity
  8
Layer 1
 62
     7
370
     9
100
AcDbVertex
100
AcDb2dVertex
 10
-273.7376409905934
 20
-38.0531466918756
 30
0.0
  0
VERTEX
  5
227
330
225
100
AcDbEntity
  8
Layer 1
 62
     7
370
     9
100
AcDbVertex
100
AcDb2dVertex
 10
-141.7377739446003
 20
102.0440727826487
 30
0.0
  0
SEQEND
  5
228
330
225
100
AcDbEntity
  8
Layer 1
370
     9
  0
POLYLINE
  5
229
330
1A0
100
AcDbEntity
  8
Layer 1
 62
     7
370
     9
100
AcDb2dPolyline
 66
     1
 10
0.0
 20
0.0
 30
0.0
  0
VERTEX
  5
22A
330
229
100
AcDbEntity
  8
Layer 1
 62
     7
370
     9
100
AcDbVertex
100
AcDb2dVertex
 10
-195.0993746799578
 20
-299.9847899640663
 30
0.0
  0
VERTEX
  5
22B
330
229
100
AcDbEntity
  8
Layer 1
 62
     7
370
     9
100
AcDbVertex
100
AcDb2dVertex
 10
-141.7377739446003
 20
-242.9739718359579
 30
0.0
  0
SEQEND
  5
22C
330
229
100
AcDbEntity
  8
Layer 1
370
     9
  0
SPLINE
  5
22D
330
1A0
100
AcDbEntity
  8
Layer 1
 62
     7
370
    20
100
AcDbSpline
210
0.0
220
0.0
230
1.0
 70
     8
 71
     3
 72
    38
 73
    34
 74
     0
 42
0.0000000001
 43
0.0000000001
 40
0.0
 40
0.0
 40
0.0
 40
0.0
 40
1.0
 40
1.0
 40
1.0
 40
2.0
 40
2.0
 40
2.0
 40
3.0
 40
3.0
 40
3.0
 40
4.0
 40
4.0
 40
4.0
 40
5.0
 40
5.0
 40
5.0
 40
6.0
 40
6.0
 40
6.0
 40
7.0
 40
7.0
 40
7.0
 40
8.0
 40
8.0
 40
8.0
 40
9.0
 40
9.0
 40
9.0
 40
10.0
 40
10.0
 40
10.0
 40
11.0
 40
11.0
 40
11.0
 40
11.0
 10
119.4345702826414
 20
-299.9847899640663
 30
0.0
 10
119.4345702826414
 20
-299.9847899640663
 30
0.0
 10
123.6913302642161
 20
-299.9847899640663
 30
0.0
 10
123.6913302642161
 20
-299.9847899640663
 30
0.0
 10
125.1878797430086
 20
-299.9572292001843
 30
0.0
 10
126.551104026522
 20
-301.124427550587
 30
0.0
 10
126.7543646601517
 20
-302.6071966474385
 30
0.0
 10
128.0448974289263
 20
-309.0736408732524
 30
0.0
 10
127.8967583230605
 20
-320.7718071029668
 30
0.0
 10
126.4436170473822
 20
-327.2038003739282
 30
0.0
 10
126.2403564137524
 20
-328.5425644794963
 30
0.0
 10
124.9956434149316
 20
-329.6697997222701
 30
0.0
 10
123.6437879465196
 20
-329.7400796701692
 30
0.0
 10
122.1251898566215
 20
-329.8820176041614
 30
0.0
 10
119.1603406820155
 20
-330.0019069270481
 30
0.0
 10
117.6348524011468
 20
-329.9826143923307
 30
0.0
 10
117.6348524011468
 20
-329.9826143923307
 30
0.0
 10
98.63583981909105
 20
-329.9826143923307
 30
0.0
 10
98.63583981909105
 20
-329.9826143923307
 30
0.0
 10
97.11104055731947
 20
-330.0019069270481
 30
0.0
 10
94.14619138271345
 20
-329.8820176041614
 30
0.0
 10
92.62690427371828
 20
-329.7400796701692
 30
0.0
 10
91.27504880530624
 20
-329.6697997222701
 30
0.0
 10
90.030680316034
 20
-328.5425644794963
 30
0.0
 10
89.82741968240425
 20
-327.2038003739282
 30
0.0
 10
88.37358938762883
 20
-320.7718071029668
 30
0.0
 10
88.22579479131161
 20
-309.0736408732524
 30
0.0
 10
89.5163275600862
 20
-302.6071966474385
 30
0.0
 10
89.71958819371594
 20
-301.124427550587
 30
0.0
 10
91.0828124772293
 20
-299.9572292001843
 30
0.0
 10
92.5790174464733
 20
-299.9847899640663
 30
0.0
 10
92.5790174464733
 20
-299.9847899640663
 30
0.0
 10
96.83681095669358
 20
-299.9847899640663
 30
0.0
 10
96.83681095669358
 20
-299.9847899640663
 30
0.0
  0
INSERT
  5
22F
330
1A0
100
AcDbEntity
  8
Layer 1
100
AcDbBlockReference
  2
block 19
 10
0.0
 20
0.0
 30
0.0
  0
POLYLINE
  5
23A
330
1A0
100
AcDbEntity
  8
Layer 1
 62
     7
370
     9
100
AcDb2dPolyline
 66
     1
 10
0.0
 20
0.0
 30
0.0
  0
VERTEX
  5
23B
330
23A
100
AcDbEntity
  8
Layer 1
 62
     7
370
     9
100
AcDbVertex
100
AcDb2dVertex
 10
106.8854654680703
 20
-309.984868629101
 30
0.0
  0
VERTEX
  5
23C
330
23A
100
AcDbEntity
  8
Layer 1
 62
     7
370
     9
100
AcDbVertex
100
AcDb2dVertex
 10
106.8854654680703
 20
542.0154946561628
 30
0.0
  0
SEQEND
  5
23D
330
23A
100
AcDbEntity
  8
Layer 1
370
     9
  0
POLYLINE
  5
23E
330
1A0
100
AcDbEntity
  8
Layer 1
 62
     7
370
     9
100
AcDb2dPolyline
 66
     1
 10
0.0
 20
0.0
 30
0.0
  0
VERTEX
  5
23F
330
23E
100
AcDbEntity
  8
Layer 1
 62
     7
370
     9
100
AcDbVertex
100
AcDb2dVertex
 10
109.3852267521676
 20
-309.984868629101
 30
0.0
  0
VERTEX
  5
240
330
23E
100
AcDbEntity
  8
Layer 1
 62
     7
370
     9
100
AcDbVertex
100
AcDb2dVertex
 10
109.3852267521676
 20
542.0154946561628
 30
0.0
  0
SEQEND
  5
241
330
23E
100
AcDbEntity
  8
Layer 1
370
     9
  0
INSERT
  5
243
330
1A0
100
AcDbEntity
  8
Layer 1
100
AcDbBlockReference
  2
block 20
 10
0.0
 20
0.0
 30
0.0
  0
POLYLINE
  5
24A
330
1A0
100
AcDbEntity
  8
Layer 1
 62
     7
370
    20
100
AcDb2dPolyline
 66
     1
 10
0.0
 20
0.0
 30
0.0
  0
VERTEX
  5
24B
330
24A
100
AcDbEntity
  8
Layer 1
 62
     7
370
    20
100
AcDbVertex
100
AcDb2dVertex
 10
97.01027151437592
 20
532.0155882459023
 30
0.0
  0
VERTEX
  5
24C
330
24A
100
AcDbEntity
  8
Layer 1
 62
     7
370
    20
100
AcDbVertex
100
AcDb2dVertex
 10
119.2602484510877
 20
532.0155882459023
 30
0.0
  0
SEQEND
  5
24D
330
24A
100
AcDbEntity
  8
Layer 1
370
    20
  0
POLYLINE
  5
24E
330
1A0
100
AcDbEntity
  8
Layer 1
 62
     7
370
    20
100
AcDb2dPolyline
 66
     1
 10
0.0
 20
0.0
 30
0.0
  0
VERTEX
  5
24F
330
24E
100
AcDbEntity
  8
Layer 1
 62
     7
370
    20
100
AcDbVertex
100
AcDb2dVertex
 10
-1669.73770167675
 20
-417.9848224866496
 30
0.0
  0
VERTEX
  5
250
330
24E
100
AcDbEntity
  8
Layer 1
 62
     7
370
    20
100
AcDbVertex
100
AcDb2dVertex
 10
-1789.737784383295
 20
-417.9848224866496
 30
0.0
  0
VERTEX
  5
251
330
24E
100
AcDbEntity
  8
Layer 1
 62
     7
370
    20
100
AcDbVertex
100
AcDb2dVertex
 10
-1789.737784383295
 20
-401.9847655245038
 30
0.0
  0
VERTEX
  5
252
330
24E
100
AcDbEntity
  8
Layer 1
 62
     7
370
    20
100
AcDbVertex
100
AcDb2dVertex
 10
-1669.73770167675
 20
-401.9847655245038
 30
0.0
  0
VERTEX
  5
253
330
24E
100
AcDbEntity
  8
Layer 1
 62
     7
370
    20
100
AcDbVertex
100
AcDb2dVertex
 10
-1669.73770167675
 20
-417.9848224866496
 30
0.0
  0
SEQEND
  5
254
330
24E
100
AcDbEntity
  8
Layer 1
370
    20
  0
POLYLINE
  5
255
330
1A0
100
AcDbEntity
  8
Layer 1
 62
     7
370
    20
100
AcDb2dPolyline
 66
     1
 10
0.0
 20
0.0
 30
0.0
  0
VERTEX
  5
256
330
255
100
AcDbEntity
  8
Layer 1
 62
     7
370
    20
100
AcDbVertex
100
AcDb2dVertex
 10
-243.7379217598121
 20
-417.9848224866496
 30
0.0
  0
VERTEX
  5
257
330
255
100
AcDbEntity
  8
Layer 1
 62
     7
370
    20
100
AcDbVertex
100
AcDb2dVertex
 10
-363.7378322115829
 20
-417.9848224866496
 30
0.0
  0
VERTEX
  5
258
330
255
100
AcDbEntity
  8
Layer 1
 62
     7
370
    20
100
AcDbVertex
100
AcDb2dVertex
 10
-363.7378322115829
 20
-401.9847655245038
 30
0.0
  0
VERTEX
  5
259
330
255
100
AcDbEntity
  8
Layer 1
 62
     7
370
    20
100
AcDbVertex
100
AcDb2dVertex
 10
-243.7379217598121
 20
-401.9847655245038
 30
0.0
  0
VERTEX
  5
25A
330
255
100
AcDbEntity
  8
Layer 1
 62
     7
370
    20
100
AcDbVertex
100
AcDb2dVertex
 10
-243.7379217598121
 20
-417.9848224866496
 30
0.0
  0
SEQEND
  5
25B
330
255
100
AcDbEntity
  8
Layer 1
370
    20
  0
POLYLINE
  5
25C
330
1A0
100
AcDbEntity
  8
Layer 1
 62
     7
370
    20
100
AcDb2dPolyline
 66
     1
 10
0.0
 20
0.0
 30
0.0
  0
VERTEX
  5
25D
330
25C
100
AcDbEntity
  8
Layer 1
 62
     7
370
    20
100
AcDbVertex
100
AcDb2dVertex
 10
183.1350748240079
 20
-417.9848224866496
 30
0.0
  0
VERTEX
  5
25E
330
25C
100
AcDbEntity
  8
Layer 1
 62
     7
370
    20
100
AcDbVertex
100
AcDb2dVertex
 10
33.1351006319072
 20
-417.9848224866496
 30
0.0
  0
VERTEX
  5
25F
330
25C
100
AcDbEntity
  8
Layer 1
 62
     7
370
    20
100
AcDbVertex
100
AcDb2dVertex
 10
33.1351006319072
 20
-401.9847655245038
 30
0.0
  0
VERTEX
  5
260
330
25C
100
AcDbEntity
  8
Layer 1
 62
     7
370
    20
100
AcDbVertex
100
AcDb2dVertex
 10
183.1350748240079
 20
-401.9847655245038
 30
0.0
  0
VERTEX
  5
261
330
25C
100
AcDbEntity
  8
Layer 1
 62
     7
370
    20
100
AcDbVertex
100
AcDb2dVertex
 10
183.1350748240079
 20
-417.9848224866496
 30
0.0
  0
SEQEND
  5
262
330
25C
100
AcDbEntity
  8
Layer 1
370
    20
  0
ENDBLK
  5
1A3
330
1A0
100
AcDbEntity
  8
0
100
AcDbBlockEnd
  0
BLOCK
  5
230
330
22E
100
AcDbEntity
  8
0
100
AcDbBlockBegin
  2
block 19
 70
     0
 71
     0
 10
0.0
 20
0.0
 30
0.0
  3
block 19
  1

  0
POLYLINE
  5
232
330
22E
100
AcDbEntity
  8
Layer 1
 62
     7
370
    20
100
AcDb2dPolyline
 66
     1
 10
0.0
 20
0.0
 30
0.0
  0
VERTEX
  5
233
330
232
100
AcDbEntity
  8
Layer 1
 62
     7
370
    20
100
AcDbVertex
100
AcDb2dVertex
 10
97.13532848049047
 20
532.0155882459023
 30
0.0
  0
VERTEX
  5
234
330
232
100
AcDbEntity
  8
Layer 1
 62
     7
370
    20
100
AcDbVertex
100
AcDb2dVertex
 10
97.13532848049047
 20
-401.9847655245038
 30
0.0
  0
SEQEND
  5
235
330
232
100
AcDbEntity
  8
Layer 1
370
    20
  0
POLYLINE
  5
236
330
22E
100
AcDbEntity
  8
Layer 1
 62
     7
370
    20
100
AcDb2dPolyline
 66
     1
 10
0.0
 20
0.0
 30
0.0
  0
VERTEX
  5
237
330
236
100
AcDbEntity
  8
Layer 1
 62
     7
370
    20
100
AcDbVertex
100
AcDb2dVertex
 10
119.1351914849731
 20
532.0155882459023
 30
0.0
  0
VERTEX
  5
238
330
236
100
AcDbEntity
  8
Layer 1
 62
     7
370
    20
100
AcDbVertex
100
AcDb2dVertex
 10
119.1351914849731
 20
-401.9847655245038
 30
0.0
  0
SEQEND
  5
239
330
236
100
AcDbEntity
  8
Layer 1
370
    20
  0
ENDBLK
  5
231
330
22E
100
AcDbEntity
  8
0
100
AcDbBlockEnd
  0
BLOCK
  5
244
330
242
100
AcDbEntity
  8
0
100
AcDbBlockBegin
  2
block 20
 70
     0
 71
     0
 10
0.0
 20
0.0
 30
0.0
  3
block 20
  1

  0
SPLINE
  5
246
330
242
100
AcDbEntity
  8
Layer 1
 62
     7
370
    20
100
AcDbSpline
210
0.0
220
0.0
230
1.0
 70
     8
 71
     3
 72
    32
 73
    28
 74
     0
 42
0.0000000001
 43
0.0000000001
 40
0.0
 40
0.0
 40
0.0
 40
0.0
 40
1.0
 40
1.0
 40
1.0
 40
2.0
 40
2.0
 40
2.0
 40
3.0
 40
3.0
 40
3.0
 40
4.0
 40
4.0
 40
4.0
 40
5.0
 40
5.0
 40
5.0
 40
6.0
 40
6.0
 40
6.0
 40
7.0
 40
7.0
 40
7.0
 40
8.0
 40
8.0
 40
8.0
 40
9.0
 40
9.0
 40
9.0
 40
9.0
 10
61.46136473072841
 20
532.0155882459023
 30
0.0
 10
61.46136473072841
 20
532.0155882459023
 30
0.0
 10
61.13545869782378
 20
532.0155882459023
 30
0.0
 10
61.13545869782378
 20
532.0155882459023
 30
0.0
 10
59.4783677694186
 20
532.0155882459023
 30
0.0
 10
58.13546954926822
 20
533.3584864660528
 30
0.0
 10
58.13546954926822
 20
535.015577394458
 30
0.0
 10
58.13546954926822
 20
535.015577394458
 30
0.0
 10
58.13546954926822
 20
570.9596366302636
 30
0.0
 10
58.13546954926822
 20
570.9596366302636
 30
0.0
 10
58.13546954926822
 20
573.7487859351219
 30
0.0
 10
60.05783283003763
 20
576.1706880612525
 30
0.0
 10
62.77463512970565
 20
576.8033798471187
 30
0.0
 10
92.61587996816547
 20
583.752481950416
 30
0.0
 10
123.6548122520724
 20
583.752481950416
 30
0.0
 10
153.4955403262095
 20
576.8033798471187
 30
0.0
 10
156.2130316449745
 20
576.1706880612525
 30
0.0
 10
158.1353949257439
 20
573.7487859351219
 30
0.0
 10
158.1353949257439
 20
570.9596366302636
 30
0.0
 10
158.1353949257439
 20
570.9596366302636
 30
0.0
 10
158.1353949257439
 20
535.015577394458
 30
0.0
 10
158.1353949257439
 20
535.015577394458
 30
0.0
 10
158.1353949257439
 20
533.3584864660528
 30
0.0
 10
156.7918076864965
 20
532.0155882459023
 30
0.0
 10
155.1354057771884
 20
532.0155882459023
 30
0.0
 10
155.1354057771884
 20
532.0155882459023
 30
0.0
 10
154.8088107251867
 20
532.0155882459023
 30
0.0
 10
154.8088107251867
 20
532.0155882459023
 30
0.0
  0
SPLINE
  5
247
330
242
100
AcDbEntity
  8
Layer 1
 62
     7
370
    20
100
AcDbSpline
210
0.0
220
0.0
230
1.0
 70
     8
 71
     3
 72
    20
 73
    16
 74
     0
 42
0.0000000001
 43
0.0000000001
 40
0.0
 40
0.0
 40
0.0
 40
0.0
 40
1.0
 40
1.0
 40
1.0
 40
2.0
 40
2.0
 40
2.0
 40
3.0
 40
3.0
 40
3.0
 40
4.0
 40
4.0
 40
4.0
 40
5.0
 40
5.0
 40
5.0
 40
5.0
 10
117.9352647274606
 20
557.3659788645648
 30
0.0
 10
117.9352647274606
 20
557.3659788645648
 30
0.0
 10
117.9352647274606
 20
558.1659300362398
 30
0.0
 10
117.9352647274606
 20
558.1659300362398
 30
0.0
 10
117.9352647274606
 20
558.3037338556497
 30
0.0
 10
117.8229546146415
 20
558.4160439684689
 30
0.0
 10
117.6851507952315
 20
558.4160439684689
 30
0.0
 10
117.6851507952315
 20
558.4160439684689
 30
0.0
 10
98.5855414250064
 20
558.4160439684689
 30
0.0
 10
98.5855414250064
 20
558.4160439684689
 30
0.0
 10
98.44704858649935
 20
558.4160439684689
 30
0.0
 10
98.33542749277726
 20
558.3037338556497
 30
0.0
 10
98.33542749277726
 20
558.1659300362398
 30
0.0
 10
98.33542749277726
 20
558.1659300362398
 30
0.0
 10
98.33542749277726
 20
557.3659788645648
 30
0.0
 10
98.33542749277726
 20
557.3659788645648
 30
0.0
  0
SPLINE
  5
248
330
242
100
AcDbEntity
  8
Layer 1
 62
     7
370
    20
100
AcDbSpline
210
0.0
220
0.0
230
1.0
 70
     8
 71
     3
 72
    26
 73
    22
 74
     0
 42
0.0000000001
 43
0.0000000001
 40
0.0
 40
0.0
 40
0.0
 40
0.0
 40
1.0
 40
1.0
 40
1.0
 40
2.0
 40
2.0
 40
2.0
 40
3.0
 40
3.0
 40
3.0
 40
4.0
 40
4.0
 40
4.0
 40
5.0
 40
5.0
 40
5.0
 40
6.0
 40
6.0
 40
6.0
 40
7.0
 40
7.0
 40
7.0
 40
7.0
 10
152.8857584253202
 20
532.0155882459023
 30
0.0
 10
152.8857584253202
 20
532.0155882459023
 30
0.0
 10
119.3856499267508
 20
532.0155882459023
 30
0.0
 10
119.3856499267508
 20
532.0155882459023
 30
0.0
 10
119.2471570882438
 20
532.0155882459023
 30
0.0
 10
119.1348469754246
 20
532.1278983587215
 30
0.0
 10
119.1348469754246
 20
532.2657021781315
 30
0.0
 10
119.1348469754246
 20
532.2657021781315
 30
0.0
 10
119.1348469754246
 20
532.7659300425898
 30
0.0
 10
119.1348469754246
 20
532.7659300425898
 30
0.0
 10
119.1348469754246
 20
532.9037338619997
 30
0.0
 10
119.0232258817025
 20
533.0153549557219
 30
0.0
 10
118.8854220622925
 20
533.0153549557219
 30
0.0
 10
118.8854220622925
 20
533.0153549557219
 30
0.0
 10
118.1853786596898
 20
533.0153549557219
 30
0.0
 10
118.1853786596898
 20
533.0153549557219
 30
0.0
 10
118.0475748402798
 20
533.0153549557219
 30
0.0
 10
117.9352647274606
 20
533.127665068541
 30
0.0
 10
117.9352647274606
 20
533.265468887951
 30
0.0
 10
117.9352647274606
 20
533.265468887951
 30
0.0
 10
117.9352647274606
 20
534.6655556931565
 30
0.0
 10
117.9352647274606
 20
534.6655556931565
 30
0.0
  0
SPLINE
  5
249
330
242
100
AcDbEntity
  8
Layer 1
 62
     7
370
    20
100
AcDbSpline
210
0.0
220
0.0
230
1.0
 70
     8
 71
     3
 72
    26
 73
    22
 74
     0
 42
0.0000000001
 43
0.0000000001
 40
0.0
 40
0.0
 40
0.0
 40
0.0
 40
1.0
 40
1.0
 40
1.0
 40
2.0
 40
2.0
 40
2.0
 40
3.0
 40
3.0
 40
3.0
 40
4.0
 40
4.0
 40
4.0
 40
5.0
 40
5.0
 40
5.0
 40
6.0
 40
6.0
 40
6.0
 40
7.0
 40
7.0
 40
7.0
 40
7.0
 10
98.33542749277726
 20
534.6655556931565
 30
0.0
 10
98.33542749277726
 20
534.6655556931565
 30
0.0
 10
98.33542749277726
 20
533.265468887951
 30
0.0
 10
98.33542749277726
 20
533.265468887951
 30
0.0
 10
98.33542749277726
 20
533.127665068541
 30
0.0
 10
98.22311737995811
 20
533.0153549557219
 30
0.0
 10
98.08531356054812
 20
533.0153549557219
 30
0.0
 10
98.08531356054812
 20
533.0153549557219
 30
0.0
 10
97.38527015794536
 20
533.0153549557219
 30
0.0
 10
97.38527015794536
 20
533.0153549557219
 30
0.0
 10
97.24746633853536
 20
533.0153549557219
 30
0.0
 10
97.13515622571622
 20
532.9037338619997
 30
0.0
 10
97.13515622571622
 20
532.7659300425898
 30
0.0
 10
97.13515622571622
 20
532.7659300425898
 30
0.0
 10
97.13515622571622
 20
532.2657021781315
 30
0.0
 10
97.13515622571622
 20
532.2657021781315
 30
0.0
 10
97.13515622571622
 20
532.1278983587215
 30
0.0
 10
97.02353513199412
 20
532.0155882459023
 30
0.0
 10
96.88504229348707
 20
532.0155882459023
 30
0.0
 10
96.88504229348707
 20
532.0155882459023
 30
0.0
 10
63.38476154014339
 20
532.0155882459023
 30
0.0
 10
63.38476154014339
 20
532.0155882459023
 30
0.0
  0
ENDBLK
  5
245
330
242
100
AcDbEntity
  8
0
100
AcDbBlockEnd
  0
BLOCK
  5
26B
330
269
100
AcDbEntity
  8
0
100
AcDbBlockBegin
  2
block 21
 70
     0
 71
     0
 10
0.0
 20
0.0
 30
0.0
  3
block 21
  1

  0
POLYLINE
  5
26D
330
269
100
AcDbEntity
  8
Layer 1
370
     0
100
AcDb2dPolyline
 66
     1
 10
0.0
 20
0.0
 30
0.0
  0
VERTEX
  5
26E
330
26D
100
AcDbEntity
  8
Layer 1
370
     0
100
AcDbVertex
100
AcDb2dVertex
 10
150.0029025232632
 20
-361.8128851091996
 30
0.0
  0
VERTEX
  5
26F
330
26D
100
AcDbEntity
  8
Layer 1
370
     0
100
AcDbVertex
100
AcDb2dVertex
 10
152.744509510425
 20
-373.622672432636
 30
0.0
  0
VERTEX
  5
270
330
26D
100
AcDbEntity
  8
Layer 1
370
     0
100
AcDbVertex
100
AcDb2dVertex
 10
120.4729220618957
 20
-368.6569118001969
 30
0.0
  0
VERTEX
  5
271
330
26D
100
AcDbEntity
  8
Layer 1
370
     0
100
AcDbVertex
100
AcDb2dVertex
 10
147.270252784363
 20
-349.9941405375015
 30
0.0
  0
VERTEX
  5
272
330
26D
100
AcDbEntity
  8
Layer 1
370
     0
100
AcDbVertex
100
AcDb2dVertex
 10
150.0029025232632
 20
-361.8128851091996
 30
0.0
  0
SEQEND
  5
273
330
26D
100
AcDbEntity
  8
Layer 1
370
     0
  0
POLYLINE
  5
274
330
269
100
AcDbEntity
  8
Layer 1
370
     0
100
AcDb2dPolyline
 66
     1
 10
0.0
 20
0.0
 30
0.0
  0
VERTEX
  5
275
330
274
100
AcDbEntity
  8
Layer 1
370
     0
100
AcDbVertex
100
AcDb2dVertex
 10
150.0029025232632
 20
-361.8128851091996
 30
0.0
  0
VERTEX
  5
276
330
274
100
AcDbEntity
  8
Layer 1
370
     0
100
AcDbVertex
100
AcDb2dVertex
 10
152.744509510425
 20
-373.622672432636
 30
0.0
  0
VERTEX
  5
277
330
274
100
AcDbEntity
  8
Layer 1
370
     0
100
AcDbVertex
100
AcDb2dVertex
 10
152.744509510425
 20
-373.622672432636
 30
0.0
  0
VERTEX
  5
278
330
274
100
AcDbEntity
  8
Layer 1
370
     0
100
AcDbVertex
100
AcDb2dVertex
 10
120.4732665714442
 20
-368.6486435710323
 30
0.0
  0
VERTEX
  5
279
330
274
100
AcDbEntity
  8
Layer 1
370
     0
100
AcDbVertex
100
AcDb2dVertex
 10
120.4732665714442
 20
-368.6486435710323
 30
0.0
  0
VERTEX
  5
27A
330
274
100
AcDbEntity
  8
Layer 1
370
     0
100
AcDbVertex
100
AcDb2dVertex
 10
147.270252784363
 20
-349.9941405375015
 30
0.0
  0
VERTEX
  5
27B
330
274
100
AcDbEntity
  8
Layer 1
370
     0
100
AcDbVertex
100
AcDb2dVertex
 10
147.270252784363
 20
-349.9941405375015
 30
0.0
  0
VERTEX
  5
27C
330
274
100
AcDbEntity
  8
Layer 1
370
     0
100
AcDbVertex
100
AcDb2dVertex
 10
150.0029025232632
 20
-361.8128851091996
 30
0.0
  0
VERTEX
  5
27D
330
274
100
AcDbEntity
  8
Layer 1
370
     0
100
AcDbVertex
100
AcDb2dVertex
 10
150.0029025232632
 20
-361.8128851091996
 30
0.0
  0
SEQEND
  5
27E
330
274
100
AcDbEntity
  8
Layer 1
370
     0
  0
HATCH
  5
27F
330
269
100
AcDbEntity
  8
Layer 1
 62
     7
100
AcDbHatch
 10
0.0
 20
0.0
 30
0.0
210
0.0
220
0.0
230
1.0
  2
SOLID
 70
     1
 71
     0
 91
        1
 92
        1
 93
        4
 72
     1
 10
150.0029025232632
 20
-361.8128851091996
 11
152.744509510425
 21
-373.622672432636
 72
     1
 10
152.744509510425
 20
-373.622672432636
 11
120.4732665714442
 21
-368.6486435710323
 72
     1
 10
120.4732665714442
 20
-368.6486435710323
 11
147.270252784363
 21
-349.9941405375015
 72
     1
 10
147.270252784363
 20
-349.9941405375015
 11
150.0029025232632
 21
-361.8128851091996
 97
        0
 75
     0
 76
     1
 98
        0
  0
POLYLINE
  5
280
330
269
100
AcDbEntity
  8
Layer 1
 62
     7
370
     9
100
AcDb2dPolyline
 66
     1
 10
0.0
 20
0.0
 30
0.0
  0
VERTEX
  5
281
330
280
100
AcDbEntity
  8
Layer 1
 62
     7
370
     9
100
AcDbVertex
100
AcDb2dVertex
 10
148.0447102494471
 20
-362.2641926177673
 30
0.0
  0
VERTEX
  5
282
330
280
100
AcDbEntity
  8
Layer 1
 62
     7
370
     9
100
AcDbVertex
100
AcDb2dVertex
 10
307.6167099925403
 20
-329.9846814496219
 30
0.0
  0
SEQEND
  5
283
330
280
100
AcDbEntity
  8
Layer 1
370
     9
  0
ENDBLK
  5
26C
330
269
100
AcDbEntity
  8
0
100
AcDbBlockEnd
  0
ENDSEC
  0
SECTION
  2
ENTITIES
  0
INSERT
  5
3D
330
1F
100
AcDbEntity
  8
Layer 1
100
AcDbBlockReference
  2
block 2
 10
0.0
 20
0.0
 30
0.0
  0
ENDSEC
  0
SECTION
  2
OBJECTS
  0
DICTIONARY
  5
C
330
0
100
AcDbDictionary
281
     1
  3
ACAD_GROUP
350
D
  3
ACAD_LAYOUT
350
1A
  3
ACAD_MLINESTYLE
350
17
  3
ACAD_PLOTSETTINGS
350
19
  3
ACAD_PLOTSTYLENAME
350
E
  3
ACAD_TABLESTYLE
350
29B
  3
ACAD_VISUALSTYLE
350
2A
  0
DICTIONARY
  5
D
102
{ACAD_REACTORS
330
C
102
}
330
C
100
AcDbDictionary
281
     1
  0
DICTIONARY
  5
1A
102
{ACAD_REACTORS
330
C
102
}
330
C
100
AcDbDictionary
281
     1
  3
Layout1
350
1E
  3
Layout2
350
26
  3
Model
350
22
  0
DICTIONARY
  5
17
102
{ACAD_REACTORS
330
C
102
}
330
C
100
AcDbDictionary
281
     1
  3
Standard
350
18
  0
DICTIONARY
  5
19
102
{ACAD_REACTORS
330
C
102
}
330
C
100
AcDbDictionary
281
     1
  0
ACDBDICTIONARYWDFLT
  5
E
102
{ACAD_REACTORS
330
C
102
}
330
C
100
AcDbDictionary
281
     1
  3
Normal
350
F
100
AcDbDictionaryWithDefault
340
F
  0
DICTIONARY
  5
29B
102
{ACAD_REACTORS
330
C
102
}
330
C
100
AcDbDictionary
281
     1
  0
DICTIONARY
  5
2A
102
{ACAD_REACTORS
330
C
102
}
330
C
100
AcDbDictionary
281
     1
  3
2dWireframe
350
2F
  3
3D Hidden
350
31
  3
3dWireframe
350
30
  3
Basic
350
32
  3
Brighten
350
36
  3
ColorChange
350
3A
  3
Conceptual
350
34
  3
Dim
350
35
  3
Facepattern
350
39
  3
Flat
350
2B
  3
FlatWithEdges
350
2C
  3
Gouraud
350
2D
  3
GouraudWithEdges
350
2E
  3
Linepattern
350
38
  3
Realistic
350
33
  3
Thicken
350
37
  0
LAYOUT
  5
1E
102
{ACAD_REACTORS
330
1A
102
}
330
1A
100
AcDbPlotSettings
  1

  2
none_device
  4

  6

 40
0.0
 41
0.0
 42
0.0
 43
0.0
 44
0.0
 45
0.0
 46
0.0
 47
0.0
 48
0.0
 49
0.0
140
0.0
141
0.0
142
1.0
143
1.0
 70
   688
 72
     0
 73
     0
 74
     5
  7

 75
    16
147
1.0
148
0.0
149
0.0
100
AcDbLayout
  1
Layout1
 70
     1
 71
     1
 10
0.0
 20
0.0
 11
12.0
 21
9.0
 12
0.0
 22
0.0
 32
0.0
 14
1.000000000000000E+20
 24
1.000000000000000E+20
 34
1.000000000000000E+20
 15
-1.000000000000000E+20
 25
-1.000000000000000E+20
 35
-1.000000000000000E+20
146
0.0
 13
0.0
 23
0.0
 33
0.0
 16
1.0
 26
0.0
 36
0.0
 17
0.0
 27
1.0
 37
0.0
 76
     0
330
1B
  0
LAYOUT
  5
26
102
{ACAD_REACTORS
330
1A
102
}
330
1A
100
AcDbPlotSettings
  1

  2
none_device
  4

  6

 40
0.0
 41
0.0
 42
0.0
 43
0.0
 44
0.0
 45
0.0
 46
0.0
 47
0.0
 48
0.0
 49
0.0
140
0.0
141
0.0
142
1.0
143
1.0
 70
   688
 72
     0
 73
     0
 74
     5
  7

 75
    16
147
1.0
148
0.0
149
0.0
100
AcDbLayout
  1
Layout2
 70
     1
 71
     2
 10
0.0
 20
0.0
 11
0.0
 21
0.0
 12
0.0
 22
0.0
 32
0.0
 14
0.0
 24
0.0
 34
0.0
 15
0.0
 25
0.0
 35
0.0
146
0.0
 13
0.0
 23
0.0
 33
0.0
 16
1.0
 26
0.0
 36
0.0
 17
0.0
 27
1.0
 37
0.0
 76
     0
330
23
  0
LAYOUT
  5
22
102
{ACAD_REACTORS
330
1A
102
}
330
1A
100
AcDbPlotSettings
  1

  2
none_device
  4

  6

 40
0.0
 41
0.0
 42
0.0
 43
0.0
 44
0.0
 45
0.0
 46
0.0
 47
0.0
 48
0.0
 49
0.0
140
0.0
141
0.0
142
1.0
143
1.0
 70
  1712
 72
     0
 73
     0
 74
     0
  7

 75
     0
147
1.0
148
0.0
149
0.0
100
AcDbLayout
  1
Model
 70
     1
 71
     0
 10
0.0
 20
0.0
 11
12.0
 21
9.0
 12
0.0
 22
0.0
 32
0.0
 14
1.000000000000000E+20
 24
1.000000000000000E+20
 34
1.000000000000000E+20
 15
-1.000000000000000E+20
 25
-1.000000000000000E+20
 35
-1.000000000000000E+20
146
0.0
 13
0.0
 23
0.0
 33
0.0
 16
1.0
 26
0.0
 36
0.0
 17
0.0
 27
1.0
 37
0.0
 76
     0
330
1F
331
29
  0
MLINESTYLE
  5
18
102
{ACAD_REACTORS
330
17
102
}
330
17
100
AcDbMlineStyle
  2
Standard
 70
     0
  3

 62
   256
 51
90.0
 52
90.0
 71
     2
 49
0.5
 62
   256
  6
BYLAYER
 49
-0.5
 62
   256
  6
BYLAYER
  0
ACDBPLACEHOLDER
  5
F
102
{ACAD_REACTORS
330
E
102
}
330
E
  0
VISUALSTYLE
  5
2F
102
{ACAD_REACTORS
330
2A
102
}
330
2A
100
AcDbVisualStyle
  2
2dWireframe
 70
     4
 71
     0
 72
     2
 73
     0
 90
        0
 40
-0.6
 41
-30.0
 62
     5
 63
     7
 74
     1
 91
        4
 64
     7
 65
   257
 75
     1
175
     1
 42
1.0
 92
        0
 66
   257
 43
1.0
 76
     1
 77
     6
 78
     2
 67
     7
 79
     5
170
     0
171
     0
290
     0
174
     0
 93
        1
 44
0.0
173
     0
291
     0
 45
0.0
1001
ACAD
1000
AcDbSavedByObjectVersion
1070
     0
  0
VISUALSTYLE
  5
31
102
{ACAD_REACTORS
330
2A
102
}
330
2A
100
AcDbVisualStyle
  2
3D Hidden
 70
     6
 71
     1
 72
     2
 73
     2
 90
        0
 40
-0.6
 41
-30.0
 62
     5
 63
     7
 74
     2
 91
        2
 64
     7
 65
   257
 75
     2
175
     1
 42
40.0
 92
        0
 66
   257
 43
1.0
 76
     1
 77
     6
 78
     2
 67
     7
 79
     3
170
     0
171
     0
290
     0
174
     0
 93
        1
 44
0.0
173
     0
291
     0
 45
0.0
1001
ACAD
1000
AcDbSavedByObjectVersion
1070
     0
  0
VISUALSTYLE
  5
30
102
{ACAD_REACTORS
330
2A
102
}
330
2A
100
AcDbVisualStyle
  2
3dWireframe
 70
     5
 71
     0
 72
     2
 73
     0
 90
        0
 40
-0.6
 41
-30.0
 62
     5
 63
     7
 74
     1
 91
        4
 64
     7
 65
   257
 75
     1
175
     1
 42
1.0
 92
        0
 66
   257
 43
1.0
 76
     1
 77
     6
 78
     2
 67
     7
 79
     5
170
     0
171
     0
290
     0
174
     0
 93
        1
 44
0.0
173
     0
291
     0
 45
0.0
1001
ACAD
1000
AcDbSavedByObjectVersion
1070
     0
  0
VISUALSTYLE
  5
32
102
{ACAD_REACTORS
330
2A
102
}
330
2A
100
AcDbVisualStyle
  2
Basic
 70
     7
 71
     1
 72
     0
 73
     1
 90
        0
 40
-0.6
 41
-30.0
 62
     5
 63
     7
 74
     0
 91
        4
 64
     7
 65
   257
 75
     1
175
     1
 42
1.0
 92
        8
 66
     7
 43
1.0
 76
     1
 77
     6
 78
     2
 67
     7
 79
     5
170
     0
171
     0
290
     0
174
     0
 93
        1
 44
0.0
173
     0
291
     1
 45
0.0
1001
ACAD
1000
AcDbSavedByObjectVersion
1070
     0
  0
VISUALSTYLE
  5
36
102
{ACAD_REACTORS
330
2A
102
}
330
2A
100
AcDbVisualStyle
  2
Brighten
 70
    12
 71
     2
 72
     2
 73
     0
 90
        0
 40
-0.6
 41
-30.0
 62
     5
 63
     7
 74
     1
 91
        4
 64
     7
 65
   257
 75
     1
175
     1
 42
1.0
 92
        8
 66
     7
 43
1.0
 76
     1
 77
     6
 78
     2
 67
     7
 79
     5
170
     0
171
     0
290
     0
174
     0
 93
        1
 44
50.0
173
     0
291
     1
 45
0.0
1001
ACAD
1000
AcDbSavedByObjectVersion
1070
     0
  0
VISUALSTYLE
  5
3A
102
{ACAD_REACTORS
330
2A
102
}
330
2A
100
AcDbVisualStyle
  2
ColorChange
 70
    16
 71
     2
 72
     2
 73
     3
 90
        0
 40
-0.6
 41
-30.0
 62
     5
 63
     8
 74
     1
 91
        4
 64
     7
 65
   257
 75
     1
175
     1
 42
1.0
 92
        8
 66
     8
 43
1.0
 76
     1
 77
     6
 78
     2
 67
     7
 79
     5
170
     0
171
     0
290
     0
174
     0
 93
        1
 44
0.0
173
     0
291
     1
 45
0.0
1001
ACAD
1000
AcDbSavedByObjectVersion
1070
     0
  0
VISUALSTYLE
  5
34
102
{ACAD_REACTORS
330
2A
102
}
330
2A
100
AcDbVisualStyle
  2
Conceptual
 70
     9
 71
     3
 72
     2
 73
     0
 90
        0
 40
-0.6
 41
-30.0
 62
     5
 63
     7
 74
     2
 91
        2
 64
     7
 65
   257
 75
     1
175
     1
 42
40.0
 92
        8
 66
     7
 43
1.0
 76
     1
 77
     6
 78
     2
 67
     7
 79
     3
170
     0
171
     0
290
     0
174
     0
 93
        1
 44
0.0
173
     0
291
     0
 45
0.0
1001
ACAD
1000
AcDbSavedByObjectVersion
1070
     0
  0
VISUALSTYLE
  5
35
102
{ACAD_REACTORS
330
2A
102
}
330
2A
100
AcDbVisualStyle
  2
Dim
 70
    11
 71
     2
 72
     2
 73
     0
 90
        0
 40
-0.6
 41
-30.0
 62
     5
 63
     7
 74
     1
 91
        4
 64
     7
 65
   257
 75
     1
175
     1
 42
1.0
 92
        8
 66
     7
 43
1.0
 76
     1
 77
     6
 78
     2
 67
     7
 79
     5
170
     0
171
     0
290
     0
174
     0
 93
        1
 44
-50.0
173
     0
291
     1
 45
0.0
1001
ACAD
1000
AcDbSavedByObjectVersion
1070
     0
  0
VISUALSTYLE
  5
39
102
{ACAD_REACTORS
330
2A
102
}
330
2A
100
AcDbVisualStyle
  2
Facepattern
 70
    15
 71
     2
 72
     2
 73
     0
 90
        0
 40
-0.6
 41
-30.0
 62
     5
 63
     7
 74
     1
 91
        4
 64
     7
 65
   257
 75
     1
175
     1
 42
1.0
 92
        8
 66
     7
 43
1.0
 76
     1
 77
     6
 78
     2
 67
     7
 79
     5
170
     0
171
     0
290
     0
174
     0
 93
        1
 44
0.0
173
     0
291
     1
 45
0.0
1001
ACAD
1000
AcDbSavedByObjectVersion
1070
     0
  0
VISUALSTYLE
  5
2B
102
{ACAD_REACTORS
330
2A
102
}
330
2A
100
AcDbVisualStyle
  2
Flat
 70
     0
 71
     2
 72
     1
 73
     1
 90
        2
 40
-0.6
 41
30.0
 62
     5
 63
     7
 74
     0
 91
        4
 64
     7
 65
   257
 75
     1
175
     1
 42
1.0
 92
        8
 66
     7
 43
1.0
 76
     1
 77
     6
 78
     2
 67
     7
 79
     5
170
     0
171
     0
290
     0
174
     0
 93
       13
 44
0.0
173
     0
291
     1
 45
0.0
1001
ACAD
1000
AcDbSavedByObjectVersion
1070
     0
  0
VISUALSTYLE
  5
2C
102
{ACAD_REACTORS
330
2A
102
}
330
2A
100
AcDbVisualStyle
  2
FlatWithEdges
 70
     1
 71
     2
 72
     1
 73
     1
 90
        2
 40
-0.6
 41
30.0
 62
     5
 63
     7
 74
     1
 91
        4
 64
     7
 65
   257
 75
     1
175
     1
 42
1.0
 92
        0
 66
   257
 43
1.0
 76
     1
 77
     6
 78
     2
 67
     7
 79
     5
170
     0
171
     0
290
     0
174
     0
 93
       13
 44
0.0
173
     0
291
     1
 45
0.0
1001
ACAD
1000
AcDbSavedByObjectVersion
1070
     0
  0
VISUALSTYLE
  5
2D
102
{ACAD_REACTORS
330
2A
102
}
330
2A
100
AcDbVisualStyle
  2
Gouraud
 70
     2
 71
     2
 72
     2
 73
     1
 90
        2
 40
-0.6
 41
30.0
 62
     5
 63
     7
 74
     0
 91
        4
 64
     7
 65
   257
 75
     1
175
     1
 42
1.0
 92
        0
 66
     7
 43
1.0
 76
     1
 77
     6
 78
     2
 67
     7
 79
     5
170
     0
171
     0
290
     0
174
     0
 93
       13
 44
0.0
173
     0
291
     1
 45
0.0
1001
ACAD
1000
AcDbSavedByObjectVersion
1070
     0
  0
VISUALSTYLE
  5
2E
102
{ACAD_REACTORS
330
2A
102
}
330
2A
100
AcDbVisualStyle
  2
GouraudWithEdges
 70
     3
 71
     2
 72
     2
 73
     1
 90
        2
 40
-0.6
 41
30.0
 62
     5
 63
     7
 74
     1
 91
        4
 64
     7
 65
   257
 75
     1
175
     1
 42
1.0
 92
        0
 66
   257
 43
1.0
 76
     1
 77
     6
 78
     2
 67
     7
 79
     5
170
     0
171
     0
290
     0
174
     0
 93
       13
 44
0.0
173
     0
291
     1
 45
0.0
1001
ACAD
1000
AcDbSavedByObjectVersion
1070
     0
  0
VISUALSTYLE
  5
38
102
{ACAD_REACTORS
330
2A
102
}
330
2A
100
AcDbVisualStyle
  2
Linepattern
 70
    14
 71
     2
 72
     2
 73
     0
 90
        0
 40
-0.6
 41
-30.0
 62
     5
 63
     7
 74
     1
 91
        4
 64
     7
 65
   257
 75
     7
175
     7
 42
1.0
 92
        8
 66
     7
 43
1.0
 76
     1
 77
     6
 78
     2
 67
     7
 79
     5
170
     0
171
     0
290
     0
174
     0
 93
        1
 44
0.0
173
     0
291
     1
 45
0.0
1001
ACAD
1000
AcDbSavedByObjectVersion
1070
     0
  0
VISUALSTYLE
  5
33
102
{ACAD_REACTORS
330
2A
102
}
330
2A
100
AcDbVisualStyle
  2
Realistic
 70
     8
 71
     2
 72
     2
 73
     0
 90
        0
 40
-0.6
 41
-30.0
 62
     5
 63
     7
 74
     1
 91
        0
 64
     7
 65
   257
 75
     1
175
     1
 42
1.0
 92
        8
 66
     8
 43
1.0
 76
     1
 77
     6
 78
     2
 67
     7
 79
     5
170
     0
171
     0
290
     0
174
     0
 93
       13
 44
0.0
173
     0
291
     0
 45
0.0
1001
ACAD
1000
AcDbSavedByObjectVersion
1070
     0
  0
VISUALSTYLE
  5
37
102
{ACAD_REACTORS
330
2A
102
}
330
2A
100
AcDbVisualStyle
  2
Thicken
 70
    13
 71
     2
 72
     2
 73
     0
 90
        0
 40
-0.6
 41
-30.0
 62
     5
 63
     7
 74
     1
 91
        4
 64
     7
 65
   257
 75
     1
175
     1
 42
1.0
 92
       12
 66
     7
 43
1.0
 76
     1
 77
     6
 78
     2
 67
     7
 79
     5
170
     0
171
     0
290
     0
174
     0
 93
        1
 44
0.0
173
     0
291
     1
 45
0.0
1001
ACAD
1000
AcDbSavedByObjectVersion
1070
     0
  0
ENDSEC
  0
EOF
