  0
SECTION
  2
HEADER
  9
$ACADVER
  1
AC1015
  9
$ACADMAINTVER
 70
     6
  9
$DWGCODEPAGE
  3
ANSI_1252
  9
$INSBASE
 10
0.0
 20
0.0
 30
0.0
  9
$EXTMIN
 10
1.000000000000000E+20
 20
1.000000000000000E+20
 30
1.000000000000000E+20
  9
$EXTMAX
 10
-1.000000000000000E+20
 20
-1.000000000000000E+20
 30
-1.000000000000000E+20
  9
$LIMMIN
 10
0.0
 20
0.0
  9
$LIMMAX
 10
12.0
 20
9.0
  9
$ORTHOMODE
 70
     0
  9
$REGENMODE
 70
     1
  9
$FILLMODE
 70
     1
  9
$QTEXTMODE
 70
     0
  9
$MIRRTEXT
 70
     1
  9
$LTSCALE
 40
1.0
  9
$ATTMODE
 70
     1
  9
$TEXTSIZE
 40
0.2
  9
$TRACEWID
 40
0.05
  9
$TEXTSTYLE
  7
Standard
  9
$CLAYER
  8
0
  9
$CELTYPE
  6
ByLayer
  9
$CECOLOR
 62
   256
  9
$CELTSCALE
 40
1.0
  9
$DISPSILH
 70
     0
  9
$DIMSCALE
 40
1.0
  9
$DIMASZ
 40
0.18
  9
$DIMEXO
 40
0.0625
  9
$DIMDLI
 40
0.38
  9
$DIMRND
 40
0.0
  9
$DIMDLE
 40
0.0
  9
$DIMEXE
 40
0.18
  9
$DIMTP
 40
0.0
  9
$DIMTM
 40
0.0
  9
$DIMTXT
 40
0.18
  9
$DIMCEN
 40
0.09
  9
$DIMTSZ
 40
0.0
  9
$DIMTOL
 70
     0
  9
$DIMLIM
 70
     0
  9
$DIMTIH
 70
     1
  9
$DIMTOH
 70
     1
  9
$DIMSE1
 70
     0
  9
$DIMSE2
 70
     0
  9
$DIMTAD
 70
     0
  9
$DIMZIN
 70
     0
  9
$DIMBLK
  1

  9
$DIMASO
 70
     1
  9
$DIMSHO
 70
     1
  9
$DIMPOST
  1

  9
$DIMAPOST
  1

  9
$DIMALT
 70
     0
  9
$DIMALTD
 70
     2
  9
$DIMALTF
 40
25.4
  9
$DIMLFAC
 40
1.0
  9
$DIMTOFL
 70
     0
  9
$DIMTVP
 40
0.0
  9
$DIMTIX
 70
     0
  9
$DIMSOXD
 70
     0
  9
$DIMSAH
 70
     0
  9
$DIMBLK1
  1

  9
$DIMBLK2
  1

  9
$DIMSTYLE
  2
Standard
  9
$DIMCLRD
 70
     0
  9
$DIMCLRE
 70
     0
  9
$DIMCLRT
 70
     0
  9
$DIMTFAC
 40
1.0
  9
$DIMGAP
 40
0.09
  9
$DIMJUST
 70
     0
  9
$DIMSD1
 70
     0
  9
$DIMSD2
 70
     0
  9
$DIMTOLJ
 70
     1
  9
$DIMTZIN
 70
     0
  9
$DIMALTZ
 70
     0
  9
$DIMALTTZ
 70
     0
  9
$DIMUPT
 70
     0
  9
$DIMDEC
 70
     4
  9
$DIMTDEC
 70
     4
  9
$DIMALTU
 70
     2
  9
$DIMALTTD
 70
     2
  9
$DIMTXSTY
  7
Standard
  9
$DIMAUNIT
 70
     0
  9
$DIMADEC
 70
     0
  9
$DIMALTRND
 40
0.0
  9
$DIMAZIN
 70
     0
  9
$DIMDSEP
 70
    46
  9
$DIMATFIT
 70
     3
  9
$DIMFRAC
 70
     0
  9
$DIMLDRBLK
  1

  9
$DIMLUNIT
 70
     2
  9
$DIMLWD
 70
    -2
  9
$DIMLWE
 70
    -2
  9
$DIMTMOVE
 70
     0
  9
$LUNITS
 70
     2
  9
$LUPREC
 70
     4
  9
$SKETCHINC
 40
0.1
  9
$FILLETRAD
 40
0.5
  9
$AUNITS
 70
     0
  9
$AUPREC
 70
     0
  9
$MENU
  1
.
  9
$ELEVATION
 40
0.0
  9
$PELEVATION
 40
0.0
  9
$THICKNESS
 40
0.0
  9
$LIMCHECK
 70
     0
  9
$CHAMFERA
 40
0.5
  9
$CHAMFERB
 40
0.5
  9
$CHAMFERC
 40
1.0
  9
$CHAMFERD
 40
0.0
  9
$SKPOLY
 70
     0
  9
$TDCREATE
 40
2456020.395611597
  9
$TDUCREATE
 40
2456019.895611597
  9
$TDUPDATE
 40
2456020.395611609
  9
$TDUUPDATE
 40
2456019.895611609
  9
$TDINDWG
 40
0.0000000116
  9
$TDUSRTIMER
 40
0.0000000116
  9
$USRTIMER
 70
     1
  9
$ANGBASE
 50
0.0
  9
$ANGDIR
 70
     0
  9
$PDMODE
 70
     0
  9
$PDSIZE
 40
0.0
  9
$PLINEWID
 40
0.0
  9
$SPLFRAME
 70
     0
  9
$SPLINETYPE
 70
     6
  9
$SPLINESEGS
 70
     8
  9
$HANDSEED
  5
39E
  9
$SURFTAB1
 70
     6
  9
$SURFTAB2
 70
     6
  9
$SURFTYPE
 70
     6
  9
$SURFU
 70
     6
  9
$SURFV
 70
     6
  9
$UCSBASE
  2

  9
$UCSNAME
  2

  9
$UCSORG
 10
0.0
 20
0.0
 30
0.0
  9
$UCSXDIR
 10
1.0
 20
0.0
 30
0.0
  9
$UCSYDIR
 10
0.0
 20
1.0
 30
0.0
  9
$UCSORTHOREF
  2

  9
$UCSORTHOVIEW
 70
     0
  9
$UCSORGTOP
 10
0.0
 20
0.0
 30
0.0
  9
$UCSORGBOTTOM
 10
0.0
 20
0.0
 30
0.0
  9
$UCSORGLEFT
 10
0.0
 20
0.0
 30
0.0
  9
$UCSORGRIGHT
 10
0.0
 20
0.0
 30
0.0
  9
$UCSORGFRONT
 10
0.0
 20
0.0
 30
0.0
  9
$UCSORGBACK
 10
0.0
 20
0.0
 30
0.0
  9
$PUCSBASE
  2

  9
$PUCSNAME
  2

  9
$PUCSORG
 10
0.0
 20
0.0
 30
0.0
  9
$PUCSXDIR
 10
1.0
 20
0.0
 30
0.0
  9
$PUCSYDIR
 10
0.0
 20
1.0
 30
0.0
  9
$PUCSORTHOREF
  2

  9
$PUCSORTHOVIEW
 70
     0
  9
$PUCSORGTOP
 10
0.0
 20
0.0
 30
0.0
  9
$PUCSORGBOTTOM
 10
0.0
 20
0.0
 30
0.0
  9
$PUCSORGLEFT
 10
0.0
 20
0.0
 30
0.0
  9
$PUCSORGRIGHT
 10
0.0
 20
0.0
 30
0.0
  9
$PUCSORGFRONT
 10
0.0
 20
0.0
 30
0.0
  9
$PUCSORGBACK
 10
0.0
 20
0.0
 30
0.0
  9
$USERI1
 70
     0
  9
$USERI2
 70
     0
  9
$USERI3
 70
     0
  9
$USERI4
 70
     0
  9
$USERI5
 70
     0
  9
$USERR1
 40
0.0
  9
$USERR2
 40
0.0
  9
$USERR3
 40
0.0
  9
$USERR4
 40
0.0
  9
$USERR5
 40
0.0
  9
$WORLDVIEW
 70
     1
  9
$SHADEDGE
 70
     3
  9
$SHADEDIF
 70
    70
  9
$TILEMODE
 70
     1
  9
$MAXACTVP
 70
    64
  9
$PINSBASE
 10
0.0
 20
0.0
 30
0.0
  9
$PLIMCHECK
 70
     0
  9
$PEXTMIN
 10
1.000000000000000E+20
 20
1.000000000000000E+20
 30
1.000000000000000E+20
  9
$PEXTMAX
 10
-1.000000000000000E+20
 20
-1.000000000000000E+20
 30
-1.000000000000000E+20
  9
$PLIMMIN
 10
0.0
 20
0.0
  9
$PLIMMAX
 10
12.0
 20
9.0
  9
$UNITMODE
 70
     0
  9
$VISRETAIN
 70
     1
  9
$PLINEGEN
 70
     0
  9
$PSLTSCALE
 70
     1
  9
$TREEDEPTH
 70
  3020
  9
$CMLSTYLE
  2
Standard
  9
$CMLJUST
 70
     0
  9
$CMLSCALE
 40
1.0
  9
$PROXYGRAPHICS
 70
     1
  9
$MEASUREMENT
 70
     0
  9
$CELWEIGHT
370
    -1
  9
$ENDCAPS
280
     0
  9
$JOINSTYLE
280
     0
  9
$LWDISPLAY
290
     1
  9
$INSUNITS
 70
     1
  9
$HYPERLINKBASE
  1

  9
$STYLESHEET
  1

  9
$XEDIT
290
     1
  9
$CEPSNTYPE
380
     0
  9
$PSTYLEMODE
290
     1
  9
$FINGERPRINTGUID
  2
{CB3EC068-C75E-4632-8304-625D829571B9}
  9
$VERSIONGUID
  2
{FAEB1C32-E019-11D5-929B-00C0DF256EC4}
  9
$EXTNAMES
290
     1
  9
$PSVPSCALE
 40
0.0
  9
$OLESTARTUP
290
     0
  0
ENDSEC
  0
SECTION
  2
CLASSES
  0
CLASS
  1
ACDBDICTIONARYWDFLT
  2
AcDbDictionaryWithDefault
  3
ObjectDBX Classes
 90
        0
280
     0
281
     0
  0
CLASS
  1
VISUALSTYLE
  2
AcDbVisualStyle
  3
ObjectDBX Classes
 90
     4095
280
     0
281
     0
  0
CLASS
  1
ACDBPLACEHOLDER
  2
AcDbPlaceHolder
  3
ObjectDBX Classes
 90
        0
280
     0
281
     0
  0
CLASS
  1
LAYOUT
  2
AcDbLayout
  3
ObjectDBX Classes
 90
        0
280
     0
281
     0
  0
ENDSEC
  0
SECTION
  2
TABLES
  0
TABLE
  2
VPORT
  5
8
330
0
100
AcDbSymbolTable
 70
     1
  0
VPORT
  5
29
330
8
100
AcDbSymbolTableRecord
100
AcDbViewportTableRecord
  2
*Active
 70
     0
 10
0.0
 20
0.0
 11
1.0
 21
1.0
 12
0.0
 22
0.0
 13
0.0
 23
0.0
 14
0.5
 24
0.5
 15
0.5
 25
0.5
 16
0.0
 26
0.0
 36
1.0
 17
104.9999647089931
 27
148.4999796178229
 37
0.0
 40
296.9999592356459
 41
0.7070705664688927
 42
50.0
 43
0.0
 44
0.0
 50
0.0
 51
0.0
 71
     0
 72
   100
 73
     1
 74
     3
 75
     0
 76
     0
 77
     0
 78
     0
281
     0
 65
     1
110
0.0
120
0.0
130
0.0
111
1.0
121
0.0
131
0.0
112
0.0
122
1.0
132
0.0
 79
     0
146
0.0
  0
ENDTAB
  0
TABLE
  2
LTYPE
  5
5
330
0
100
AcDbSymbolTable
 70
     5
  0
LTYPE
  5
14
330
5
100
AcDbSymbolTableRecord
100
AcDbLinetypeTableRecord
  2
ByBlock
 70
     0
  3

 72
    65
 73
     0
 40
0.0
  0
LTYPE
  5
15
330
5
100
AcDbSymbolTableRecord
100
AcDbLinetypeTableRecord
  2
ByLayer
 70
     0
  3

 72
    65
 73
     0
 40
0.0
  0
LTYPE
  5
16
330
5
100
AcDbSymbolTableRecord
100
AcDbLinetypeTableRecord
  2
Continuous
 70
     0
  3
Solid line
 72
    65
 73
     0
 40
0.0
  0
LTYPE
  5
14C
330
5
100
AcDbSymbolTableRecord
100
AcDbLinetypeTableRecord
  2
AI-Linetype-1
 70
     0
  3
Adobe Illustrator Linetype No. 1
 72
    65
 73
     4
 40
6.349580085345846
 49
4.233051063221081
 74
     0
 49
-0.7055096740415885
 74
     0
 49
0.7055096740415885
 74
     0
 49
-0.7055096740415885
 74
     0
  0
LTYPE
  5
151
330
5
100
AcDbSymbolTableRecord
100
AcDbLinetypeTableRecord
  2
AI-Linetype-2
 70
     0
  3
Adobe Illustrator Linetype No. 2
 72
    65
 73
     4
 40
6.349580085345846
 49
4.233051063221081
 74
     0
 49
-0.7055096740415885
 74
     0
 49
0.7055096740415885
 74
     0
 49
-0.7055096740415885
 74
     0
  0
LTYPE
  5
259
330
5
100
AcDbSymbolTableRecord
100
AcDbLinetypeTableRecord
  2
AI-Linetype-3
 70
     0
  3
Adobe Illustrator Linetype No. 3
 72
    65
 73
     2
 40
4.233061576818144
 49
2.822042228734967
 74
     0
 49
-1.411019348083177
 74
     0
  0
LTYPE
  5
306
330
5
100
AcDbSymbolTableRecord
100
AcDbLinetypeTableRecord
  2
AI-Linetype-4
 70
     0
  3
Adobe Illustrator Linetype No. 4
 72
    65
 73
     2
 40
4.233061576818144
 49
2.822042228734967
 74
     0
 49
-1.411019348083177
 74
     0
  0
ENDTAB
  0
TABLE
  2
LAYER
  5
2
330
0
100
AcDbSymbolTable
 70
     2
  0
LAYER
  5
10
330
2
100
AcDbSymbolTableRecord
100
AcDbLayerTableRecord
  2
0
 70
     0
 62
     7
  6
Continuous
370
    -3
390
F
  0
LAYER
  5
3B
330
2
100
AcDbSymbolTableRecord
100
AcDbLayerTableRecord
  2
Layer 1
 70
     0
 62
     7
  6
Continuous
370
    -3
390
F
  0
ENDTAB
  0
TABLE
  2
STYLE
  5
3
330
0
100
AcDbSymbolTable
 70
     1
  0
STYLE
  5
11
330
3
100
AcDbSymbolTableRecord
100
AcDbTextStyleTableRecord
  2
Standard
 70
     0
 40
0.0
 41
1.0
 50
0.0
 71
     0
 42
0.2
  3
txt
  4

  0
ENDTAB
  0
TABLE
  2
VIEW
  5
6
330
0
100
AcDbSymbolTable
 70
     0
  0
ENDTAB
  0
TABLE
  2
UCS
  5
7
330
0
100
AcDbSymbolTable
 70
     0
  0
ENDTAB
  0
TABLE
  2
APPID
  5
9
330
0
100
AcDbSymbolTable
 70
     1
  0
APPID
  5
12
330
9
100
AcDbSymbolTableRecord
100
AcDbRegAppTableRecord
  2
ACAD
 70
     0
  0
ENDTAB
  0
TABLE
  2
DIMSTYLE
  5
A
330
0
100
AcDbSymbolTable
 70
     1
100
AcDbDimStyleTable
  0
DIMSTYLE
105
27
330
A
100
AcDbSymbolTableRecord
100
AcDbDimStyleTableRecord
  2
Standard
 70
     0
340
11
  0
ENDTAB
  0
TABLE
  2
BLOCK_RECORD
  5
1
330
0
100
AcDbSymbolTable
 70
    19
  0
BLOCK_RECORD
  5
1F
330
1
100
AcDbSymbolTableRecord
100
AcDbBlockTableRecord
  2
*Model_Space
340
22
  0
BLOCK_RECORD
  5
1B
330
1
100
AcDbSymbolTableRecord
100
AcDbBlockTableRecord
  2
*Paper_Space
340
1E
  0
BLOCK_RECORD
  5
23
330
1
100
AcDbSymbolTableRecord
100
AcDbBlockTableRecord
  2
*Paper_Space0
340
26
  0
BLOCK_RECORD
  5
3C
330
1
100
AcDbSymbolTableRecord
100
AcDbBlockTableRecord
  2
block 2
340
0
102
{BLKREFS
331
3D
102
}
  0
BLOCK_RECORD
  5
EB
330
1
100
AcDbSymbolTableRecord
100
AcDbBlockTableRecord
  2
block 3
340
0
102
{BLKREFS
331
EC
102
}
  0
BLOCK_RECORD
  5
231
330
1
100
AcDbSymbolTableRecord
100
AcDbBlockTableRecord
  2
block 4
340
0
102
{BLKREFS
331
232
102
}
  0
BLOCK_RECORD
  5
25A
330
1
100
AcDbSymbolTableRecord
100
AcDbBlockTableRecord
  2
block 5
340
0
102
{BLKREFS
331
25B
102
}
  0
BLOCK_RECORD
  5
266
330
1
100
AcDbSymbolTableRecord
100
AcDbBlockTableRecord
  2
block 6
340
0
102
{BLKREFS
331
267
102
}
  0
BLOCK_RECORD
  5
272
330
1
100
AcDbSymbolTableRecord
100
AcDbBlockTableRecord
  2
block 7
340
0
102
{BLKREFS
331
273
102
}
  0
BLOCK_RECORD
  5
27E
330
1
100
AcDbSymbolTableRecord
100
AcDbBlockTableRecord
  2
block 8
340
0
102
{BLKREFS
331
27F
102
}
  0
BLOCK_RECORD
  5
28A
330
1
100
AcDbSymbolTableRecord
100
AcDbBlockTableRecord
  2
block 9
340
0
102
{BLKREFS
331
28B
102
}
  0
BLOCK_RECORD
  5
296
330
1
100
AcDbSymbolTableRecord
100
AcDbBlockTableRecord
  2
block 10
340
0
102
{BLKREFS
331
297
102
}
  0
BLOCK_RECORD
  5
2A2
330
1
100
AcDbSymbolTableRecord
100
AcDbBlockTableRecord
  2
block 11
340
0
102
{BLKREFS
331
2A3
102
}
  0
BLOCK_RECORD
  5
2AE
330
1
100
AcDbSymbolTableRecord
100
AcDbBlockTableRecord
  2
block 12
340
0
102
{BLKREFS
331
2AF
102
}
  0
BLOCK_RECORD
  5
2BA
330
1
100
AcDbSymbolTableRecord
100
AcDbBlockTableRecord
  2
block 13
340
0
102
{BLKREFS
331
2BB
102
}
  0
BLOCK_RECORD
  5
2C6
330
1
100
AcDbSymbolTableRecord
100
AcDbBlockTableRecord
  2
block 14
340
0
102
{BLKREFS
331
2C7
102
}
  0
BLOCK_RECORD
  5
2D2
330
1
100
AcDbSymbolTableRecord
100
AcDbBlockTableRecord
  2
block 15
340
0
102
{BLKREFS
331
2D3
102
}
  0
BLOCK_RECORD
  5
2DE
330
1
100
AcDbSymbolTableRecord
100
AcDbBlockTableRecord
  2
block 16
340
0
102
{BLKREFS
331
2DF
102
}
  0
BLOCK_RECORD
  5
2EA
330
1
100
AcDbSymbolTableRecord
100
AcDbBlockTableRecord
  2
block 17
340
0
102
{BLKREFS
331
2EB
102
}
  0
BLOCK_RECORD
  5
2F6
330
1
100
AcDbSymbolTableRecord
100
AcDbBlockTableRecord
  2
block 18
340
0
102
{BLKREFS
331
2F7
102
}
  0
BLOCK_RECORD
  5
31C
330
1
100
AcDbSymbolTableRecord
100
AcDbBlockTableRecord
  2
block 19
340
0
102
{BLKREFS
331
31D
102
}
  0
ENDTAB
  0
ENDSEC
  0
SECTION
  2
BLOCKS
  0
BLOCK
  5
20
330
1F
100
AcDbEntity
  8
0
100
AcDbBlockBegin
  2
*Model_Space
 70
     0
 71
     0
 10
0.0
 20
0.0
 30
0.0
  3
*Model_Space
  1

  0
ENDBLK
  5
21
330
1F
100
AcDbEntity
  8
0
100
AcDbBlockEnd
  0
BLOCK
  5
1C
330
1B
100
AcDbEntity
 67
     1
  8
0
100
AcDbBlockBegin
  2
*Paper_Space
 70
     0
 71
     0
 10
0.0
 20
0.0
 30
0.0
  3
*Paper_Space
  1

  0
ENDBLK
  5
1D
330
1B
100
AcDbEntity
 67
     1
  8
0
100
AcDbBlockEnd
  0
BLOCK
  5
24
330
23
100
AcDbEntity
  8
0
100
AcDbBlockBegin
  2
*Paper_Space0
 70
     0
 71
     0
 10
0.0
 20
0.0
 30
0.0
  3
*Paper_Space0
  1

  0
ENDBLK
  5
25
330
23
100
AcDbEntity
  8
0
100
AcDbBlockEnd
  0
BLOCK
  5
3E
330
3C
100
AcDbEntity
  8
0
100
AcDbBlockBegin
  2
block 2
 70
     0
 71
     0
 10
0.0
 20
0.0
 30
0.0
  3
block 2
  1

  0
POLYLINE
  5
40
330
3C
100
AcDbEntity
  8
Layer 1
370
     0
100
AcDb2dPolyline
 66
     1
 10
0.0
 20
0.0
 30
0.0
  0
VERTEX
  5
41
330
40
100
AcDbEntity
  8
Layer 1
370
     0
100
AcDbVertex
100
AcDb2dVertex
 10
186.3042181608892
 20
549.4625853118531
 30
0.0
  0
VERTEX
  5
42
330
40
100
AcDbEntity
  8
Layer 1
370
     0
100
AcDbVertex
100
AcDb2dVertex
 10
184.8304063122993
 20
537.4218043361307
 30
0.0
  0
VERTEX
  5
43
330
40
100
AcDbEntity
  8
Layer 1
370
     0
100
AcDbVertex
100
AcDb2dVertex
 10
156.2071749826496
 20
553.1305784749986
 30
0.0
  0
VERTEX
  5
44
330
40
100
AcDbEntity
  8
Layer 1
370
     0
100
AcDbVertex
100
AcDb2dVertex
 10
187.770106289863
 20
561.4975096252507
 30
0.0
  0
VERTEX
  5
45
330
40
100
AcDbEntity
  8
Layer 1
370
     0
100
AcDbVertex
100
AcDb2dVertex
 10
186.3042181608892
 20
549.4625853118531
 30
0.0
  0
SEQEND
  5
46
330
40
100
AcDbEntity
  8
Layer 1
370
     0
  0
POLYLINE
  5
47
330
3C
100
AcDbEntity
  8
Layer 1
 62
     7
370
    35
100
AcDb2dPolyline
 66
     1
 10
0.0
 20
0.0
 30
0.0
  0
VERTEX
  5
48
330
47
100
AcDbEntity
  8
Layer 1
 62
     7
370
    35
100
AcDbVertex
100
AcDb2dVertex
 10
184.8286837645567
 20
537.4345511894261
 30
0.0
  0
VERTEX
  5
36E
330
47
100
AcDbEntity
  8
0
100
AcDbVertex
100
AcDb2dVertex
 10
184.8286837645567
 20
537.4345511894261
 30
0.0
  0
SEQEND
  5
49
330
47
100
AcDbEntity
  8
Layer 1
370
    35
  0
POLYLINE
  5
4A
330
3C
100
AcDbEntity
  8
Layer 1
 62
     7
370
    35
100
AcDb2dPolyline
 66
     1
 10
0.0
 20
0.0
 30
0.0
  0
VERTEX
  5
4B
330
4A
100
AcDbEntity
  8
Layer 1
 62
     7
370
    35
100
AcDbVertex
100
AcDb2dVertex
 10
187.7632160988925
 20
561.4833847337611
 30
0.0
  0
VERTEX
  5
36F
330
4A
100
AcDbEntity
  8
0
100
AcDbVertex
100
AcDb2dVertex
 10
187.7632160988925
 20
561.4833847337611
 30
0.0
  0
SEQEND
  5
4C
330
4A
100
AcDbEntity
  8
Layer 1
370
    35
  0
POLYLINE
  5
4D
330
3C
100
AcDbEntity
  8
Layer 1
 62
     7
370
    35
100
AcDb2dPolyline
 66
     1
 10
0.0
 20
0.0
 30
0.0
  0
VERTEX
  5
4E
330
4D
100
AcDbEntity
  8
Layer 1
 62
     7
370
    35
100
AcDbVertex
100
AcDb2dVertex
 10
186.3042181608892
 20
549.4625853118531
 30
0.0
  0
VERTEX
  5
370
330
4D
100
AcDbEntity
  8
0
100
AcDbVertex
100
AcDb2dVertex
 10
186.3042181608892
 20
549.4625853118531
 30
0.0
  0
SEQEND
  5
4F
330
4D
100
AcDbEntity
  8
Layer 1
370
    35
  0
POLYLINE
  5
50
330
3C
100
AcDbEntity
  8
Layer 1
 62
     7
370
    35
100
AcDb2dPolyline
 66
     1
 10
0.0
 20
0.0
 30
0.0
  0
VERTEX
  5
51
330
50
100
AcDbEntity
  8
Layer 1
 62
     7
370
    35
100
AcDbVertex
100
AcDb2dVertex
 10
186.3042181608892
 20
549.4625853118531
 30
0.0
  0
VERTEX
  5
52
330
50
100
AcDbEntity
  8
Layer 1
 62
     7
370
    35
100
AcDbVertex
100
AcDb2dVertex
 10
184.8286837645567
 20
537.4345511894261
 30
0.0
  0
VERTEX
  5
53
330
50
100
AcDbEntity
  8
Layer 1
 62
     7
370
    35
100
AcDbVertex
100
AcDb2dVertex
 10
156.206141454004
 20
553.1390189589375
 30
0.0
  0
VERTEX
  5
54
330
50
100
AcDbEntity
  8
Layer 1
 62
     7
370
    35
100
AcDbVertex
100
AcDb2dVertex
 10
187.7632160988925
 20
561.4833847337611
 30
0.0
  0
VERTEX
  5
55
330
50
100
AcDbEntity
  8
Layer 1
 62
     7
370
    35
100
AcDbVertex
100
AcDb2dVertex
 10
186.3042181608892
 20
549.4625853118531
 30
0.0
  0
SEQEND
  5
56
330
50
100
AcDbEntity
  8
Layer 1
370
    35
  0
POLYLINE
  5
57
330
3C
100
AcDbEntity
  8
Layer 1
370
     0
100
AcDb2dPolyline
 66
     1
 10
0.0
 20
0.0
 30
0.0
  0
VERTEX
  5
58
330
57
100
AcDbEntity
  8
Layer 1
370
     0
100
AcDbVertex
100
AcDb2dVertex
 10
186.3042181608892
 20
549.4625853118531
 30
0.0
  0
VERTEX
  5
59
330
57
100
AcDbEntity
  8
Layer 1
370
     0
100
AcDbVertex
100
AcDb2dVertex
 10
184.8279947454597
 20
537.4345511894261
 30
0.0
  0
VERTEX
  5
5A
330
57
100
AcDbEntity
  8
Layer 1
370
     0
100
AcDbVertex
100
AcDb2dVertex
 10
184.8279947454597
 20
537.4345511894261
 30
0.0
  0
VERTEX
  5
5B
330
57
100
AcDbEntity
  8
Layer 1
370
     0
100
AcDbVertex
100
AcDb2dVertex
 10
156.206141454004
 20
553.1390189589375
 30
0.0
  0
VERTEX
  5
5C
330
57
100
AcDbEntity
  8
Layer 1
370
     0
100
AcDbVertex
100
AcDb2dVertex
 10
156.206141454004
 20
553.1390189589375
 30
0.0
  0
VERTEX
  5
5D
330
57
100
AcDbEntity
  8
Layer 1
370
     0
100
AcDbVertex
100
AcDb2dVertex
 10
187.7639051179896
 20
561.4837292433097
 30
0.0
  0
VERTEX
  5
5E
330
57
100
AcDbEntity
  8
Layer 1
370
     0
100
AcDbVertex
100
AcDb2dVertex
 10
187.7639051179896
 20
561.4837292433097
 30
0.0
  0
VERTEX
  5
5F
330
57
100
AcDbEntity
  8
Layer 1
370
     0
100
AcDbVertex
100
AcDb2dVertex
 10
186.3042181608892
 20
549.4625853118531
 30
0.0
  0
VERTEX
  5
60
330
57
100
AcDbEntity
  8
Layer 1
370
     0
100
AcDbVertex
100
AcDb2dVertex
 10
186.3042181608892
 20
549.4625853118531
 30
0.0
  0
SEQEND
  5
61
330
57
100
AcDbEntity
  8
Layer 1
370
     0
  0
HATCH
  5
62
330
3C
100
AcDbEntity
  8
Layer 1
 62
     7
100
AcDbHatch
 10
0.0
 20
0.0
 30
0.0
210
0.0
220
0.0
230
1.0
  2
SOLID
 70
     1
 71
     0
 91
        1
 92
        1
 93
        4
 72
     1
 10
186.3042181608892
 20
549.4625853118531
 11
184.8279947454597
 21
537.4345511894261
 72
     1
 10
184.8279947454597
 20
537.4345511894261
 11
156.206141454004
 21
553.1390189589375
 72
     1
 10
156.206141454004
 20
553.1390189589375
 11
187.7639051179896
 21
561.4837292433097
 72
     1
 10
187.7639051179896
 20
561.4837292433097
 11
186.3042181608892
 21
549.4625853118531
 97
        0
 75
     0
 76
     1
 98
        0
  0
POLYLINE
  5
63
330
3C
100
AcDbEntity
  8
Layer 1
 62
     7
370
     9
100
AcDb2dPolyline
 66
     1
 10
0.0
 20
0.0
 30
0.0
  0
VERTEX
  5
64
330
63
100
AcDbEntity
  8
Layer 1
 62
     7
370
     9
100
AcDbVertex
100
AcDb2dVertex
 10
184.2898708306637
 20
549.7056367983375
 30
0.0
  0
VERTEX
  5
65
330
63
100
AcDbEntity
  8
Layer 1
 62
     7
370
     9
100
AcDbVertex
100
AcDb2dVertex
 10
305.2991942596127
 20
535.5874632450094
 30
0.0
  0
SEQEND
  5
66
330
63
100
AcDbEntity
  8
Layer 1
370
     9
  0
POLYLINE
  5
67
330
3C
100
AcDbEntity
  8
Layer 1
370
     0
100
AcDb2dPolyline
 66
     1
 10
0.0
 20
0.0
 30
0.0
  0
VERTEX
  5
68
330
67
100
AcDbEntity
  8
Layer 1
370
     0
100
AcDbVertex
100
AcDb2dVertex
 10
180.9464056622287
 20
333.6888481153625
 30
0.0
  0
VERTEX
  5
69
330
67
100
AcDbEntity
  8
Layer 1
370
     0
100
AcDbVertex
100
AcDb2dVertex
 10
180.9464056622287
 20
321.5665906314139
 30
0.0
  0
VERTEX
  5
6A
330
67
100
AcDbEntity
  8
Layer 1
370
     0
100
AcDbVertex
100
AcDb2dVertex
 10
150.6295653920301
 20
333.6888481153625
 30
0.0
  0
VERTEX
  5
6B
330
67
100
AcDbEntity
  8
Layer 1
370
     0
100
AcDbVertex
100
AcDb2dVertex
 10
180.9464056622287
 20
345.8155842234419
 30
0.0
  0
VERTEX
  5
6C
330
67
100
AcDbEntity
  8
Layer 1
370
     0
100
AcDbVertex
100
AcDb2dVertex
 10
180.9464056622287
 20
333.6888481153625
 30
0.0
  0
SEQEND
  5
6D
330
67
100
AcDbEntity
  8
Layer 1
370
     0
  0
POLYLINE
  5
6E
330
3C
100
AcDbEntity
  8
Layer 1
 62
     7
370
    35
100
AcDb2dPolyline
 66
     1
 10
0.0
 20
0.0
 30
0.0
  0
VERTEX
  5
6F
330
6E
100
AcDbEntity
  8
Layer 1
 62
     7
370
    35
100
AcDbVertex
100
AcDb2dVertex
 10
180.9546738913933
 20
321.5536715233442
 30
0.0
  0
VERTEX
  5
371
330
6E
100
AcDbEntity
  8
0
100
AcDbVertex
100
AcDb2dVertex
 10
180.9546738913933
 20
321.5536715233442
 30
0.0
  0
SEQEND
  5
70
330
6E
100
AcDbEntity
  8
Layer 1
370
    35
  0
POLYLINE
  5
71
330
3C
100
AcDbEntity
  8
Layer 1
 62
     7
370
    35
100
AcDb2dPolyline
 66
     1
 10
0.0
 20
0.0
 30
0.0
  0
VERTEX
  5
72
330
71
100
AcDbEntity
  8
Layer 1
 62
     7
370
    35
100
AcDbVertex
100
AcDb2dVertex
 10
129.551437684626
 20
316.8144259190603
 30
0.0
  0
VERTEX
  5
372
330
71
100
AcDbEntity
  8
0
100
AcDbVertex
100
AcDb2dVertex
 10
129.551437684626
 20
316.8144259190603
 30
0.0
  0
SEQEND
  5
73
330
71
100
AcDbEntity
  8
Layer 1
370
    35
  0
POLYLINE
  5
74
330
3C
100
AcDbEntity
  8
Layer 1
 62
     7
370
    35
100
AcDb2dPolyline
 66
     1
 10
0.0
 20
0.0
 30
0.0
  0
VERTEX
  5
75
330
74
100
AcDbEntity
  8
Layer 1
 62
     7
370
    35
100
AcDbVertex
100
AcDb2dVertex
 10
180.9546738913933
 20
345.8198905927985
 30
0.0
  0
VERTEX
  5
373
330
74
100
AcDbEntity
  8
0
100
AcDbVertex
100
AcDb2dVertex
 10
180.9546738913933
 20
345.8198905927985
 30
0.0
  0
SEQEND
  5
76
330
74
100
AcDbEntity
  8
Layer 1
370
    35
  0
POLYLINE
  5
77
330
3C
100
AcDbEntity
  8
Layer 1
 62
     7
370
    35
100
AcDb2dPolyline
 66
     1
 10
0.0
 20
0.0
 30
0.0
  0
VERTEX
  5
78
330
77
100
AcDbEntity
  8
Layer 1
 62
     7
370
    35
100
AcDbVertex
100
AcDb2dVertex
 10
180.9546738913933
 20
333.6845417460059
 30
0.0
  0
VERTEX
  5
374
330
77
100
AcDbEntity
  8
0
100
AcDbVertex
100
AcDb2dVertex
 10
180.9546738913933
 20
333.6845417460059
 30
0.0
  0
SEQEND
  5
79
330
77
100
AcDbEntity
  8
Layer 1
370
    35
  0
POLYLINE
  5
7A
330
3C
100
AcDbEntity
  8
Layer 1
 62
     7
370
    35
100
AcDb2dPolyline
 66
     1
 10
0.0
 20
0.0
 30
0.0
  0
VERTEX
  5
7B
330
7A
100
AcDbEntity
  8
Layer 1
 62
     7
370
    35
100
AcDbVertex
100
AcDb2dVertex
 10
180.9546738913933
 20
333.6845417460059
 30
0.0
  0
VERTEX
  5
7C
330
7A
100
AcDbEntity
  8
Layer 1
 62
     7
370
    35
100
AcDbVertex
100
AcDb2dVertex
 10
180.9546738913933
 20
321.5536715233442
 30
0.0
  0
VERTEX
  5
7D
330
7A
100
AcDbEntity
  8
Layer 1
 62
     7
370
    35
100
AcDbVertex
100
AcDb2dVertex
 10
150.6295653920301
 20
333.6845417460059
 30
0.0
  0
VERTEX
  5
7E
330
7A
100
AcDbEntity
  8
Layer 1
 62
     7
370
    35
100
AcDbVertex
100
AcDb2dVertex
 10
180.9546738913933
 20
345.8198905927985
 30
0.0
  0
VERTEX
  5
7F
330
7A
100
AcDbEntity
  8
Layer 1
 62
     7
370
    35
100
AcDbVertex
100
AcDb2dVertex
 10
180.9546738913933
 20
333.6845417460059
 30
0.0
  0
SEQEND
  5
80
330
7A
100
AcDbEntity
  8
Layer 1
370
    35
  0
POLYLINE
  5
81
330
3C
100
AcDbEntity
  8
Layer 1
370
     0
100
AcDb2dPolyline
 66
     1
 10
0.0
 20
0.0
 30
0.0
  0
VERTEX
  5
82
330
81
100
AcDbEntity
  8
Layer 1
370
     0
100
AcDbVertex
100
AcDb2dVertex
 10
180.9546738913933
 20
333.6848862555545
 30
0.0
  0
VERTEX
  5
83
330
81
100
AcDbEntity
  8
Layer 1
370
     0
100
AcDbVertex
100
AcDb2dVertex
 10
180.9546738913933
 20
321.5531547590214
 30
0.0
  0
VERTEX
  5
84
330
81
100
AcDbEntity
  8
Layer 1
370
     0
100
AcDbVertex
100
AcDb2dVertex
 10
180.9546738913933
 20
321.5531547590214
 30
0.0
  0
VERTEX
  5
85
330
81
100
AcDbEntity
  8
Layer 1
370
     0
100
AcDbVertex
100
AcDb2dVertex
 10
150.6295653920301
 20
333.6848862555545
 30
0.0
  0
VERTEX
  5
86
330
81
100
AcDbEntity
  8
Layer 1
370
     0
100
AcDbVertex
100
AcDb2dVertex
 10
150.6295653920301
 20
333.6848862555545
 30
0.0
  0
VERTEX
  5
87
330
81
100
AcDbEntity
  8
Layer 1
370
     0
100
AcDbVertex
100
AcDb2dVertex
 10
180.9546738913933
 20
345.81954608325
 30
0.0
  0
VERTEX
  5
88
330
81
100
AcDbEntity
  8
Layer 1
370
     0
100
AcDbVertex
100
AcDb2dVertex
 10
180.9546738913933
 20
345.81954608325
 30
0.0
  0
VERTEX
  5
89
330
81
100
AcDbEntity
  8
Layer 1
370
     0
100
AcDbVertex
100
AcDb2dVertex
 10
180.9546738913933
 20
333.6848862555545
 30
0.0
  0
VERTEX
  5
8A
330
81
100
AcDbEntity
  8
Layer 1
370
     0
100
AcDbVertex
100
AcDb2dVertex
 10
180.9546738913933
 20
333.6848862555545
 30
0.0
  0
SEQEND
  5
8B
330
81
100
AcDbEntity
  8
Layer 1
370
     0
  0
HATCH
  5
8C
330
3C
100
AcDbEntity
  8
Layer 1
 62
     7
100
AcDbHatch
 10
0.0
 20
0.0
 30
0.0
210
0.0
220
0.0
230
1.0
  2
SOLID
 70
     1
 71
     0
 91
        1
 92
        1
 93
        4
 72
     1
 10
180.9546738913933
 20
333.6848862555545
 11
180.9546738913933
 21
321.5531547590214
 72
     1
 10
180.9546738913933
 20
321.5531547590214
 11
150.6295653920301
 21
333.6848862555545
 72
     1
 10
150.6295653920301
 20
333.6848862555545
 11
180.9546738913933
 21
345.81954608325
 72
     1
 10
180.9546738913933
 20
345.81954608325
 11
180.9546738913933
 21
333.6848862555545
 97
        0
 75
     0
 76
     1
 98
        0
  0
POLYLINE
  5
8D
330
3C
100
AcDbEntity
  8
Layer 1
 62
     7
370
     9
100
AcDb2dPolyline
 66
     1
 10
0.0
 20
0.0
 30
0.0
  0
VERTEX
  5
8E
330
8D
100
AcDbEntity
  8
Layer 1
 62
     7
370
     9
100
AcDbVertex
100
AcDb2dVertex
 10
178.9220675550959
 20
333.6888481153625
 30
0.0
  0
VERTEX
  5
8F
330
8D
100
AcDbEntity
  8
Layer 1
 62
     7
370
     9
100
AcDbVertex
100
AcDb2dVertex
 10
305.4221841684362
 20
333.6888481153625
 30
0.0
  0
SEQEND
  5
90
330
8D
100
AcDbEntity
  8
Layer 1
370
     9
  0
POLYLINE
  5
91
330
3C
100
AcDbEntity
  8
Layer 1
370
     0
100
AcDb2dPolyline
 66
     1
 10
0.0
 20
0.0
 30
0.0
  0
VERTEX
  5
92
330
91
100
AcDbEntity
  8
Layer 1
370
     0
100
AcDbVertex
100
AcDb2dVertex
 10
145.0175048465581
 20
50.46100259155142
 30
0.0
  0
VERTEX
  5
93
330
91
100
AcDbEntity
  8
Layer 1
370
     0
100
AcDbVertex
100
AcDb2dVertex
 10
145.0175048465581
 20
38.33461099302052
 30
0.0
  0
VERTEX
  5
94
330
91
100
AcDbEntity
  8
Layer 1
370
     0
100
AcDbVertex
100
AcDb2dVertex
 10
114.7006645763596
 20
50.46100259155142
 30
0.0
  0
VERTEX
  5
95
330
91
100
AcDbEntity
  8
Layer 1
370
     0
100
AcDbVertex
100
AcDb2dVertex
 10
145.0175048465581
 20
62.58773869963085
 30
0.0
  0
VERTEX
  5
96
330
91
100
AcDbEntity
  8
Layer 1
370
     0
100
AcDbVertex
100
AcDb2dVertex
 10
145.0175048465581
 20
50.46100259155142
 30
0.0
  0
SEQEND
  5
97
330
91
100
AcDbEntity
  8
Layer 1
370
     0
  0
POLYLINE
  5
98
330
3C
100
AcDbEntity
  8
Layer 1
 62
     7
370
    35
100
AcDb2dPolyline
 66
     1
 10
0.0
 20
0.0
 30
0.0
  0
VERTEX
  5
99
330
98
100
AcDbEntity
  8
Layer 1
 62
     7
370
    35
100
AcDbVertex
100
AcDb2dVertex
 10
145.0175048465581
 20
38.33461099302052
 30
0.0
  0
VERTEX
  5
375
330
98
100
AcDbEntity
  8
0
100
AcDbVertex
100
AcDb2dVertex
 10
145.0175048465581
 20
38.33461099302052
 30
0.0
  0
SEQEND
  5
9A
330
98
100
AcDbEntity
  8
Layer 1
370
    35
  0
POLYLINE
  5
9B
330
3C
100
AcDbEntity
  8
Layer 1
 62
     7
370
    35
100
AcDb2dPolyline
 66
     1
 10
0.0
 20
0.0
 30
0.0
  0
VERTEX
  5
9C
330
9B
100
AcDbEntity
  8
Layer 1
 62
     7
370
    35
100
AcDbVertex
100
AcDb2dVertex
 10
114.8326117334446
 20
15.64211154122836
 30
0.0
  0
VERTEX
  5
376
330
9B
100
AcDbEntity
  8
0
100
AcDbVertex
100
AcDb2dVertex
 10
114.8326117334446
 20
15.64211154122836
 30
0.0
  0
SEQEND
  5
9D
330
9B
100
AcDbEntity
  8
Layer 1
370
    35
  0
POLYLINE
  5
9E
330
3C
100
AcDbEntity
  8
Layer 1
 62
     7
370
    35
100
AcDb2dPolyline
 66
     1
 10
0.0
 20
0.0
 30
0.0
  0
VERTEX
  5
9F
330
9E
100
AcDbEntity
  8
Layer 1
 62
     7
370
    35
100
AcDbVertex
100
AcDb2dVertex
 10
145.0175048465581
 20
62.57912596091772
 30
0.0
  0
VERTEX
  5
377
330
9E
100
AcDbEntity
  8
0
100
AcDbVertex
100
AcDb2dVertex
 10
145.0175048465581
 20
62.57912596091772
 30
0.0
  0
SEQEND
  5
A0
330
9E
100
AcDbEntity
  8
Layer 1
370
    35
  0
POLYLINE
  5
A1
330
3C
100
AcDbEntity
  8
Layer 1
 62
     7
370
    35
100
AcDb2dPolyline
 66
     1
 10
0.0
 20
0.0
 30
0.0
  0
VERTEX
  5
A2
330
A1
100
AcDbEntity
  8
Layer 1
 62
     7
370
    35
100
AcDbVertex
100
AcDb2dVertex
 10
145.0175048465581
 20
50.46961533026455
 30
0.0
  0
VERTEX
  5
378
330
A1
100
AcDbEntity
  8
0
100
AcDbVertex
100
AcDb2dVertex
 10
145.0175048465581
 20
50.46961533026455
 30
0.0
  0
SEQEND
  5
A3
330
A1
100
AcDbEntity
  8
Layer 1
370
    35
  0
POLYLINE
  5
A4
330
3C
100
AcDbEntity
  8
Layer 1
 62
     7
370
    35
100
AcDb2dPolyline
 66
     1
 10
0.0
 20
0.0
 30
0.0
  0
VERTEX
  5
A5
330
A4
100
AcDbEntity
  8
Layer 1
 62
     7
370
    35
100
AcDbVertex
100
AcDb2dVertex
 10
145.0175048465581
 20
50.46961533026455
 30
0.0
  0
VERTEX
  5
A6
330
A4
100
AcDbEntity
  8
Layer 1
 62
     7
370
    35
100
AcDbVertex
100
AcDb2dVertex
 10
145.0175048465581
 20
38.33461099302052
 30
0.0
  0
VERTEX
  5
A7
330
A4
100
AcDbEntity
  8
Layer 1
 62
     7
370
    35
100
AcDbVertex
100
AcDb2dVertex
 10
114.7096218246212
 20
50.46961533026455
 30
0.0
  0
VERTEX
  5
A8
330
A4
100
AcDbEntity
  8
Layer 1
 62
     7
370
    35
100
AcDbVertex
100
AcDb2dVertex
 10
145.0175048465581
 20
62.57912596091772
 30
0.0
  0
VERTEX
  5
A9
330
A4
100
AcDbEntity
  8
Layer 1
 62
     7
370
    35
100
AcDbVertex
100
AcDb2dVertex
 10
145.0175048465581
 20
50.46961533026455
 30
0.0
  0
SEQEND
  5
AA
330
A4
100
AcDbEntity
  8
Layer 1
370
    35
  0
POLYLINE
  5
AB
330
3C
100
AcDbEntity
  8
Layer 1
370
     0
100
AcDb2dPolyline
 66
     1
 10
0.0
 20
0.0
 30
0.0
  0
VERTEX
  5
AC
330
AB
100
AcDbEntity
  8
Layer 1
370
     0
100
AcDbVertex
100
AcDb2dVertex
 10
145.0175048465581
 20
50.46995983981306
 30
0.0
  0
VERTEX
  5
AD
330
AB
100
AcDbEntity
  8
Layer 1
370
     0
100
AcDbVertex
100
AcDb2dVertex
 10
145.0175048465581
 20
38.33426648347199
 30
0.0
  0
VERTEX
  5
AE
330
AB
100
AcDbEntity
  8
Layer 1
370
     0
100
AcDbVertex
100
AcDb2dVertex
 10
145.0175048465581
 20
38.33426648347199
 30
0.0
  0
VERTEX
  5
AF
330
AB
100
AcDbEntity
  8
Layer 1
370
     0
100
AcDbVertex
100
AcDb2dVertex
 10
114.7089328055242
 20
50.46995983981306
 30
0.0
  0
VERTEX
  5
B0
330
AB
100
AcDbEntity
  8
Layer 1
370
     0
100
AcDbVertex
100
AcDb2dVertex
 10
114.7089328055242
 20
50.46995983981306
 30
0.0
  0
VERTEX
  5
B1
330
AB
100
AcDbEntity
  8
Layer 1
370
     0
100
AcDbVertex
100
AcDb2dVertex
 10
145.0175048465581
 20
62.57947047046625
 30
0.0
  0
VERTEX
  5
B2
330
AB
100
AcDbEntity
  8
Layer 1
370
     0
100
AcDbVertex
100
AcDb2dVertex
 10
145.0175048465581
 20
62.57947047046625
 30
0.0
  0
VERTEX
  5
B3
330
AB
100
AcDbEntity
  8
Layer 1
370
     0
100
AcDbVertex
100
AcDb2dVertex
 10
145.0175048465581
 20
50.46995983981306
 30
0.0
  0
VERTEX
  5
B4
330
AB
100
AcDbEntity
  8
Layer 1
370
     0
100
AcDbVertex
100
AcDb2dVertex
 10
145.0175048465581
 20
50.46995983981306
 30
0.0
  0
SEQEND
  5
B5
330
AB
100
AcDbEntity
  8
Layer 1
370
     0
  0
HATCH
  5
B6
330
3C
100
AcDbEntity
  8
Layer 1
 62
     7
100
AcDbHatch
 10
0.0
 20
0.0
 30
0.0
210
0.0
220
0.0
230
1.0
  2
SOLID
 70
     1
 71
     0
 91
        1
 92
        1
 93
        4
 72
     1
 10
145.0175048465581
 20
50.46995983981306
 11
145.0175048465581
 21
38.33426648347199
 72
     1
 10
145.0175048465581
 20
38.33426648347199
 11
114.7089328055242
 21
50.46995983981306
 72
     1
 10
114.7089328055242
 20
50.46995983981306
 11
145.0175048465581
 21
62.57947047046625
 72
     1
 10
145.0175048465581
 20
62.57947047046625
 11
145.0175048465581
 21
50.46995983981306
 97
        0
 75
     0
 76
     1
 98
        0
  0
POLYLINE
  5
B7
330
3C
100
AcDbEntity
  8
Layer 1
 62
     7
370
     9
100
AcDb2dPolyline
 66
     1
 10
0.0
 20
0.0
 30
0.0
  0
VERTEX
  5
B8
330
B7
100
AcDbEntity
  8
Layer 1
 62
     7
370
     9
100
AcDbVertex
100
AcDb2dVertex
 10
142.9931667394253
 20
50.46100259155142
 30
0.0
  0
VERTEX
  5
B9
330
B7
100
AcDbEntity
  8
Layer 1
 62
     7
370
     9
100
AcDbVertex
100
AcDb2dVertex
 10
305.2991942596127
 20
50.46100259155142
 30
0.0
  0
SEQEND
  5
BA
330
B7
100
AcDbEntity
  8
Layer 1
370
     9
  0
POLYLINE
  5
BB
330
3C
100
AcDbEntity
  8
Layer 1
370
     0
100
AcDb2dPolyline
 66
     1
 10
0.0
 20
0.0
 30
0.0
  0
VERTEX
  5
BC
330
BB
100
AcDbEntity
  8
Layer 1
370
     0
100
AcDbVertex
100
AcDb2dVertex
 10
154.7795274135621
 20
-292.6522487332605
 30
0.0
  0
VERTEX
  5
BD
330
BB
100
AcDbEntity
  8
Layer 1
370
     0
100
AcDbVertex
100
AcDb2dVertex
 10
159.142740845631
 20
-303.9690428927577
 30
0.0
  0
VERTEX
  5
BE
330
BB
100
AcDbEntity
  8
Layer 1
370
     0
100
AcDbVertex
100
AcDb2dVertex
 10
126.490125836433
 20
-303.5466741862661
 30
0.0
  0
VERTEX
  5
BF
330
BB
100
AcDbEntity
  8
Layer 1
370
     0
100
AcDbVertex
100
AcDb2dVertex
 10
150.4249267202063
 20
-281.3340765355693
 30
0.0
  0
VERTEX
  5
C0
330
BB
100
AcDbEntity
  8
Layer 1
370
     0
100
AcDbVertex
100
AcDb2dVertex
 10
154.7795274135621
 20
-292.6522487332605
 30
0.0
  0
SEQEND
  5
C1
330
BB
100
AcDbEntity
  8
Layer 1
370
     0
  0
POLYLINE
  5
C2
330
3C
100
AcDbEntity
  8
Layer 1
 62
     7
370
    35
100
AcDb2dPolyline
 66
     1
 10
0.0
 20
0.0
 30
0.0
  0
VERTEX
  5
C3
330
C2
100
AcDbEntity
  8
Layer 1
 62
     7
370
    35
100
AcDbVertex
100
AcDb2dVertex
 10
156.8048990493405
 20
-301.1137477545827
 30
0.0
  0
VERTEX
  5
379
330
C2
100
AcDbEntity
  8
0
100
AcDbVertex
100
AcDb2dVertex
 10
156.8048990493405
 20
-301.1137477545827
 30
0.0
  0
SEQEND
  5
C4
330
C2
100
AcDbEntity
  8
Layer 1
370
    35
  0
POLYLINE
  5
C5
330
3C
100
AcDbEntity
  8
Layer 1
 62
     7
370
    35
100
AcDb2dPolyline
 66
     1
 10
0.0
 20
0.0
 30
0.0
  0
VERTEX
  5
C6
330
C5
100
AcDbEntity
  8
Layer 1
 62
     7
370
    35
100
AcDbVertex
100
AcDb2dVertex
 10
122.1534396396005
 20
-300.0636826506785
 30
0.0
  0
VERTEX
  5
37A
330
C5
100
AcDbEntity
  8
0
100
AcDbVertex
100
AcDb2dVertex
 10
122.1534396396005
 20
-300.0636826506785
 30
0.0
  0
SEQEND
  5
C7
330
C5
100
AcDbEntity
  8
Layer 1
370
    35
  0
POLYLINE
  5
C8
330
3C
100
AcDbEntity
  8
Layer 1
 62
     7
370
    35
100
AcDb2dPolyline
 66
     1
 10
0.0
 20
0.0
 30
0.0
  0
VERTEX
  5
C9
330
C8
100
AcDbEntity
  8
Layer 1
 62
     7
370
    35
100
AcDbVertex
100
AcDb2dVertex
 10
149.8313367680977
 20
-291.555330330757
 30
0.0
  0
VERTEX
  5
37B
330
C8
100
AcDbEntity
  8
0
100
AcDbVertex
100
AcDb2dVertex
 10
149.8313367680977
 20
-291.555330330757
 30
0.0
  0
SEQEND
  5
CA
330
C8
100
AcDbEntity
  8
Layer 1
370
    35
  0
POLYLINE
  5
CB
330
3C
100
AcDbEntity
  8
Layer 1
 62
     7
370
    35
100
AcDb2dPolyline
 66
     1
 10
0.0
 20
0.0
 30
0.0
  0
VERTEX
  5
CC
330
CB
100
AcDbEntity
  8
Layer 1
 62
     7
370
    35
100
AcDbVertex
100
AcDb2dVertex
 10
154.8480848137185
 20
-298.9185329113815
 30
0.0
  0
VERTEX
  5
37C
330
CB
100
AcDbEntity
  8
0
100
AcDbVertex
100
AcDb2dVertex
 10
154.8480848137185
 20
-298.9185329113815
 30
0.0
  0
SEQEND
  5
CD
330
CB
100
AcDbEntity
  8
Layer 1
370
    35
  0
POLYLINE
  5
CE
330
3C
100
AcDbEntity
  8
Layer 1
 62
     7
370
    35
100
AcDb2dPolyline
 66
     1
 10
0.0
 20
0.0
 30
0.0
  0
VERTEX
  5
CF
330
CE
100
AcDbEntity
  8
Layer 1
 62
     7
370
    35
100
AcDbVertex
100
AcDb2dVertex
 10
154.7867621140811
 20
-292.6422579563533
 30
0.0
  0
VERTEX
  5
D0
330
CE
100
AcDbEntity
  8
Layer 1
 62
     7
370
    35
100
AcDbVertex
100
AcDb2dVertex
 10
159.1516980938926
 20
-303.9676648545637
 30
0.0
  0
VERTEX
  5
D1
330
CE
100
AcDbEntity
  8
Layer 1
 62
     7
370
    35
100
AcDbVertex
100
AcDb2dVertex
 10
126.490125836433
 20
-303.5466741862661
 30
0.0
  0
VERTEX
  5
D2
330
CE
100
AcDbEntity
  8
Layer 1
 62
     7
370
    35
100
AcDbVertex
100
AcDb2dVertex
 10
150.4263047584004
 20
-281.3426892742824
 30
0.0
  0
VERTEX
  5
D3
330
CE
100
AcDbEntity
  8
Layer 1
 62
     7
370
    35
100
AcDbVertex
100
AcDb2dVertex
 10
154.7867621140811
 20
-292.6422579563533
 30
0.0
  0
SEQEND
  5
D4
330
CE
100
AcDbEntity
  8
Layer 1
370
    35
  0
POLYLINE
  5
D5
330
3C
100
AcDbEntity
  8
Layer 1
370
     0
100
AcDb2dPolyline
 66
     1
 10
0.0
 20
0.0
 30
0.0
  0
VERTEX
  5
D6
330
D5
100
AcDbEntity
  8
Layer 1
370
     0
100
AcDbVertex
100
AcDb2dVertex
 10
154.7867621140811
 20
-292.6422579563533
 30
0.0
  0
VERTEX
  5
D7
330
D5
100
AcDbEntity
  8
Layer 1
370
     0
100
AcDbVertex
100
AcDb2dVertex
 10
159.1516980938926
 20
-303.9673203450151
 30
0.0
  0
VERTEX
  5
D8
330
D5
100
AcDbEntity
  8
Layer 1
370
     0
100
AcDbVertex
100
AcDb2dVertex
 10
159.1516980938926
 20
-303.9673203450151
 30
0.0
  0
VERTEX
  5
D9
330
D5
100
AcDbEntity
  8
Layer 1
370
     0
100
AcDbVertex
100
AcDb2dVertex
 10
126.490125836433
 20
-303.5466741862661
 30
0.0
  0
VERTEX
  5
DA
330
D5
100
AcDbEntity
  8
Layer 1
370
     0
100
AcDbVertex
100
AcDb2dVertex
 10
126.490125836433
 20
-303.5466741862661
 30
0.0
  0
VERTEX
  5
DB
330
D5
100
AcDbEntity
  8
Layer 1
370
     0
100
AcDbVertex
100
AcDb2dVertex
 10
150.4269937774974
 20
-281.3423447647339
 30
0.0
  0
VERTEX
  5
DC
330
D5
100
AcDbEntity
  8
Layer 1
370
     0
100
AcDbVertex
100
AcDb2dVertex
 10
150.4269937774974
 20
-281.3423447647339
 30
0.0
  0
VERTEX
  5
DD
330
D5
100
AcDbEntity
  8
Layer 1
370
     0
100
AcDbVertex
100
AcDb2dVertex
 10
154.7867621140811
 20
-292.6422579563533
 30
0.0
  0
VERTEX
  5
DE
330
D5
100
AcDbEntity
  8
Layer 1
370
     0
100
AcDbVertex
100
AcDb2dVertex
 10
154.7867621140811
 20
-292.6422579563533
 30
0.0
  0
SEQEND
  5
DF
330
D5
100
AcDbEntity
  8
Layer 1
370
     0
  0
HATCH
  5
E0
330
3C
100
AcDbEntity
  8
Layer 1
 62
     7
100
AcDbHatch
 10
0.0
 20
0.0
 30
0.0
210
0.0
220
0.0
230
1.0
  2
SOLID
 70
     1
 71
     0
 91
        1
 92
        1
 93
        4
 72
     1
 10
154.7867621140811
 20
-292.6422579563533
 11
159.1516980938926
 21
-303.9673203450151
 72
     1
 10
159.1516980938926
 20
-303.9673203450151
 11
126.490125836433
 21
-303.5466741862661
 72
     1
 10
126.490125836433
 20
-303.5466741862661
 11
150.4269937774974
 21
-281.3423447647339
 72
     1
 10
150.4269937774974
 20
-281.3423447647339
 11
154.7867621140811
 21
-292.6422579563533
 97
        0
 75
     0
 76
     1
 98
        0
  0
POLYLINE
  5
E1
330
3C
100
AcDbEntity
  8
Layer 1
 62
     7
370
     9
100
AcDb2dPolyline
 66
     1
 10
0.0
 20
0.0
 30
0.0
  0
VERTEX
  5
E2
330
E1
100
AcDbEntity
  8
Layer 1
 62
     7
370
     9
100
AcDbVertex
100
AcDb2dVertex
 10
152.8991942977127
 20
-293.3857095620702
 30
0.0
  0
VERTEX
  5
E3
330
E1
100
AcDbEntity
  8
Layer 1
 62
     7
370
     9
100
AcDbVertex
100
AcDb2dVertex
 10
305.2991942596127
 20
-236.9795056916232
 30
0.0
  0
SEQEND
  5
E4
330
E1
100
AcDbEntity
  8
Layer 1
370
     9
  0
MTEXT
  5
E5
330
3C
100
AcDbEntity
  8
Layer 1
 62
     7
100
AcDbMText
 10
-646.6502792437194
 20
-922.7877737493378
 30
0.0
 40
53.97153723490664
 41
0.0
 71
     7
 72
     1
  1
\fVerdana|b0|i0|c0|p34;\W1;Balustrade supplied by Unex Systems
 73
     1
 44
1.0
  0
MTEXT
  5
E6
330
3C
100
AcDbEntity
  8
Layer 1
 62
     7
100
AcDbMText
 10
-1120.524885787577
 20
-1018.031572553652
 30
0.0
 40
53.97153723490664
 41
0.0
 71
     7
 72
     1
  1
\fVerdana|b0|i0|c0|p34;\W1;Contact Unex for authorised fabricator/installer in the region.
 73
     1
 44
1.0
  0
MTEXT
  5
E7
330
3C
100
AcDbEntity
  8
Layer 1
 62
     7
100
AcDbMText
 10
-651.8432439234108
 20
-1113.275715867514
 30
0.0
 40
53.97153723490664
 41
0.0
 71
     7
 72
     1
  1
\fVerdana|b0|i0|c0|p34;\W1;Ph 0800 333 777, or info@unex.co.nz
 73
     1
 44
1.0
  0
MTEXT
  5
E8
330
3C
100
AcDbEntity
  8
0
100
AcDbMText
 10
0.0
 20
0.0
 30
0.0
 40
0.0
 41
0.0
 71
     1
 72
     1
  1

 73
     1
 44
1.0
  0
MTEXT
  5
E9
330
3C
100
AcDbEntity
  8
Layer 1
 62
     7
100
AcDbMText
 10
-106.5822970653683
 20
-1303.763313476142
 30
0.0
 40
53.97153723490664
 41
0.0
 71
     7
 72
     1
  1
\fVerdana|b0|i0|c0|p34;\W1;SCALE 1:1
 73
     1
 44
1.0
  0
MTEXT
  5
EA
330
3C
100
AcDbEntity
  8
Layer 1
 62
     7
100
AcDbMText
 10
-1347.337914702228
 20
-1399.007112280457
 30
0.0
 40
53.97153723490664
 41
0.0
 71
     7
 72
     1
  1
\fVerdana|b0|i0|c0|p34;\W1;Extreme Barriers X3000 Baluster Style Specification (EX-BA.01)ST.01.51
 73
     1
 44
1.0
  0
INSERT
  5
EC
330
3C
100
AcDbEntity
  8
Layer 1
100
AcDbBlockReference
  2
block 3
 10
0.0
 20
0.0
 30
0.0
  0
MTEXT
  5
339
330
3C
100
AcDbEntity
  8
Layer 1
 62
     7
100
AcDbMText
 10
355.4194769076729
 20
780.9895383789714
 30
0.0
 40
53.97153723490664
 41
0.0
 71
     7
 72
     1
  1
\fVerdana|b0|i0|c0|p34;\W1;The balustrade shall be fabricated from the 
 73
     1
 44
1.0
  0
MTEXT
  5
33A
330
3C
100
AcDbEntity
  8
Layer 1
 62
     7
100
AcDbMText
 10
355.4194769076729
 20
685.7455673198831
 30
0.0
 40
53.97153723490664
 41
0.0
 71
     7
 72
     1
  1
\fVerdana|b0|i0|c0|p34;\W1;following items:
 73
     1
 44
1.0
  0
MTEXT
  5
33B
330
3C
100
AcDbEntity
  8
0
100
AcDbMText
 10
0.0
 20
0.0
 30
0.0
 40
0.0
 41
0.0
 71
     1
 72
     1
  1

 73
     1
 44
1.0
  0
MTEXT
  5
33C
330
3C
100
AcDbEntity
  8
Layer 1
 62
     7
100
AcDbMText
 10
355.4194769076729
 20
495.2577974564807
 30
0.0
 40
53.97153723490664
 41
0.0
 71
     7
 72
     1
  1
\fVerdana|b0|i0|c0|p34;\W1;TOP RAIL: ERT / ERZ / DIA
 73
     1
 44
1.0
  0
MTEXT
  5
33D
330
3C
100
AcDbEntity
  8
0
100
AcDbMText
 10
0.0
 20
0.0
 30
0.0
 40
0.0
 41
0.0
 71
     1
 72
     1
  1

 73
     1
 44
1.0
  0
MTEXT
  5
33E
330
3C
100
AcDbEntity
  8
Layer 1
 62
     7
100
AcDbMText
 10
355.4194769076729
 20
304.7700275930783
 30
0.0
 40
53.97153723490664
 41
0.0
 71
     7
 72
     1
  1
\fVerdana|b0|i0|c0|p34;\W1;POSTS: EPE
 73
     1
 44
1.0
  0
MTEXT
  5
33F
330
3C
100
AcDbEntity
  8
0
100
AcDbMText
 10
0.0
 20
0.0
 30
0.0
 40
0.0
 41
0.0
 71
     1
 72
     1
  1

 73
     1
 44
1.0
  0
MTEXT
  5
340
330
3C
100
AcDbEntity
  8
0
100
AcDbMText
 10
0.0
 20
0.0
 30
0.0
 40
0.0
 41
0.0
 71
     1
 72
     1
  1

 73
     1
 44
1.0
  0
MTEXT
  5
341
330
3C
100
AcDbEntity
  8
Layer 1
 62
     7
100
AcDbMText
 10
355.4194769076729
 20
19.03828667058765
 30
0.0
 40
53.97153723490664
 41
0.0
 71
     7
 72
     1
  1
\fVerdana|b0|i0|c0|p34;\W1;BALUSTERS: DTH
 73
     1
 44
1.0
  0
MTEXT
  5
342
330
3C
100
AcDbEntity
  8
0
100
AcDbMText
 10
0.0
 20
0.0
 30
0.0
 40
0.0
 41
0.0
 71
     1
 72
     1
  1

 73
     1
 44
1.0
  0
MTEXT
  5
343
330
3C
100
AcDbEntity
  8
0
100
AcDbMText
 10
0.0
 20
0.0
 30
0.0
 40
0.0
 41
0.0
 71
     1
 72
     1
  1

 73
     1
 44
1.0
  0
MTEXT
  5
344
330
3C
100
AcDbEntity
  8
Layer 1
 62
     7
100
AcDbMText
 10
355.4194769076729
 20
-266.6931097423545
 30
0.0
 40
53.97153723490664
 41
0.0
 71
     7
 72
     1
  1
\fVerdana|b0|i0|c0|p34;\W1;LOWER RAIL: ARN
 73
     1
 44
1.0
  0
MTEXT
  5
345
330
3C
100
AcDbEntity
  8
0
100
AcDbMText
 10
0.0
 20
0.0
 30
0.0
 40
0.0
 41
0.0
 71
     1
 72
     1
  1

 73
     1
 44
1.0
  0
MTEXT
  5
346
330
3C
100
AcDbEntity
  8
Layer 1
 62
     7
100
AcDbMText
 10
355.4194769076729
 20
-457.1810518605312
 30
0.0
 40
53.97153723490664
 41
0.0
 71
     7
 72
     1
  1
\fVerdana|b0|i0|c0|p34;\W1;BASE PLATE: BUTV
 73
     1
 44
1.0
  0
POLYLINE
  5
347
330
3C
100
AcDbEntity
  8
Layer 1
370
     0
100
AcDb2dPolyline
 66
     1
 10
0.0
 20
0.0
 30
0.0
  0
VERTEX
  5
348
330
347
100
AcDbEntity
  8
Layer 1
370
     0
100
AcDbVertex
100
AcDb2dVertex
 10
210.7275335844709
 20
-424.0888426674153
 30
0.0
  0
VERTEX
  5
349
330
347
100
AcDbEntity
  8
Layer 1
370
     0
100
AcDbVertex
100
AcDb2dVertex
 10
209.253721735881
 20
-436.129795897912
 30
0.0
  0
VERTEX
  5
34A
330
347
100
AcDbEntity
  8
Layer 1
370
     0
100
AcDbVertex
100
AcDb2dVertex
 10
180.6304904062313
 20
-420.4211940138183
 30
0.0
  0
VERTEX
  5
34B
330
347
100
AcDbEntity
  8
Layer 1
370
     0
100
AcDbVertex
100
AcDb2dVertex
 10
212.1934217134447
 20
-412.054090608792
 30
0.0
  0
VERTEX
  5
34C
330
347
100
AcDbEntity
  8
Layer 1
370
     0
100
AcDbVertex
100
AcDb2dVertex
 10
210.7275335844709
 20
-424.0888426674153
 30
0.0
  0
SEQEND
  5
34D
330
347
100
AcDbEntity
  8
Layer 1
370
     0
  0
POLYLINE
  5
34E
330
3C
100
AcDbEntity
  8
Layer 1
 62
     7
370
    35
100
AcDb2dPolyline
 66
     1
 10
0.0
 20
0.0
 30
0.0
  0
VERTEX
  5
34F
330
34E
100
AcDbEntity
  8
Layer 1
 62
     7
370
    35
100
AcDbVertex
100
AcDb2dVertex
 10
209.2519991881384
 20
-436.1170490446166
 30
0.0
  0
VERTEX
  5
37D
330
34E
100
AcDbEntity
  8
0
100
AcDbVertex
100
AcDb2dVertex
 10
209.2519991881384
 20
-436.1170490446166
 30
0.0
  0
SEQEND
  5
350
330
34E
100
AcDbEntity
  8
Layer 1
370
    35
  0
POLYLINE
  5
351
330
3C
100
AcDbEntity
  8
Layer 1
 62
     7
370
    35
100
AcDb2dPolyline
 66
     1
 10
0.0
 20
0.0
 30
0.0
  0
VERTEX
  5
352
330
351
100
AcDbEntity
  8
Layer 1
 62
     7
370
    35
100
AcDbVertex
100
AcDb2dVertex
 10
212.1865315224742
 20
-412.0682155002816
 30
0.0
  0
VERTEX
  5
37E
330
351
100
AcDbEntity
  8
0
100
AcDbVertex
100
AcDb2dVertex
 10
212.1865315224742
 20
-412.0682155002816
 30
0.0
  0
SEQEND
  5
353
330
351
100
AcDbEntity
  8
Layer 1
370
    35
  0
POLYLINE
  5
354
330
3C
100
AcDbEntity
  8
Layer 1
 62
     7
370
    35
100
AcDb2dPolyline
 66
     1
 10
0.0
 20
0.0
 30
0.0
  0
VERTEX
  5
355
330
354
100
AcDbEntity
  8
Layer 1
 62
     7
370
    35
100
AcDbVertex
100
AcDb2dVertex
 10
210.7275335844709
 20
-424.0888426674153
 30
0.0
  0
VERTEX
  5
37F
330
354
100
AcDbEntity
  8
0
100
AcDbVertex
100
AcDb2dVertex
 10
210.7275335844709
 20
-424.0888426674153
 30
0.0
  0
SEQEND
  5
356
330
354
100
AcDbEntity
  8
Layer 1
370
    35
  0
POLYLINE
  5
357
330
3C
100
AcDbEntity
  8
Layer 1
 62
     7
370
    35
100
AcDb2dPolyline
 66
     1
 10
0.0
 20
0.0
 30
0.0
  0
VERTEX
  5
358
330
357
100
AcDbEntity
  8
Layer 1
 62
     7
370
    35
100
AcDbVertex
100
AcDb2dVertex
 10
210.7275335844709
 20
-424.0888426674153
 30
0.0
  0
VERTEX
  5
359
330
357
100
AcDbEntity
  8
Layer 1
 62
     7
370
    35
100
AcDbVertex
100
AcDb2dVertex
 10
209.2519991881384
 20
-436.1170490446166
 30
0.0
  0
VERTEX
  5
35A
330
357
100
AcDbEntity
  8
Layer 1
 62
     7
370
    35
100
AcDbVertex
100
AcDb2dVertex
 10
180.6294568775857
 20
-420.4125812751052
 30
0.0
  0
VERTEX
  5
35B
330
357
100
AcDbEntity
  8
Layer 1
 62
     7
370
    35
100
AcDbVertex
100
AcDb2dVertex
 10
212.1865315224742
 20
-412.0682155002816
 30
0.0
  0
VERTEX
  5
35C
330
357
100
AcDbEntity
  8
Layer 1
 62
     7
370
    35
100
AcDbVertex
100
AcDb2dVertex
 10
210.7275335844709
 20
-424.0888426674153
 30
0.0
  0
SEQEND
  5
35D
330
357
100
AcDbEntity
  8
Layer 1
370
    35
  0
POLYLINE
  5
35E
330
3C
100
AcDbEntity
  8
Layer 1
370
     0
100
AcDb2dPolyline
 66
     1
 10
0.0
 20
0.0
 30
0.0
  0
VERTEX
  5
35F
330
35E
100
AcDbEntity
  8
Layer 1
370
     0
100
AcDbVertex
100
AcDb2dVertex
 10
210.7275335844709
 20
-424.0888426674153
 30
0.0
  0
VERTEX
  5
360
330
35E
100
AcDbEntity
  8
Layer 1
370
     0
100
AcDbVertex
100
AcDb2dVertex
 10
209.2513101690413
 20
-436.1170490446166
 30
0.0
  0
VERTEX
  5
361
330
35E
100
AcDbEntity
  8
Layer 1
370
     0
100
AcDbVertex
100
AcDb2dVertex
 10
209.2513101690413
 20
-436.1170490446166
 30
0.0
  0
VERTEX
  5
362
330
35E
100
AcDbEntity
  8
Layer 1
370
     0
100
AcDbVertex
100
AcDb2dVertex
 10
180.6294568775857
 20
-420.4125812751052
 30
0.0
  0
VERTEX
  5
363
330
35E
100
AcDbEntity
  8
Layer 1
370
     0
100
AcDbVertex
100
AcDb2dVertex
 10
180.6294568775857
 20
-420.4125812751052
 30
0.0
  0
VERTEX
  5
364
330
35E
100
AcDbEntity
  8
Layer 1
370
     0
100
AcDbVertex
100
AcDb2dVertex
 10
212.1872205415713
 20
-412.0678709907331
 30
0.0
  0
VERTEX
  5
365
330
35E
100
AcDbEntity
  8
Layer 1
370
     0
100
AcDbVertex
100
AcDb2dVertex
 10
212.1872205415713
 20
-412.0678709907331
 30
0.0
  0
VERTEX
  5
366
330
35E
100
AcDbEntity
  8
Layer 1
370
     0
100
AcDbVertex
100
AcDb2dVertex
 10
210.7275335844709
 20
-424.0888426674153
 30
0.0
  0
VERTEX
  5
367
330
35E
100
AcDbEntity
  8
Layer 1
370
     0
100
AcDbVertex
100
AcDb2dVertex
 10
210.7275335844709
 20
-424.0888426674153
 30
0.0
  0
SEQEND
  5
368
330
35E
100
AcDbEntity
  8
Layer 1
370
     0
  0
HATCH
  5
369
330
3C
100
AcDbEntity
  8
Layer 1
 62
     7
100
AcDbHatch
 10
0.0
 20
0.0
 30
0.0
210
0.0
220
0.0
230
1.0
  2
SOLID
 70
     1
 71
     0
 91
        1
 92
        1
 93
        4
 72
     1
 10
210.7275335844709
 20
-424.0888426674153
 11
209.2513101690413
 21
-436.1170490446166
 72
     1
 10
209.2513101690413
 20
-436.1170490446166
 11
180.6294568775857
 21
-420.4125812751052
 72
     1
 10
180.6294568775857
 20
-420.4125812751052
 11
212.1872205415713
 21
-412.0678709907331
 72
     1
 10
212.1872205415713
 20
-412.0678709907331
 11
210.7275335844709
 21
-424.0888426674153
 97
        0
 75
     0
 76
     1
 98
        0
  0
POLYLINE
  5
36A
330
3C
100
AcDbEntity
  8
Layer 1
 62
     7
370
     9
100
AcDb2dPolyline
 66
     1
 10
0.0
 20
0.0
 30
0.0
  0
VERTEX
  5
36B
330
36A
100
AcDbEntity
  8
Layer 1
 62
     7
370
     9
100
AcDbVertex
100
AcDb2dVertex
 10
208.7131862542453
 20
-423.8459634357052
 30
0.0
  0
VERTEX
  5
36C
330
36A
100
AcDbEntity
  8
Layer 1
 62
     7
370
     9
100
AcDbVertex
100
AcDb2dVertex
 10
305.2991942596127
 20
-435.1148707679574
 30
0.0
  0
SEQEND
  5
36D
330
36A
100
AcDbEntity
  8
Layer 1
370
     9
  0
ENDBLK
  5
3F
330
3C
100
AcDbEntity
  8
0
100
AcDbBlockEnd
  0
BLOCK
  5
ED
330
EB
100
AcDbEntity
  8
0
100
AcDbBlockBegin
  2
block 3
 70
     0
 71
     0
 10
0.0
 20
0.0
 30
0.0
  3
block 3
  1

  0
POLYLINE
  5
EF
330
EB
100
AcDbEntity
  8
Layer 1
 62
     7
370
     9
100
AcDb2dPolyline
 66
     1
 10
0.0
 20
0.0
 30
0.0
  0
VERTEX
  5
F0
330
EF
100
AcDbEntity
  8
Layer 1
 62
     7
370
     9
100
AcDbVertex
100
AcDb2dVertex
 10
-1939.190677412338
 20
579.5310341975652
 30
0.0
  0
VERTEX
  5
F1
330
EF
100
AcDbEntity
  8
Layer 1
 62
     7
370
     9
100
AcDbVertex
100
AcDb2dVertex
 10
-2007.657127047999
 20
579.5310341975652
 30
0.0
  0
SEQEND
  5
F2
330
EF
100
AcDbEntity
  8
Layer 1
370
     9
  0
POLYLINE
  5
F3
330
EB
100
AcDbEntity
  8
Layer 1
 62
     7
370
     9
100
AcDb2dPolyline
 66
     1
 10
0.0
 20
0.0
 30
0.0
  0
VERTEX
  5
F4
330
F3
100
AcDbEntity
  8
Layer 1
 62
     7
370
     9
100
AcDbVertex
100
AcDb2dVertex
 10
-1939.190677412338
 20
-420.4087916700714
 30
0.0
  0
VERTEX
  5
F5
330
F3
100
AcDbEntity
  8
Layer 1
 62
     7
370
     9
100
AcDbVertex
100
AcDb2dVertex
 10
-2007.657127047999
 20
-420.4087916700714
 30
0.0
  0
SEQEND
  5
F6
330
F3
100
AcDbEntity
  8
Layer 1
370
     9
  0
POLYLINE
  5
F7
330
EB
100
AcDbEntity
  8
Layer 1
370
     0
100
AcDb2dPolyline
 66
     1
 10
0.0
 20
0.0
 30
0.0
  0
VERTEX
  5
F8
330
F7
100
AcDbEntity
  8
Layer 1
370
     0
100
AcDbVertex
100
AcDb2dVertex
 10
-1982.663131557286
 20
549.2145384369152
 30
0.0
  0
VERTEX
  5
F9
330
F7
100
AcDbEntity
  8
Layer 1
370
     0
100
AcDbVertex
100
AcDb2dVertex
 10
-1994.789867665365
 20
549.2145384369152
 30
0.0
  0
VERTEX
  5
FA
330
F7
100
AcDbEntity
  8
Layer 1
370
     0
100
AcDbVertex
100
AcDb2dVertex
 10
-1982.663131557286
 20
579.5310341975652
 30
0.0
  0
VERTEX
  5
FB
330
F7
100
AcDbEntity
  8
Layer 1
370
     0
100
AcDbVertex
100
AcDb2dVertex
 10
-1970.536567703981
 20
549.2145384369152
 30
0.0
  0
VERTEX
  5
FC
330
F7
100
AcDbEntity
  8
Layer 1
370
     0
100
AcDbVertex
100
AcDb2dVertex
 10
-1982.663131557286
 20
549.2145384369152
 30
0.0
  0
SEQEND
  5
FD
330
F7
100
AcDbEntity
  8
Layer 1
370
     0
  0
POLYLINE
  5
FE
330
EB
100
AcDbEntity
  8
Layer 1
 62
     7
370
    35
100
AcDb2dPolyline
 66
     1
 10
0.0
 20
0.0
 30
0.0
  0
VERTEX
  5
FF
330
FE
100
AcDbEntity
  8
Layer 1
 62
     7
370
    35
100
AcDbVertex
100
AcDb2dVertex
 10
-1994.785389041234
 20
549.2231511756282
 30
0.0
  0
VERTEX
  5
380
330
FE
100
AcDbEntity
  8
0
100
AcDbVertex
100
AcDb2dVertex
 10
-1994.785389041234
 20
549.2231511756282
 30
0.0
  0
SEQEND
  5
100
330
FE
100
AcDbEntity
  8
Layer 1
370
    35
  0
POLYLINE
  5
101
330
EB
100
AcDbEntity
  8
Layer 1
 62
     7
370
    35
100
AcDb2dPolyline
 66
     1
 10
0.0
 20
0.0
 30
0.0
  0
VERTEX
  5
102
330
101
100
AcDbEntity
  8
Layer 1
 62
     7
370
    35
100
AcDbVertex
100
AcDb2dVertex
 10
-1982.663131557286
 20
579.5439533056349
 30
0.0
  0
VERTEX
  5
381
330
101
100
AcDbEntity
  8
0
100
AcDbVertex
100
AcDb2dVertex
 10
-1982.663131557286
 20
579.5439533056349
 30
0.0
  0
SEQEND
  5
103
330
101
100
AcDbEntity
  8
Layer 1
370
    35
  0
POLYLINE
  5
104
330
EB
100
AcDbEntity
  8
Layer 1
 62
     7
370
    35
100
AcDb2dPolyline
 66
     1
 10
0.0
 20
0.0
 30
0.0
  0
VERTEX
  5
105
330
104
100
AcDbEntity
  8
Layer 1
 62
     7
370
    35
100
AcDbVertex
100
AcDb2dVertex
 10
-1970.532261334624
 20
549.2231511756282
 30
0.0
  0
VERTEX
  5
382
330
104
100
AcDbEntity
  8
0
100
AcDbVertex
100
AcDb2dVertex
 10
-1970.532261334624
 20
549.2231511756282
 30
0.0
  0
SEQEND
  5
106
330
104
100
AcDbEntity
  8
Layer 1
370
    35
  0
POLYLINE
  5
107
330
EB
100
AcDbEntity
  8
Layer 1
 62
     7
370
    35
100
AcDb2dPolyline
 66
     1
 10
0.0
 20
0.0
 30
0.0
  0
VERTEX
  5
108
330
107
100
AcDbEntity
  8
Layer 1
 62
     7
370
    35
100
AcDbVertex
100
AcDb2dVertex
 10
-1982.663131557286
 20
549.2231511756282
 30
0.0
  0
VERTEX
  5
383
330
107
100
AcDbEntity
  8
0
100
AcDbVertex
100
AcDb2dVertex
 10
-1982.663131557286
 20
549.2231511756282
 30
0.0
  0
SEQEND
  5
109
330
107
100
AcDbEntity
  8
Layer 1
370
    35
  0
POLYLINE
  5
10A
330
EB
100
AcDbEntity
  8
Layer 1
 62
     7
370
    35
100
AcDb2dPolyline
 66
     1
 10
0.0
 20
0.0
 30
0.0
  0
VERTEX
  5
10B
330
10A
100
AcDbEntity
  8
Layer 1
 62
     7
370
    35
100
AcDbVertex
100
AcDb2dVertex
 10
-1982.663131557286
 20
549.2231511756282
 30
0.0
  0
VERTEX
  5
10C
330
10A
100
AcDbEntity
  8
Layer 1
 62
     7
370
    35
100
AcDbVertex
100
AcDb2dVertex
 10
-1994.785389041234
 20
549.2231511756282
 30
0.0
  0
VERTEX
  5
10D
330
10A
100
AcDbEntity
  8
Layer 1
 62
     7
370
    35
100
AcDbVertex
100
AcDb2dVertex
 10
-1982.663131557286
 20
579.5439533056349
 30
0.0
  0
VERTEX
  5
10E
330
10A
100
AcDbEntity
  8
Layer 1
 62
     7
370
    35
100
AcDbVertex
100
AcDb2dVertex
 10
-1970.532261334624
 20
549.2231511756282
 30
0.0
  0
VERTEX
  5
10F
330
10A
100
AcDbEntity
  8
Layer 1
 62
     7
370
    35
100
AcDbVertex
100
AcDb2dVertex
 10
-1982.663131557286
 20
549.2231511756282
 30
0.0
  0
SEQEND
  5
110
330
10A
100
AcDbEntity
  8
Layer 1
370
    35
  0
POLYLINE
  5
111
330
EB
100
AcDbEntity
  8
Layer 1
370
     0
100
AcDb2dPolyline
 66
     1
 10
0.0
 20
0.0
 30
0.0
  0
VERTEX
  5
112
330
111
100
AcDbEntity
  8
Layer 1
370
     0
100
AcDbVertex
100
AcDb2dVertex
 10
-1982.663131557286
 20
549.222978920854
 30
0.0
  0
VERTEX
  5
113
330
111
100
AcDbEntity
  8
Layer 1
370
     0
100
AcDbVertex
100
AcDb2dVertex
 10
-1994.785389041234
 20
549.222978920854
 30
0.0
  0
VERTEX
  5
114
330
111
100
AcDbEntity
  8
Layer 1
370
     0
100
AcDbVertex
100
AcDb2dVertex
 10
-1994.785389041234
 20
549.222978920854
 30
0.0
  0
VERTEX
  5
115
330
111
100
AcDbEntity
  8
Layer 1
370
     0
100
AcDbVertex
100
AcDb2dVertex
 10
-1982.663131557286
 20
579.5439533056349
 30
0.0
  0
VERTEX
  5
116
330
111
100
AcDbEntity
  8
Layer 1
370
     0
100
AcDbVertex
100
AcDb2dVertex
 10
-1982.663131557286
 20
579.5439533056349
 30
0.0
  0
VERTEX
  5
117
330
111
100
AcDbEntity
  8
Layer 1
370
     0
100
AcDbVertex
100
AcDb2dVertex
 10
-1970.532261334624
 20
549.222978920854
 30
0.0
  0
VERTEX
  5
118
330
111
100
AcDbEntity
  8
Layer 1
370
     0
100
AcDbVertex
100
AcDb2dVertex
 10
-1970.532261334624
 20
549.222978920854
 30
0.0
  0
VERTEX
  5
119
330
111
100
AcDbEntity
  8
Layer 1
370
     0
100
AcDbVertex
100
AcDb2dVertex
 10
-1982.663131557286
 20
549.222978920854
 30
0.0
  0
VERTEX
  5
11A
330
111
100
AcDbEntity
  8
Layer 1
370
     0
100
AcDbVertex
100
AcDb2dVertex
 10
-1982.663131557286
 20
549.222978920854
 30
0.0
  0
SEQEND
  5
11B
330
111
100
AcDbEntity
  8
Layer 1
370
     0
  0
HATCH
  5
11C
330
EB
100
AcDbEntity
  8
Layer 1
 62
     7
100
AcDbHatch
 10
0.0
 20
0.0
 30
0.0
210
0.0
220
0.0
230
1.0
  2
SOLID
 70
     1
 71
     0
 91
        1
 92
        1
 93
        4
 72
     1
 10
-1982.663131557286
 20
549.222978920854
 11
-1994.785389041234
 21
549.222978920854
 72
     1
 10
-1994.785389041234
 20
549.222978920854
 11
-1982.663131557286
 21
579.5439533056349
 72
     1
 10
-1982.663131557286
 20
579.5439533056349
 11
-1970.532261334624
 21
549.222978920854
 72
     1
 10
-1970.532261334624
 20
549.222978920854
 11
-1982.663131557286
 21
549.222978920854
 97
        0
 75
     0
 76
     1
 98
        0
  0
POLYLINE
  5
11D
330
EB
100
AcDbEntity
  8
Layer 1
370
     0
100
AcDb2dPolyline
 66
     1
 10
0.0
 20
0.0
 30
0.0
  0
VERTEX
  5
11E
330
11D
100
AcDbEntity
  8
Layer 1
370
     0
100
AcDbVertex
100
AcDb2dVertex
 10
-1982.663131557286
 20
-390.0919513998729
 30
0.0
  0
VERTEX
  5
11F
330
11D
100
AcDbEntity
  8
Layer 1
370
     0
100
AcDbVertex
100
AcDb2dVertex
 10
-1970.536567703981
 20
-390.0919513998729
 30
0.0
  0
VERTEX
  5
120
330
11D
100
AcDbEntity
  8
Layer 1
370
     0
100
AcDbVertex
100
AcDb2dVertex
 10
-1982.663131557286
 20
-420.4087916700714
 30
0.0
  0
VERTEX
  5
121
330
11D
100
AcDbEntity
  8
Layer 1
370
     0
100
AcDbVertex
100
AcDb2dVertex
 10
-1994.789867665365
 20
-390.0919513998729
 30
0.0
  0
VERTEX
  5
122
330
11D
100
AcDbEntity
  8
Layer 1
370
     0
100
AcDbVertex
100
AcDb2dVertex
 10
-1982.663131557286
 20
-390.0919513998729
 30
0.0
  0
SEQEND
  5
123
330
11D
100
AcDbEntity
  8
Layer 1
370
     0
  0
POLYLINE
  5
124
330
EB
100
AcDbEntity
  8
Layer 1
 62
     7
370
    35
100
AcDb2dPolyline
 66
     1
 10
0.0
 20
0.0
 30
0.0
  0
VERTEX
  5
125
330
124
100
AcDbEntity
  8
Layer 1
 62
     7
370
    35
100
AcDbVertex
100
AcDb2dVertex
 10
-1970.532261334624
 20
-390.0919513998729
 30
0.0
  0
VERTEX
  5
384
330
124
100
AcDbEntity
  8
0
100
AcDbVertex
100
AcDb2dVertex
 10
-1970.532261334624
 20
-390.0919513998729
 30
0.0
  0
SEQEND
  5
126
330
124
100
AcDbEntity
  8
Layer 1
370
    35
  0
POLYLINE
  5
127
330
EB
100
AcDbEntity
  8
Layer 1
 62
     7
370
    35
100
AcDb2dPolyline
 66
     1
 10
0.0
 20
0.0
 30
0.0
  0
VERTEX
  5
128
330
127
100
AcDbEntity
  8
Layer 1
 62
     7
370
    35
100
AcDbVertex
100
AcDb2dVertex
 10
-1982.663131557286
 20
-420.3915661926452
 30
0.0
  0
VERTEX
  5
385
330
127
100
AcDbEntity
  8
0
100
AcDbVertex
100
AcDb2dVertex
 10
-1982.663131557286
 20
-420.3915661926452
 30
0.0
  0
SEQEND
  5
129
330
127
100
AcDbEntity
  8
Layer 1
370
    35
  0
POLYLINE
  5
12A
330
EB
100
AcDbEntity
  8
Layer 1
 62
     7
370
    35
100
AcDb2dPolyline
 66
     1
 10
0.0
 20
0.0
 30
0.0
  0
VERTEX
  5
12B
330
12A
100
AcDbEntity
  8
Layer 1
 62
     7
370
    35
100
AcDbVertex
100
AcDb2dVertex
 10
-1994.785389041234
 20
-390.0919513998729
 30
0.0
  0
VERTEX
  5
386
330
12A
100
AcDbEntity
  8
0
100
AcDbVertex
100
AcDb2dVertex
 10
-1994.785389041234
 20
-390.0919513998729
 30
0.0
  0
SEQEND
  5
12C
330
12A
100
AcDbEntity
  8
Layer 1
370
    35
  0
POLYLINE
  5
12D
330
EB
100
AcDbEntity
  8
Layer 1
 62
     7
370
    35
100
AcDb2dPolyline
 66
     1
 10
0.0
 20
0.0
 30
0.0
  0
VERTEX
  5
12E
330
12D
100
AcDbEntity
  8
Layer 1
 62
     7
370
    35
100
AcDbVertex
100
AcDb2dVertex
 10
-1982.663131557286
 20
-390.0919513998729
 30
0.0
  0
VERTEX
  5
387
330
12D
100
AcDbEntity
  8
0
100
AcDbVertex
100
AcDb2dVertex
 10
-1982.663131557286
 20
-390.0919513998729
 30
0.0
  0
SEQEND
  5
12F
330
12D
100
AcDbEntity
  8
Layer 1
370
    35
  0
POLYLINE
  5
130
330
EB
100
AcDbEntity
  8
Layer 1
 62
     7
370
    35
100
AcDb2dPolyline
 66
     1
 10
0.0
 20
0.0
 30
0.0
  0
VERTEX
  5
131
330
130
100
AcDbEntity
  8
Layer 1
 62
     7
370
    35
100
AcDbVertex
100
AcDb2dVertex
 10
-1982.663131557286
 20
-390.0919513998729
 30
0.0
  0
VERTEX
  5
132
330
130
100
AcDbEntity
  8
Layer 1
 62
     7
370
    35
100
AcDbVertex
100
AcDb2dVertex
 10
-1970.532261334624
 20
-390.0919513998729
 30
0.0
  0
VERTEX
  5
133
330
130
100
AcDbEntity
  8
Layer 1
 62
     7
370
    35
100
AcDbVertex
100
AcDb2dVertex
 10
-1982.663131557286
 20
-420.3915661926452
 30
0.0
  0
VERTEX
  5
134
330
130
100
AcDbEntity
  8
Layer 1
 62
     7
370
    35
100
AcDbVertex
100
AcDb2dVertex
 10
-1994.785389041234
 20
-390.0919513998729
 30
0.0
  0
VERTEX
  5
135
330
130
100
AcDbEntity
  8
Layer 1
 62
     7
370
    35
100
AcDbVertex
100
AcDb2dVertex
 10
-1982.663131557286
 20
-390.0919513998729
 30
0.0
  0
SEQEND
  5
136
330
130
100
AcDbEntity
  8
Layer 1
370
    35
  0
POLYLINE
  5
137
330
EB
100
AcDbEntity
  8
Layer 1
370
     0
100
AcDb2dPolyline
 66
     1
 10
0.0
 20
0.0
 30
0.0
  0
VERTEX
  5
138
330
137
100
AcDbEntity
  8
Layer 1
370
     0
100
AcDbVertex
100
AcDb2dVertex
 10
-1982.663131557286
 20
-390.0922959094214
 30
0.0
  0
VERTEX
  5
139
330
137
100
AcDbEntity
  8
Layer 1
370
     0
100
AcDbVertex
100
AcDb2dVertex
 10
-1970.532261334624
 20
-390.0922959094214
 30
0.0
  0
VERTEX
  5
13A
330
137
100
AcDbEntity
  8
Layer 1
370
     0
100
AcDbVertex
100
AcDb2dVertex
 10
-1970.532261334624
 20
-390.0922959094214
 30
0.0
  0
VERTEX
  5
13B
330
137
100
AcDbEntity
  8
Layer 1
370
     0
100
AcDbVertex
100
AcDb2dVertex
 10
-1982.663131557286
 20
-420.3919107021937
 30
0.0
  0
VERTEX
  5
13C
330
137
100
AcDbEntity
  8
Layer 1
370
     0
100
AcDbVertex
100
AcDb2dVertex
 10
-1982.663131557286
 20
-420.3919107021937
 30
0.0
  0
VERTEX
  5
13D
330
137
100
AcDbEntity
  8
Layer 1
370
     0
100
AcDbVertex
100
AcDb2dVertex
 10
-1994.785389041234
 20
-390.0922959094214
 30
0.0
  0
VERTEX
  5
13E
330
137
100
AcDbEntity
  8
Layer 1
370
     0
100
AcDbVertex
100
AcDb2dVertex
 10
-1994.785389041234
 20
-390.0922959094214
 30
0.0
  0
VERTEX
  5
13F
330
137
100
AcDbEntity
  8
Layer 1
370
     0
100
AcDbVertex
100
AcDb2dVertex
 10
-1982.663131557286
 20
-390.0922959094214
 30
0.0
  0
VERTEX
  5
140
330
137
100
AcDbEntity
  8
Layer 1
370
     0
100
AcDbVertex
100
AcDb2dVertex
 10
-1982.663131557286
 20
-390.0922959094214
 30
0.0
  0
SEQEND
  5
141
330
137
100
AcDbEntity
  8
Layer 1
370
     0
  0
HATCH
  5
142
330
EB
100
AcDbEntity
  8
Layer 1
 62
     7
100
AcDbHatch
 10
0.0
 20
0.0
 30
0.0
210
0.0
220
0.0
230
1.0
  2
SOLID
 70
     1
 71
     0
 91
        1
 92
        1
 93
        4
 72
     1
 10
-1982.663131557286
 20
-390.0922959094214
 11
-1970.532261334624
 21
-390.0922959094214
 72
     1
 10
-1970.532261334624
 20
-390.0922959094214
 11
-1982.663131557286
 21
-420.3919107021937
 72
     1
 10
-1982.663131557286
 20
-420.3919107021937
 11
-1994.785389041234
 21
-390.0922959094214
 72
     1
 10
-1994.785389041234
 20
-390.0922959094214
 11
-1982.663131557286
 21
-390.0922959094214
 97
        0
 75
     0
 76
     1
 98
        0
  0
POLYLINE
  5
143
330
EB
100
AcDbEntity
  8
Layer 1
 62
     7
370
     9
100
AcDb2dPolyline
 66
     1
 10
0.0
 20
0.0
 30
0.0
  0
VERTEX
  5
144
330
143
100
AcDbEntity
  8
Layer 1
 62
     7
370
     9
100
AcDbVertex
100
AcDb2dVertex
 10
-1982.658825187929
 20
551.2383597797251
 30
0.0
  0
VERTEX
  5
145
330
143
100
AcDbEntity
  8
Layer 1
 62
     7
370
     9
100
AcDbVertex
100
AcDb2dVertex
 10
-1982.658825187929
 20
-392.1159449974571
 30
0.0
  0
SEQEND
  5
146
330
143
100
AcDbEntity
  8
Layer 1
370
     9
  0
MTEXT
  5
147
330
EB
100
AcDbEntity
  8
Layer 1
 62
     7
100
AcDbMText
 10
-2024.107630244841
 20
-103.6784260808512
 30
0.0
 40
41.97786514080491
 41
0.0
 71
     7
 72
     1
  1
\fVerdana|b0|i0|c0|p34;\W1;HEIGHT ‘H’
 11
-4.371139000186241E-8
 21
0.999999999999999
 31
0.0
 73
     1
 44
1.0
  0
POLYLINE
  5
148
330
EB
100
AcDbEntity
  8
Layer 1
  6
AI-Linetype-1
 62
     7
370
     9
100
AcDb2dPolyline
 66
     1
 10
0.0
 20
0.0
 30
0.0
  0
VERTEX
  5
149
330
148
100
AcDbEntity
  8
Layer 1
  6
AI-Linetype-1
 62
     7
370
     9
100
AcDbVertex
100
AcDb2dVertex
 10
-1694.244043901526
 20
602.3804577487105
 30
0.0
  0
VERTEX
  5
14A
330
148
100
AcDbEntity
  8
Layer 1
  6
AI-Linetype-1
 62
     7
370
     9
100
AcDbVertex
100
AcDb2dVertex
 10
-1694.244043901526
 20
792.9228323755541
 30
0.0
  0
SEQEND
  5
14B
330
148
100
AcDbEntity
  8
Layer 1
  6
AI-Linetype-1
370
     9
  0
POLYLINE
  5
14D
330
EB
100
AcDbEntity
  8
Layer 1
  6
AI-Linetype-2
 62
     7
370
     9
100
AcDb2dPolyline
 66
     1
 10
0.0
 20
0.0
 30
0.0
  0
VERTEX
  5
14E
330
14D
100
AcDbEntity
  8
Layer 1
  6
AI-Linetype-2
 62
     7
370
     9
100
AcDbVertex
100
AcDb2dVertex
 10
-344.2434148987482
 20
602.3804577487105
 30
0.0
  0
VERTEX
  5
14F
330
14D
100
AcDbEntity
  8
Layer 1
  6
AI-Linetype-2
 62
     7
370
     9
100
AcDbVertex
100
AcDb2dVertex
 10
-344.2434148987482
 20
792.9228323755541
 30
0.0
  0
SEQEND
  5
150
330
14D
100
AcDbEntity
  8
Layer 1
  6
AI-Linetype-2
370
     9
  0
POLYLINE
  5
152
330
EB
100
AcDbEntity
  8
Layer 1
370
     0
100
AcDb2dPolyline
 66
     1
 10
0.0
 20
0.0
 30
0.0
  0
VERTEX
  5
153
330
152
100
AcDbEntity
  8
Layer 1
370
     0
100
AcDbVertex
100
AcDb2dVertex
 10
-1663.923241771519
 20
740.7516843851246
 30
0.0
  0
VERTEX
  5
154
330
152
100
AcDbEntity
  8
Layer 1
370
     0
100
AcDbVertex
100
AcDb2dVertex
 10
-1663.923241771519
 20
728.6249482770452
 30
0.0
  0
VERTEX
  5
155
330
152
100
AcDbEntity
  8
Layer 1
370
     0
100
AcDbVertex
100
AcDb2dVertex
 10
-1694.239737532169
 20
740.7516843851246
 30
0.0
  0
VERTEX
  5
156
330
152
100
AcDbEntity
  8
Layer 1
370
     0
100
AcDbVertex
100
AcDb2dVertex
 10
-1663.923241771519
 20
752.8784204932041
 30
0.0
  0
VERTEX
  5
157
330
152
100
AcDbEntity
  8
Layer 1
370
     0
100
AcDbVertex
100
AcDb2dVertex
 10
-1663.923241771519
 20
740.7516843851246
 30
0.0
  0
SEQEND
  5
158
330
152
100
AcDbEntity
  8
Layer 1
370
     0
  0
POLYLINE
  5
159
330
EB
100
AcDbEntity
  8
Layer 1
 62
     7
370
    35
100
AcDb2dPolyline
 66
     1
 10
0.0
 20
0.0
 30
0.0
  0
VERTEX
  5
15A
330
159
100
AcDbEntity
  8
Layer 1
 62
     7
370
    35
100
AcDbVertex
100
AcDb2dVertex
 10
-1663.923241771519
 20
728.629426901176
 30
0.0
  0
VERTEX
  5
388
330
159
100
AcDbEntity
  8
0
100
AcDbVertex
100
AcDb2dVertex
 10
-1663.923241771519
 20
728.629426901176
 30
0.0
  0
SEQEND
  5
15B
330
159
100
AcDbEntity
  8
Layer 1
370
    35
  0
POLYLINE
  5
15C
330
EB
100
AcDbEntity
  8
Layer 1
 62
     7
370
    35
100
AcDb2dPolyline
 66
     1
 10
0.0
 20
0.0
 30
0.0
  0
VERTEX
  5
15D
330
15C
100
AcDbEntity
  8
Layer 1
 62
     7
370
    35
100
AcDbVertex
100
AcDb2dVertex
 10
-1694.244043901526
 20
740.7646034931943
 30
0.0
  0
VERTEX
  5
389
330
15C
100
AcDbEntity
  8
0
100
AcDbVertex
100
AcDb2dVertex
 10
-1694.244043901526
 20
740.7646034931943
 30
0.0
  0
SEQEND
  5
15E
330
15C
100
AcDbEntity
  8
Layer 1
370
    35
  0
POLYLINE
  5
15F
330
EB
100
AcDbEntity
  8
Layer 1
 62
     7
370
    35
100
AcDb2dPolyline
 66
     1
 10
0.0
 20
0.0
 30
0.0
  0
VERTEX
  5
160
330
15F
100
AcDbEntity
  8
Layer 1
 62
     7
370
    35
100
AcDbVertex
100
AcDb2dVertex
 10
-1663.923241771519
 20
752.8698077544909
 30
0.0
  0
VERTEX
  5
38A
330
15F
100
AcDbEntity
  8
0
100
AcDbVertex
100
AcDb2dVertex
 10
-1663.923241771519
 20
752.8698077544909
 30
0.0
  0
SEQEND
  5
161
330
15F
100
AcDbEntity
  8
Layer 1
370
    35
  0
POLYLINE
  5
162
330
EB
100
AcDbEntity
  8
Layer 1
 62
     7
370
    35
100
AcDb2dPolyline
 66
     1
 10
0.0
 20
0.0
 30
0.0
  0
VERTEX
  5
163
330
162
100
AcDbEntity
  8
Layer 1
 62
     7
370
    35
100
AcDbVertex
100
AcDb2dVertex
 10
-1663.923241771519
 20
740.7646034931943
 30
0.0
  0
VERTEX
  5
38B
330
162
100
AcDbEntity
  8
0
100
AcDbVertex
100
AcDb2dVertex
 10
-1663.923241771519
 20
740.7646034931943
 30
0.0
  0
SEQEND
  5
164
330
162
100
AcDbEntity
  8
Layer 1
370
    35
  0
POLYLINE
  5
165
330
EB
100
AcDbEntity
  8
Layer 1
 62
     7
370
    35
100
AcDb2dPolyline
 66
     1
 10
0.0
 20
0.0
 30
0.0
  0
VERTEX
  5
166
330
165
100
AcDbEntity
  8
Layer 1
 62
     7
370
    35
100
AcDbVertex
100
AcDb2dVertex
 10
-1663.923241771519
 20
740.7646034931943
 30
0.0
  0
VERTEX
  5
167
330
165
100
AcDbEntity
  8
Layer 1
 62
     7
370
    35
100
AcDbVertex
100
AcDb2dVertex
 10
-1663.923241771519
 20
728.629426901176
 30
0.0
  0
VERTEX
  5
168
330
165
100
AcDbEntity
  8
Layer 1
 62
     7
370
    35
100
AcDbVertex
100
AcDb2dVertex
 10
-1694.244043901526
 20
740.7646034931943
 30
0.0
  0
VERTEX
  5
169
330
165
100
AcDbEntity
  8
Layer 1
 62
     7
370
    35
100
AcDbVertex
100
AcDb2dVertex
 10
-1663.923241771519
 20
752.8698077544909
 30
0.0
  0
VERTEX
  5
16A
330
165
100
AcDbEntity
  8
Layer 1
 62
     7
370
    35
100
AcDbVertex
100
AcDb2dVertex
 10
-1663.923241771519
 20
740.7646034931943
 30
0.0
  0
SEQEND
  5
16B
330
165
100
AcDbEntity
  8
Layer 1
370
    35
  0
POLYLINE
  5
16C
330
EB
100
AcDbEntity
  8
Layer 1
370
     0
100
AcDb2dPolyline
 66
     1
 10
0.0
 20
0.0
 30
0.0
  0
VERTEX
  5
16D
330
16C
100
AcDbEntity
  8
Layer 1
370
     0
100
AcDbVertex
100
AcDb2dVertex
 10
-1663.923414026294
 20
740.7647757479685
 30
0.0
  0
VERTEX
  5
16E
330
16C
100
AcDbEntity
  8
Layer 1
370
     0
100
AcDbVertex
100
AcDb2dVertex
 10
-1663.923414026294
 20
728.6290823916274
 30
0.0
  0
VERTEX
  5
16F
330
16C
100
AcDbEntity
  8
Layer 1
370
     0
100
AcDbVertex
100
AcDb2dVertex
 10
-1663.923414026294
 20
728.6290823916274
 30
0.0
  0
VERTEX
  5
170
330
16C
100
AcDbEntity
  8
Layer 1
370
     0
100
AcDbVertex
100
AcDb2dVertex
 10
-1694.244043901526
 20
740.7647757479685
 30
0.0
  0
VERTEX
  5
171
330
16C
100
AcDbEntity
  8
Layer 1
370
     0
100
AcDbVertex
100
AcDb2dVertex
 10
-1694.244043901526
 20
740.7647757479685
 30
0.0
  0
VERTEX
  5
172
330
16C
100
AcDbEntity
  8
Layer 1
370
     0
100
AcDbVertex
100
AcDb2dVertex
 10
-1663.923414026294
 20
752.8698077544909
 30
0.0
  0
VERTEX
  5
173
330
16C
100
AcDbEntity
  8
Layer 1
370
     0
100
AcDbVertex
100
AcDb2dVertex
 10
-1663.923414026294
 20
752.8698077544909
 30
0.0
  0
VERTEX
  5
174
330
16C
100
AcDbEntity
  8
Layer 1
370
     0
100
AcDbVertex
100
AcDb2dVertex
 10
-1663.923414026294
 20
740.7647757479685
 30
0.0
  0
VERTEX
  5
175
330
16C
100
AcDbEntity
  8
Layer 1
370
     0
100
AcDbVertex
100
AcDb2dVertex
 10
-1663.923414026294
 20
740.7647757479685
 30
0.0
  0
SEQEND
  5
176
330
16C
100
AcDbEntity
  8
Layer 1
370
     0
  0
HATCH
  5
177
330
EB
100
AcDbEntity
  8
Layer 1
 62
     7
100
AcDbHatch
 10
0.0
 20
0.0
 30
0.0
210
0.0
220
0.0
230
1.0
  2
SOLID
 70
     1
 71
     0
 91
        1
 92
        1
 93
        4
 72
     1
 10
-1663.923414026294
 20
740.7647757479685
 11
-1663.923414026294
 21
728.6290823916274
 72
     1
 10
-1663.923414026294
 20
728.6290823916274
 11
-1694.244043901526
 21
740.7647757479685
 72
     1
 10
-1694.244043901526
 20
740.7647757479685
 11
-1663.923414026294
 21
752.8698077544909
 72
     1
 10
-1663.923414026294
 20
752.8698077544909
 11
-1663.923414026294
 21
740.7647757479685
 97
        0
 75
     0
 76
     1
 98
        0
  0
POLYLINE
  5
178
330
EB
100
AcDbEntity
  8
Layer 1
370
     0
100
AcDb2dPolyline
 66
     1
 10
0.0
 20
0.0
 30
0.0
  0
VERTEX
  5
179
330
178
100
AcDbEntity
  8
Layer 1
370
     0
100
AcDbVertex
100
AcDb2dVertex
 10
-374.5600829141725
 20
740.7516843851246
 30
0.0
  0
VERTEX
  5
17A
330
178
100
AcDbEntity
  8
Layer 1
370
     0
100
AcDbVertex
100
AcDb2dVertex
 10
-374.5600829141725
 20
752.8784204932041
 30
0.0
  0
VERTEX
  5
17B
330
178
100
AcDbEntity
  8
Layer 1
370
     0
100
AcDbVertex
100
AcDb2dVertex
 10
-344.2434148987482
 20
740.7516843851246
 30
0.0
  0
VERTEX
  5
17C
330
178
100
AcDbEntity
  8
Layer 1
370
     0
100
AcDbVertex
100
AcDb2dVertex
 10
-374.5600829141725
 20
728.6249482770452
 30
0.0
  0
VERTEX
  5
17D
330
178
100
AcDbEntity
  8
Layer 1
370
     0
100
AcDbVertex
100
AcDb2dVertex
 10
-374.5600829141725
 20
740.7516843851246
 30
0.0
  0
SEQEND
  5
17E
330
178
100
AcDbEntity
  8
Layer 1
370
     0
  0
POLYLINE
  5
17F
330
EB
100
AcDbEntity
  8
Layer 1
 62
     7
370
    35
100
AcDb2dPolyline
 66
     1
 10
0.0
 20
0.0
 30
0.0
  0
VERTEX
  5
180
330
17F
100
AcDbEntity
  8
Layer 1
 62
     7
370
    35
100
AcDbVertex
100
AcDb2dVertex
 10
-374.5645615383033
 20
752.8698077544909
 30
0.0
  0
VERTEX
  5
38C
330
17F
100
AcDbEntity
  8
0
100
AcDbVertex
100
AcDb2dVertex
 10
-374.5645615383033
 20
752.8698077544909
 30
0.0
  0
SEQEND
  5
181
330
17F
100
AcDbEntity
  8
Layer 1
370
    35
  0
POLYLINE
  5
182
330
EB
100
AcDbEntity
  8
Layer 1
 62
     7
370
    35
100
AcDb2dPolyline
 66
     1
 10
0.0
 20
0.0
 30
0.0
  0
VERTEX
  5
183
330
182
100
AcDbEntity
  8
Layer 1
 62
     7
370
    35
100
AcDbVertex
100
AcDb2dVertex
 10
-344.2434148987482
 20
740.7646034931943
 30
0.0
  0
VERTEX
  5
38D
330
182
100
AcDbEntity
  8
0
100
AcDbVertex
100
AcDb2dVertex
 10
-344.2434148987482
 20
740.7646034931943
 30
0.0
  0
SEQEND
  5
184
330
182
100
AcDbEntity
  8
Layer 1
370
    35
  0
POLYLINE
  5
185
330
EB
100
AcDbEntity
  8
Layer 1
 62
     7
370
    35
100
AcDb2dPolyline
 66
     1
 10
0.0
 20
0.0
 30
0.0
  0
VERTEX
  5
186
330
185
100
AcDbEntity
  8
Layer 1
 62
     7
370
    35
100
AcDbVertex
100
AcDb2dVertex
 10
-374.5645615383033
 20
728.629426901176
 30
0.0
  0
VERTEX
  5
38E
330
185
100
AcDbEntity
  8
0
100
AcDbVertex
100
AcDb2dVertex
 10
-374.5645615383033
 20
728.629426901176
 30
0.0
  0
SEQEND
  5
187
330
185
100
AcDbEntity
  8
Layer 1
370
    35
  0
POLYLINE
  5
188
330
EB
100
AcDbEntity
  8
Layer 1
 62
     7
370
    35
100
AcDb2dPolyline
 66
     1
 10
0.0
 20
0.0
 30
0.0
  0
VERTEX
  5
189
330
188
100
AcDbEntity
  8
Layer 1
 62
     7
370
    35
100
AcDbVertex
100
AcDb2dVertex
 10
-374.5645615383033
 20
740.7646034931943
 30
0.0
  0
VERTEX
  5
38F
330
188
100
AcDbEntity
  8
0
100
AcDbVertex
100
AcDb2dVertex
 10
-374.5645615383033
 20
740.7646034931943
 30
0.0
  0
SEQEND
  5
18A
330
188
100
AcDbEntity
  8
Layer 1
370
    35
  0
POLYLINE
  5
18B
330
EB
100
AcDbEntity
  8
Layer 1
 62
     7
370
    35
100
AcDb2dPolyline
 66
     1
 10
0.0
 20
0.0
 30
0.0
  0
VERTEX
  5
18C
330
18B
100
AcDbEntity
  8
Layer 1
 62
     7
370
    35
100
AcDbVertex
100
AcDb2dVertex
 10
-374.5645615383033
 20
740.7646034931943
 30
0.0
  0
VERTEX
  5
18D
330
18B
100
AcDbEntity
  8
Layer 1
 62
     7
370
    35
100
AcDbVertex
100
AcDb2dVertex
 10
-374.5645615383033
 20
752.8698077544909
 30
0.0
  0
VERTEX
  5
18E
330
18B
100
AcDbEntity
  8
Layer 1
 62
     7
370
    35
100
AcDbVertex
100
AcDb2dVertex
 10
-344.2434148987482
 20
740.7646034931943
 30
0.0
  0
VERTEX
  5
18F
330
18B
100
AcDbEntity
  8
Layer 1
 62
     7
370
    35
100
AcDbVertex
100
AcDb2dVertex
 10
-374.5645615383033
 20
728.629426901176
 30
0.0
  0
VERTEX
  5
190
330
18B
100
AcDbEntity
  8
Layer 1
 62
     7
370
    35
100
AcDbVertex
100
AcDb2dVertex
 10
-374.5645615383033
 20
740.7646034931943
 30
0.0
  0
SEQEND
  5
191
330
18B
100
AcDbEntity
  8
Layer 1
370
    35
  0
POLYLINE
  5
192
330
EB
100
AcDbEntity
  8
Layer 1
370
     0
100
AcDb2dPolyline
 66
     1
 10
0.0
 20
0.0
 30
0.0
  0
VERTEX
  5
193
330
192
100
AcDbEntity
  8
Layer 1
370
     0
100
AcDbVertex
100
AcDb2dVertex
 10
-374.5645615383033
 20
740.7647757479685
 30
0.0
  0
VERTEX
  5
194
330
192
100
AcDbEntity
  8
Layer 1
370
     0
100
AcDbVertex
100
AcDb2dVertex
 10
-374.5645615383033
 20
752.8698077544909
 30
0.0
  0
VERTEX
  5
195
330
192
100
AcDbEntity
  8
Layer 1
370
     0
100
AcDbVertex
100
AcDb2dVertex
 10
-374.5645615383033
 20
752.8698077544909
 30
0.0
  0
VERTEX
  5
196
330
192
100
AcDbEntity
  8
Layer 1
370
     0
100
AcDbVertex
100
AcDb2dVertex
 10
-344.2435871535225
 20
740.7647757479685
 30
0.0
  0
VERTEX
  5
197
330
192
100
AcDbEntity
  8
Layer 1
370
     0
100
AcDbVertex
100
AcDb2dVertex
 10
-344.2435871535225
 20
740.7647757479685
 30
0.0
  0
VERTEX
  5
198
330
192
100
AcDbEntity
  8
Layer 1
370
     0
100
AcDbVertex
100
AcDb2dVertex
 10
-374.5645615383033
 20
728.6290823916274
 30
0.0
  0
VERTEX
  5
199
330
192
100
AcDbEntity
  8
Layer 1
370
     0
100
AcDbVertex
100
AcDb2dVertex
 10
-374.5645615383033
 20
728.6290823916274
 30
0.0
  0
VERTEX
  5
19A
330
192
100
AcDbEntity
  8
Layer 1
370
     0
100
AcDbVertex
100
AcDb2dVertex
 10
-374.5645615383033
 20
740.7647757479685
 30
0.0
  0
VERTEX
  5
19B
330
192
100
AcDbEntity
  8
Layer 1
370
     0
100
AcDbVertex
100
AcDb2dVertex
 10
-374.5645615383033
 20
740.7647757479685
 30
0.0
  0
SEQEND
  5
19C
330
192
100
AcDbEntity
  8
Layer 1
370
     0
  0
HATCH
  5
19D
330
EB
100
AcDbEntity
  8
Layer 1
 62
     7
100
AcDbHatch
 10
0.0
 20
0.0
 30
0.0
210
0.0
220
0.0
230
1.0
  2
SOLID
 70
     1
 71
     0
 91
        1
 92
        1
 93
        4
 72
     1
 10
-374.5645615383033
 20
740.7647757479685
 11
-374.5645615383033
 21
752.8698077544909
 72
     1
 10
-374.5645615383033
 20
752.8698077544909
 11
-344.2435871535225
 21
740.7647757479685
 72
     1
 10
-344.2435871535225
 20
740.7647757479685
 11
-374.5645615383033
 21
728.6290823916274
 72
     1
 10
-374.5645615383033
 20
728.6290823916274
 11
-374.5645615383033
 21
740.7647757479685
 97
        0
 75
     0
 76
     1
 98
        0
  0
POLYLINE
  5
19E
330
EB
100
AcDbEntity
  8
Layer 1
 62
     7
370
     9
100
AcDb2dPolyline
 66
     1
 10
0.0
 20
0.0
 30
0.0
  0
VERTEX
  5
19F
330
19E
100
AcDbEntity
  8
Layer 1
 62
     7
370
     9
100
AcDbVertex
100
AcDb2dVertex
 10
-1663.923241771519
 20
740.7516843851246
 30
0.0
  0
VERTEX
  5
1A0
330
19E
100
AcDbEntity
  8
Layer 1
 62
     7
370
     9
100
AcDbVertex
100
AcDb2dVertex
 10
-374.5600829141725
 20
740.7516843851246
 30
0.0
  0
SEQEND
  5
1A1
330
19E
100
AcDbEntity
  8
Layer 1
370
     9
  0
MTEXT
  5
1A2
330
EB
100
AcDbEntity
  8
Layer 1
 62
     7
100
AcDbMText
 10
-1638.956634789914
 20
791.847273565059
 30
0.0
 40
41.97786514080491
 41
0.0
 71
     7
 72
     1
  1
\fVerdana|b0|i0|c0|p34;\W1;SPAN ‘S max’ BETWEEN POST CENTRES
 73
     1
 44
1.0
  0
MTEXT
  5
1A3
330
EB
100
AcDbEntity
  8
Layer 1
 62
     7
100
AcDbMText
 10
-2075.649014780567
 20
-614.8296547942093
 30
0.0
 40
41.97786514080491
 41
0.0
 71
     7
 72
     1
  1
\fVerdana|b0|i0|c0|p34;\W1;SUBSTRATE LEVEL
 73
     1
 44
1.0
  0
MTEXT
  5
1A4
330
EB
100
AcDbEntity
  8
Layer 1
 62
     7
100
AcDbMText
 10
-2075.649014780567
 20
-688.9081649753424
 30
0.0
 40
41.97786514080491
 41
0.0
 71
     7
 72
     1
  1
\fVerdana|b0|i0|c0|p34;\W1;(as defined by the 
 73
     1
 44
1.0
  0
MTEXT
  5
1A5
330
EB
100
AcDbEntity
  8
Layer 1
 62
     7
100
AcDbMText
 10
-2075.649014780567
 20
-762.9866751564756
 30
0.0
 40
41.97786514080491
 41
0.0
 71
     7
 72
     1
  1
\fVerdana|b0|i0|c0|p34;\W1;Fixing Specification)
 73
     1
 44
1.0
  0
MTEXT
  5
1A6
330
EB
100
AcDbEntity
  8
Layer 1
 62
     7
100
AcDbMText
 10
-286.4932792795051
 20
-614.8296547942093
 30
0.0
 40
41.97786514080491
 41
0.0
 71
     7
 72
     1
  1
\fVerdana|b0|i0|c0|p34;\W1;UNDERSPACE
 73
     1
 44
1.0
  0
MTEXT
  5
1A7
330
EB
100
AcDbEntity
  8
Layer 1
 62
     7
100
AcDbMText
 10
-114.0924329684387
 20
-688.9081649753424
 30
0.0
 40
41.97786514080491
 41
0.0
 71
     7
 72
     1
  1
\fVerdana|b0|i0|c0|p34;\W1;‘U’
 73
     1
 44
1.0
  0
POLYLINE
  5
1A8
330
EB
100
AcDbEntity
  8
Layer 1
 62
     7
370
     9
100
AcDb2dPolyline
 66
     1
 10
0.0
 20
0.0
 30
0.0
  0
VERTEX
  5
1A9
330
1A8
100
AcDbEntity
  8
Layer 1
 62
     7
370
     9
100
AcDbVertex
100
AcDb2dVertex
 10
-114.0021714667252
 20
-332.4124402380775
 30
0.0
  0
VERTEX
  5
1AA
330
1A8
100
AcDbEntity
  8
Layer 1
 62
     7
370
     9
100
AcDbVertex
100
AcDb2dVertex
 10
-32.59077554523773
 20
-332.4124402380775
 30
0.0
  0
SEQEND
  5
1AB
330
1A8
100
AcDbEntity
  8
Layer 1
370
     9
  0
POLYLINE
  5
1AC
330
EB
100
AcDbEntity
  8
Layer 1
 62
     7
370
     9
100
AcDb2dPolyline
 66
     1
 10
0.0
 20
0.0
 30
0.0
  0
VERTEX
  5
1AD
330
1AC
100
AcDbEntity
  8
Layer 1
 62
     7
370
     9
100
AcDbVertex
100
AcDb2dVertex
 10
-114.0021714667252
 20
-420.4087916700714
 30
0.0
  0
VERTEX
  5
1AE
330
1AC
100
AcDbEntity
  8
Layer 1
 62
     7
370
     9
100
AcDbVertex
100
AcDb2dVertex
 10
-32.59077554523773
 20
-420.4087916700714
 30
0.0
  0
SEQEND
  5
1AF
330
1AC
100
AcDbEntity
  8
Layer 1
370
     9
  0
POLYLINE
  5
1B0
330
EB
100
AcDbEntity
  8
Layer 1
370
     0
100
AcDb2dPolyline
 66
     1
 10
0.0
 20
0.0
 30
0.0
  0
VERTEX
  5
1B1
330
1B0
100
AcDbEntity
  8
Layer 1
370
     0
100
AcDbVertex
100
AcDb2dVertex
 10
-74.91790769611427
 20
-450.7166746920083
 30
0.0
  0
VERTEX
  5
1B2
330
1B0
100
AcDbEntity
  8
Layer 1
370
     0
100
AcDbVertex
100
AcDb2dVertex
 10
-87.03999292528862
 20
-450.7166746920083
 30
0.0
  0
VERTEX
  5
1B3
330
1B0
100
AcDbEntity
  8
Layer 1
370
     0
100
AcDbVertex
100
AcDb2dVertex
 10
-74.91790769611427
 20
-420.4087916700714
 30
0.0
  0
VERTEX
  5
1B4
330
1B0
100
AcDbEntity
  8
Layer 1
370
     0
100
AcDbVertex
100
AcDb2dVertex
 10
-62.79117158803485
 20
-450.7166746920083
 30
0.0
  0
VERTEX
  5
1B5
330
1B0
100
AcDbEntity
  8
Layer 1
370
     0
100
AcDbVertex
100
AcDb2dVertex
 10
-74.91790769611427
 20
-450.7166746920083
 30
0.0
  0
SEQEND
  5
1B6
330
1B0
100
AcDbEntity
  8
Layer 1
370
     0
  0
POLYLINE
  5
1B7
330
EB
100
AcDbEntity
  8
Layer 1
 62
     7
370
    35
100
AcDb2dPolyline
 66
     1
 10
0.0
 20
0.0
 30
0.0
  0
VERTEX
  5
1B8
330
1B7
100
AcDbEntity
  8
Layer 1
 62
     7
370
    35
100
AcDbVertex
100
AcDb2dVertex
 10
-87.04447154941944
 20
-450.7166746920083
 30
0.0
  0
VERTEX
  5
390
330
1B7
100
AcDbEntity
  8
0
100
AcDbVertex
100
AcDb2dVertex
 10
-87.04447154941944
 20
-450.7166746920083
 30
0.0
  0
SEQEND
  5
1B9
330
1B7
100
AcDbEntity
  8
Layer 1
370
    35
  0
POLYLINE
  5
1BA
330
EB
100
AcDbEntity
  8
Layer 1
 62
     7
370
    35
100
AcDb2dPolyline
 66
     1
 10
0.0
 20
0.0
 30
0.0
  0
VERTEX
  5
1BB
330
1BA
100
AcDbEntity
  8
Layer 1
 62
     7
370
    35
100
AcDbVertex
100
AcDb2dVertex
 10
-74.91342907198346
 20
-420.3915661926452
 30
0.0
  0
VERTEX
  5
391
330
1BA
100
AcDbEntity
  8
0
100
AcDbVertex
100
AcDb2dVertex
 10
-74.91342907198346
 20
-420.3915661926452
 30
0.0
  0
SEQEND
  5
1BC
330
1BA
100
AcDbEntity
  8
Layer 1
370
    35
  0
POLYLINE
  5
1BD
330
EB
100
AcDbEntity
  8
Layer 1
 62
     7
370
    35
100
AcDb2dPolyline
 66
     1
 10
0.0
 20
0.0
 30
0.0
  0
VERTEX
  5
1BE
330
1BD
100
AcDbEntity
  8
Layer 1
 62
     7
370
    35
100
AcDbVertex
100
AcDb2dVertex
 10
-62.79117158803485
 20
-450.7166746920083
 30
0.0
  0
VERTEX
  5
392
330
1BD
100
AcDbEntity
  8
0
100
AcDbVertex
100
AcDb2dVertex
 10
-62.79117158803485
 20
-450.7166746920083
 30
0.0
  0
SEQEND
  5
1BF
330
1BD
100
AcDbEntity
  8
Layer 1
370
    35
  0
POLYLINE
  5
1C0
330
EB
100
AcDbEntity
  8
Layer 1
 62
     7
370
    35
100
AcDb2dPolyline
 66
     1
 10
0.0
 20
0.0
 30
0.0
  0
VERTEX
  5
1C1
330
1C0
100
AcDbEntity
  8
Layer 1
 62
     7
370
    35
100
AcDbVertex
100
AcDb2dVertex
 10
-74.91342907198346
 20
-450.7166746920083
 30
0.0
  0
VERTEX
  5
393
330
1C0
100
AcDbEntity
  8
0
100
AcDbVertex
100
AcDb2dVertex
 10
-74.91342907198346
 20
-450.7166746920083
 30
0.0
  0
SEQEND
  5
1C2
330
1C0
100
AcDbEntity
  8
Layer 1
370
    35
  0
POLYLINE
  5
1C3
330
EB
100
AcDbEntity
  8
Layer 1
 62
     7
370
    35
100
AcDb2dPolyline
 66
     1
 10
0.0
 20
0.0
 30
0.0
  0
VERTEX
  5
1C4
330
1C3
100
AcDbEntity
  8
Layer 1
 62
     7
370
    35
100
AcDbVertex
100
AcDb2dVertex
 10
-74.91342907198346
 20
-450.7166746920083
 30
0.0
  0
VERTEX
  5
1C5
330
1C3
100
AcDbEntity
  8
Layer 1
 62
     7
370
    35
100
AcDbVertex
100
AcDb2dVertex
 10
-87.04447154941944
 20
-450.7166746920083
 30
0.0
  0
VERTEX
  5
1C6
330
1C3
100
AcDbEntity
  8
Layer 1
 62
     7
370
    35
100
AcDbVertex
100
AcDb2dVertex
 10
-74.91342907198346
 20
-420.3915661926452
 30
0.0
  0
VERTEX
  5
1C7
330
1C3
100
AcDbEntity
  8
Layer 1
 62
     7
370
    35
100
AcDbVertex
100
AcDb2dVertex
 10
-62.79117158803485
 20
-450.7166746920083
 30
0.0
  0
VERTEX
  5
1C8
330
1C3
100
AcDbEntity
  8
Layer 1
 62
     7
370
    35
100
AcDbVertex
100
AcDb2dVertex
 10
-74.91342907198346
 20
-450.7166746920083
 30
0.0
  0
SEQEND
  5
1C9
330
1C3
100
AcDbEntity
  8
Layer 1
370
    35
  0
POLYLINE
  5
1CA
330
EB
100
AcDbEntity
  8
Layer 1
370
     0
100
AcDb2dPolyline
 66
     1
 10
0.0
 20
0.0
 30
0.0
  0
VERTEX
  5
1CB
330
1CA
100
AcDbEntity
  8
Layer 1
370
     0
100
AcDbVertex
100
AcDb2dVertex
 10
-74.91360132675771
 20
-450.7166746920083
 30
0.0
  0
VERTEX
  5
1CC
330
1CA
100
AcDbEntity
  8
Layer 1
370
     0
100
AcDbVertex
100
AcDb2dVertex
 10
-87.04429929464519
 20
-450.7166746920083
 30
0.0
  0
VERTEX
  5
1CD
330
1CA
100
AcDbEntity
  8
Layer 1
370
     0
100
AcDbVertex
100
AcDb2dVertex
 10
-87.04429929464519
 20
-450.7166746920083
 30
0.0
  0
VERTEX
  5
1CE
330
1CA
100
AcDbEntity
  8
Layer 1
370
     0
100
AcDbVertex
100
AcDb2dVertex
 10
-74.91360132675771
 20
-420.3919107021937
 30
0.0
  0
VERTEX
  5
1CF
330
1CA
100
AcDbEntity
  8
Layer 1
370
     0
100
AcDbVertex
100
AcDb2dVertex
 10
-74.91360132675771
 20
-420.3919107021937
 30
0.0
  0
VERTEX
  5
1D0
330
1CA
100
AcDbEntity
  8
Layer 1
370
     0
100
AcDbVertex
100
AcDb2dVertex
 10
-62.79151609758338
 20
-450.7166746920083
 30
0.0
  0
VERTEX
  5
1D1
330
1CA
100
AcDbEntity
  8
Layer 1
370
     0
100
AcDbVertex
100
AcDb2dVertex
 10
-62.79151609758338
 20
-450.7166746920083
 30
0.0
  0
VERTEX
  5
1D2
330
1CA
100
AcDbEntity
  8
Layer 1
370
     0
100
AcDbVertex
100
AcDb2dVertex
 10
-74.91360132675771
 20
-450.7166746920083
 30
0.0
  0
VERTEX
  5
1D3
330
1CA
100
AcDbEntity
  8
Layer 1
370
     0
100
AcDbVertex
100
AcDb2dVertex
 10
-74.91360132675771
 20
-450.7166746920083
 30
0.0
  0
SEQEND
  5
1D4
330
1CA
100
AcDbEntity
  8
Layer 1
370
     0
  0
HATCH
  5
1D5
330
EB
100
AcDbEntity
  8
Layer 1
 62
     7
100
AcDbHatch
 10
0.0
 20
0.0
 30
0.0
210
0.0
220
0.0
230
1.0
  2
SOLID
 70
     1
 71
     0
 91
        1
 92
        1
 93
        4
 72
     1
 10
-74.91360132675771
 20
-450.7166746920083
 11
-87.04429929464519
 21
-450.7166746920083
 72
     1
 10
-87.04429929464519
 20
-450.7166746920083
 11
-74.91360132675771
 21
-420.3919107021937
 72
     1
 10
-74.91360132675771
 20
-420.3919107021937
 11
-62.79151609758338
 21
-450.7166746920083
 72
     1
 10
-62.79151609758338
 20
-450.7166746920083
 11
-74.91360132675771
 21
-450.7166746920083
 97
        0
 75
     0
 76
     1
 98
        0
  0
POLYLINE
  5
1D6
330
EB
100
AcDbEntity
  8
Layer 1
 62
     7
370
     9
100
AcDb2dPolyline
 66
     1
 10
0.0
 20
0.0
 30
0.0
  0
VERTEX
  5
1D7
330
1D6
100
AcDbEntity
  8
Layer 1
 62
     7
370
     9
100
AcDbVertex
100
AcDb2dVertex
 10
-74.92204181069657
 20
-448.6926810944241
 30
0.0
  0
VERTEX
  5
1D8
330
1D6
100
AcDbEntity
  8
Layer 1
 62
     7
370
     9
100
AcDbVertex
100
AcDb2dVertex
 10
-74.92204181069657
 20
-532.0116263860943
 30
0.0
  0
SEQEND
  5
1D9
330
1D6
100
AcDbEntity
  8
Layer 1
370
     9
  0
POLYLINE
  5
1DA
330
EB
100
AcDbEntity
  8
Layer 1
 62
     7
370
    35
100
AcDb2dPolyline
 66
     1
 10
0.0
 20
0.0
 30
0.0
  0
VERTEX
  5
1DB
330
1DA
100
AcDbEntity
  8
Layer 1
 62
     7
370
    35
100
AcDbVertex
100
AcDb2dVertex
 10
-1019.297128380158
 20
-420.4211940138183
 30
0.0
  0
VERTEX
  5
394
330
1DA
100
AcDbEntity
  8
0
100
AcDbVertex
100
AcDb2dVertex
 10
-1019.297128380158
 20
-420.4211940138183
 30
0.0
  0
SEQEND
  5
1DC
330
1DA
100
AcDbEntity
  8
Layer 1
370
    35
  0
POLYLINE
  5
1DD
330
EB
100
AcDbEntity
  8
Layer 1
370
     0
100
AcDb2dPolyline
 66
     1
 10
0.0
 20
0.0
 30
0.0
  0
VERTEX
  5
1DE
330
1DD
100
AcDbEntity
  8
Layer 1
370
     0
100
AcDbVertex
100
AcDb2dVertex
 10
-1824.801449467845
 20
-450.7166746920083
 30
0.0
  0
VERTEX
  5
1DF
330
1DD
100
AcDbEntity
  8
Layer 1
370
     0
100
AcDbVertex
100
AcDb2dVertex
 10
-1836.928185575924
 20
-450.7166746920083
 30
0.0
  0
VERTEX
  5
1E0
330
1DD
100
AcDbEntity
  8
Layer 1
370
     0
100
AcDbVertex
100
AcDb2dVertex
 10
-1824.801449467845
 20
-420.4087916700714
 30
0.0
  0
VERTEX
  5
1E1
330
1DD
100
AcDbEntity
  8
Layer 1
370
     0
100
AcDbVertex
100
AcDb2dVertex
 10
-1812.67488561454
 20
-450.7166746920083
 30
0.0
  0
VERTEX
  5
1E2
330
1DD
100
AcDbEntity
  8
Layer 1
370
     0
100
AcDbVertex
100
AcDb2dVertex
 10
-1824.801449467845
 20
-450.7166746920083
 30
0.0
  0
SEQEND
  5
1E3
330
1DD
100
AcDbEntity
  8
Layer 1
370
     0
  0
POLYLINE
  5
1E4
330
EB
100
AcDbEntity
  8
Layer 1
 62
     7
370
    35
100
AcDb2dPolyline
 66
     1
 10
0.0
 20
0.0
 30
0.0
  0
VERTEX
  5
1E5
330
1E4
100
AcDbEntity
  8
Layer 1
 62
     7
370
    35
100
AcDbVertex
100
AcDb2dVertex
 10
-1836.919572837211
 20
-450.7166746920083
 30
0.0
  0
VERTEX
  5
395
330
1E4
100
AcDbEntity
  8
0
100
AcDbVertex
100
AcDb2dVertex
 10
-1836.919572837211
 20
-450.7166746920083
 30
0.0
  0
SEQEND
  5
1E6
330
1E4
100
AcDbEntity
  8
Layer 1
370
    35
  0
POLYLINE
  5
1E7
330
EB
100
AcDbEntity
  8
Layer 1
 62
     7
370
    35
100
AcDb2dPolyline
 66
     1
 10
0.0
 20
0.0
 30
0.0
  0
VERTEX
  5
1E8
330
1E7
100
AcDbEntity
  8
Layer 1
 62
     7
370
    35
100
AcDbVertex
100
AcDb2dVertex
 10
-1824.801449467845
 20
-420.3915661926452
 30
0.0
  0
VERTEX
  5
396
330
1E7
100
AcDbEntity
  8
0
100
AcDbVertex
100
AcDb2dVertex
 10
-1824.801449467845
 20
-420.3915661926452
 30
0.0
  0
SEQEND
  5
1E9
330
1E7
100
AcDbEntity
  8
Layer 1
370
    35
  0
POLYLINE
  5
1EA
330
EB
100
AcDbEntity
  8
Layer 1
 62
     7
370
    35
100
AcDb2dPolyline
 66
     1
 10
0.0
 20
0.0
 30
0.0
  0
VERTEX
  5
1EB
330
1EA
100
AcDbEntity
  8
Layer 1
 62
     7
370
    35
100
AcDbVertex
100
AcDb2dVertex
 10
-1812.679191983896
 20
-450.7166746920083
 30
0.0
  0
VERTEX
  5
397
330
1EA
100
AcDbEntity
  8
0
100
AcDbVertex
100
AcDb2dVertex
 10
-1812.679191983896
 20
-450.7166746920083
 30
0.0
  0
SEQEND
  5
1EC
330
1EA
100
AcDbEntity
  8
Layer 1
370
    35
  0
POLYLINE
  5
1ED
330
EB
100
AcDbEntity
  8
Layer 1
 62
     7
370
    35
100
AcDb2dPolyline
 66
     1
 10
0.0
 20
0.0
 30
0.0
  0
VERTEX
  5
1EE
330
1ED
100
AcDbEntity
  8
Layer 1
 62
     7
370
    35
100
AcDbVertex
100
AcDb2dVertex
 10
-1824.801449467845
 20
-450.7166746920083
 30
0.0
  0
VERTEX
  5
398
330
1ED
100
AcDbEntity
  8
0
100
AcDbVertex
100
AcDb2dVertex
 10
-1824.801449467845
 20
-450.7166746920083
 30
0.0
  0
SEQEND
  5
1EF
330
1ED
100
AcDbEntity
  8
Layer 1
370
    35
  0
POLYLINE
  5
1F0
330
EB
100
AcDbEntity
  8
Layer 1
 62
     7
370
    35
100
AcDb2dPolyline
 66
     1
 10
0.0
 20
0.0
 30
0.0
  0
VERTEX
  5
1F1
330
1F0
100
AcDbEntity
  8
Layer 1
 62
     7
370
    35
100
AcDbVertex
100
AcDb2dVertex
 10
-1824.801449467845
 20
-450.7166746920083
 30
0.0
  0
VERTEX
  5
1F2
330
1F0
100
AcDbEntity
  8
Layer 1
 62
     7
370
    35
100
AcDbVertex
100
AcDb2dVertex
 10
-1836.919572837211
 20
-450.7166746920083
 30
0.0
  0
VERTEX
  5
1F3
330
1F0
100
AcDbEntity
  8
Layer 1
 62
     7
370
    35
100
AcDbVertex
100
AcDb2dVertex
 10
-1824.801449467845
 20
-420.3915661926452
 30
0.0
  0
VERTEX
  5
1F4
330
1F0
100
AcDbEntity
  8
Layer 1
 62
     7
370
    35
100
AcDbVertex
100
AcDb2dVertex
 10
-1812.679191983896
 20
-450.7166746920083
 30
0.0
  0
VERTEX
  5
1F5
330
1F0
100
AcDbEntity
  8
Layer 1
 62
     7
370
    35
100
AcDbVertex
100
AcDb2dVertex
 10
-1824.801449467845
 20
-450.7166746920083
 30
0.0
  0
SEQEND
  5
1F6
330
1F0
100
AcDbEntity
  8
Layer 1
370
    35
  0
POLYLINE
  5
1F7
330
EB
100
AcDbEntity
  8
Layer 1
370
     0
100
AcDb2dPolyline
 66
     1
 10
0.0
 20
0.0
 30
0.0
  0
VERTEX
  5
1F8
330
1F7
100
AcDbEntity
  8
Layer 1
370
     0
100
AcDbVertex
100
AcDb2dVertex
 10
-1824.801449467845
 20
-450.7166746920083
 30
0.0
  0
VERTEX
  5
1F9
330
1F7
100
AcDbEntity
  8
Layer 1
370
     0
100
AcDbVertex
100
AcDb2dVertex
 10
-1836.919572837211
 20
-450.7166746920083
 30
0.0
  0
VERTEX
  5
1FA
330
1F7
100
AcDbEntity
  8
Layer 1
370
     0
100
AcDbVertex
100
AcDb2dVertex
 10
-1836.919572837211
 20
-450.7166746920083
 30
0.0
  0
VERTEX
  5
1FB
330
1F7
100
AcDbEntity
  8
Layer 1
370
     0
100
AcDbVertex
100
AcDb2dVertex
 10
-1824.801449467845
 20
-420.3919107021937
 30
0.0
  0
VERTEX
  5
1FC
330
1F7
100
AcDbEntity
  8
Layer 1
370
     0
100
AcDbVertex
100
AcDb2dVertex
 10
-1824.801449467845
 20
-420.3919107021937
 30
0.0
  0
VERTEX
  5
1FD
330
1F7
100
AcDbEntity
  8
Layer 1
370
     0
100
AcDbVertex
100
AcDb2dVertex
 10
-1812.679019729122
 20
-450.7166746920083
 30
0.0
  0
VERTEX
  5
1FE
330
1F7
100
AcDbEntity
  8
Layer 1
370
     0
100
AcDbVertex
100
AcDb2dVertex
 10
-1812.679019729122
 20
-450.7166746920083
 30
0.0
  0
VERTEX
  5
1FF
330
1F7
100
AcDbEntity
  8
Layer 1
370
     0
100
AcDbVertex
100
AcDb2dVertex
 10
-1824.801449467845
 20
-450.7166746920083
 30
0.0
  0
VERTEX
  5
200
330
1F7
100
AcDbEntity
  8
Layer 1
370
     0
100
AcDbVertex
100
AcDb2dVertex
 10
-1824.801449467845
 20
-450.7166746920083
 30
0.0
  0
SEQEND
  5
201
330
1F7
100
AcDbEntity
  8
Layer 1
370
     0
  0
HATCH
  5
202
330
EB
100
AcDbEntity
  8
Layer 1
 62
     7
100
AcDbHatch
 10
0.0
 20
0.0
 30
0.0
210
0.0
220
0.0
230
1.0
  2
SOLID
 70
     1
 71
     0
 91
        1
 92
        1
 93
        4
 72
     1
 10
-1824.801449467845
 20
-450.7166746920083
 11
-1836.919572837211
 21
-450.7166746920083
 72
     1
 10
-1836.919572837211
 20
-450.7166746920083
 11
-1824.801449467845
 21
-420.3919107021937
 72
     1
 10
-1824.801449467845
 20
-420.3919107021937
 11
-1812.679019729122
 21
-450.7166746920083
 72
     1
 10
-1812.679019729122
 20
-450.7166746920083
 11
-1824.801449467845
 21
-450.7166746920083
 97
        0
 75
     0
 76
     1
 98
        0
  0
POLYLINE
  5
203
330
EB
100
AcDbEntity
  8
Layer 1
 62
     7
370
     9
100
AcDb2dPolyline
 66
     1
 10
0.0
 20
0.0
 30
0.0
  0
VERTEX
  5
204
330
203
100
AcDbEntity
  8
Layer 1
 62
     7
370
     9
100
AcDbVertex
100
AcDb2dVertex
 10
-1824.797143098488
 20
-448.6926810944241
 30
0.0
  0
VERTEX
  5
205
330
203
100
AcDbEntity
  8
Layer 1
 62
     7
370
     9
100
AcDbVertex
100
AcDb2dVertex
 10
-1824.797143098488
 20
-532.0116263860943
 30
0.0
  0
SEQEND
  5
206
330
203
100
AcDbEntity
  8
Layer 1
370
     9
  0
POLYLINE
  5
207
330
EB
100
AcDbEntity
  8
Layer 1
370
     0
100
AcDb2dPolyline
 66
     1
 10
0.0
 20
0.0
 30
0.0
  0
VERTEX
  5
208
330
207
100
AcDbEntity
  8
Layer 1
370
     0
100
AcDbVertex
100
AcDb2dVertex
 10
-74.91790769611427
 20
-302.0959444774274
 30
0.0
  0
VERTEX
  5
209
330
207
100
AcDbEntity
  8
Layer 1
370
     0
100
AcDbVertex
100
AcDb2dVertex
 10
-62.79117158803485
 20
-302.0959444774274
 30
0.0
  0
VERTEX
  5
20A
330
207
100
AcDbEntity
  8
Layer 1
370
     0
100
AcDbVertex
100
AcDb2dVertex
 10
-74.91790769611427
 20
-332.4124402380775
 30
0.0
  0
VERTEX
  5
20B
330
207
100
AcDbEntity
  8
Layer 1
370
     0
100
AcDbVertex
100
AcDb2dVertex
 10
-87.03999292528862
 20
-302.0959444774274
 30
0.0
  0
VERTEX
  5
20C
330
207
100
AcDbEntity
  8
Layer 1
370
     0
100
AcDbVertex
100
AcDb2dVertex
 10
-74.91790769611427
 20
-302.0959444774274
 30
0.0
  0
SEQEND
  5
20D
330
207
100
AcDbEntity
  8
Layer 1
370
     0
  0
POLYLINE
  5
20E
330
EB
100
AcDbEntity
  8
Layer 1
 62
     7
370
    35
100
AcDb2dPolyline
 66
     1
 10
0.0
 20
0.0
 30
0.0
  0
VERTEX
  5
20F
330
20E
100
AcDbEntity
  8
Layer 1
 62
     7
370
    35
100
AcDbVertex
100
AcDb2dVertex
 10
-62.79117158803485
 20
-302.0959444774274
 30
0.0
  0
VERTEX
  5
399
330
20E
100
AcDbEntity
  8
0
100
AcDbVertex
100
AcDb2dVertex
 10
-62.79117158803485
 20
-302.0959444774274
 30
0.0
  0
SEQEND
  5
210
330
20E
100
AcDbEntity
  8
Layer 1
370
    35
  0
POLYLINE
  5
211
330
EB
100
AcDbEntity
  8
Layer 1
 62
     7
370
    35
100
AcDb2dPolyline
 66
     1
 10
0.0
 20
0.0
 30
0.0
  0
VERTEX
  5
212
330
211
100
AcDbEntity
  8
Layer 1
 62
     7
370
    35
100
AcDbVertex
100
AcDb2dVertex
 10
-74.91342907198346
 20
-332.4124402380775
 30
0.0
  0
VERTEX
  5
39A
330
211
100
AcDbEntity
  8
0
100
AcDbVertex
100
AcDb2dVertex
 10
-74.91342907198346
 20
-332.4124402380775
 30
0.0
  0
SEQEND
  5
213
330
211
100
AcDbEntity
  8
Layer 1
370
    35
  0
POLYLINE
  5
214
330
EB
100
AcDbEntity
  8
Layer 1
 62
     7
370
    35
100
AcDb2dPolyline
 66
     1
 10
0.0
 20
0.0
 30
0.0
  0
VERTEX
  5
215
330
214
100
AcDbEntity
  8
Layer 1
 62
     7
370
    35
100
AcDbVertex
100
AcDb2dVertex
 10
-87.04447154941944
 20
-302.0959444774274
 30
0.0
  0
VERTEX
  5
39B
330
214
100
AcDbEntity
  8
0
100
AcDbVertex
100
AcDb2dVertex
 10
-87.04447154941944
 20
-302.0959444774274
 30
0.0
  0
SEQEND
  5
216
330
214
100
AcDbEntity
  8
Layer 1
370
    35
  0
POLYLINE
  5
217
330
EB
100
AcDbEntity
  8
Layer 1
 62
     7
370
    35
100
AcDb2dPolyline
 66
     1
 10
0.0
 20
0.0
 30
0.0
  0
VERTEX
  5
218
330
217
100
AcDbEntity
  8
Layer 1
 62
     7
370
    35
100
AcDbVertex
100
AcDb2dVertex
 10
-74.91342907198346
 20
-302.0959444774274
 30
0.0
  0
VERTEX
  5
39C
330
217
100
AcDbEntity
  8
0
100
AcDbVertex
100
AcDb2dVertex
 10
-74.91342907198346
 20
-302.0959444774274
 30
0.0
  0
SEQEND
  5
219
330
217
100
AcDbEntity
  8
Layer 1
370
    35
  0
POLYLINE
  5
21A
330
EB
100
AcDbEntity
  8
Layer 1
 62
     7
370
    35
100
AcDb2dPolyline
 66
     1
 10
0.0
 20
0.0
 30
0.0
  0
VERTEX
  5
21B
330
21A
100
AcDbEntity
  8
Layer 1
 62
     7
370
    35
100
AcDbVertex
100
AcDb2dVertex
 10
-74.91342907198346
 20
-302.0959444774274
 30
0.0
  0
VERTEX
  5
21C
330
21A
100
AcDbEntity
  8
Layer 1
 62
     7
370
    35
100
AcDbVertex
100
AcDb2dVertex
 10
-62.79117158803485
 20
-302.0959444774274
 30
0.0
  0
VERTEX
  5
21D
330
21A
100
AcDbEntity
  8
Layer 1
 62
     7
370
    35
100
AcDbVertex
100
AcDb2dVertex
 10
-74.91342907198346
 20
-332.4124402380775
 30
0.0
  0
VERTEX
  5
21E
330
21A
100
AcDbEntity
  8
Layer 1
 62
     7
370
    35
100
AcDbVertex
100
AcDb2dVertex
 10
-87.04447154941944
 20
-302.0959444774274
 30
0.0
  0
VERTEX
  5
21F
330
21A
100
AcDbEntity
  8
Layer 1
 62
     7
370
    35
100
AcDbVertex
100
AcDb2dVertex
 10
-74.91342907198346
 20
-302.0959444774274
 30
0.0
  0
SEQEND
  5
220
330
21A
100
AcDbEntity
  8
Layer 1
370
    35
  0
POLYLINE
  5
221
330
EB
100
AcDbEntity
  8
Layer 1
370
     0
100
AcDb2dPolyline
 66
     1
 10
0.0
 20
0.0
 30
0.0
  0
VERTEX
  5
222
330
221
100
AcDbEntity
  8
Layer 1
370
     0
100
AcDbVertex
100
AcDb2dVertex
 10
-74.91360132675771
 20
-302.0955999678789
 30
0.0
  0
VERTEX
  5
223
330
221
100
AcDbEntity
  8
Layer 1
370
     0
100
AcDbVertex
100
AcDb2dVertex
 10
-62.79151609758338
 20
-302.0955999678789
 30
0.0
  0
VERTEX
  5
224
330
221
100
AcDbEntity
  8
Layer 1
370
     0
100
AcDbVertex
100
AcDb2dVertex
 10
-62.79151609758338
 20
-302.0955999678789
 30
0.0
  0
VERTEX
  5
225
330
221
100
AcDbEntity
  8
Layer 1
370
     0
100
AcDbVertex
100
AcDb2dVertex
 10
-74.91360132675771
 20
-332.412784747626
 30
0.0
  0
VERTEX
  5
226
330
221
100
AcDbEntity
  8
Layer 1
370
     0
100
AcDbVertex
100
AcDb2dVertex
 10
-74.91360132675771
 20
-332.412784747626
 30
0.0
  0
VERTEX
  5
227
330
221
100
AcDbEntity
  8
Layer 1
370
     0
100
AcDbVertex
100
AcDb2dVertex
 10
-87.04429929464519
 20
-302.0955999678789
 30
0.0
  0
VERTEX
  5
228
330
221
100
AcDbEntity
  8
Layer 1
370
     0
100
AcDbVertex
100
AcDb2dVertex
 10
-87.04429929464519
 20
-302.0955999678789
 30
0.0
  0
VERTEX
  5
229
330
221
100
AcDbEntity
  8
Layer 1
370
     0
100
AcDbVertex
100
AcDb2dVertex
 10
-74.91360132675771
 20
-302.0955999678789
 30
0.0
  0
VERTEX
  5
22A
330
221
100
AcDbEntity
  8
Layer 1
370
     0
100
AcDbVertex
100
AcDb2dVertex
 10
-74.91360132675771
 20
-302.0955999678789
 30
0.0
  0
SEQEND
  5
22B
330
221
100
AcDbEntity
  8
Layer 1
370
     0
  0
HATCH
  5
22C
330
EB
100
AcDbEntity
  8
Layer 1
 62
     7
100
AcDbHatch
 10
0.0
 20
0.0
 30
0.0
210
0.0
220
0.0
230
1.0
  2
SOLID
 70
     1
 71
     0
 91
        1
 92
        1
 93
        4
 72
     1
 10
-74.91360132675771
 20
-302.0955999678789
 11
-62.79151609758338
 21
-302.0955999678789
 72
     1
 10
-62.79151609758338
 20
-302.0955999678789
 11
-74.91360132675771
 21
-332.412784747626
 72
     1
 10
-74.91360132675771
 20
-332.412784747626
 11
-87.04429929464519
 21
-302.0955999678789
 72
     1
 10
-87.04429929464519
 20
-302.0955999678789
 11
-74.91360132675771
 21
-302.0955999678789
 97
        0
 75
     0
 76
     1
 98
        0
  0
POLYLINE
  5
22D
330
EB
100
AcDbEntity
  8
Layer 1
 62
     7
370
     9
100
AcDb2dPolyline
 66
     1
 10
0.0
 20
0.0
 30
0.0
  0
VERTEX
  5
22E
330
22D
100
AcDbEntity
  8
Layer 1
 62
     7
370
     9
100
AcDbVertex
100
AcDb2dVertex
 10
-74.92204181069657
 20
-197.6413383837494
 30
0.0
  0
VERTEX
  5
22F
330
22D
100
AcDbEntity
  8
Layer 1
 62
     7
370
     9
100
AcDbVertex
100
AcDb2dVertex
 10
-74.92204181069657
 20
-304.1199380750117
 30
0.0
  0
SEQEND
  5
230
330
22D
100
AcDbEntity
  8
Layer 1
370
     9
  0
INSERT
  5
232
330
EB
100
AcDbEntity
  8
Layer 1
100
AcDbBlockReference
  2
block 4
 10
0.0
 20
0.0
 30
0.0
  0
ENDBLK
  5
EE
330
EB
100
AcDbEntity
  8
0
100
AcDbBlockEnd
  0
BLOCK
  5
233
330
231
100
AcDbEntity
  8
0
100
AcDbBlockBegin
  2
block 4
 70
     0
 71
     0
 10
0.0
 20
0.0
 30
0.0
  3
block 4
  1

  0
POLYLINE
  5
235
330
231
100
AcDbEntity
  8
Layer 1
 62
     7
370
    20
100
AcDb2dPolyline
 66
     1
 10
0.0
 20
0.0
 30
0.0
  0
VERTEX
  5
236
330
235
100
AcDbEntity
  8
Layer 1
 62
     7
370
    20
100
AcDbVertex
100
AcDb2dVertex
 10
-1664.243980161196
 20
-302.4125487525219
 30
0.0
  0
VERTEX
  5
237
330
235
100
AcDbEntity
  8
Layer 1
 62
     7
370
    20
100
AcDbVertex
100
AcDb2dVertex
 10
-374.243478639078
 20
-302.4125487525219
 30
0.0
  0
SEQEND
  5
238
330
235
100
AcDbEntity
  8
Layer 1
370
    20
  0
POLYLINE
  5
239
330
231
100
AcDbEntity
  8
Layer 1
 62
     7
370
    20
100
AcDb2dPolyline
 66
     1
 10
0.0
 20
0.0
 30
0.0
  0
VERTEX
  5
23A
330
239
100
AcDbEntity
  8
Layer 1
 62
     7
370
    20
100
AcDbVertex
100
AcDb2dVertex
 10
-1664.243980161196
 20
-332.4124402380775
 30
0.0
  0
VERTEX
  5
23B
330
239
100
AcDbEntity
  8
Layer 1
 62
     7
370
    20
100
AcDbVertex
100
AcDb2dVertex
 10
-374.243478639078
 20
-332.4124402380775
 30
0.0
  0
SEQEND
  5
23C
330
239
100
AcDbEntity
  8
Layer 1
370
    20
  0
POLYLINE
  5
23D
330
231
100
AcDbEntity
  8
Layer 1
 62
     7
370
    20
100
AcDb2dPolyline
 66
     1
 10
0.0
 20
0.0
 30
0.0
  0
VERTEX
  5
23E
330
23D
100
AcDbEntity
  8
Layer 1
 62
     7
370
    20
100
AcDbVertex
100
AcDb2dVertex
 10
-314.2433511584184
 20
-302.4125487525219
 30
0.0
  0
VERTEX
  5
23F
330
23D
100
AcDbEntity
  8
Layer 1
 62
     7
370
    20
100
AcDbVertex
100
AcDb2dVertex
 10
-144.243736400571
 20
-302.4125487525219
 30
0.0
  0
SEQEND
  5
240
330
23D
100
AcDbEntity
  8
Layer 1
370
    20
  0
POLYLINE
  5
241
330
231
100
AcDbEntity
  8
Layer 1
 62
     7
370
    20
100
AcDb2dPolyline
 66
     1
 10
0.0
 20
0.0
 30
0.0
  0
VERTEX
  5
242
330
241
100
AcDbEntity
  8
Layer 1
 62
     7
370
    20
100
AcDbVertex
100
AcDb2dVertex
 10
-314.2433511584184
 20
-332.4124402380775
 30
0.0
  0
VERTEX
  5
243
330
241
100
AcDbEntity
  8
Layer 1
 62
     7
370
    20
100
AcDbVertex
100
AcDb2dVertex
 10
-144.243736400571
 20
-332.4124402380775
 30
0.0
  0
SEQEND
  5
244
330
241
100
AcDbEntity
  8
Layer 1
370
    20
  0
POLYLINE
  5
245
330
231
100
AcDbEntity
  8
Layer 1
 62
     7
370
    20
100
AcDb2dPolyline
 66
     1
 10
0.0
 20
0.0
 30
0.0
  0
VERTEX
  5
246
330
245
100
AcDbEntity
  8
Layer 1
 62
     7
370
    20
100
AcDbVertex
100
AcDb2dVertex
 10
-1894.243722399703
 20
579.587361508749
 30
0.0
  0
VERTEX
  5
247
330
245
100
AcDbEntity
  8
Layer 1
 62
     7
370
    20
100
AcDbVertex
100
AcDb2dVertex
 10
-144.243736400571
 20
579.587361508749
 30
0.0
  0
SEQEND
  5
248
330
245
100
AcDbEntity
  8
Layer 1
370
    20
  0
POLYLINE
  5
249
330
231
100
AcDbEntity
  8
Layer 1
 62
     7
370
    20
100
AcDb2dPolyline
 66
     1
 10
0.0
 20
0.0
 30
0.0
  0
VERTEX
  5
24A
330
249
100
AcDbEntity
  8
Layer 1
 62
     7
370
    20
100
AcDbVertex
100
AcDb2dVertex
 10
-1894.243722399703
 20
529.587312693124
 30
0.0
  0
VERTEX
  5
24B
330
249
100
AcDbEntity
  8
Layer 1
 62
     7
370
    20
100
AcDbVertex
100
AcDb2dVertex
 10
-144.243736400571
 20
529.587312693124
 30
0.0
  0
SEQEND
  5
24C
330
249
100
AcDbEntity
  8
Layer 1
370
    20
  0
POLYLINE
  5
24D
330
231
100
AcDbEntity
  8
Layer 1
 62
     7
370
    20
100
AcDb2dPolyline
 66
     1
 10
0.0
 20
0.0
 30
0.0
  0
VERTEX
  5
24E
330
24D
100
AcDbEntity
  8
Layer 1
 62
     7
370
    20
100
AcDbVertex
100
AcDb2dVertex
 10
-1894.243722399703
 20
-302.4125487525219
 30
0.0
  0
VERTEX
  5
24F
330
24D
100
AcDbEntity
  8
Layer 1
 62
     7
370
    20
100
AcDbVertex
100
AcDb2dVertex
 10
-1724.244107641856
 20
-302.4125487525219
 30
0.0
  0
SEQEND
  5
250
330
24D
100
AcDbEntity
  8
Layer 1
370
    20
  0
POLYLINE
  5
251
330
231
100
AcDbEntity
  8
Layer 1
 62
     7
370
    20
100
AcDb2dPolyline
 66
     1
 10
0.0
 20
0.0
 30
0.0
  0
VERTEX
  5
252
330
251
100
AcDbEntity
  8
Layer 1
 62
     7
370
    20
100
AcDbVertex
100
AcDb2dVertex
 10
-1894.243722399703
 20
-332.4124402380775
 30
0.0
  0
VERTEX
  5
253
330
251
100
AcDbEntity
  8
Layer 1
 62
     7
370
    20
100
AcDbVertex
100
AcDb2dVertex
 10
-1724.244107641856
 20
-332.4124402380775
 30
0.0
  0
SEQEND
  5
254
330
251
100
AcDbEntity
  8
Layer 1
370
    20
  0
POLYLINE
  5
255
330
231
100
AcDbEntity
  8
Layer 1
  6
AI-Linetype-3
 62
     7
370
    20
100
AcDb2dPolyline
 66
     1
 10
0.0
 20
0.0
 30
0.0
  0
VERTEX
  5
256
330
255
100
AcDbEntity
  8
Layer 1
  6
AI-Linetype-3
 62
     7
370
    20
100
AcDbVertex
100
AcDb2dVertex
 10
-1894.243722399703
 20
-420.4125812751052
 30
0.0
  0
VERTEX
  5
257
330
255
100
AcDbEntity
  8
Layer 1
  6
AI-Linetype-3
 62
     7
370
    20
100
AcDbVertex
100
AcDb2dVertex
 10
-144.243736400571
 20
-420.4125812751052
 30
0.0
  0
SEQEND
  5
258
330
255
100
AcDbEntity
  8
Layer 1
  6
AI-Linetype-3
370
    20
  0
INSERT
  5
25B
330
231
100
AcDbEntity
  8
Layer 1
100
AcDbBlockReference
  2
block 5
 10
0.0
 20
0.0
 30
0.0
  0
INSERT
  5
267
330
231
100
AcDbEntity
  8
Layer 1
100
AcDbBlockReference
  2
block 6
 10
0.0
 20
0.0
 30
0.0
  0
INSERT
  5
273
330
231
100
AcDbEntity
  8
Layer 1
100
AcDbBlockReference
  2
block 7
 10
0.0
 20
0.0
 30
0.0
  0
INSERT
  5
27F
330
231
100
AcDbEntity
  8
Layer 1
100
AcDbBlockReference
  2
block 8
 10
0.0
 20
0.0
 30
0.0
  0
INSERT
  5
28B
330
231
100
AcDbEntity
  8
Layer 1
100
AcDbBlockReference
  2
block 9
 10
0.0
 20
0.0
 30
0.0
  0
INSERT
  5
297
330
231
100
AcDbEntity
  8
Layer 1
100
AcDbBlockReference
  2
block 10
 10
0.0
 20
0.0
 30
0.0
  0
INSERT
  5
2A3
330
231
100
AcDbEntity
  8
Layer 1
100
AcDbBlockReference
  2
block 11
 10
0.0
 20
0.0
 30
0.0
  0
INSERT
  5
2AF
330
231
100
AcDbEntity
  8
Layer 1
100
AcDbBlockReference
  2
block 12
 10
0.0
 20
0.0
 30
0.0
  0
INSERT
  5
2BB
330
231
100
AcDbEntity
  8
Layer 1
100
AcDbBlockReference
  2
block 13
 10
0.0
 20
0.0
 30
0.0
  0
INSERT
  5
2C7
330
231
100
AcDbEntity
  8
Layer 1
100
AcDbBlockReference
  2
block 14
 10
0.0
 20
0.0
 30
0.0
  0
INSERT
  5
2D3
330
231
100
AcDbEntity
  8
Layer 1
100
AcDbBlockReference
  2
block 15
 10
0.0
 20
0.0
 30
0.0
  0
INSERT
  5
2DF
330
231
100
AcDbEntity
  8
Layer 1
100
AcDbBlockReference
  2
block 16
 10
0.0
 20
0.0
 30
0.0
  0
INSERT
  5
2EB
330
231
100
AcDbEntity
  8
Layer 1
100
AcDbBlockReference
  2
block 17
 10
0.0
 20
0.0
 30
0.0
  0
INSERT
  5
2F7
330
231
100
AcDbEntity
  8
Layer 1
100
AcDbBlockReference
  2
block 18
 10
0.0
 20
0.0
 30
0.0
  0
POLYLINE
  5
302
330
231
100
AcDbEntity
  8
Layer 1
  6
AI-Linetype-4
 62
     7
370
    20
100
AcDb2dPolyline
 66
     1
 10
0.0
 20
0.0
 30
0.0
  0
VERTEX
  5
303
330
302
100
AcDbEntity
  8
Layer 1
  6
AI-Linetype-4
 62
     7
370
    20
100
AcDbVertex
100
AcDb2dVertex
 10
17.55155571392809
 20
-420.4125812751052
 30
0.0
  0
VERTEX
  5
304
330
302
100
AcDbEntity
  8
Layer 1
  6
AI-Linetype-4
 62
     7
370
    20
100
AcDbVertex
100
AcDb2dVertex
 10
193.7252983456659
 20
-420.4125812751052
 30
0.0
  0
SEQEND
  5
305
330
302
100
AcDbEntity
  8
Layer 1
  6
AI-Linetype-4
370
    20
  0
POLYLINE
  5
307
330
231
100
AcDbEntity
  8
Layer 1
 62
     7
370
    20
100
AcDb2dPolyline
 66
     1
 10
0.0
 20
0.0
 30
0.0
  0
VERTEX
  5
308
330
307
100
AcDbEntity
  8
Layer 1
 62
     7
370
    20
100
AcDbVertex
100
AcDb2dVertex
 10
60.62954642581484
 20
529.5878294574468
 30
0.0
  0
VERTEX
  5
309
330
307
100
AcDbEntity
  8
Layer 1
 62
     7
370
    20
100
AcDbVertex
100
AcDb2dVertex
 10
60.62954642581484
 20
-404.4125243129594
 30
0.0
  0
SEQEND
  5
30A
330
307
100
AcDbEntity
  8
Layer 1
370
    20
  0
POLYLINE
  5
30B
330
231
100
AcDbEntity
  8
Layer 1
 62
     7
370
    20
100
AcDb2dPolyline
 66
     1
 10
0.0
 20
0.0
 30
0.0
  0
VERTEX
  5
30C
330
30B
100
AcDbEntity
  8
Layer 1
 62
     7
370
    20
100
AcDbVertex
100
AcDb2dVertex
 10
150.6295653920301
 20
529.5878294574468
 30
0.0
  0
VERTEX
  5
30D
330
30B
100
AcDbEntity
  8
Layer 1
 62
     7
370
    20
100
AcDbVertex
100
AcDb2dVertex
 10
150.6295653920301
 20
-404.4125243129594
 30
0.0
  0
SEQEND
  5
30E
330
30B
100
AcDbEntity
  8
Layer 1
370
    20
  0
POLYLINE
  5
30F
330
231
100
AcDbEntity
  8
Layer 1
 62
     7
370
    20
100
AcDb2dPolyline
 66
     1
 10
0.0
 20
0.0
 30
0.0
  0
VERTEX
  5
310
330
30F
100
AcDbEntity
  8
Layer 1
 62
     7
370
    20
100
AcDbVertex
100
AcDb2dVertex
 10
96.13056638221737
 20
531.5878796414086
 30
0.0
  0
VERTEX
  5
311
330
30F
100
AcDbEntity
  8
Layer 1
 62
     7
370
    20
100
AcDbVertex
100
AcDb2dVertex
 10
115.1306124929187
 20
531.5878796414086
 30
0.0
  0
SEQEND
  5
312
330
30F
100
AcDbEntity
  8
Layer 1
370
    20
  0
POLYLINE
  5
313
330
231
100
AcDbEntity
  8
Layer 1
 62
     7
370
    20
100
AcDb2dPolyline
 66
     1
 10
0.0
 20
0.0
 30
0.0
  0
VERTEX
  5
314
330
313
100
AcDbEntity
  8
Layer 1
 62
     7
370
    20
100
AcDbVertex
100
AcDb2dVertex
 10
96.12987736312031
 20
531.5878796414086
 30
0.0
  0
VERTEX
  5
315
330
313
100
AcDbEntity
  8
Layer 1
 62
     7
370
    20
100
AcDbVertex
100
AcDb2dVertex
 10
96.12953285357179
 20
-302.4122042429734
 30
0.0
  0
SEQEND
  5
316
330
313
100
AcDbEntity
  8
Layer 1
370
    20
  0
POLYLINE
  5
317
330
231
100
AcDbEntity
  8
Layer 1
 62
     7
370
    20
100
AcDb2dPolyline
 66
     1
 10
0.0
 20
0.0
 30
0.0
  0
VERTEX
  5
318
330
317
100
AcDbEntity
  8
Layer 1
 62
     7
370
    20
100
AcDbVertex
100
AcDb2dVertex
 10
115.1295789642732
 20
531.5878796414086
 30
0.0
  0
VERTEX
  5
319
330
317
100
AcDbEntity
  8
Layer 1
 62
     7
370
    20
100
AcDbVertex
100
AcDb2dVertex
 10
115.1288899451761
 20
-302.4122042429734
 30
0.0
  0
SEQEND
  5
31A
330
317
100
AcDbEntity
  8
Layer 1
370
    20
  0
SPLINE
  5
31B
330
231
100
AcDbEntity
  8
Layer 1
 62
     7
370
    20
100
AcDbSpline
210
0.0
220
0.0
230
1.0
 70
     8
 71
     3
 72
    38
 73
    34
 74
     0
 42
0.0000000001
 43
0.0000000001
 40
0.0
 40
0.0
 40
0.0
 40
0.0
 40
1.0
 40
1.0
 40
1.0
 40
2.0
 40
2.0
 40
2.0
 40
3.0
 40
3.0
 40
3.0
 40
4.0
 40
4.0
 40
4.0
 40
5.0
 40
5.0
 40
5.0
 40
6.0
 40
6.0
 40
6.0
 40
7.0
 40
7.0
 40
7.0
 40
8.0
 40
8.0
 40
8.0
 40
9.0
 40
9.0
 40
9.0
 40
10.0
 40
10.0
 40
10.0
 40
11.0
 40
11.0
 40
11.0
 40
11.0
 10
94.33033173640005
 20
-332.4120957285289
 30
0.0
 10
94.33033173640005
 20
-332.4120957285289
 30
0.0
 10
90.07357175482537
 20
-332.4120957285289
 30
0.0
 10
90.07357175482537
 20
-332.4120957285289
 30
0.0
 10
88.57667776648431
 20
-332.439656492411
 30
0.0
 10
87.21345348297095
 20
-331.2724581420083
 30
0.0
 10
87.01019284934121
 20
-329.7896890451568
 30
0.0
 10
85.71966008056661
 20
-323.3232448193428
 30
0.0
 10
85.86779918643236
 20
-311.6250785896285
 30
0.0
 10
87.32094046211074
 20
-305.193085318667
 30
0.0
 10
87.52420109574048
 20
-303.854321213099
 30
0.0
 10
88.76891409456125
 20
-302.7270859703252
 30
0.0
 10
90.1211140725218
 20
-302.6568060224261
 30
0.0
 10
91.63971216241994
 20
-302.5148680884338
 30
0.0
 10
94.60456133702594
 20
-302.3949787655471
 30
0.0
 10
96.12970510834604
 20
-302.4142713002645
 30
0.0
 10
96.12970510834604
 20
-302.4142713002645
 30
0.0
 10
115.1288899451761
 20
-302.4142713002645
 30
0.0
 10
115.1288899451761
 20
-302.4142713002645
 30
0.0
 10
116.6536892069477
 20
-302.3949787655471
 30
0.0
 10
119.6185383815537
 20
-302.5148680884338
 30
0.0
 10
121.1378254905489
 20
-302.6568060224261
 30
0.0
 10
122.4896809589609
 20
-302.7270859703252
 30
0.0
 10
123.7340494482332
 20
-303.854321213099
 30
0.0
 10
123.9373100818629
 20
-305.193085318667
 30
0.0
 10
125.3911403766383
 20
-311.6250785896285
 30
0.0
 10
125.5389349729555
 20
-323.3232448193428
 30
0.0
 10
124.248402204181
 20
-329.7896890451568
 30
0.0
 10
124.0451415705512
 20
-331.2724581420083
 30
0.0
 10
122.6819172870379
 20
-332.439656492411
 30
0.0
 10
121.1857123177939
 20
-332.4120957285289
 30
0.0
 10
121.1857123177939
 20
-332.4120957285289
 30
0.0
 10
116.9279188075736
 20
-332.4120957285289
 30
0.0
 10
116.9279188075736
 20
-332.4120957285289
 30
0.0
  0
INSERT
  5
31D
330
231
100
AcDbEntity
  8
Layer 1
100
AcDbBlockReference
  2
block 19
 10
0.0
 20
0.0
 30
0.0
  0
POLYLINE
  5
324
330
231
100
AcDbEntity
  8
Layer 1
 62
     7
370
    20
100
AcDb2dPolyline
 66
     1
 10
0.0
 20
0.0
 30
0.0
  0
VERTEX
  5
325
330
324
100
AcDbEntity
  8
Layer 1
 62
     7
370
    20
100
AcDbVertex
100
AcDb2dVertex
 10
180.6294568775857
 20
-420.4125812751052
 30
0.0
  0
VERTEX
  5
326
330
324
100
AcDbEntity
  8
Layer 1
 62
     7
370
    20
100
AcDbVertex
100
AcDb2dVertex
 10
30.62931043071073
 20
-420.4125812751052
 30
0.0
  0
VERTEX
  5
327
330
324
100
AcDbEntity
  8
Layer 1
 62
     7
370
    20
100
AcDbVertex
100
AcDb2dVertex
 10
30.62931043071073
 20
-404.4125243129594
 30
0.0
  0
VERTEX
  5
328
330
324
100
AcDbEntity
  8
Layer 1
 62
     7
370
    20
100
AcDbVertex
100
AcDb2dVertex
 10
180.6294568775857
 20
-404.4125243129594
 30
0.0
  0
VERTEX
  5
329
330
324
100
AcDbEntity
  8
Layer 1
 62
     7
370
    20
100
AcDbVertex
100
AcDb2dVertex
 10
180.6294568775857
 20
-420.4125812751052
 30
0.0
  0
SEQEND
  5
32A
330
324
100
AcDbEntity
  8
Layer 1
370
    20
  0
POLYLINE
  5
32B
330
231
100
AcDbEntity
  8
Layer 1
 62
     7
370
    20
100
AcDb2dPolyline
 66
     1
 10
0.0
 20
0.0
 30
0.0
  0
VERTEX
  5
32C
330
32B
100
AcDbEntity
  8
Layer 1
 62
     7
370
    20
100
AcDbVertex
100
AcDb2dVertex
 10
-284.2434596728627
 20
-420.4125812751052
 30
0.0
  0
VERTEX
  5
32D
330
32B
100
AcDbEntity
  8
Layer 1
 62
     7
370
    20
100
AcDbVertex
100
AcDb2dVertex
 10
-404.2433701246336
 20
-420.4125812751052
 30
0.0
  0
VERTEX
  5
32E
330
32B
100
AcDbEntity
  8
Layer 1
 62
     7
370
    20
100
AcDbVertex
100
AcDb2dVertex
 10
-404.2433701246336
 20
-404.4125243129594
 30
0.0
  0
VERTEX
  5
32F
330
32B
100
AcDbEntity
  8
Layer 1
 62
     7
370
    20
100
AcDbVertex
100
AcDb2dVertex
 10
-284.2434596728627
 20
-404.4125243129594
 30
0.0
  0
VERTEX
  5
330
330
32B
100
AcDbEntity
  8
Layer 1
 62
     7
370
    20
100
AcDbVertex
100
AcDb2dVertex
 10
-284.2434596728627
 20
-420.4125812751052
 30
0.0
  0
SEQEND
  5
331
330
32B
100
AcDbEntity
  8
Layer 1
370
    20
  0
POLYLINE
  5
332
330
231
100
AcDbEntity
  8
Layer 1
 62
     7
370
    20
100
AcDb2dPolyline
 66
     1
 10
0.0
 20
0.0
 30
0.0
  0
VERTEX
  5
333
330
332
100
AcDbEntity
  8
Layer 1
 62
     7
370
    20
100
AcDbVertex
100
AcDb2dVertex
 10
-1634.243916420866
 20
-420.4125812751052
 30
0.0
  0
VERTEX
  5
334
330
332
100
AcDbEntity
  8
Layer 1
 62
     7
370
    20
100
AcDbVertex
100
AcDb2dVertex
 10
-1754.243999127411
 20
-420.4125812751052
 30
0.0
  0
VERTEX
  5
335
330
332
100
AcDbEntity
  8
Layer 1
 62
     7
370
    20
100
AcDbVertex
100
AcDb2dVertex
 10
-1754.243999127411
 20
-404.4125243129594
 30
0.0
  0
VERTEX
  5
336
330
332
100
AcDbEntity
  8
Layer 1
 62
     7
370
    20
100
AcDbVertex
100
AcDb2dVertex
 10
-1634.243916420866
 20
-404.4125243129594
 30
0.0
  0
VERTEX
  5
337
330
332
100
AcDbEntity
  8
Layer 1
 62
     7
370
    20
100
AcDbVertex
100
AcDb2dVertex
 10
-1634.243916420866
 20
-420.4125812751052
 30
0.0
  0
SEQEND
  5
338
330
332
100
AcDbEntity
  8
Layer 1
370
    20
  0
ENDBLK
  5
234
330
231
100
AcDbEntity
  8
0
100
AcDbBlockEnd
  0
BLOCK
  5
25C
330
25A
100
AcDbEntity
  8
0
100
AcDbBlockBegin
  2
block 5
 70
     0
 71
     0
 10
0.0
 20
0.0
 30
0.0
  3
block 5
  1

  0
POLYLINE
  5
25E
330
25A
100
AcDbEntity
  8
Layer 1
 62
     7
370
    20
100
AcDb2dPolyline
 66
     1
 10
0.0
 20
0.0
 30
0.0
  0
VERTEX
  5
25F
330
25E
100
AcDbEntity
  8
Layer 1
 62
     7
370
    20
100
AcDbVertex
100
AcDb2dVertex
 10
-1664.243980161196
 20
-404.4125243129594
 30
0.0
  0
VERTEX
  5
260
330
25E
100
AcDbEntity
  8
Layer 1
 62
     7
370
    20
100
AcDbVertex
100
AcDb2dVertex
 10
-1664.243980161196
 20
529.587312693124
 30
0.0
  0
SEQEND
  5
261
330
25E
100
AcDbEntity
  8
Layer 1
370
    20
  0
POLYLINE
  5
262
330
25A
100
AcDbEntity
  8
Layer 1
 62
     7
370
    20
100
AcDb2dPolyline
 66
     1
 10
0.0
 20
0.0
 30
0.0
  0
VERTEX
  5
263
330
262
100
AcDbEntity
  8
Layer 1
 62
     7
370
    20
100
AcDbVertex
100
AcDb2dVertex
 10
-1724.244107641856
 20
-404.4125243129594
 30
0.0
  0
VERTEX
  5
264
330
262
100
AcDbEntity
  8
Layer 1
 62
     7
370
    20
100
AcDbVertex
100
AcDb2dVertex
 10
-1724.244107641856
 20
529.587312693124
 30
0.0
  0
SEQEND
  5
265
330
262
100
AcDbEntity
  8
Layer 1
370
    20
  0
ENDBLK
  5
25D
330
25A
100
AcDbEntity
  8
0
100
AcDbBlockEnd
  0
BLOCK
  5
268
330
266
100
AcDbEntity
  8
0
100
AcDbBlockBegin
  2
block 6
 70
     0
 71
     0
 10
0.0
 20
0.0
 30
0.0
  3
block 6
  1

  0
POLYLINE
  5
26A
330
266
100
AcDbEntity
  8
Layer 1
 62
     7
370
    20
100
AcDb2dPolyline
 66
     1
 10
0.0
 20
0.0
 30
0.0
  0
VERTEX
  5
26B
330
26A
100
AcDbEntity
  8
Layer 1
 62
     7
370
    20
100
AcDbVertex
100
AcDb2dVertex
 10
-314.2433511584184
 20
-404.4125243129594
 30
0.0
  0
VERTEX
  5
26C
330
26A
100
AcDbEntity
  8
Layer 1
 62
     7
370
    20
100
AcDbVertex
100
AcDb2dVertex
 10
-314.2433511584184
 20
529.587312693124
 30
0.0
  0
SEQEND
  5
26D
330
26A
100
AcDbEntity
  8
Layer 1
370
    20
  0
POLYLINE
  5
26E
330
266
100
AcDbEntity
  8
Layer 1
 62
     7
370
    20
100
AcDb2dPolyline
 66
     1
 10
0.0
 20
0.0
 30
0.0
  0
VERTEX
  5
26F
330
26E
100
AcDbEntity
  8
Layer 1
 62
     7
370
    20
100
AcDbVertex
100
AcDb2dVertex
 10
-374.243478639078
 20
-404.4125243129594
 30
0.0
  0
VERTEX
  5
270
330
26E
100
AcDbEntity
  8
Layer 1
 62
     7
370
    20
100
AcDbVertex
100
AcDb2dVertex
 10
-374.243478639078
 20
529.587312693124
 30
0.0
  0
SEQEND
  5
271
330
26E
100
AcDbEntity
  8
Layer 1
370
    20
  0
ENDBLK
  5
269
330
266
100
AcDbEntity
  8
0
100
AcDbBlockEnd
  0
BLOCK
  5
274
330
272
100
AcDbEntity
  8
0
100
AcDbBlockBegin
  2
block 7
 70
     0
 71
     0
 10
0.0
 20
0.0
 30
0.0
  3
block 7
  1

  0
POLYLINE
  5
276
330
272
100
AcDbEntity
  8
Layer 1
 62
     7
370
    20
100
AcDb2dPolyline
 66
     1
 10
0.0
 20
0.0
 30
0.0
  0
VERTEX
  5
277
330
276
100
AcDbEntity
  8
Layer 1
 62
     7
370
    20
100
AcDbVertex
100
AcDb2dVertex
 10
-950.2434622190364
 20
-302.4125487525219
 30
0.0
  0
VERTEX
  5
278
330
276
100
AcDbEntity
  8
Layer 1
 62
     7
370
    20
100
AcDbVertex
100
AcDb2dVertex
 10
-950.2434622190364
 20
529.587312693124
 30
0.0
  0
SEQEND
  5
279
330
276
100
AcDbEntity
  8
Layer 1
370
    20
  0
POLYLINE
  5
27A
330
272
100
AcDbEntity
  8
Layer 1
 62
     7
370
    20
100
AcDb2dPolyline
 66
     1
 10
0.0
 20
0.0
 30
0.0
  0
VERTEX
  5
27B
330
27A
100
AcDbEntity
  8
Layer 1
 62
     7
370
    20
100
AcDbVertex
100
AcDb2dVertex
 10
-969.2435083297378
 20
-302.4125487525219
 30
0.0
  0
VERTEX
  5
27C
330
27A
100
AcDbEntity
  8
Layer 1
 62
     7
370
    20
100
AcDbVertex
100
AcDb2dVertex
 10
-969.2435083297378
 20
529.587312693124
 30
0.0
  0
SEQEND
  5
27D
330
27A
100
AcDbEntity
  8
Layer 1
370
    20
  0
ENDBLK
  5
275
330
272
100
AcDbEntity
  8
0
100
AcDbBlockEnd
  0
BLOCK
  5
280
330
27E
100
AcDbEntity
  8
0
100
AcDbBlockBegin
  2
block 8
 70
     0
 71
     0
 10
0.0
 20
0.0
 30
0.0
  3
block 8
  1

  0
POLYLINE
  5
282
330
27E
100
AcDbEntity
  8
Layer 1
 62
     7
370
    20
100
AcDb2dPolyline
 66
     1
 10
0.0
 20
0.0
 30
0.0
  0
VERTEX
  5
283
330
282
100
AcDbEntity
  8
Layer 1
 62
     7
370
    20
100
AcDbVertex
100
AcDb2dVertex
 10
-850.2433645877865
 20
-302.4125487525219
 30
0.0
  0
VERTEX
  5
284
330
282
100
AcDbEntity
  8
Layer 1
 62
     7
370
    20
100
AcDbVertex
100
AcDb2dVertex
 10
-850.2433645877865
 20
529.587312693124
 30
0.0
  0
SEQEND
  5
285
330
282
100
AcDbEntity
  8
Layer 1
370
    20
  0
POLYLINE
  5
286
330
27E
100
AcDbEntity
  8
Layer 1
 62
     7
370
    20
100
AcDb2dPolyline
 66
     1
 10
0.0
 20
0.0
 30
0.0
  0
VERTEX
  5
287
330
286
100
AcDbEntity
  8
Layer 1
 62
     7
370
    20
100
AcDbVertex
100
AcDb2dVertex
 10
-831.243318477085
 20
-302.4125487525219
 30
0.0
  0
VERTEX
  5
288
330
286
100
AcDbEntity
  8
Layer 1
 62
     7
370
    20
100
AcDbVertex
100
AcDb2dVertex
 10
-831.243318477085
 20
529.587312693124
 30
0.0
  0
SEQEND
  5
289
330
286
100
AcDbEntity
  8
Layer 1
370
    20
  0
ENDBLK
  5
281
330
27E
100
AcDbEntity
  8
0
100
AcDbBlockEnd
  0
BLOCK
  5
28C
330
28A
100
AcDbEntity
  8
0
100
AcDbBlockBegin
  2
block 9
 70
     0
 71
     0
 10
0.0
 20
0.0
 30
0.0
  3
block 9
  1

  0
POLYLINE
  5
28E
330
28A
100
AcDbEntity
  8
Layer 1
 62
     7
370
    20
100
AcDb2dPolyline
 66
     1
 10
0.0
 20
0.0
 30
0.0
  0
VERTEX
  5
28F
330
28E
100
AcDbEntity
  8
Layer 1
 62
     7
370
    20
100
AcDbVertex
100
AcDb2dVertex
 10
-731.2435653553836
 20
-302.4125487525219
 30
0.0
  0
VERTEX
  5
290
330
28E
100
AcDbEntity
  8
Layer 1
 62
     7
370
    20
100
AcDbVertex
100
AcDb2dVertex
 10
-731.2435653553836
 20
529.587312693124
 30
0.0
  0
SEQEND
  5
291
330
28E
100
AcDbEntity
  8
Layer 1
370
    20
  0
POLYLINE
  5
292
330
28A
100
AcDbEntity
  8
Layer 1
 62
     7
370
    20
100
AcDb2dPolyline
 66
     1
 10
0.0
 20
0.0
 30
0.0
  0
VERTEX
  5
293
330
292
100
AcDbEntity
  8
Layer 1
 62
     7
370
    20
100
AcDbVertex
100
AcDb2dVertex
 10
-712.2435192446823
 20
-302.4125487525219
 30
0.0
  0
VERTEX
  5
294
330
292
100
AcDbEntity
  8
Layer 1
 62
     7
370
    20
100
AcDbVertex
100
AcDb2dVertex
 10
-712.2435192446823
 20
529.587312693124
 30
0.0
  0
SEQEND
  5
295
330
292
100
AcDbEntity
  8
Layer 1
370
    20
  0
ENDBLK
  5
28D
330
28A
100
AcDbEntity
  8
0
100
AcDbBlockEnd
  0
BLOCK
  5
298
330
296
100
AcDbEntity
  8
0
100
AcDbBlockBegin
  2
block 10
 70
     0
 71
     0
 10
0.0
 20
0.0
 30
0.0
  3
block 10
  1

  0
POLYLINE
  5
29A
330
296
100
AcDbEntity
  8
Layer 1
 62
     7
370
    20
100
AcDb2dPolyline
 66
     1
 10
0.0
 20
0.0
 30
0.0
  0
VERTEX
  5
29B
330
29A
100
AcDbEntity
  8
Layer 1
 62
     7
370
    20
100
AcDbVertex
100
AcDb2dVertex
 10
-612.2434216134322
 20
-302.4125487525219
 30
0.0
  0
VERTEX
  5
29C
330
29A
100
AcDbEntity
  8
Layer 1
 62
     7
370
    20
100
AcDbVertex
100
AcDb2dVertex
 10
-612.2434216134322
 20
529.587312693124
 30
0.0
  0
SEQEND
  5
29D
330
29A
100
AcDbEntity
  8
Layer 1
370
    20
  0
POLYLINE
  5
29E
330
296
100
AcDbEntity
  8
Layer 1
 62
     7
370
    20
100
AcDb2dPolyline
 66
     1
 10
0.0
 20
0.0
 30
0.0
  0
VERTEX
  5
29F
330
29E
100
AcDbEntity
  8
Layer 1
 62
     7
370
    20
100
AcDbVertex
100
AcDb2dVertex
 10
-593.2433755027308
 20
-302.4125487525219
 30
0.0
  0
VERTEX
  5
2A0
330
29E
100
AcDbEntity
  8
Layer 1
 62
     7
370
    20
100
AcDbVertex
100
AcDb2dVertex
 10
-593.2433755027308
 20
529.587312693124
 30
0.0
  0
SEQEND
  5
2A1
330
29E
100
AcDbEntity
  8
Layer 1
370
    20
  0
ENDBLK
  5
299
330
296
100
AcDbEntity
  8
0
100
AcDbBlockEnd
  0
BLOCK
  5
2A4
330
2A2
100
AcDbEntity
  8
0
100
AcDbBlockBegin
  2
block 11
 70
     0
 71
     0
 10
0.0
 20
0.0
 30
0.0
  3
block 11
  1

  0
POLYLINE
  5
2A6
330
2A2
100
AcDbEntity
  8
Layer 1
 62
     7
370
    20
100
AcDb2dPolyline
 66
     1
 10
0.0
 20
0.0
 30
0.0
  0
VERTEX
  5
2A7
330
2A6
100
AcDbEntity
  8
Layer 1
 62
     7
370
    20
100
AcDbVertex
100
AcDb2dVertex
 10
-493.2436223810294
 20
-302.4125487525219
 30
0.0
  0
VERTEX
  5
2A8
330
2A6
100
AcDbEntity
  8
Layer 1
 62
     7
370
    20
100
AcDbVertex
100
AcDb2dVertex
 10
-493.2436223810294
 20
529.587312693124
 30
0.0
  0
SEQEND
  5
2A9
330
2A6
100
AcDbEntity
  8
Layer 1
370
    20
  0
POLYLINE
  5
2AA
330
2A2
100
AcDbEntity
  8
Layer 1
 62
     7
370
    20
100
AcDb2dPolyline
 66
     1
 10
0.0
 20
0.0
 30
0.0
  0
VERTEX
  5
2AB
330
2AA
100
AcDbEntity
  8
Layer 1
 62
     7
370
    20
100
AcDbVertex
100
AcDb2dVertex
 10
-474.243576270328
 20
-302.4125487525219
 30
0.0
  0
VERTEX
  5
2AC
330
2AA
100
AcDbEntity
  8
Layer 1
 62
     7
370
    20
100
AcDbVertex
100
AcDb2dVertex
 10
-474.243576270328
 20
529.587312693124
 30
0.0
  0
SEQEND
  5
2AD
330
2AA
100
AcDbEntity
  8
Layer 1
370
    20
  0
ENDBLK
  5
2A5
330
2A2
100
AcDbEntity
  8
0
100
AcDbBlockEnd
  0
BLOCK
  5
2B0
330
2AE
100
AcDbEntity
  8
0
100
AcDbBlockBegin
  2
block 12
 70
     0
 71
     0
 10
0.0
 20
0.0
 30
0.0
  3
block 12
  1

  0
POLYLINE
  5
2B2
330
2AE
100
AcDbEntity
  8
Layer 1
 62
     7
370
    20
100
AcDb2dPolyline
 66
     1
 10
0.0
 20
0.0
 30
0.0
  0
VERTEX
  5
2B3
330
2B2
100
AcDbEntity
  8
Layer 1
 62
     7
370
    20
100
AcDbVertex
100
AcDb2dVertex
 10
-1069.243605960988
 20
-302.4125487525219
 30
0.0
  0
VERTEX
  5
2B4
330
2B2
100
AcDbEntity
  8
Layer 1
 62
     7
370
    20
100
AcDbVertex
100
AcDb2dVertex
 10
-1069.243605960988
 20
529.587312693124
 30
0.0
  0
SEQEND
  5
2B5
330
2B2
100
AcDbEntity
  8
Layer 1
370
    20
  0
POLYLINE
  5
2B6
330
2AE
100
AcDbEntity
  8
Layer 1
 62
     7
370
    20
100
AcDb2dPolyline
 66
     1
 10
0.0
 20
0.0
 30
0.0
  0
VERTEX
  5
2B7
330
2B6
100
AcDbEntity
  8
Layer 1
 62
     7
370
    20
100
AcDbVertex
100
AcDb2dVertex
 10
-1088.243652071689
 20
-302.4125487525219
 30
0.0
  0
VERTEX
  5
2B8
330
2B6
100
AcDbEntity
  8
Layer 1
 62
     7
370
    20
100
AcDbVertex
100
AcDb2dVertex
 10
-1088.243652071689
 20
529.587312693124
 30
0.0
  0
SEQEND
  5
2B9
330
2B6
100
AcDbEntity
  8
Layer 1
370
    20
  0
ENDBLK
  5
2B1
330
2AE
100
AcDbEntity
  8
0
100
AcDbBlockEnd
  0
BLOCK
  5
2BC
330
2BA
100
AcDbEntity
  8
0
100
AcDbBlockBegin
  2
block 13
 70
     0
 71
     0
 10
0.0
 20
0.0
 30
0.0
  3
block 13
  1

  0
POLYLINE
  5
2BE
330
2BA
100
AcDbEntity
  8
Layer 1
 62
     7
370
    20
100
AcDb2dPolyline
 66
     1
 10
0.0
 20
0.0
 30
0.0
  0
VERTEX
  5
2BF
330
2BE
100
AcDbEntity
  8
Layer 1
 62
     7
370
    20
100
AcDbVertex
100
AcDb2dVertex
 10
-1188.243749702939
 20
-302.4125487525219
 30
0.0
  0
VERTEX
  5
2C0
330
2BE
100
AcDbEntity
  8
Layer 1
 62
     7
370
    20
100
AcDbVertex
100
AcDb2dVertex
 10
-1188.243749702939
 20
529.587312693124
 30
0.0
  0
SEQEND
  5
2C1
330
2BE
100
AcDbEntity
  8
Layer 1
370
    20
  0
POLYLINE
  5
2C2
330
2BA
100
AcDbEntity
  8
Layer 1
 62
     7
370
    20
100
AcDb2dPolyline
 66
     1
 10
0.0
 20
0.0
 30
0.0
  0
VERTEX
  5
2C3
330
2C2
100
AcDbEntity
  8
Layer 1
 62
     7
370
    20
100
AcDbVertex
100
AcDb2dVertex
 10
-1207.24379581364
 20
-302.4125487525219
 30
0.0
  0
VERTEX
  5
2C4
330
2C2
100
AcDbEntity
  8
Layer 1
 62
     7
370
    20
100
AcDbVertex
100
AcDb2dVertex
 10
-1207.24379581364
 20
529.587312693124
 30
0.0
  0
SEQEND
  5
2C5
330
2C2
100
AcDbEntity
  8
Layer 1
370
    20
  0
ENDBLK
  5
2BD
330
2BA
100
AcDbEntity
  8
0
100
AcDbBlockEnd
  0
BLOCK
  5
2C8
330
2C6
100
AcDbEntity
  8
0
100
AcDbBlockBegin
  2
block 14
 70
     0
 71
     0
 10
0.0
 20
0.0
 30
0.0
  3
block 14
  1

  0
POLYLINE
  5
2CA
330
2C6
100
AcDbEntity
  8
Layer 1
 62
     7
370
    20
100
AcDb2dPolyline
 66
     1
 10
0.0
 20
0.0
 30
0.0
  0
VERTEX
  5
2CB
330
2CA
100
AcDbEntity
  8
Layer 1
 62
     7
370
    20
100
AcDbVertex
100
AcDb2dVertex
 10
-1307.243548935342
 20
-302.4125487525219
 30
0.0
  0
VERTEX
  5
2CC
330
2CA
100
AcDbEntity
  8
Layer 1
 62
     7
370
    20
100
AcDbVertex
100
AcDb2dVertex
 10
-1307.243548935342
 20
529.587312693124
 30
0.0
  0
SEQEND
  5
2CD
330
2CA
100
AcDbEntity
  8
Layer 1
370
    20
  0
POLYLINE
  5
2CE
330
2C6
100
AcDbEntity
  8
Layer 1
 62
     7
370
    20
100
AcDb2dPolyline
 66
     1
 10
0.0
 20
0.0
 30
0.0
  0
VERTEX
  5
2CF
330
2CE
100
AcDbEntity
  8
Layer 1
 62
     7
370
    20
100
AcDbVertex
100
AcDb2dVertex
 10
-1326.243939555592
 20
-302.4125487525219
 30
0.0
  0
VERTEX
  5
2D0
330
2CE
100
AcDbEntity
  8
Layer 1
 62
     7
370
    20
100
AcDbVertex
100
AcDb2dVertex
 10
-1326.243939555592
 20
529.587312693124
 30
0.0
  0
SEQEND
  5
2D1
330
2CE
100
AcDbEntity
  8
Layer 1
370
    20
  0
ENDBLK
  5
2C9
330
2C6
100
AcDbEntity
  8
0
100
AcDbBlockEnd
  0
BLOCK
  5
2D4
330
2D2
100
AcDbEntity
  8
0
100
AcDbBlockBegin
  2
block 15
 70
     0
 71
     0
 10
0.0
 20
0.0
 30
0.0
  3
block 15
  1

  0
POLYLINE
  5
2D6
330
2D2
100
AcDbEntity
  8
Layer 1
 62
     7
370
    20
100
AcDb2dPolyline
 66
     1
 10
0.0
 20
0.0
 30
0.0
  0
VERTEX
  5
2D7
330
2D6
100
AcDbEntity
  8
Layer 1
 62
     7
370
    20
100
AcDbVertex
100
AcDb2dVertex
 10
-1426.243951059455
 20
-302.4125487525219
 30
0.0
  0
VERTEX
  5
2D8
330
2D6
100
AcDbEntity
  8
Layer 1
 62
     7
370
    20
100
AcDbVertex
100
AcDb2dVertex
 10
-1426.243951059455
 20
529.587312693124
 30
0.0
  0
SEQEND
  5
2D9
330
2D6
100
AcDbEntity
  8
Layer 1
370
    20
  0
POLYLINE
  5
2DA
330
2D2
100
AcDbEntity
  8
Layer 1
 62
     7
370
    20
100
AcDb2dPolyline
 66
     1
 10
0.0
 20
0.0
 30
0.0
  0
VERTEX
  5
2DB
330
2DA
100
AcDbEntity
  8
Layer 1
 62
     7
370
    20
100
AcDbVertex
100
AcDb2dVertex
 10
-1445.243911042769
 20
-302.4125487525219
 30
0.0
  0
VERTEX
  5
2DC
330
2DA
100
AcDbEntity
  8
Layer 1
 62
     7
370
    20
100
AcDbVertex
100
AcDb2dVertex
 10
-1445.243911042769
 20
529.587312693124
 30
0.0
  0
SEQEND
  5
2DD
330
2DA
100
AcDbEntity
  8
Layer 1
370
    20
  0
ENDBLK
  5
2D5
330
2D2
100
AcDbEntity
  8
0
100
AcDbBlockEnd
  0
BLOCK
  5
2E0
330
2DE
100
AcDbEntity
  8
0
100
AcDbBlockBegin
  2
block 16
 70
     0
 71
     0
 10
0.0
 20
0.0
 30
0.0
  3
block 16
  1

  0
POLYLINE
  5
2E2
330
2DE
100
AcDbEntity
  8
Layer 1
 62
     7
370
    20
100
AcDb2dPolyline
 66
     1
 10
0.0
 20
0.0
 30
0.0
  0
VERTEX
  5
2E3
330
2E2
100
AcDbEntity
  8
Layer 1
 62
     7
370
    20
100
AcDbVertex
100
AcDb2dVertex
 10
-1545.243836419245
 20
-302.4125487525219
 30
0.0
  0
VERTEX
  5
2E4
330
2E2
100
AcDbEntity
  8
Layer 1
 62
     7
370
    20
100
AcDbVertex
100
AcDb2dVertex
 10
-1545.243836419245
 20
529.587312693124
 30
0.0
  0
SEQEND
  5
2E5
330
2E2
100
AcDbEntity
  8
Layer 1
370
    20
  0
POLYLINE
  5
2E6
330
2DE
100
AcDbEntity
  8
Layer 1
 62
     7
370
    20
100
AcDb2dPolyline
 66
     1
 10
0.0
 20
0.0
 30
0.0
  0
VERTEX
  5
2E7
330
2E6
100
AcDbEntity
  8
Layer 1
 62
     7
370
    20
100
AcDbVertex
100
AcDb2dVertex
 10
-1564.243882529946
 20
-302.4125487525219
 30
0.0
  0
VERTEX
  5
2E8
330
2E6
100
AcDbEntity
  8
Layer 1
 62
     7
370
    20
100
AcDbVertex
100
AcDb2dVertex
 10
-1564.243882529946
 20
529.587312693124
 30
0.0
  0
SEQEND
  5
2E9
330
2E6
100
AcDbEntity
  8
Layer 1
370
    20
  0
ENDBLK
  5
2E1
330
2DE
100
AcDbEntity
  8
0
100
AcDbBlockEnd
  0
BLOCK
  5
2EC
330
2EA
100
AcDbEntity
  8
0
100
AcDbBlockBegin
  2
block 17
 70
     0
 71
     0
 10
0.0
 20
0.0
 30
0.0
  3
block 17
  1

  0
POLYLINE
  5
2EE
330
2EA
100
AcDbEntity
  8
Layer 1
 62
     7
370
    20
100
AcDb2dPolyline
 66
     1
 10
0.0
 20
0.0
 30
0.0
  0
VERTEX
  5
2EF
330
2EE
100
AcDbEntity
  8
Layer 1
 62
     7
370
    20
100
AcDbVertex
100
AcDb2dVertex
 10
-214.2435980367169
 20
-302.4125487525219
 30
0.0
  0
VERTEX
  5
2F0
330
2EE
100
AcDbEntity
  8
Layer 1
 62
     7
370
    20
100
AcDbVertex
100
AcDb2dVertex
 10
-214.2435980367169
 20
529.587312693124
 30
0.0
  0
SEQEND
  5
2F1
330
2EE
100
AcDbEntity
  8
Layer 1
370
    20
  0
POLYLINE
  5
2F2
330
2EA
100
AcDbEntity
  8
Layer 1
 62
     7
370
    20
100
AcDb2dPolyline
 66
     1
 10
0.0
 20
0.0
 30
0.0
  0
VERTEX
  5
2F3
330
2F2
100
AcDbEntity
  8
Layer 1
 62
     7
370
    20
100
AcDbVertex
100
AcDb2dVertex
 10
-195.2435519260155
 20
-302.4125487525219
 30
0.0
  0
VERTEX
  5
2F4
330
2F2
100
AcDbEntity
  8
Layer 1
 62
     7
370
    20
100
AcDbVertex
100
AcDb2dVertex
 10
-195.2435519260155
 20
529.587312693124
 30
0.0
  0
SEQEND
  5
2F5
330
2F2
100
AcDbEntity
  8
Layer 1
370
    20
  0
ENDBLK
  5
2ED
330
2EA
100
AcDbEntity
  8
0
100
AcDbBlockEnd
  0
BLOCK
  5
2F8
330
2F6
100
AcDbEntity
  8
0
100
AcDbBlockBegin
  2
block 18
 70
     0
 71
     0
 10
0.0
 20
0.0
 30
0.0
  3
block 18
  1

  0
POLYLINE
  5
2FA
330
2F6
100
AcDbEntity
  8
Layer 1
 62
     7
370
    20
100
AcDb2dPolyline
 66
     1
 10
0.0
 20
0.0
 30
0.0
  0
VERTEX
  5
2FB
330
2FA
100
AcDbEntity
  8
Layer 1
 62
     7
370
    20
100
AcDbVertex
100
AcDb2dVertex
 10
-1824.244033018331
 20
-302.4125487525219
 30
0.0
  0
VERTEX
  5
2FC
330
2FA
100
AcDbEntity
  8
Layer 1
 62
     7
370
    20
100
AcDbVertex
100
AcDb2dVertex
 10
-1824.244033018331
 20
529.587312693124
 30
0.0
  0
SEQEND
  5
2FD
330
2FA
100
AcDbEntity
  8
Layer 1
370
    20
  0
POLYLINE
  5
2FE
330
2F6
100
AcDbEntity
  8
Layer 1
 62
     7
370
    20
100
AcDb2dPolyline
 66
     1
 10
0.0
 20
0.0
 30
0.0
  0
VERTEX
  5
2FF
330
2FE
100
AcDbEntity
  8
Layer 1
 62
     7
370
    20
100
AcDbVertex
100
AcDb2dVertex
 10
-1843.243906874259
 20
-302.4125487525219
 30
0.0
  0
VERTEX
  5
300
330
2FE
100
AcDbEntity
  8
Layer 1
 62
     7
370
    20
100
AcDbVertex
100
AcDb2dVertex
 10
-1843.243906874259
 20
529.587312693124
 30
0.0
  0
SEQEND
  5
301
330
2FE
100
AcDbEntity
  8
Layer 1
370
    20
  0
ENDBLK
  5
2F9
330
2F6
100
AcDbEntity
  8
0
100
AcDbBlockEnd
  0
BLOCK
  5
31E
330
31C
100
AcDbEntity
  8
0
100
AcDbBlockBegin
  2
block 19
 70
     0
 71
     0
 10
0.0
 20
0.0
 30
0.0
  3
block 19
  1

  0
SPLINE
  5
320
330
31C
100
AcDbEntity
  8
Layer 1
 62
     7
370
    20
100
AcDbSpline
210
0.0
220
0.0
230
1.0
 70
     8
 71
     3
 72
    32
 73
    28
 74
     0
 42
0.0000000001
 43
0.0000000001
 40
0.0
 40
0.0
 40
0.0
 40
0.0
 40
1.0
 40
1.0
 40
1.0
 40
2.0
 40
2.0
 40
2.0
 40
3.0
 40
3.0
 40
3.0
 40
4.0
 40
4.0
 40
4.0
 40
5.0
 40
5.0
 40
5.0
 40
6.0
 40
6.0
 40
6.0
 40
7.0
 40
7.0
 40
7.0
 40
8.0
 40
8.0
 40
8.0
 40
9.0
 40
9.0
 40
9.0
 40
9.0
 10
58.95557452953194
 20
529.5878294574468
 30
0.0
 10
58.95557452953194
 20
529.5878294574468
 30
0.0
 10
58.62966849662731
 20
529.5878294574468
 30
0.0
 10
58.62966849662731
 20
529.5878294574468
 30
0.0
 10
56.97257756822214
 20
529.5878294574468
 30
0.0
 10
55.62967934807175
 20
530.9307276775972
 30
0.0
 10
55.62967934807175
 20
532.5878186060024
 30
0.0
 10
55.62967934807175
 20
532.5878186060024
 30
0.0
 10
55.62967934807175
 20
568.5318778418081
 30
0.0
 10
55.62967934807175
 20
568.5318778418081
 30
0.0
 10
55.62967934807175
 20
571.3210271466663
 30
0.0
 10
57.55204262884116
 20
573.7429292727969
 30
0.0
 10
60.26884492850918
 20
574.3756210586631
 30
0.0
 10
90.11026202174327
 20
581.3247231619605
 30
0.0
 10
121.1491943056502
 20
581.3247231619605
 30
0.0
 10
150.9899223797873
 20
574.3756210586631
 30
0.0
 10
153.7074136985523
 20
573.7429292727969
 30
0.0
 10
155.6297769793217
 20
571.3210271466663
 30
0.0
 10
155.6297769793217
 20
568.5318778418081
 30
0.0
 10
155.6297769793217
 20
568.5318778418081
 30
0.0
 10
155.6297769793217
 20
532.5878186060024
 30
0.0
 10
155.6297769793217
 20
532.5878186060024
 30
0.0
 10
155.6297769793217
 20
530.9307276775972
 30
0.0
 10
154.2861897400743
 20
529.5878294574468
 30
0.0
 10
152.6297878307662
 20
529.5878294574468
 30
0.0
 10
152.6297878307662
 20
529.5878294574468
 30
0.0
 10
152.3031927787645
 20
529.5878294574468
 30
0.0
 10
152.3031927787645
 20
529.5878294574468
 30
0.0
  0
SPLINE
  5
321
330
31C
100
AcDbEntity
  8
Layer 1
 62
     7
370
    20
100
AcDbSpline
210
0.0
220
0.0
230
1.0
 70
     8
 71
     3
 72
    26
 73
    22
 74
     0
 42
0.0000000001
 43
0.0000000001
 40
0.0
 40
0.0
 40
0.0
 40
0.0
 40
1.0
 40
1.0
 40
1.0
 40
2.0
 40
2.0
 40
2.0
 40
3.0
 40
3.0
 40
3.0
 40
4.0
 40
4.0
 40
4.0
 40
5.0
 40
5.0
 40
5.0
 40
6.0
 40
6.0
 40
6.0
 40
7.0
 40
7.0
 40
7.0
 40
7.0
 10
95.82980954635505
 20
532.237796904701
 30
0.0
 10
95.82980954635505
 20
532.237796904701
 30
0.0
 10
95.82980954635505
 20
530.8377100994954
 30
0.0
 10
95.82980954635505
 20
530.8377100994954
 30
0.0
 10
95.82980954635505
 20
530.6999062800854
 30
0.0
 10
95.7174994335359
 20
530.5875961672663
 30
0.0
 10
95.57969561412591
 20
530.5875961672663
 30
0.0
 10
95.57969561412591
 20
530.5875961672663
 30
0.0
 10
94.87965221152315
 20
530.5875961672663
 30
0.0
 10
94.87965221152315
 20
530.5875961672663
 30
0.0
 10
94.74184839211316
 20
530.5875961672663
 30
0.0
 10
94.62953827929401
 20
530.4759750735442
 30
0.0
 10
94.62953827929401
 20
530.3381712541342
 30
0.0
 10
94.62953827929401
 20
530.3381712541342
 30
0.0
 10
94.62953827929401
 20
529.837943389676
 30
0.0
 10
94.62953827929401
 20
529.837943389676
 30
0.0
 10
94.62953827929401
 20
529.700139570266
 30
0.0
 10
94.51791718557192
 20
529.5878294574468
 30
0.0
 10
94.37942434706487
 20
529.5878294574468
 30
0.0
 10
94.37942434706487
 20
529.5878294574468
 30
0.0
 10
60.87897133894693
 20
529.5878294574468
 30
0.0
 10
60.87897133894693
 20
529.5878294574468
 30
0.0
  0
SPLINE
  5
322
330
31C
100
AcDbEntity
  8
Layer 1
 62
     7
370
    20
100
AcDbSpline
210
0.0
220
0.0
230
1.0
 70
     8
 71
     3
 72
    26
 73
    22
 74
     0
 42
0.0000000001
 43
0.0000000001
 40
0.0
 40
0.0
 40
0.0
 40
0.0
 40
1.0
 40
1.0
 40
1.0
 40
2.0
 40
2.0
 40
2.0
 40
3.0
 40
3.0
 40
3.0
 40
4.0
 40
4.0
 40
4.0
 40
5.0
 40
5.0
 40
5.0
 40
6.0
 40
6.0
 40
6.0
 40
7.0
 40
7.0
 40
7.0
 40
7.0
 10
150.380140478898
 20
529.5878294574468
 30
0.0
 10
150.380140478898
 20
529.5878294574468
 30
0.0
 10
116.8800319803286
 20
529.5878294574468
 30
0.0
 10
116.8800319803286
 20
529.5878294574468
 30
0.0
 10
116.7415391418216
 20
529.5878294574468
 30
0.0
 10
116.6292290290024
 20
529.700139570266
 30
0.0
 10
116.6292290290024
 20
529.837943389676
 30
0.0
 10
116.6292290290024
 20
529.837943389676
 30
0.0
 10
116.6292290290024
 20
530.3381712541342
 30
0.0
 10
116.6292290290024
 20
530.3381712541342
 30
0.0
 10
116.6292290290024
 20
530.4759750735442
 30
0.0
 10
116.5176079352803
 20
530.5875961672663
 30
0.0
 10
116.3798041158703
 20
530.5875961672663
 30
0.0
 10
116.3798041158703
 20
530.5875961672663
 30
0.0
 10
115.6797607132676
 20
530.5875961672663
 30
0.0
 10
115.6797607132676
 20
530.5875961672663
 30
0.0
 10
115.5419568938576
 20
530.5875961672663
 30
0.0
 10
115.4296467810384
 20
530.6999062800854
 30
0.0
 10
115.4296467810384
 20
530.8377100994954
 30
0.0
 10
115.4296467810384
 20
530.8377100994954
 30
0.0
 10
115.4296467810384
 20
532.237796904701
 30
0.0
 10
115.4296467810384
 20
532.237796904701
 30
0.0
  0
SPLINE
  5
323
330
31C
100
AcDbEntity
  8
Layer 1
 62
     7
370
    20
100
AcDbSpline
210
0.0
220
0.0
230
1.0
 70
     8
 71
     3
 72
    74
 73
    70
 74
     0
 42
0.0000000001
 43
0.0000000001
 40
0.0
 40
0.0
 40
0.0
 40
0.0
 40
1.0
 40
1.0
 40
1.0
 40
2.0
 40
2.0
 40
2.0
 40
3.0
 40
3.0
 40
3.0
 40
4.0
 40
4.0
 40
4.0
 40
5.0
 40
5.0
 40
5.0
 40
6.0
 40
6.0
 40
6.0
 40
7.0
 40
7.0
 40
7.0
 40
8.0
 40
8.0
 40
8.0
 40
9.0
 40
9.0
 40
9.0
 40
10.0
 40
10.0
 40
10.0
 40
11.0
 40
11.0
 40
11.0
 40
12.0
 40
12.0
 40
12.0
 40
13.0
 40
13.0
 40
13.0
 40
14.0
 40
14.0
 40
14.0
 40
15.0
 40
15.0
 40
15.0
 40
16.0
 40
16.0
 40
16.0
 40
17.0
 40
17.0
 40
17.0
 40
18.0
 40
18.0
 40
18.0
 40
19.0
 40
19.0
 40
19.0
 40
20.0
 40
20.0
 40
20.0
 40
21.0
 40
21.0
 40
21.0
 40
22.0
 40
22.0
 40
22.0
 40
23.0
 40
23.0
 40
23.0
 40
23.0
 10
114.8298556570564
 20
531.5878796414086
 30
0.0
 10
114.8298556570564
 20
531.5878796414086
 30
0.0
 10
111.1963134487634
 20
531.5878796414086
 30
0.0
 10
111.1963134487634
 20
531.5878796414086
 30
0.0
 10
111.0898599982692
 20
531.5878796414086
 30
0.0
 10
110.9882296814543
 20
531.6293930420059
 30
0.0
 10
110.9131265998759
 20
531.7046683783586
 30
0.0
 10
110.9131265998759
 20
531.7046683783586
 30
0.0
 10
110.8425021424283
 20
531.7756373453548
 30
0.0
 10
110.8425021424283
 20
531.7756373453548
 30
0.0
 10
110.7856580669216
 20
531.8317924017643
 30
0.0
 10
110.7095214566976
 20
531.8634872802286
 30
0.0
 10
110.6295952414398
 20
531.8634872802286
 30
0.0
 10
110.5503580452791
 20
531.8634872802286
 30
0.0
 10
110.4742214350551
 20
531.8317924017643
 30
0.0
 10
110.417721869097
 20
531.7756373453548
 30
0.0
 10
110.417721869097
 20
531.7756373453548
 30
0.0
 10
110.3474419211979
 20
531.7050128879071
 30
0.0
 10
110.3474419211979
 20
531.7050128879071
 30
0.0
 10
110.2719943300709
 20
531.6299098063287
 30
0.0
 10
110.1700195037075
 20
531.5878796414086
 30
0.0
 10
110.0642550723103
 20
531.5878796414086
 30
0.0
 10
110.0642550723103
 20
531.5878796414086
 30
0.0
 10
106.1954128423748
 20
531.5878796414086
 30
0.0
 10
106.1954128423748
 20
531.5878796414086
 30
0.0
 10
106.0893039014291
 20
531.5878796414086
 30
0.0
 10
105.9880180941627
 20
531.6293930420059
 30
0.0
 10
105.9129150125843
 20
531.7046683783586
 30
0.0
 10
105.9129150125843
 20
531.7046683783586
 30
0.0
 10
105.8419460455881
 20
531.7756373453548
 30
0.0
 10
105.8419460455881
 20
531.7756373453548
 30
0.0
 10
105.7857909891786
 20
531.8317924017643
 30
0.0
 10
105.7096543789545
 20
531.8634872802286
 30
0.0
 10
105.6297281636967
 20
531.8634872802286
 30
0.0
 10
105.5501464579875
 20
531.8634872802286
 30
0.0
 10
105.474354357312
 20
531.8317924017643
 30
0.0
 10
105.4178547913539
 20
531.7756373453548
 30
0.0
 10
105.4178547913539
 20
531.7756373453548
 30
0.0
 10
105.3468858243577
 20
531.7050128879071
 30
0.0
 10
105.3468858243577
 20
531.7050128879071
 30
0.0
 10
105.2717827427793
 20
531.6299098063287
 30
0.0
 10
105.1701524259644
 20
531.5878796414086
 30
0.0
 10
105.0643879945672
 20
531.5878796414086
 30
0.0
 10
105.0643879945672
 20
531.5878796414086
 30
0.0
 10
101.1955457646317
 20
531.5878796414086
 30
0.0
 10
101.1955457646317
 20
531.5878796414086
 30
0.0
 10
101.089436823686
 20
531.5878796414086
 30
0.0
 10
100.9878065068711
 20
531.6293930420059
 30
0.0
 10
100.9123589157441
 20
531.7046683783586
 30
0.0
 10
100.9123589157441
 20
531.7046683783586
 30
0.0
 10
100.842078967845
 20
531.7756373453548
 30
0.0
 10
100.842078967845
 20
531.7756373453548
 30
0.0
 10
100.842078967845
 20
531.7756373453548
 30
0.0
 10
100.842078967845
 20
531.7756373453548
 30
0.0
 10
100.842078967845
 20
531.7756373453548
 30
0.0
 10
100.7852348923384
 20
531.8317924017643
 30
0.0
 10
100.7094427916629
 20
531.8634872802286
 30
0.0
 10
100.6302055955022
 20
531.8634872802286
 30
0.0
 10
100.5502793802444
 20
531.8634872802286
 30
0.0
 10
100.4737982604718
 20
531.8317924017643
 30
0.0
 10
100.4172986945137
 20
531.7756373453548
 30
0.0
 10
100.4172986945137
 20
531.7756373453548
 30
0.0
 10
100.3466742370661
 20
531.7050128879071
 30
0.0
 10
100.3466742370661
 20
531.7050128879071
 30
0.0
 10
100.2715711554877
 20
531.6299098063287
 30
0.0
 10
100.1706298577699
 20
531.5878796414086
 30
0.0
 10
100.0641764072756
 20
531.5878796414086
 30
0.0
 10
100.0641764072756
 20
531.5878796414086
 30
0.0
 10
96.42994517988558
 20
531.5878796414086
 30
0.0
 10
96.42994517988558
 20
531.5878796414086
 30
0.0
  0
ENDBLK
  5
31F
330
31C
100
AcDbEntity
  8
0
100
AcDbBlockEnd
  0
ENDSEC
  0
SECTION
  2
ENTITIES
  0
INSERT
  5
3D
330
1F
100
AcDbEntity
  8
Layer 1
100
AcDbBlockReference
  2
block 2
 10
0.0
 20
0.0
 30
0.0
  0
ENDSEC
  0
SECTION
  2
OBJECTS
  0
DICTIONARY
  5
C
330
0
100
AcDbDictionary
281
     1
  3
ACAD_GROUP
350
D
  3
ACAD_LAYOUT
350
1A
  3
ACAD_MLINESTYLE
350
17
  3
ACAD_PLOTSETTINGS
350
19
  3
ACAD_PLOTSTYLENAME
350
E
  3
ACAD_TABLESTYLE
350
39D
  3
ACAD_VISUALSTYLE
350
2A
  0
DICTIONARY
  5
D
102
{ACAD_REACTORS
330
C
102
}
330
C
100
AcDbDictionary
281
     1
  0
DICTIONARY
  5
1A
102
{ACAD_REACTORS
330
C
102
}
330
C
100
AcDbDictionary
281
     1
  3
Layout1
350
1E
  3
Layout2
350
26
  3
Model
350
22
  0
DICTIONARY
  5
17
102
{ACAD_REACTORS
330
C
102
}
330
C
100
AcDbDictionary
281
     1
  3
Standard
350
18
  0
DICTIONARY
  5
19
102
{ACAD_REACTORS
330
C
102
}
330
C
100
AcDbDictionary
281
     1
  0
ACDBDICTIONARYWDFLT
  5
E
102
{ACAD_REACTORS
330
C
102
}
330
C
100
AcDbDictionary
281
     1
  3
Normal
350
F
100
AcDbDictionaryWithDefault
340
F
  0
DICTIONARY
  5
39D
102
{ACAD_REACTORS
330
C
102
}
330
C
100
AcDbDictionary
281
     1
  0
DICTIONARY
  5
2A
102
{ACAD_REACTORS
330
C
102
}
330
C
100
AcDbDictionary
281
     1
  3
2dWireframe
350
2F
  3
3D Hidden
350
31
  3
3dWireframe
350
30
  3
Basic
350
32
  3
Brighten
350
36
  3
ColorChange
350
3A
  3
Conceptual
350
34
  3
Dim
350
35
  3
Facepattern
350
39
  3
Flat
350
2B
  3
FlatWithEdges
350
2C
  3
Gouraud
350
2D
  3
GouraudWithEdges
350
2E
  3
Linepattern
350
38
  3
Realistic
350
33
  3
Thicken
350
37
  0
LAYOUT
  5
1E
102
{ACAD_REACTORS
330
1A
102
}
330
1A
100
AcDbPlotSettings
  1

  2
none_device
  4

  6

 40
0.0
 41
0.0
 42
0.0
 43
0.0
 44
0.0
 45
0.0
 46
0.0
 47
0.0
 48
0.0
 49
0.0
140
0.0
141
0.0
142
1.0
143
1.0
 70
   688
 72
     0
 73
     0
 74
     5
  7

 75
    16
147
1.0
148
0.0
149
0.0
100
AcDbLayout
  1
Layout1
 70
     1
 71
     1
 10
0.0
 20
0.0
 11
12.0
 21
9.0
 12
0.0
 22
0.0
 32
0.0
 14
1.000000000000000E+20
 24
1.000000000000000E+20
 34
1.000000000000000E+20
 15
-1.000000000000000E+20
 25
-1.000000000000000E+20
 35
-1.000000000000000E+20
146
0.0
 13
0.0
 23
0.0
 33
0.0
 16
1.0
 26
0.0
 36
0.0
 17
0.0
 27
1.0
 37
0.0
 76
     0
330
1B
  0
LAYOUT
  5
26
102
{ACAD_REACTORS
330
1A
102
}
330
1A
100
AcDbPlotSettings
  1

  2
none_device
  4

  6

 40
0.0
 41
0.0
 42
0.0
 43
0.0
 44
0.0
 45
0.0
 46
0.0
 47
0.0
 48
0.0
 49
0.0
140
0.0
141
0.0
142
1.0
143
1.0
 70
   688
 72
     0
 73
     0
 74
     5
  7

 75
    16
147
1.0
148
0.0
149
0.0
100
AcDbLayout
  1
Layout2
 70
     1
 71
     2
 10
0.0
 20
0.0
 11
0.0
 21
0.0
 12
0.0
 22
0.0
 32
0.0
 14
0.0
 24
0.0
 34
0.0
 15
0.0
 25
0.0
 35
0.0
146
0.0
 13
0.0
 23
0.0
 33
0.0
 16
1.0
 26
0.0
 36
0.0
 17
0.0
 27
1.0
 37
0.0
 76
     0
330
23
  0
LAYOUT
  5
22
102
{ACAD_REACTORS
330
1A
102
}
330
1A
100
AcDbPlotSettings
  1

  2
none_device
  4

  6

 40
0.0
 41
0.0
 42
0.0
 43
0.0
 44
0.0
 45
0.0
 46
0.0
 47
0.0
 48
0.0
 49
0.0
140
0.0
141
0.0
142
1.0
143
1.0
 70
  1712
 72
     0
 73
     0
 74
     0
  7

 75
     0
147
1.0
148
0.0
149
0.0
100
AcDbLayout
  1
Model
 70
     1
 71
     0
 10
0.0
 20
0.0
 11
12.0
 21
9.0
 12
0.0
 22
0.0
 32
0.0
 14
1.000000000000000E+20
 24
1.000000000000000E+20
 34
1.000000000000000E+20
 15
-1.000000000000000E+20
 25
-1.000000000000000E+20
 35
-1.000000000000000E+20
146
0.0
 13
0.0
 23
0.0
 33
0.0
 16
1.0
 26
0.0
 36
0.0
 17
0.0
 27
1.0
 37
0.0
 76
     0
330
1F
331
29
  0
MLINESTYLE
  5
18
102
{ACAD_REACTORS
330
17
102
}
330
17
100
AcDbMlineStyle
  2
Standard
 70
     0
  3

 62
   256
 51
90.0
 52
90.0
 71
     2
 49
0.5
 62
   256
  6
BYLAYER
 49
-0.5
 62
   256
  6
BYLAYER
  0
ACDBPLACEHOLDER
  5
F
102
{ACAD_REACTORS
330
E
102
}
330
E
  0
VISUALSTYLE
  5
2F
102
{ACAD_REACTORS
330
2A
102
}
330
2A
100
AcDbVisualStyle
  2
2dWireframe
 70
     4
 71
     0
 72
     2
 73
     0
 90
        0
 40
-0.6
 41
-30.0
 62
     5
 63
     7
 74
     1
 91
        4
 64
     7
 65
   257
 75
     1
175
     1
 42
1.0
 92
        0
 66
   257
 43
1.0
 76
     1
 77
     6
 78
     2
 67
     7
 79
     5
170
     0
171
     0
290
     0
174
     0
 93
        1
 44
0.0
173
     0
291
     0
 45
0.0
1001
ACAD
1000
AcDbSavedByObjectVersion
1070
     0
  0
VISUALSTYLE
  5
31
102
{ACAD_REACTORS
330
2A
102
}
330
2A
100
AcDbVisualStyle
  2
3D Hidden
 70
     6
 71
     1
 72
     2
 73
     2
 90
        0
 40
-0.6
 41
-30.0
 62
     5
 63
     7
 74
     2
 91
        2
 64
     7
 65
   257
 75
     2
175
     1
 42
40.0
 92
        0
 66
   257
 43
1.0
 76
     1
 77
     6
 78
     2
 67
     7
 79
     3
170
     0
171
     0
290
     0
174
     0
 93
        1
 44
0.0
173
     0
291
     0
 45
0.0
1001
ACAD
1000
AcDbSavedByObjectVersion
1070
     0
  0
VISUALSTYLE
  5
30
102
{ACAD_REACTORS
330
2A
102
}
330
2A
100
AcDbVisualStyle
  2
3dWireframe
 70
     5
 71
     0
 72
     2
 73
     0
 90
        0
 40
-0.6
 41
-30.0
 62
     5
 63
     7
 74
     1
 91
        4
 64
     7
 65
   257
 75
     1
175
     1
 42
1.0
 92
        0
 66
   257
 43
1.0
 76
     1
 77
     6
 78
     2
 67
     7
 79
     5
170
     0
171
     0
290
     0
174
     0
 93
        1
 44
0.0
173
     0
291
     0
 45
0.0
1001
ACAD
1000
AcDbSavedByObjectVersion
1070
     0
  0
VISUALSTYLE
  5
32
102
{ACAD_REACTORS
330
2A
102
}
330
2A
100
AcDbVisualStyle
  2
Basic
 70
     7
 71
     1
 72
     0
 73
     1
 90
        0
 40
-0.6
 41
-30.0
 62
     5
 63
     7
 74
     0
 91
        4
 64
     7
 65
   257
 75
     1
175
     1
 42
1.0
 92
        8
 66
     7
 43
1.0
 76
     1
 77
     6
 78
     2
 67
     7
 79
     5
170
     0
171
     0
290
     0
174
     0
 93
        1
 44
0.0
173
     0
291
     1
 45
0.0
1001
ACAD
1000
AcDbSavedByObjectVersion
1070
     0
  0
VISUALSTYLE
  5
36
102
{ACAD_REACTORS
330
2A
102
}
330
2A
100
AcDbVisualStyle
  2
Brighten
 70
    12
 71
     2
 72
     2
 73
     0
 90
        0
 40
-0.6
 41
-30.0
 62
     5
 63
     7
 74
     1
 91
        4
 64
     7
 65
   257
 75
     1
175
     1
 42
1.0
 92
        8
 66
     7
 43
1.0
 76
     1
 77
     6
 78
     2
 67
     7
 79
     5
170
     0
171
     0
290
     0
174
     0
 93
        1
 44
50.0
173
     0
291
     1
 45
0.0
1001
ACAD
1000
AcDbSavedByObjectVersion
1070
     0
  0
VISUALSTYLE
  5
3A
102
{ACAD_REACTORS
330
2A
102
}
330
2A
100
AcDbVisualStyle
  2
ColorChange
 70
    16
 71
     2
 72
     2
 73
     3
 90
        0
 40
-0.6
 41
-30.0
 62
     5
 63
     8
 74
     1
 91
        4
 64
     7
 65
   257
 75
     1
175
     1
 42
1.0
 92
        8
 66
     8
 43
1.0
 76
     1
 77
     6
 78
     2
 67
     7
 79
     5
170
     0
171
     0
290
     0
174
     0
 93
        1
 44
0.0
173
     0
291
     1
 45
0.0
1001
ACAD
1000
AcDbSavedByObjectVersion
1070
     0
  0
VISUALSTYLE
  5
34
102
{ACAD_REACTORS
330
2A
102
}
330
2A
100
AcDbVisualStyle
  2
Conceptual
 70
     9
 71
     3
 72
     2
 73
     0
 90
        0
 40
-0.6
 41
-30.0
 62
     5
 63
     7
 74
     2
 91
        2
 64
     7
 65
   257
 75
     1
175
     1
 42
40.0
 92
        8
 66
     7
 43
1.0
 76
     1
 77
     6
 78
     2
 67
     7
 79
     3
170
     0
171
     0
290
     0
174
     0
 93
        1
 44
0.0
173
     0
291
     0
 45
0.0
1001
ACAD
1000
AcDbSavedByObjectVersion
1070
     0
  0
VISUALSTYLE
  5
35
102
{ACAD_REACTORS
330
2A
102
}
330
2A
100
AcDbVisualStyle
  2
Dim
 70
    11
 71
     2
 72
     2
 73
     0
 90
        0
 40
-0.6
 41
-30.0
 62
     5
 63
     7
 74
     1
 91
        4
 64
     7
 65
   257
 75
     1
175
     1
 42
1.0
 92
        8
 66
     7
 43
1.0
 76
     1
 77
     6
 78
     2
 67
     7
 79
     5
170
     0
171
     0
290
     0
174
     0
 93
        1
 44
-50.0
173
     0
291
     1
 45
0.0
1001
ACAD
1000
AcDbSavedByObjectVersion
1070
     0
  0
VISUALSTYLE
  5
39
102
{ACAD_REACTORS
330
2A
102
}
330
2A
100
AcDbVisualStyle
  2
Facepattern
 70
    15
 71
     2
 72
     2
 73
     0
 90
        0
 40
-0.6
 41
-30.0
 62
     5
 63
     7
 74
     1
 91
        4
 64
     7
 65
   257
 75
     1
175
     1
 42
1.0
 92
        8
 66
     7
 43
1.0
 76
     1
 77
     6
 78
     2
 67
     7
 79
     5
170
     0
171
     0
290
     0
174
     0
 93
        1
 44
0.0
173
     0
291
     1
 45
0.0
1001
ACAD
1000
AcDbSavedByObjectVersion
1070
     0
  0
VISUALSTYLE
  5
2B
102
{ACAD_REACTORS
330
2A
102
}
330
2A
100
AcDbVisualStyle
  2
Flat
 70
     0
 71
     2
 72
     1
 73
     1
 90
        2
 40
-0.6
 41
30.0
 62
     5
 63
     7
 74
     0
 91
        4
 64
     7
 65
   257
 75
     1
175
     1
 42
1.0
 92
        8
 66
     7
 43
1.0
 76
     1
 77
     6
 78
     2
 67
     7
 79
     5
170
     0
171
     0
290
     0
174
     0
 93
       13
 44
0.0
173
     0
291
     1
 45
0.0
1001
ACAD
1000
AcDbSavedByObjectVersion
1070
     0
  0
VISUALSTYLE
  5
2C
102
{ACAD_REACTORS
330
2A
102
}
330
2A
100
AcDbVisualStyle
  2
FlatWithEdges
 70
     1
 71
     2
 72
     1
 73
     1
 90
        2
 40
-0.6
 41
30.0
 62
     5
 63
     7
 74
     1
 91
        4
 64
     7
 65
   257
 75
     1
175
     1
 42
1.0
 92
        0
 66
   257
 43
1.0
 76
     1
 77
     6
 78
     2
 67
     7
 79
     5
170
     0
171
     0
290
     0
174
     0
 93
       13
 44
0.0
173
     0
291
     1
 45
0.0
1001
ACAD
1000
AcDbSavedByObjectVersion
1070
     0
  0
VISUALSTYLE
  5
2D
102
{ACAD_REACTORS
330
2A
102
}
330
2A
100
AcDbVisualStyle
  2
Gouraud
 70
     2
 71
     2
 72
     2
 73
     1
 90
        2
 40
-0.6
 41
30.0
 62
     5
 63
     7
 74
     0
 91
        4
 64
     7
 65
   257
 75
     1
175
     1
 42
1.0
 92
        0
 66
     7
 43
1.0
 76
     1
 77
     6
 78
     2
 67
     7
 79
     5
170
     0
171
     0
290
     0
174
     0
 93
       13
 44
0.0
173
     0
291
     1
 45
0.0
1001
ACAD
1000
AcDbSavedByObjectVersion
1070
     0
  0
VISUALSTYLE
  5
2E
102
{ACAD_REACTORS
330
2A
102
}
330
2A
100
AcDbVisualStyle
  2
GouraudWithEdges
 70
     3
 71
     2
 72
     2
 73
     1
 90
        2
 40
-0.6
 41
30.0
 62
     5
 63
     7
 74
     1
 91
        4
 64
     7
 65
   257
 75
     1
175
     1
 42
1.0
 92
        0
 66
   257
 43
1.0
 76
     1
 77
     6
 78
     2
 67
     7
 79
     5
170
     0
171
     0
290
     0
174
     0
 93
       13
 44
0.0
173
     0
291
     1
 45
0.0
1001
ACAD
1000
AcDbSavedByObjectVersion
1070
     0
  0
VISUALSTYLE
  5
38
102
{ACAD_REACTORS
330
2A
102
}
330
2A
100
AcDbVisualStyle
  2
Linepattern
 70
    14
 71
     2
 72
     2
 73
     0
 90
        0
 40
-0.6
 41
-30.0
 62
     5
 63
     7
 74
     1
 91
        4
 64
     7
 65
   257
 75
     7
175
     7
 42
1.0
 92
        8
 66
     7
 43
1.0
 76
     1
 77
     6
 78
     2
 67
     7
 79
     5
170
     0
171
     0
290
     0
174
     0
 93
        1
 44
0.0
173
     0
291
     1
 45
0.0
1001
ACAD
1000
AcDbSavedByObjectVersion
1070
     0
  0
VISUALSTYLE
  5
33
102
{ACAD_REACTORS
330
2A
102
}
330
2A
100
AcDbVisualStyle
  2
Realistic
 70
     8
 71
     2
 72
     2
 73
     0
 90
        0
 40
-0.6
 41
-30.0
 62
     5
 63
     7
 74
     1
 91
        0
 64
     7
 65
   257
 75
     1
175
     1
 42
1.0
 92
        8
 66
     8
 43
1.0
 76
     1
 77
     6
 78
     2
 67
     7
 79
     5
170
     0
171
     0
290
     0
174
     0
 93
       13
 44
0.0
173
     0
291
     0
 45
0.0
1001
ACAD
1000
AcDbSavedByObjectVersion
1070
     0
  0
VISUALSTYLE
  5
37
102
{ACAD_REACTORS
330
2A
102
}
330
2A
100
AcDbVisualStyle
  2
Thicken
 70
    13
 71
     2
 72
     2
 73
     0
 90
        0
 40
-0.6
 41
-30.0
 62
     5
 63
     7
 74
     1
 91
        4
 64
     7
 65
   257
 75
     1
175
     1
 42
1.0
 92
       12
 66
     7
 43
1.0
 76
     1
 77
     6
 78
     2
 67
     7
 79
     5
170
     0
171
     0
290
     0
174
     0
 93
        1
 44
0.0
173
     0
291
     1
 45
0.0
1001
ACAD
1000
AcDbSavedByObjectVersion
1070
     0
  0
ENDSEC
  0
EOF
