  0
SECTION
  2
HEADER
  9
$ACADVER
  1
AC1015
  9
$ACADMAINTVER
 70
     6
  9
$DWGCODEPAGE
  3
ANSI_1252
  9
$INSBASE
 10
0.0
 20
0.0
 30
0.0
  9
$EXTMIN
 10
1.000000000000000E+20
 20
1.000000000000000E+20
 30
1.000000000000000E+20
  9
$EXTMAX
 10
-1.000000000000000E+20
 20
-1.000000000000000E+20
 30
-1.000000000000000E+20
  9
$LIMMIN
 10
0.0
 20
0.0
  9
$LIMMAX
 10
12.0
 20
9.0
  9
$ORTHOMODE
 70
     0
  9
$REGENMODE
 70
     1
  9
$FILLMODE
 70
     1
  9
$QTEXTMODE
 70
     0
  9
$MIRRTEXT
 70
     1
  9
$LTSCALE
 40
1.0
  9
$ATTMODE
 70
     1
  9
$TEXTSIZE
 40
0.2
  9
$TRACEWID
 40
0.05
  9
$TEXTSTYLE
  7
Standard
  9
$CLAYER
  8
0
  9
$CELTYPE
  6
ByLayer
  9
$CECOLOR
 62
   256
  9
$CELTSCALE
 40
1.0
  9
$DISPSILH
 70
     0
  9
$DIMSCALE
 40
1.0
  9
$DIMASZ
 40
0.18
  9
$DIMEXO
 40
0.0625
  9
$DIMDLI
 40
0.38
  9
$DIMRND
 40
0.0
  9
$DIMDLE
 40
0.0
  9
$DIMEXE
 40
0.18
  9
$DIMTP
 40
0.0
  9
$DIMTM
 40
0.0
  9
$DIMTXT
 40
0.18
  9
$DIMCEN
 40
0.09
  9
$DIMTSZ
 40
0.0
  9
$DIMTOL
 70
     0
  9
$DIMLIM
 70
     0
  9
$DIMTIH
 70
     1
  9
$DIMTOH
 70
     1
  9
$DIMSE1
 70
     0
  9
$DIMSE2
 70
     0
  9
$DIMTAD
 70
     0
  9
$DIMZIN
 70
     0
  9
$DIMBLK
  1

  9
$DIMASO
 70
     1
  9
$DIMSHO
 70
     1
  9
$DIMPOST
  1

  9
$DIMAPOST
  1

  9
$DIMALT
 70
     0
  9
$DIMALTD
 70
     2
  9
$DIMALTF
 40
25.4
  9
$DIMLFAC
 40
1.0
  9
$DIMTOFL
 70
     0
  9
$DIMTVP
 40
0.0
  9
$DIMTIX
 70
     0
  9
$DIMSOXD
 70
     0
  9
$DIMSAH
 70
     0
  9
$DIMBLK1
  1

  9
$DIMBLK2
  1

  9
$DIMSTYLE
  2
Standard
  9
$DIMCLRD
 70
     0
  9
$DIMCLRE
 70
     0
  9
$DIMCLRT
 70
     0
  9
$DIMTFAC
 40
1.0
  9
$DIMGAP
 40
0.09
  9
$DIMJUST
 70
     0
  9
$DIMSD1
 70
     0
  9
$DIMSD2
 70
     0
  9
$DIMTOLJ
 70
     1
  9
$DIMTZIN
 70
     0
  9
$DIMALTZ
 70
     0
  9
$DIMALTTZ
 70
     0
  9
$DIMUPT
 70
     0
  9
$DIMDEC
 70
     4
  9
$DIMTDEC
 70
     4
  9
$DIMALTU
 70
     2
  9
$DIMALTTD
 70
     2
  9
$DIMTXSTY
  7
Standard
  9
$DIMAUNIT
 70
     0
  9
$DIMADEC
 70
     0
  9
$DIMALTRND
 40
0.0
  9
$DIMAZIN
 70
     0
  9
$DIMDSEP
 70
    46
  9
$DIMATFIT
 70
     3
  9
$DIMFRAC
 70
     0
  9
$DIMLDRBLK
  1

  9
$DIMLUNIT
 70
     2
  9
$DIMLWD
 70
    -2
  9
$DIMLWE
 70
    -2
  9
$DIMTMOVE
 70
     0
  9
$LUNITS
 70
     2
  9
$LUPREC
 70
     4
  9
$SKETCHINC
 40
0.1
  9
$FILLETRAD
 40
0.5
  9
$AUNITS
 70
     0
  9
$AUPREC
 70
     0
  9
$MENU
  1
.
  9
$ELEVATION
 40
0.0
  9
$PELEVATION
 40
0.0
  9
$THICKNESS
 40
0.0
  9
$LIMCHECK
 70
     0
  9
$CHAMFERA
 40
0.5
  9
$CHAMFERB
 40
0.5
  9
$CHAMFERC
 40
1.0
  9
$CHAMFERD
 40
0.0
  9
$SKPOLY
 70
     0
  9
$TDCREATE
 40
2456020.374115463
  9
$TDUCREATE
 40
2456019.874115463
  9
$TDUPDATE
 40
2456020.374115475
  9
$TDUUPDATE
 40
2456019.874115475
  9
$TDINDWG
 40
0.0000000116
  9
$TDUSRTIMER
 40
0.0000000116
  9
$USRTIMER
 70
     1
  9
$ANGBASE
 50
0.0
  9
$ANGDIR
 70
     0
  9
$PDMODE
 70
     0
  9
$PDSIZE
 40
0.0
  9
$PLINEWID
 40
0.0
  9
$SPLFRAME
 70
     0
  9
$SPLINETYPE
 70
     6
  9
$SPLINESEGS
 70
     8
  9
$HANDSEED
  5
3CB
  9
$SURFTAB1
 70
     6
  9
$SURFTAB2
 70
     6
  9
$SURFTYPE
 70
     6
  9
$SURFU
 70
     6
  9
$SURFV
 70
     6
  9
$UCSBASE
  2

  9
$UCSNAME
  2

  9
$UCSORG
 10
0.0
 20
0.0
 30
0.0
  9
$UCSXDIR
 10
1.0
 20
0.0
 30
0.0
  9
$UCSYDIR
 10
0.0
 20
1.0
 30
0.0
  9
$UCSORTHOREF
  2

  9
$UCSORTHOVIEW
 70
     0
  9
$UCSORGTOP
 10
0.0
 20
0.0
 30
0.0
  9
$UCSORGBOTTOM
 10
0.0
 20
0.0
 30
0.0
  9
$UCSORGLEFT
 10
0.0
 20
0.0
 30
0.0
  9
$UCSORGRIGHT
 10
0.0
 20
0.0
 30
0.0
  9
$UCSORGFRONT
 10
0.0
 20
0.0
 30
0.0
  9
$UCSORGBACK
 10
0.0
 20
0.0
 30
0.0
  9
$PUCSBASE
  2

  9
$PUCSNAME
  2

  9
$PUCSORG
 10
0.0
 20
0.0
 30
0.0
  9
$PUCSXDIR
 10
1.0
 20
0.0
 30
0.0
  9
$PUCSYDIR
 10
0.0
 20
1.0
 30
0.0
  9
$PUCSORTHOREF
  2

  9
$PUCSORTHOVIEW
 70
     0
  9
$PUCSORGTOP
 10
0.0
 20
0.0
 30
0.0
  9
$PUCSORGBOTTOM
 10
0.0
 20
0.0
 30
0.0
  9
$PUCSORGLEFT
 10
0.0
 20
0.0
 30
0.0
  9
$PUCSORGRIGHT
 10
0.0
 20
0.0
 30
0.0
  9
$PUCSORGFRONT
 10
0.0
 20
0.0
 30
0.0
  9
$PUCSORGBACK
 10
0.0
 20
0.0
 30
0.0
  9
$USERI1
 70
     0
  9
$USERI2
 70
     0
  9
$USERI3
 70
     0
  9
$USERI4
 70
     0
  9
$USERI5
 70
     0
  9
$USERR1
 40
0.0
  9
$USERR2
 40
0.0
  9
$USERR3
 40
0.0
  9
$USERR4
 40
0.0
  9
$USERR5
 40
0.0
  9
$WORLDVIEW
 70
     1
  9
$SHADEDGE
 70
     3
  9
$SHADEDIF
 70
    70
  9
$TILEMODE
 70
     1
  9
$MAXACTVP
 70
    64
  9
$PINSBASE
 10
0.0
 20
0.0
 30
0.0
  9
$PLIMCHECK
 70
     0
  9
$PEXTMIN
 10
1.000000000000000E+20
 20
1.000000000000000E+20
 30
1.000000000000000E+20
  9
$PEXTMAX
 10
-1.000000000000000E+20
 20
-1.000000000000000E+20
 30
-1.000000000000000E+20
  9
$PLIMMIN
 10
0.0
 20
0.0
  9
$PLIMMAX
 10
12.0
 20
9.0
  9
$UNITMODE
 70
     0
  9
$VISRETAIN
 70
     1
  9
$PLINEGEN
 70
     0
  9
$PSLTSCALE
 70
     1
  9
$TREEDEPTH
 70
  3020
  9
$CMLSTYLE
  2
Standard
  9
$CMLJUST
 70
     0
  9
$CMLSCALE
 40
1.0
  9
$PROXYGRAPHICS
 70
     1
  9
$MEASUREMENT
 70
     0
  9
$CELWEIGHT
370
    -1
  9
$ENDCAPS
280
     0
  9
$JOINSTYLE
280
     0
  9
$LWDISPLAY
290
     1
  9
$INSUNITS
 70
     1
  9
$HYPERLINKBASE
  1

  9
$STYLESHEET
  1

  9
$XEDIT
290
     1
  9
$CEPSNTYPE
380
     0
  9
$PSTYLEMODE
290
     1
  9
$FINGERPRINTGUID
  2
{A59F57F0-F4EE-4FE7-8560-6326D19FAC16}
  9
$VERSIONGUID
  2
{FAEB1C32-E019-11D5-929B-00C0DF256EC4}
  9
$EXTNAMES
290
     1
  9
$PSVPSCALE
 40
0.0
  9
$OLESTARTUP
290
     0
  0
ENDSEC
  0
SECTION
  2
CLASSES
  0
CLASS
  1
ACDBDICTIONARYWDFLT
  2
AcDbDictionaryWithDefault
  3
ObjectDBX Classes
 90
        0
280
     0
281
     0
  0
CLASS
  1
VISUALSTYLE
  2
AcDbVisualStyle
  3
ObjectDBX Classes
 90
     4095
280
     0
281
     0
  0
CLASS
  1
ACDBPLACEHOLDER
  2
AcDbPlaceHolder
  3
ObjectDBX Classes
 90
        0
280
     0
281
     0
  0
CLASS
  1
LAYOUT
  2
AcDbLayout
  3
ObjectDBX Classes
 90
        0
280
     0
281
     0
  0
ENDSEC
  0
SECTION
  2
TABLES
  0
TABLE
  2
VPORT
  5
8
330
0
100
AcDbSymbolTable
 70
     1
  0
VPORT
  5
29
330
8
100
AcDbSymbolTableRecord
100
AcDbViewportTableRecord
  2
*Active
 70
     0
 10
0.0
 20
0.0
 11
1.0
 21
1.0
 12
0.0
 22
0.0
 13
0.0
 23
0.0
 14
0.5
 24
0.5
 15
0.5
 25
0.5
 16
0.0
 26
0.0
 36
1.0
 17
104.9999647089931
 27
148.4999796178229
 37
0.0
 40
296.9999592356459
 41
0.7070705664688927
 42
50.0
 43
0.0
 44
0.0
 50
0.0
 51
0.0
 71
     0
 72
   100
 73
     1
 74
     3
 75
     0
 76
     0
 77
     0
 78
     0
281
     0
 65
     1
110
0.0
120
0.0
130
0.0
111
1.0
121
0.0
131
0.0
112
0.0
122
1.0
132
0.0
 79
     0
146
0.0
  0
ENDTAB
  0
TABLE
  2
LTYPE
  5
5
330
0
100
AcDbSymbolTable
 70
     5
  0
LTYPE
  5
14
330
5
100
AcDbSymbolTableRecord
100
AcDbLinetypeTableRecord
  2
ByBlock
 70
     0
  3

 72
    65
 73
     0
 40
0.0
  0
LTYPE
  5
15
330
5
100
AcDbSymbolTableRecord
100
AcDbLinetypeTableRecord
  2
ByLayer
 70
     0
  3

 72
    65
 73
     0
 40
0.0
  0
LTYPE
  5
16
330
5
100
AcDbSymbolTableRecord
100
AcDbLinetypeTableRecord
  2
Continuous
 70
     0
  3
Solid line
 72
    65
 73
     0
 40
0.0
  0
LTYPE
  5
14C
330
5
100
AcDbSymbolTableRecord
100
AcDbLinetypeTableRecord
  2
AI-Linetype-1
 70
     0
  3
Adobe Illustrator Linetype No. 1
 72
    65
 73
     4
 40
6.349580085345846
 49
4.233051063221081
 74
     0
 49
-0.7055096740415885
 74
     0
 49
0.7055096740415885
 74
     0
 49
-0.7055096740415885
 74
     0
  0
LTYPE
  5
151
330
5
100
AcDbSymbolTableRecord
100
AcDbLinetypeTableRecord
  2
AI-Linetype-2
 70
     0
  3
Adobe Illustrator Linetype No. 2
 72
    65
 73
     4
 40
6.349580085345846
 49
4.233051063221081
 74
     0
 49
-0.7055096740415885
 74
     0
 49
0.7055096740415885
 74
     0
 49
-0.7055096740415885
 74
     0
  0
LTYPE
  5
259
330
5
100
AcDbSymbolTableRecord
100
AcDbLinetypeTableRecord
  2
AI-Linetype-3
 70
     0
  3
Adobe Illustrator Linetype No. 3
 72
    65
 73
     2
 40
4.233061576818144
 49
2.822042228734967
 74
     0
 49
-1.411019348083177
 74
     0
  0
LTYPE
  5
312
330
5
100
AcDbSymbolTableRecord
100
AcDbLinetypeTableRecord
  2
AI-Linetype-4
 70
     0
  3
Adobe Illustrator Linetype No. 4
 72
    65
 73
     2
 40
4.233061576818144
 49
2.822042228734967
 74
     0
 49
-1.411019348083177
 74
     0
  0
ENDTAB
  0
TABLE
  2
LAYER
  5
2
330
0
100
AcDbSymbolTable
 70
     2
  0
LAYER
  5
10
330
2
100
AcDbSymbolTableRecord
100
AcDbLayerTableRecord
  2
0
 70
     0
 62
     7
  6
Continuous
370
    -3
390
F
  0
LAYER
  5
3B
330
2
100
AcDbSymbolTableRecord
100
AcDbLayerTableRecord
  2
Layer 1
 70
     0
 62
     7
  6
Continuous
370
    -3
390
F
  0
ENDTAB
  0
TABLE
  2
STYLE
  5
3
330
0
100
AcDbSymbolTable
 70
     1
  0
STYLE
  5
11
330
3
100
AcDbSymbolTableRecord
100
AcDbTextStyleTableRecord
  2
Standard
 70
     0
 40
0.0
 41
1.0
 50
0.0
 71
     0
 42
0.2
  3
txt
  4

  0
ENDTAB
  0
TABLE
  2
VIEW
  5
6
330
0
100
AcDbSymbolTable
 70
     0
  0
ENDTAB
  0
TABLE
  2
UCS
  5
7
330
0
100
AcDbSymbolTable
 70
     0
  0
ENDTAB
  0
TABLE
  2
APPID
  5
9
330
0
100
AcDbSymbolTable
 70
     1
  0
APPID
  5
12
330
9
100
AcDbSymbolTableRecord
100
AcDbRegAppTableRecord
  2
ACAD
 70
     0
  0
ENDTAB
  0
TABLE
  2
DIMSTYLE
  5
A
330
0
100
AcDbSymbolTable
 70
     1
100
AcDbDimStyleTable
  0
DIMSTYLE
105
27
330
A
100
AcDbSymbolTableRecord
100
AcDbDimStyleTableRecord
  2
Standard
 70
     0
340
11
  0
ENDTAB
  0
TABLE
  2
BLOCK_RECORD
  5
1
330
0
100
AcDbSymbolTable
 70
    23
  0
BLOCK_RECORD
  5
1F
330
1
100
AcDbSymbolTableRecord
100
AcDbBlockTableRecord
  2
*Model_Space
340
22
  0
BLOCK_RECORD
  5
1B
330
1
100
AcDbSymbolTableRecord
100
AcDbBlockTableRecord
  2
*Paper_Space
340
1E
  0
BLOCK_RECORD
  5
23
330
1
100
AcDbSymbolTableRecord
100
AcDbBlockTableRecord
  2
*Paper_Space0
340
26
  0
BLOCK_RECORD
  5
3C
330
1
100
AcDbSymbolTableRecord
100
AcDbBlockTableRecord
  2
block 2
340
0
102
{BLKREFS
331
3D
102
}
  0
BLOCK_RECORD
  5
EB
330
1
100
AcDbSymbolTableRecord
100
AcDbBlockTableRecord
  2
block 3
340
0
102
{BLKREFS
331
EC
102
}
  0
BLOCK_RECORD
  5
231
330
1
100
AcDbSymbolTableRecord
100
AcDbBlockTableRecord
  2
block 4
340
0
102
{BLKREFS
331
232
102
}
  0
BLOCK_RECORD
  5
25A
330
1
100
AcDbSymbolTableRecord
100
AcDbBlockTableRecord
  2
block 5
340
0
102
{BLKREFS
331
25B
102
}
  0
BLOCK_RECORD
  5
266
330
1
100
AcDbSymbolTableRecord
100
AcDbBlockTableRecord
  2
block 6
340
0
102
{BLKREFS
331
267
102
}
  0
BLOCK_RECORD
  5
272
330
1
100
AcDbSymbolTableRecord
100
AcDbBlockTableRecord
  2
block 7
340
0
102
{BLKREFS
331
273
102
}
  0
BLOCK_RECORD
  5
27E
330
1
100
AcDbSymbolTableRecord
100
AcDbBlockTableRecord
  2
block 8
340
0
102
{BLKREFS
331
27F
102
}
  0
BLOCK_RECORD
  5
28A
330
1
100
AcDbSymbolTableRecord
100
AcDbBlockTableRecord
  2
block 9
340
0
102
{BLKREFS
331
28B
102
}
  0
BLOCK_RECORD
  5
296
330
1
100
AcDbSymbolTableRecord
100
AcDbBlockTableRecord
  2
block 10
340
0
102
{BLKREFS
331
297
102
}
  0
BLOCK_RECORD
  5
2A2
330
1
100
AcDbSymbolTableRecord
100
AcDbBlockTableRecord
  2
block 11
340
0
102
{BLKREFS
331
2A3
102
}
  0
BLOCK_RECORD
  5
2AE
330
1
100
AcDbSymbolTableRecord
100
AcDbBlockTableRecord
  2
block 12
340
0
102
{BLKREFS
331
2AF
102
}
  0
BLOCK_RECORD
  5
2BA
330
1
100
AcDbSymbolTableRecord
100
AcDbBlockTableRecord
  2
block 13
340
0
102
{BLKREFS
331
2BB
102
}
  0
BLOCK_RECORD
  5
2C6
330
1
100
AcDbSymbolTableRecord
100
AcDbBlockTableRecord
  2
block 14
340
0
102
{BLKREFS
331
2C7
102
}
  0
BLOCK_RECORD
  5
2D2
330
1
100
AcDbSymbolTableRecord
100
AcDbBlockTableRecord
  2
block 15
340
0
102
{BLKREFS
331
2D3
102
}
  0
BLOCK_RECORD
  5
2DE
330
1
100
AcDbSymbolTableRecord
100
AcDbBlockTableRecord
  2
block 16
340
0
102
{BLKREFS
331
2DF
102
}
  0
BLOCK_RECORD
  5
2EA
330
1
100
AcDbSymbolTableRecord
100
AcDbBlockTableRecord
  2
block 17
340
0
102
{BLKREFS
331
2EB
102
}
  0
BLOCK_RECORD
  5
2F6
330
1
100
AcDbSymbolTableRecord
100
AcDbBlockTableRecord
  2
block 18
340
0
102
{BLKREFS
331
2F7
102
}
  0
BLOCK_RECORD
  5
302
330
1
100
AcDbSymbolTableRecord
100
AcDbBlockTableRecord
  2
block 19
340
0
102
{BLKREFS
331
303
102
}
  0
BLOCK_RECORD
  5
330
330
1
100
AcDbSymbolTableRecord
100
AcDbBlockTableRecord
  2
block 20
340
0
102
{BLKREFS
331
331
102
}
  0
BLOCK_RECORD
  5
34D
330
1
100
AcDbSymbolTableRecord
100
AcDbBlockTableRecord
  2
block 21
340
0
102
{BLKREFS
331
34E
102
}
  0
BLOCK_RECORD
  5
368
330
1
100
AcDbSymbolTableRecord
100
AcDbBlockTableRecord
  2
block 22
340
0
102
{BLKREFS
331
369
102
}
  0
BLOCK_RECORD
  5
383
330
1
100
AcDbSymbolTableRecord
100
AcDbBlockTableRecord
  2
block 23
340
0
102
{BLKREFS
331
384
102
}
  0
ENDTAB
  0
ENDSEC
  0
SECTION
  2
BLOCKS
  0
BLOCK
  5
20
330
1F
100
AcDbEntity
  8
0
100
AcDbBlockBegin
  2
*Model_Space
 70
     0
 71
     0
 10
0.0
 20
0.0
 30
0.0
  3
*Model_Space
  1

  0
ENDBLK
  5
21
330
1F
100
AcDbEntity
  8
0
100
AcDbBlockEnd
  0
BLOCK
  5
1C
330
1B
100
AcDbEntity
 67
     1
  8
0
100
AcDbBlockBegin
  2
*Paper_Space
 70
     0
 71
     0
 10
0.0
 20
0.0
 30
0.0
  3
*Paper_Space
  1

  0
ENDBLK
  5
1D
330
1B
100
AcDbEntity
 67
     1
  8
0
100
AcDbBlockEnd
  0
BLOCK
  5
24
330
23
100
AcDbEntity
  8
0
100
AcDbBlockBegin
  2
*Paper_Space0
 70
     0
 71
     0
 10
0.0
 20
0.0
 30
0.0
  3
*Paper_Space0
  1

  0
ENDBLK
  5
25
330
23
100
AcDbEntity
  8
0
100
AcDbBlockEnd
  0
BLOCK
  5
3E
330
3C
100
AcDbEntity
  8
0
100
AcDbBlockBegin
  2
block 2
 70
     0
 71
     0
 10
0.0
 20
0.0
 30
0.0
  3
block 2
  1

  0
POLYLINE
  5
40
330
3C
100
AcDbEntity
  8
Layer 1
370
     0
100
AcDb2dPolyline
 66
     1
 10
0.0
 20
0.0
 30
0.0
  0
VERTEX
  5
41
330
40
100
AcDbEntity
  8
Layer 1
370
     0
100
AcDbVertex
100
AcDb2dVertex
 10
179.5215141695294
 20
550.253923744815
 30
0.0
  0
VERTEX
  5
42
330
40
100
AcDbEntity
  8
Layer 1
370
     0
100
AcDbVertex
100
AcDb2dVertex
 10
178.0477023209395
 20
538.2131427690925
 30
0.0
  0
VERTEX
  5
43
330
40
100
AcDbEntity
  8
Layer 1
370
     0
100
AcDbVertex
100
AcDb2dVertex
 10
149.4244709912897
 20
553.9219169079605
 30
0.0
  0
VERTEX
  5
44
330
40
100
AcDbEntity
  8
Layer 1
370
     0
100
AcDbVertex
100
AcDb2dVertex
 10
180.9874022985032
 20
562.2888480582126
 30
0.0
  0
VERTEX
  5
45
330
40
100
AcDbEntity
  8
Layer 1
370
     0
100
AcDbVertex
100
AcDb2dVertex
 10
179.5215141695294
 20
550.253923744815
 30
0.0
  0
SEQEND
  5
46
330
40
100
AcDbEntity
  8
Layer 1
370
     0
  0
POLYLINE
  5
47
330
3C
100
AcDbEntity
  8
Layer 1
 62
     7
370
    35
100
AcDb2dPolyline
 66
     1
 10
0.0
 20
0.0
 30
0.0
  0
VERTEX
  5
48
330
47
100
AcDbEntity
  8
Layer 1
 62
     7
370
    35
100
AcDbVertex
100
AcDb2dVertex
 10
178.0459797731968
 20
538.225889622388
 30
0.0
  0
VERTEX
  5
39E
330
47
100
AcDbEntity
  8
0
100
AcDbVertex
100
AcDb2dVertex
 10
178.0459797731968
 20
538.225889622388
 30
0.0
  0
SEQEND
  5
49
330
47
100
AcDbEntity
  8
Layer 1
370
    35
  0
POLYLINE
  5
4A
330
3C
100
AcDbEntity
  8
Layer 1
 62
     7
370
    35
100
AcDb2dPolyline
 66
     1
 10
0.0
 20
0.0
 30
0.0
  0
VERTEX
  5
4B
330
4A
100
AcDbEntity
  8
Layer 1
 62
     7
370
    35
100
AcDbVertex
100
AcDb2dVertex
 10
180.9805121075327
 20
562.274723166723
 30
0.0
  0
VERTEX
  5
39F
330
4A
100
AcDbEntity
  8
0
100
AcDbVertex
100
AcDb2dVertex
 10
180.9805121075327
 20
562.274723166723
 30
0.0
  0
SEQEND
  5
4C
330
4A
100
AcDbEntity
  8
Layer 1
370
    35
  0
POLYLINE
  5
4D
330
3C
100
AcDbEntity
  8
Layer 1
 62
     7
370
    35
100
AcDb2dPolyline
 66
     1
 10
0.0
 20
0.0
 30
0.0
  0
VERTEX
  5
4E
330
4D
100
AcDbEntity
  8
Layer 1
 62
     7
370
    35
100
AcDbVertex
100
AcDb2dVertex
 10
179.5215141695294
 20
550.253923744815
 30
0.0
  0
VERTEX
  5
3A0
330
4D
100
AcDbEntity
  8
0
100
AcDbVertex
100
AcDb2dVertex
 10
179.5215141695294
 20
550.253923744815
 30
0.0
  0
SEQEND
  5
4F
330
4D
100
AcDbEntity
  8
Layer 1
370
    35
  0
POLYLINE
  5
50
330
3C
100
AcDbEntity
  8
Layer 1
 62
     7
370
    35
100
AcDb2dPolyline
 66
     1
 10
0.0
 20
0.0
 30
0.0
  0
VERTEX
  5
51
330
50
100
AcDbEntity
  8
Layer 1
 62
     7
370
    35
100
AcDbVertex
100
AcDb2dVertex
 10
179.5215141695294
 20
550.253923744815
 30
0.0
  0
VERTEX
  5
52
330
50
100
AcDbEntity
  8
Layer 1
 62
     7
370
    35
100
AcDbVertex
100
AcDb2dVertex
 10
178.0459797731968
 20
538.225889622388
 30
0.0
  0
VERTEX
  5
53
330
50
100
AcDbEntity
  8
Layer 1
 62
     7
370
    35
100
AcDbVertex
100
AcDb2dVertex
 10
149.4234374626442
 20
553.9303573918994
 30
0.0
  0
VERTEX
  5
54
330
50
100
AcDbEntity
  8
Layer 1
 62
     7
370
    35
100
AcDbVertex
100
AcDb2dVertex
 10
180.9805121075327
 20
562.274723166723
 30
0.0
  0
VERTEX
  5
55
330
50
100
AcDbEntity
  8
Layer 1
 62
     7
370
    35
100
AcDbVertex
100
AcDb2dVertex
 10
179.5215141695294
 20
550.253923744815
 30
0.0
  0
SEQEND
  5
56
330
50
100
AcDbEntity
  8
Layer 1
370
    35
  0
POLYLINE
  5
57
330
3C
100
AcDbEntity
  8
Layer 1
370
     0
100
AcDb2dPolyline
 66
     1
 10
0.0
 20
0.0
 30
0.0
  0
VERTEX
  5
58
330
57
100
AcDbEntity
  8
Layer 1
370
     0
100
AcDbVertex
100
AcDb2dVertex
 10
179.5215141695294
 20
550.253923744815
 30
0.0
  0
VERTEX
  5
59
330
57
100
AcDbEntity
  8
Layer 1
370
     0
100
AcDbVertex
100
AcDb2dVertex
 10
178.0452907540998
 20
538.225889622388
 30
0.0
  0
VERTEX
  5
5A
330
57
100
AcDbEntity
  8
Layer 1
370
     0
100
AcDbVertex
100
AcDb2dVertex
 10
178.0452907540998
 20
538.225889622388
 30
0.0
  0
VERTEX
  5
5B
330
57
100
AcDbEntity
  8
Layer 1
370
     0
100
AcDbVertex
100
AcDb2dVertex
 10
149.4234374626442
 20
553.9303573918994
 30
0.0
  0
VERTEX
  5
5C
330
57
100
AcDbEntity
  8
Layer 1
370
     0
100
AcDbVertex
100
AcDb2dVertex
 10
149.4234374626442
 20
553.9303573918994
 30
0.0
  0
VERTEX
  5
5D
330
57
100
AcDbEntity
  8
Layer 1
370
     0
100
AcDbVertex
100
AcDb2dVertex
 10
180.9812011266297
 20
562.2750676762715
 30
0.0
  0
VERTEX
  5
5E
330
57
100
AcDbEntity
  8
Layer 1
370
     0
100
AcDbVertex
100
AcDb2dVertex
 10
180.9812011266297
 20
562.2750676762715
 30
0.0
  0
VERTEX
  5
5F
330
57
100
AcDbEntity
  8
Layer 1
370
     0
100
AcDbVertex
100
AcDb2dVertex
 10
179.5215141695294
 20
550.253923744815
 30
0.0
  0
VERTEX
  5
60
330
57
100
AcDbEntity
  8
Layer 1
370
     0
100
AcDbVertex
100
AcDb2dVertex
 10
179.5215141695294
 20
550.253923744815
 30
0.0
  0
SEQEND
  5
61
330
57
100
AcDbEntity
  8
Layer 1
370
     0
  0
HATCH
  5
62
330
3C
100
AcDbEntity
  8
Layer 1
 62
     7
100
AcDbHatch
 10
0.0
 20
0.0
 30
0.0
210
0.0
220
0.0
230
1.0
  2
SOLID
 70
     1
 71
     0
 91
        1
 92
        1
 93
        4
 72
     1
 10
179.5215141695294
 20
550.253923744815
 11
178.0452907540998
 21
538.225889622388
 72
     1
 10
178.0452907540998
 20
538.225889622388
 11
149.4234374626442
 21
553.9303573918994
 72
     1
 10
149.4234374626442
 20
553.9303573918994
 11
180.9812011266297
 21
562.2750676762715
 72
     1
 10
180.9812011266297
 20
562.2750676762715
 11
179.5215141695294
 21
550.253923744815
 97
        0
 75
     0
 76
     1
 98
        0
  0
POLYLINE
  5
63
330
3C
100
AcDbEntity
  8
Layer 1
 62
     7
370
     9
100
AcDb2dPolyline
 66
     1
 10
0.0
 20
0.0
 30
0.0
  0
VERTEX
  5
64
330
63
100
AcDbEntity
  8
Layer 1
 62
     7
370
     9
100
AcDbVertex
100
AcDb2dVertex
 10
177.5071668393038
 20
550.4969752312994
 30
0.0
  0
VERTEX
  5
65
330
63
100
AcDbEntity
  8
Layer 1
 62
     7
370
     9
100
AcDbVertex
100
AcDb2dVertex
 10
305.2991942596127
 20
535.5874632450094
 30
0.0
  0
SEQEND
  5
66
330
63
100
AcDbEntity
  8
Layer 1
370
     9
  0
POLYLINE
  5
67
330
3C
100
AcDbEntity
  8
Layer 1
370
     0
100
AcDb2dPolyline
 66
     1
 10
0.0
 20
0.0
 30
0.0
  0
VERTEX
  5
68
330
67
100
AcDbEntity
  8
Layer 1
370
     0
100
AcDbVertex
100
AcDb2dVertex
 10
170.946326997194
 20
336.815444523001
 30
0.0
  0
VERTEX
  5
69
330
67
100
AcDbEntity
  8
Layer 1
370
     0
100
AcDbVertex
100
AcDb2dVertex
 10
170.946326997194
 20
324.6931870390524
 30
0.0
  0
VERTEX
  5
6A
330
67
100
AcDbEntity
  8
Layer 1
370
     0
100
AcDbVertex
100
AcDb2dVertex
 10
140.6294867269954
 20
336.815444523001
 30
0.0
  0
VERTEX
  5
6B
330
67
100
AcDbEntity
  8
Layer 1
370
     0
100
AcDbVertex
100
AcDb2dVertex
 10
170.946326997194
 20
348.9421806310804
 30
0.0
  0
VERTEX
  5
6C
330
67
100
AcDbEntity
  8
Layer 1
370
     0
100
AcDbVertex
100
AcDb2dVertex
 10
170.946326997194
 20
336.815444523001
 30
0.0
  0
SEQEND
  5
6D
330
67
100
AcDbEntity
  8
Layer 1
370
     0
  0
POLYLINE
  5
6E
330
3C
100
AcDbEntity
  8
Layer 1
 62
     7
370
    35
100
AcDb2dPolyline
 66
     1
 10
0.0
 20
0.0
 30
0.0
  0
VERTEX
  5
6F
330
6E
100
AcDbEntity
  8
Layer 1
 62
     7
370
    35
100
AcDbVertex
100
AcDb2dVertex
 10
170.9545952263586
 20
324.6802679309827
 30
0.0
  0
VERTEX
  5
3A1
330
6E
100
AcDbEntity
  8
0
100
AcDbVertex
100
AcDb2dVertex
 10
170.9545952263586
 20
324.6802679309827
 30
0.0
  0
SEQEND
  5
70
330
6E
100
AcDbEntity
  8
Layer 1
370
    35
  0
POLYLINE
  5
71
330
3C
100
AcDbEntity
  8
Layer 1
 62
     7
370
    35
100
AcDb2dPolyline
 66
     1
 10
0.0
 20
0.0
 30
0.0
  0
VERTEX
  5
72
330
71
100
AcDbEntity
  8
Layer 1
 62
     7
370
    35
100
AcDbVertex
100
AcDb2dVertex
 10
140.6294867269954
 20
316.8101195497038
 30
0.0
  0
VERTEX
  5
3A2
330
71
100
AcDbEntity
  8
0
100
AcDbVertex
100
AcDb2dVertex
 10
140.6294867269954
 20
316.8101195497038
 30
0.0
  0
SEQEND
  5
73
330
71
100
AcDbEntity
  8
Layer 1
370
    35
  0
POLYLINE
  5
74
330
3C
100
AcDbEntity
  8
Layer 1
 62
     7
370
    35
100
AcDb2dPolyline
 66
     1
 10
0.0
 20
0.0
 30
0.0
  0
VERTEX
  5
75
330
74
100
AcDbEntity
  8
Layer 1
 62
     7
370
    35
100
AcDbVertex
100
AcDb2dVertex
 10
170.9545952263586
 20
348.946487000437
 30
0.0
  0
VERTEX
  5
3A3
330
74
100
AcDbEntity
  8
0
100
AcDbVertex
100
AcDb2dVertex
 10
170.9545952263586
 20
348.946487000437
 30
0.0
  0
SEQEND
  5
76
330
74
100
AcDbEntity
  8
Layer 1
370
    35
  0
POLYLINE
  5
77
330
3C
100
AcDbEntity
  8
Layer 1
 62
     7
370
    35
100
AcDb2dPolyline
 66
     1
 10
0.0
 20
0.0
 30
0.0
  0
VERTEX
  5
78
330
77
100
AcDbEntity
  8
Layer 1
 62
     7
370
    35
100
AcDbVertex
100
AcDb2dVertex
 10
170.9545952263586
 20
336.8111381536444
 30
0.0
  0
VERTEX
  5
3A4
330
77
100
AcDbEntity
  8
0
100
AcDbVertex
100
AcDb2dVertex
 10
170.9545952263586
 20
336.8111381536444
 30
0.0
  0
SEQEND
  5
79
330
77
100
AcDbEntity
  8
Layer 1
370
    35
  0
POLYLINE
  5
7A
330
3C
100
AcDbEntity
  8
Layer 1
 62
     7
370
    35
100
AcDb2dPolyline
 66
     1
 10
0.0
 20
0.0
 30
0.0
  0
VERTEX
  5
7B
330
7A
100
AcDbEntity
  8
Layer 1
 62
     7
370
    35
100
AcDbVertex
100
AcDb2dVertex
 10
170.9545952263586
 20
336.8111381536444
 30
0.0
  0
VERTEX
  5
7C
330
7A
100
AcDbEntity
  8
Layer 1
 62
     7
370
    35
100
AcDbVertex
100
AcDb2dVertex
 10
170.9545952263586
 20
324.6802679309827
 30
0.0
  0
VERTEX
  5
7D
330
7A
100
AcDbEntity
  8
Layer 1
 62
     7
370
    35
100
AcDbVertex
100
AcDb2dVertex
 10
140.6294867269954
 20
336.8111381536444
 30
0.0
  0
VERTEX
  5
7E
330
7A
100
AcDbEntity
  8
Layer 1
 62
     7
370
    35
100
AcDbVertex
100
AcDb2dVertex
 10
170.9545952263586
 20
348.946487000437
 30
0.0
  0
VERTEX
  5
7F
330
7A
100
AcDbEntity
  8
Layer 1
 62
     7
370
    35
100
AcDbVertex
100
AcDb2dVertex
 10
170.9545952263586
 20
336.8111381536444
 30
0.0
  0
SEQEND
  5
80
330
7A
100
AcDbEntity
  8
Layer 1
370
    35
  0
POLYLINE
  5
81
330
3C
100
AcDbEntity
  8
Layer 1
370
     0
100
AcDb2dPolyline
 66
     1
 10
0.0
 20
0.0
 30
0.0
  0
VERTEX
  5
82
330
81
100
AcDbEntity
  8
Layer 1
370
     0
100
AcDbVertex
100
AcDb2dVertex
 10
170.9545952263586
 20
336.811482663193
 30
0.0
  0
VERTEX
  5
83
330
81
100
AcDbEntity
  8
Layer 1
370
     0
100
AcDbVertex
100
AcDb2dVertex
 10
170.9545952263586
 20
324.6797511666599
 30
0.0
  0
VERTEX
  5
84
330
81
100
AcDbEntity
  8
Layer 1
370
     0
100
AcDbVertex
100
AcDb2dVertex
 10
170.9545952263586
 20
324.6797511666599
 30
0.0
  0
VERTEX
  5
85
330
81
100
AcDbEntity
  8
Layer 1
370
     0
100
AcDbVertex
100
AcDb2dVertex
 10
140.6294867269954
 20
336.811482663193
 30
0.0
  0
VERTEX
  5
86
330
81
100
AcDbEntity
  8
Layer 1
370
     0
100
AcDbVertex
100
AcDb2dVertex
 10
140.6294867269954
 20
336.811482663193
 30
0.0
  0
VERTEX
  5
87
330
81
100
AcDbEntity
  8
Layer 1
370
     0
100
AcDbVertex
100
AcDb2dVertex
 10
170.9545952263586
 20
348.9461424908885
 30
0.0
  0
VERTEX
  5
88
330
81
100
AcDbEntity
  8
Layer 1
370
     0
100
AcDbVertex
100
AcDb2dVertex
 10
170.9545952263586
 20
348.9461424908885
 30
0.0
  0
VERTEX
  5
89
330
81
100
AcDbEntity
  8
Layer 1
370
     0
100
AcDbVertex
100
AcDb2dVertex
 10
170.9545952263586
 20
336.811482663193
 30
0.0
  0
VERTEX
  5
8A
330
81
100
AcDbEntity
  8
Layer 1
370
     0
100
AcDbVertex
100
AcDb2dVertex
 10
170.9545952263586
 20
336.811482663193
 30
0.0
  0
SEQEND
  5
8B
330
81
100
AcDbEntity
  8
Layer 1
370
     0
  0
HATCH
  5
8C
330
3C
100
AcDbEntity
  8
Layer 1
 62
     7
100
AcDbHatch
 10
0.0
 20
0.0
 30
0.0
210
0.0
220
0.0
230
1.0
  2
SOLID
 70
     1
 71
     0
 91
        1
 92
        1
 93
        4
 72
     1
 10
170.9545952263586
 20
336.811482663193
 11
170.9545952263586
 21
324.6797511666599
 72
     1
 10
170.9545952263586
 20
324.6797511666599
 11
140.6294867269954
 21
336.811482663193
 72
     1
 10
140.6294867269954
 20
336.811482663193
 11
170.9545952263586
 21
348.9461424908885
 72
     1
 10
170.9545952263586
 20
348.9461424908885
 11
170.9545952263586
 21
336.811482663193
 97
        0
 75
     0
 76
     1
 98
        0
  0
POLYLINE
  5
8D
330
3C
100
AcDbEntity
  8
Layer 1
 62
     7
370
     9
100
AcDb2dPolyline
 66
     1
 10
0.0
 20
0.0
 30
0.0
  0
VERTEX
  5
8E
330
8D
100
AcDbEntity
  8
Layer 1
 62
     7
370
     9
100
AcDbVertex
100
AcDb2dVertex
 10
168.9219888900612
 20
336.815444523001
 30
0.0
  0
VERTEX
  5
8F
330
8D
100
AcDbEntity
  8
Layer 1
 62
     7
370
     9
100
AcDbVertex
100
AcDb2dVertex
 10
305.4221841684362
 20
336.8197508923576
 30
0.0
  0
SEQEND
  5
90
330
8D
100
AcDbEntity
  8
Layer 1
370
     9
  0
POLYLINE
  5
91
330
3C
100
AcDbEntity
  8
Layer 1
370
     0
100
AcDb2dPolyline
 66
     1
 10
0.0
 20
0.0
 30
0.0
  0
VERTEX
  5
92
330
91
100
AcDbEntity
  8
Layer 1
370
     0
100
AcDbVertex
100
AcDb2dVertex
 10
145.0175048465581
 20
50.55574271739579
 30
0.0
  0
VERTEX
  5
93
330
91
100
AcDbEntity
  8
Layer 1
370
     0
100
AcDbVertex
100
AcDb2dVertex
 10
145.0175048465581
 20
38.42935111886489
 30
0.0
  0
VERTEX
  5
94
330
91
100
AcDbEntity
  8
Layer 1
370
     0
100
AcDbVertex
100
AcDb2dVertex
 10
114.7006645763596
 20
50.55574271739579
 30
0.0
  0
VERTEX
  5
95
330
91
100
AcDbEntity
  8
Layer 1
370
     0
100
AcDbVertex
100
AcDb2dVertex
 10
145.0175048465581
 20
62.68247882547521
 30
0.0
  0
VERTEX
  5
96
330
91
100
AcDbEntity
  8
Layer 1
370
     0
100
AcDbVertex
100
AcDb2dVertex
 10
145.0175048465581
 20
50.55574271739579
 30
0.0
  0
SEQEND
  5
97
330
91
100
AcDbEntity
  8
Layer 1
370
     0
  0
POLYLINE
  5
98
330
3C
100
AcDbEntity
  8
Layer 1
 62
     7
370
    35
100
AcDb2dPolyline
 66
     1
 10
0.0
 20
0.0
 30
0.0
  0
VERTEX
  5
99
330
98
100
AcDbEntity
  8
Layer 1
 62
     7
370
    35
100
AcDbVertex
100
AcDb2dVertex
 10
145.0175048465581
 20
38.42935111886489
 30
0.0
  0
VERTEX
  5
3A5
330
98
100
AcDbEntity
  8
0
100
AcDbVertex
100
AcDb2dVertex
 10
145.0175048465581
 20
38.42935111886489
 30
0.0
  0
SEQEND
  5
9A
330
98
100
AcDbEntity
  8
Layer 1
370
    35
  0
POLYLINE
  5
9B
330
3C
100
AcDbEntity
  8
Layer 1
 62
     7
370
    35
100
AcDb2dPolyline
 66
     1
 10
0.0
 20
0.0
 30
0.0
  0
VERTEX
  5
9C
330
9B
100
AcDbEntity
  8
Layer 1
 62
     7
370
    35
100
AcDbVertex
100
AcDb2dVertex
 10
114.8326117334446
 20
15.64211154122836
 30
0.0
  0
VERTEX
  5
3A6
330
9B
100
AcDbEntity
  8
0
100
AcDbVertex
100
AcDb2dVertex
 10
114.8326117334446
 20
15.64211154122836
 30
0.0
  0
SEQEND
  5
9D
330
9B
100
AcDbEntity
  8
Layer 1
370
    35
  0
POLYLINE
  5
9E
330
3C
100
AcDbEntity
  8
Layer 1
 62
     7
370
    35
100
AcDb2dPolyline
 66
     1
 10
0.0
 20
0.0
 30
0.0
  0
VERTEX
  5
9F
330
9E
100
AcDbEntity
  8
Layer 1
 62
     7
370
    35
100
AcDbVertex
100
AcDb2dVertex
 10
145.0175048465581
 20
62.67386608676209
 30
0.0
  0
VERTEX
  5
3A7
330
9E
100
AcDbEntity
  8
0
100
AcDbVertex
100
AcDb2dVertex
 10
145.0175048465581
 20
62.67386608676209
 30
0.0
  0
SEQEND
  5
A0
330
9E
100
AcDbEntity
  8
Layer 1
370
    35
  0
POLYLINE
  5
A1
330
3C
100
AcDbEntity
  8
Layer 1
 62
     7
370
    35
100
AcDb2dPolyline
 66
     1
 10
0.0
 20
0.0
 30
0.0
  0
VERTEX
  5
A2
330
A1
100
AcDbEntity
  8
Layer 1
 62
     7
370
    35
100
AcDbVertex
100
AcDb2dVertex
 10
145.0175048465581
 20
50.56435545610891
 30
0.0
  0
VERTEX
  5
3A8
330
A1
100
AcDbEntity
  8
0
100
AcDbVertex
100
AcDb2dVertex
 10
145.0175048465581
 20
50.56435545610891
 30
0.0
  0
SEQEND
  5
A3
330
A1
100
AcDbEntity
  8
Layer 1
370
    35
  0
POLYLINE
  5
A4
330
3C
100
AcDbEntity
  8
Layer 1
 62
     7
370
    35
100
AcDb2dPolyline
 66
     1
 10
0.0
 20
0.0
 30
0.0
  0
VERTEX
  5
A5
330
A4
100
AcDbEntity
  8
Layer 1
 62
     7
370
    35
100
AcDbVertex
100
AcDb2dVertex
 10
145.0175048465581
 20
50.56435545610891
 30
0.0
  0
VERTEX
  5
A6
330
A4
100
AcDbEntity
  8
Layer 1
 62
     7
370
    35
100
AcDbVertex
100
AcDb2dVertex
 10
145.0175048465581
 20
38.42935111886489
 30
0.0
  0
VERTEX
  5
A7
330
A4
100
AcDbEntity
  8
Layer 1
 62
     7
370
    35
100
AcDbVertex
100
AcDb2dVertex
 10
114.7096218246212
 20
50.56435545610891
 30
0.0
  0
VERTEX
  5
A8
330
A4
100
AcDbEntity
  8
Layer 1
 62
     7
370
    35
100
AcDbVertex
100
AcDb2dVertex
 10
145.0175048465581
 20
62.67386608676209
 30
0.0
  0
VERTEX
  5
A9
330
A4
100
AcDbEntity
  8
Layer 1
 62
     7
370
    35
100
AcDbVertex
100
AcDb2dVertex
 10
145.0175048465581
 20
50.56435545610891
 30
0.0
  0
SEQEND
  5
AA
330
A4
100
AcDbEntity
  8
Layer 1
370
    35
  0
POLYLINE
  5
AB
330
3C
100
AcDbEntity
  8
Layer 1
370
     0
100
AcDb2dPolyline
 66
     1
 10
0.0
 20
0.0
 30
0.0
  0
VERTEX
  5
AC
330
AB
100
AcDbEntity
  8
Layer 1
370
     0
100
AcDbVertex
100
AcDb2dVertex
 10
145.0175048465581
 20
50.56469996565744
 30
0.0
  0
VERTEX
  5
AD
330
AB
100
AcDbEntity
  8
Layer 1
370
     0
100
AcDbVertex
100
AcDb2dVertex
 10
145.0175048465581
 20
38.42900660931636
 30
0.0
  0
VERTEX
  5
AE
330
AB
100
AcDbEntity
  8
Layer 1
370
     0
100
AcDbVertex
100
AcDb2dVertex
 10
145.0175048465581
 20
38.42900660931636
 30
0.0
  0
VERTEX
  5
AF
330
AB
100
AcDbEntity
  8
Layer 1
370
     0
100
AcDbVertex
100
AcDb2dVertex
 10
114.7089328055242
 20
50.56469996565744
 30
0.0
  0
VERTEX
  5
B0
330
AB
100
AcDbEntity
  8
Layer 1
370
     0
100
AcDbVertex
100
AcDb2dVertex
 10
114.7089328055242
 20
50.56469996565744
 30
0.0
  0
VERTEX
  5
B1
330
AB
100
AcDbEntity
  8
Layer 1
370
     0
100
AcDbVertex
100
AcDb2dVertex
 10
145.0175048465581
 20
62.67421059631062
 30
0.0
  0
VERTEX
  5
B2
330
AB
100
AcDbEntity
  8
Layer 1
370
     0
100
AcDbVertex
100
AcDb2dVertex
 10
145.0175048465581
 20
62.67421059631062
 30
0.0
  0
VERTEX
  5
B3
330
AB
100
AcDbEntity
  8
Layer 1
370
     0
100
AcDbVertex
100
AcDb2dVertex
 10
145.0175048465581
 20
50.56469996565744
 30
0.0
  0
VERTEX
  5
B4
330
AB
100
AcDbEntity
  8
Layer 1
370
     0
100
AcDbVertex
100
AcDb2dVertex
 10
145.0175048465581
 20
50.56469996565744
 30
0.0
  0
SEQEND
  5
B5
330
AB
100
AcDbEntity
  8
Layer 1
370
     0
  0
HATCH
  5
B6
330
3C
100
AcDbEntity
  8
Layer 1
 62
     7
100
AcDbHatch
 10
0.0
 20
0.0
 30
0.0
210
0.0
220
0.0
230
1.0
  2
SOLID
 70
     1
 71
     0
 91
        1
 92
        1
 93
        4
 72
     1
 10
145.0175048465581
 20
50.56469996565744
 11
145.0175048465581
 21
38.42900660931636
 72
     1
 10
145.0175048465581
 20
38.42900660931636
 11
114.7089328055242
 21
50.56469996565744
 72
     1
 10
114.7089328055242
 20
50.56469996565744
 11
145.0175048465581
 21
62.67421059631062
 72
     1
 10
145.0175048465581
 20
62.67421059631062
 11
145.0175048465581
 21
50.56469996565744
 97
        0
 75
     0
 76
     1
 98
        0
  0
POLYLINE
  5
B7
330
3C
100
AcDbEntity
  8
Layer 1
 62
     7
370
     9
100
AcDb2dPolyline
 66
     1
 10
0.0
 20
0.0
 30
0.0
  0
VERTEX
  5
B8
330
B7
100
AcDbEntity
  8
Layer 1
 62
     7
370
     9
100
AcDbVertex
100
AcDb2dVertex
 10
142.9931667394253
 20
50.55574271739579
 30
0.0
  0
VERTEX
  5
B9
330
B7
100
AcDbEntity
  8
Layer 1
 62
     7
370
     9
100
AcDbVertex
100
AcDb2dVertex
 10
305.2991942596127
 20
50.55574271739579
 30
0.0
  0
SEQEND
  5
BA
330
B7
100
AcDbEntity
  8
Layer 1
370
     9
  0
POLYLINE
  5
BB
330
3C
100
AcDbEntity
  8
Layer 1
370
     0
100
AcDb2dPolyline
 66
     1
 10
0.0
 20
0.0
 30
0.0
  0
VERTEX
  5
BC
330
BB
100
AcDbEntity
  8
Layer 1
370
     0
100
AcDbVertex
100
AcDb2dVertex
 10
147.6612711219389
 20
-286.2684867990926
 30
0.0
  0
VERTEX
  5
BD
330
BB
100
AcDbEntity
  8
Layer 1
370
     0
100
AcDbVertex
100
AcDb2dVertex
 10
155.9853108333995
 20
-295.0899982986234
 30
0.0
  0
VERTEX
  5
BE
330
BB
100
AcDbEntity
  8
Layer 1
370
     0
100
AcDbVertex
100
AcDb2dVertex
 10
125.6043917871753
 20
-307.0651502053518
 30
0.0
  0
VERTEX
  5
BF
330
BB
100
AcDbEntity
  8
Layer 1
370
     0
100
AcDbVertex
100
AcDb2dVertex
 10
139.3444661109972
 20
-277.4428411849796
 30
0.0
  0
VERTEX
  5
C0
330
BB
100
AcDbEntity
  8
Layer 1
370
     0
100
AcDbVertex
100
AcDb2dVertex
 10
147.6612711219389
 20
-286.2684867990926
 30
0.0
  0
SEQEND
  5
C1
330
BB
100
AcDbEntity
  8
Layer 1
370
     0
  0
POLYLINE
  5
C2
330
3C
100
AcDbEntity
  8
Layer 1
 62
     7
370
    35
100
AcDb2dPolyline
 66
     1
 10
0.0
 20
0.0
 30
0.0
  0
VERTEX
  5
C3
330
C2
100
AcDbEntity
  8
Layer 1
 62
     7
370
    35
100
AcDbVertex
100
AcDb2dVertex
 10
152.7400308862942
 20
-293.332999601146
 30
0.0
  0
VERTEX
  5
3A9
330
C2
100
AcDbEntity
  8
0
100
AcDbVertex
100
AcDb2dVertex
 10
152.7400308862942
 20
-293.332999601146
 30
0.0
  0
SEQEND
  5
C4
330
C2
100
AcDbEntity
  8
Layer 1
370
    35
  0
POLYLINE
  5
C5
330
3C
100
AcDbEntity
  8
Layer 1
 62
     7
370
    35
100
AcDb2dPolyline
 66
     1
 10
0.0
 20
0.0
 30
0.0
  0
VERTEX
  5
C6
330
C5
100
AcDbEntity
  8
Layer 1
 62
     7
370
    35
100
AcDbVertex
100
AcDb2dVertex
 10
122.1534396396005
 20
-300.0636826506785
 30
0.0
  0
VERTEX
  5
3AA
330
C5
100
AcDbEntity
  8
0
100
AcDbVertex
100
AcDb2dVertex
 10
122.1534396396005
 20
-300.0636826506785
 30
0.0
  0
SEQEND
  5
C7
330
C5
100
AcDbEntity
  8
Layer 1
370
    35
  0
POLYLINE
  5
C8
330
3C
100
AcDbEntity
  8
Layer 1
 62
     7
370
    35
100
AcDb2dPolyline
 66
     1
 10
0.0
 20
0.0
 30
0.0
  0
VERTEX
  5
C9
330
C8
100
AcDbEntity
  8
Layer 1
 62
     7
370
    35
100
AcDbVertex
100
AcDb2dVertex
 10
147.7746147634036
 20
-283.8769015132322
 30
0.0
  0
VERTEX
  5
3AB
330
C8
100
AcDbEntity
  8
0
100
AcDbVertex
100
AcDb2dVertex
 10
147.7746147634036
 20
-283.8769015132322
 30
0.0
  0
SEQEND
  5
CA
330
C8
100
AcDbEntity
  8
Layer 1
370
    35
  0
POLYLINE
  5
CB
330
3C
100
AcDbEntity
  8
Layer 1
 62
     7
370
    35
100
AcDb2dPolyline
 66
     1
 10
0.0
 20
0.0
 30
0.0
  0
VERTEX
  5
CC
330
CB
100
AcDbEntity
  8
Layer 1
 62
     7
370
    35
100
AcDbVertex
100
AcDb2dVertex
 10
147.5241563216259
 20
-287.115291269367
 30
0.0
  0
VERTEX
  5
3AC
330
CB
100
AcDbEntity
  8
0
100
AcDbVertex
100
AcDb2dVertex
 10
147.5241563216259
 20
-287.115291269367
 30
0.0
  0
SEQEND
  5
CD
330
CB
100
AcDbEntity
  8
Layer 1
370
    35
  0
POLYLINE
  5
CE
330
3C
100
AcDbEntity
  8
Layer 1
 62
     7
370
    35
100
AcDb2dPolyline
 66
     1
 10
0.0
 20
0.0
 30
0.0
  0
VERTEX
  5
CF
330
CE
100
AcDbEntity
  8
Layer 1
 62
     7
370
    35
100
AcDbVertex
100
AcDb2dVertex
 10
147.6640271983271
 20
-286.2564289648942
 30
0.0
  0
VERTEX
  5
D0
330
CE
100
AcDbEntity
  8
Layer 1
 62
     7
370
    35
100
AcDbVertex
100
AcDb2dVertex
 10
155.9925455339185
 20
-295.0855196744925
 30
0.0
  0
VERTEX
  5
D1
330
CE
100
AcDbEntity
  8
Layer 1
 62
     7
370
    35
100
AcDbVertex
100
AcDb2dVertex
 10
125.6043917871753
 20
-307.0651502053518
 30
0.0
  0
VERTEX
  5
D2
330
CE
100
AcDbEntity
  8
Layer 1
 62
     7
370
    35
100
AcDbVertex
100
AcDb2dVertex
 10
139.3492892446766
 20
-277.4500758854986
 30
0.0
  0
VERTEX
  5
D3
330
CE
100
AcDbEntity
  8
Layer 1
 62
     7
370
    35
100
AcDbVertex
100
AcDb2dVertex
 10
147.6640271983271
 20
-286.2564289648942
 30
0.0
  0
SEQEND
  5
D4
330
CE
100
AcDbEntity
  8
Layer 1
370
    35
  0
POLYLINE
  5
D5
330
3C
100
AcDbEntity
  8
Layer 1
370
     0
100
AcDb2dPolyline
 66
     1
 10
0.0
 20
0.0
 30
0.0
  0
VERTEX
  5
D6
330
D5
100
AcDbEntity
  8
Layer 1
370
     0
100
AcDbVertex
100
AcDb2dVertex
 10
147.6640271983271
 20
-286.2564289648942
 30
0.0
  0
VERTEX
  5
D7
330
D5
100
AcDbEntity
  8
Layer 1
370
     0
100
AcDbVertex
100
AcDb2dVertex
 10
155.9925455339185
 20
-295.085175164944
 30
0.0
  0
VERTEX
  5
D8
330
D5
100
AcDbEntity
  8
Layer 1
370
     0
100
AcDbVertex
100
AcDb2dVertex
 10
155.9925455339185
 20
-295.085175164944
 30
0.0
  0
VERTEX
  5
D9
330
D5
100
AcDbEntity
  8
Layer 1
370
     0
100
AcDbVertex
100
AcDb2dVertex
 10
125.6043917871753
 20
-307.0651502053518
 30
0.0
  0
VERTEX
  5
DA
330
D5
100
AcDbEntity
  8
Layer 1
370
     0
100
AcDbVertex
100
AcDb2dVertex
 10
125.6043917871753
 20
-307.0651502053518
 30
0.0
  0
VERTEX
  5
DB
330
D5
100
AcDbEntity
  8
Layer 1
370
     0
100
AcDbVertex
100
AcDb2dVertex
 10
139.3496337542251
 20
-277.4497313759501
 30
0.0
  0
VERTEX
  5
DC
330
D5
100
AcDbEntity
  8
Layer 1
370
     0
100
AcDbVertex
100
AcDb2dVertex
 10
139.3496337542251
 20
-277.4497313759501
 30
0.0
  0
VERTEX
  5
DD
330
D5
100
AcDbEntity
  8
Layer 1
370
     0
100
AcDbVertex
100
AcDb2dVertex
 10
147.6640271983271
 20
-286.2564289648942
 30
0.0
  0
VERTEX
  5
DE
330
D5
100
AcDbEntity
  8
Layer 1
370
     0
100
AcDbVertex
100
AcDb2dVertex
 10
147.6640271983271
 20
-286.2564289648942
 30
0.0
  0
SEQEND
  5
DF
330
D5
100
AcDbEntity
  8
Layer 1
370
     0
  0
HATCH
  5
E0
330
3C
100
AcDbEntity
  8
Layer 1
 62
     7
100
AcDbHatch
 10
0.0
 20
0.0
 30
0.0
210
0.0
220
0.0
230
1.0
  2
SOLID
 70
     1
 71
     0
 91
        1
 92
        1
 93
        4
 72
     1
 10
147.6640271983271
 20
-286.2564289648942
 11
155.9925455339185
 21
-295.085175164944
 72
     1
 10
155.9925455339185
 20
-295.085175164944
 11
125.6043917871753
 21
-307.0651502053518
 72
     1
 10
125.6043917871753
 20
-307.0651502053518
 11
139.3496337542251
 21
-277.4497313759501
 72
     1
 10
139.3496337542251
 20
-277.4497313759501
 11
147.6640271983271
 21
-286.2564289648942
 97
        0
 75
     0
 76
     1
 98
        0
  0
POLYLINE
  5
E1
330
3C
100
AcDbEntity
  8
Layer 1
 62
     7
370
     9
100
AcDb2dPolyline
 66
     1
 10
0.0
 20
0.0
 30
0.0
  0
VERTEX
  5
E2
330
E1
100
AcDbEntity
  8
Layer 1
 62
     7
370
     9
100
AcDbVertex
100
AcDb2dVertex
 10
146.1984835789018
 20
-287.659271846488
 30
0.0
  0
VERTEX
  5
E3
330
E1
100
AcDbEntity
  8
Layer 1
 62
     7
370
     9
100
AcDbVertex
100
AcDb2dVertex
 10
303.8064343858539
 20
-137.4331271357806
 30
0.0
  0
SEQEND
  5
E4
330
E1
100
AcDbEntity
  8
Layer 1
370
     9
  0
MTEXT
  5
E5
330
3C
100
AcDbEntity
  8
Layer 1
 62
     7
100
AcDbMText
 10
-646.6502792437194
 20
-922.7877737493378
 30
0.0
 40
53.97153723490664
 41
0.0
 71
     7
 72
     1
  1
\fVerdana|b0|i0|c0|p34;\W1;Balustrade supplied by Unex Systems
 73
     1
 44
1.0
  0
MTEXT
  5
E6
330
3C
100
AcDbEntity
  8
Layer 1
 62
     7
100
AcDbMText
 10
-1120.524885787577
 20
-1018.031572553652
 30
0.0
 40
53.97153723490664
 41
0.0
 71
     7
 72
     1
  1
\fVerdana|b0|i0|c0|p34;\W1;Contact Unex for authorised fabricator/installer in the region.
 73
     1
 44
1.0
  0
MTEXT
  5
E7
330
3C
100
AcDbEntity
  8
Layer 1
 62
     7
100
AcDbMText
 10
-651.8432439234108
 20
-1113.275715867514
 30
0.0
 40
53.97153723490664
 41
0.0
 71
     7
 72
     1
  1
\fVerdana|b0|i0|c0|p34;\W1;Ph 0800 333 777, or info@unex.co.nz
 73
     1
 44
1.0
  0
MTEXT
  5
E8
330
3C
100
AcDbEntity
  8
0
100
AcDbMText
 10
0.0
 20
0.0
 30
0.0
 40
0.0
 41
0.0
 71
     1
 72
     1
  1

 73
     1
 44
1.0
  0
MTEXT
  5
E9
330
3C
100
AcDbEntity
  8
Layer 1
 62
     7
100
AcDbMText
 10
-106.5822970653683
 20
-1303.763313476142
 30
0.0
 40
53.97153723490664
 41
0.0
 71
     7
 72
     1
  1
\fVerdana|b0|i0|c0|p34;\W1;SCALE 1:1
 73
     1
 44
1.0
  0
MTEXT
  5
EA
330
3C
100
AcDbEntity
  8
Layer 1
 62
     7
100
AcDbMText
 10
-1354.817561510254
 20
-1399.007112280457
 30
0.0
 40
53.97153723490664
 41
0.0
 71
     7
 72
     1
  1
\fVerdana|b0|i0|c0|p34;\W1;Extreme Barriers X1500 Baluster Style Specification (EX-BA.01)SS.01.31
 73
     1
 44
1.0
  0
INSERT
  5
EC
330
3C
100
AcDbEntity
  8
Layer 1
100
AcDbBlockReference
  2
block 3
 10
0.0
 20
0.0
 30
0.0
  0
MTEXT
  5
359
330
3C
100
AcDbEntity
  8
Layer 1
 62
     7
100
AcDbMText
 10
355.420854945867
 20
780.0729707251206
 30
0.0
 40
53.97153723490664
 41
0.0
 71
     7
 72
     1
  1
\fVerdana|b0|i0|c0|p34;\W1;The balustrade shall be fabricated from the 
 73
     1
 44
1.0
  0
MTEXT
  5
35A
330
3C
100
AcDbEntity
  8
Layer 1
 62
     7
100
AcDbMText
 10
355.420854945867
 20
684.8289996660324
 30
0.0
 40
53.97153723490664
 41
0.0
 71
     7
 72
     1
  1
\fVerdana|b0|i0|c0|p34;\W1;following items:
 73
     1
 44
1.0
  0
MTEXT
  5
35B
330
3C
100
AcDbEntity
  8
0
100
AcDbMText
 10
0.0
 20
0.0
 30
0.0
 40
0.0
 41
0.0
 71
     1
 72
     1
  1

 73
     1
 44
1.0
  0
MTEXT
  5
35C
330
3C
100
AcDbEntity
  8
Layer 1
 62
     7
100
AcDbMText
 10
355.420854945867
 20
494.34122980263
 30
0.0
 40
53.97153723490664
 41
0.0
 71
     7
 72
     1
  1
\fVerdana|b0|i0|c0|p34;\W1;TOP RAIL: HRT / HRZ / DIA
 73
     1
 44
1.0
  0
MTEXT
  5
35D
330
3C
100
AcDbEntity
  8
0
100
AcDbMText
 10
0.0
 20
0.0
 30
0.0
 40
0.0
 41
0.0
 71
     1
 72
     1
  1

 73
     1
 44
1.0
  0
MTEXT
  5
35E
330
3C
100
AcDbEntity
  8
Layer 1
 62
     7
100
AcDbMText
 10
355.420854945867
 20
303.8536321940019
 30
0.0
 40
53.97153723490664
 41
0.0
 71
     7
 72
     1
  1
\fVerdana|b0|i0|c0|p34;\W1;POSTS: HPU
 73
     1
 44
1.0
  0
MTEXT
  5
35F
330
3C
100
AcDbEntity
  8
0
100
AcDbMText
 10
0.0
 20
0.0
 30
0.0
 40
0.0
 41
0.0
 71
     1
 72
     1
  1

 73
     1
 44
1.0
  0
MTEXT
  5
360
330
3C
100
AcDbEntity
  8
0
100
AcDbMText
 10
0.0
 20
0.0
 30
0.0
 40
0.0
 41
0.0
 71
     1
 72
     1
  1

 73
     1
 44
1.0
  0
MTEXT
  5
361
330
3C
100
AcDbEntity
  8
Layer 1
 62
     7
100
AcDbMText
 10
355.420854945867
 20
18.1218912715112
 30
0.0
 40
53.97153723490664
 41
0.0
 71
     7
 72
     1
  1
\fVerdana|b0|i0|c0|p34;\W1;BALUSTERS: DTH
 73
     1
 44
1.0
  0
MTEXT
  5
362
330
3C
100
AcDbEntity
  8
0
100
AcDbMText
 10
0.0
 20
0.0
 30
0.0
 40
0.0
 41
0.0
 71
     1
 72
     1
  1

 73
     1
 44
1.0
  0
MTEXT
  5
363
330
3C
100
AcDbEntity
  8
Layer 1
 62
     7
100
AcDbMText
 10
355.420854945867
 20
-172.3667398657625
 30
0.0
 40
53.9719618429252
 41
0.0
 71
     7
 72
     1
  1
\fVerdana|b0|i0|c0|p34;\W1;LOWER RAIL: ARN
 73
     1
 44
1.0
  0
MTEXT
  5
364
330
3C
100
AcDbEntity
  8
0
100
AcDbMText
 10
0.0
 20
0.0
 30
0.0
 40
0.0
 41
0.0
 71
     1
 72
     1
  1

 73
     1
 44
1.0
  0
MTEXT
  5
365
330
3C
100
AcDbEntity
  8
Layer 1
 62
     7
100
AcDbMText
 10
355.420854945867
 20
-362.8560600221332
 30
0.0
 40
53.9719618429252
 41
0.0
 71
     7
 72
     1
  1
\fVerdana|b0|i0|c0|p34;\W1;INSERT: AIA
 73
     1
 44
1.0
  0
MTEXT
  5
366
330
3C
100
AcDbEntity
  8
0
100
AcDbMText
 10
0.0
 20
0.0
 30
0.0
 40
0.0
 41
0.0
 71
     1
 72
     1
  1

 73
     1
 44
1.0
  0
MTEXT
  5
367
330
3C
100
AcDbEntity
  8
Layer 1
 62
     7
100
AcDbMText
 10
355.420854945867
 20
-555.4630803732871
 30
0.0
 40
55.17204685951157
 41
0.0
 71
     7
 72
     1
  1
\fVerdana|b0|i0|c0|p34;\W1;POST BLANK: HAES use for side fixed Post
 73
     1
 44
1.0
  0
INSERT
  5
369
330
3C
100
AcDbEntity
  8
Layer 1
100
AcDbBlockReference
  2
block 22
 10
0.0
 20
0.0
 30
0.0
  0
INSERT
  5
384
330
3C
100
AcDbEntity
  8
Layer 1
100
AcDbBlockReference
  2
block 23
 10
0.0
 20
0.0
 30
0.0
  0
ENDBLK
  5
3F
330
3C
100
AcDbEntity
  8
0
100
AcDbBlockEnd
  0
BLOCK
  5
ED
330
EB
100
AcDbEntity
  8
0
100
AcDbBlockBegin
  2
block 3
 70
     0
 71
     0
 10
0.0
 20
0.0
 30
0.0
  3
block 3
  1

  0
POLYLINE
  5
EF
330
EB
100
AcDbEntity
  8
Layer 1
 62
     7
370
     9
100
AcDb2dPolyline
 66
     1
 10
0.0
 20
0.0
 30
0.0
  0
VERTEX
  5
F0
330
EF
100
AcDbEntity
  8
Layer 1
 62
     7
370
     9
100
AcDbVertex
100
AcDb2dVertex
 10
-1939.190677412338
 20
579.5310341975652
 30
0.0
  0
VERTEX
  5
F1
330
EF
100
AcDbEntity
  8
Layer 1
 62
     7
370
     9
100
AcDbVertex
100
AcDb2dVertex
 10
-2007.657127047999
 20
579.5310341975652
 30
0.0
  0
SEQEND
  5
F2
330
EF
100
AcDbEntity
  8
Layer 1
370
     9
  0
POLYLINE
  5
F3
330
EB
100
AcDbEntity
  8
Layer 1
 62
     7
370
     9
100
AcDb2dPolyline
 66
     1
 10
0.0
 20
0.0
 30
0.0
  0
VERTEX
  5
F4
330
F3
100
AcDbEntity
  8
Layer 1
 62
     7
370
     9
100
AcDbVertex
100
AcDb2dVertex
 10
-1939.190677412338
 20
-420.4087916700714
 30
0.0
  0
VERTEX
  5
F5
330
F3
100
AcDbEntity
  8
Layer 1
 62
     7
370
     9
100
AcDbVertex
100
AcDb2dVertex
 10
-2007.657127047999
 20
-420.4087916700714
 30
0.0
  0
SEQEND
  5
F6
330
F3
100
AcDbEntity
  8
Layer 1
370
     9
  0
POLYLINE
  5
F7
330
EB
100
AcDbEntity
  8
Layer 1
370
     0
100
AcDb2dPolyline
 66
     1
 10
0.0
 20
0.0
 30
0.0
  0
VERTEX
  5
F8
330
F7
100
AcDbEntity
  8
Layer 1
370
     0
100
AcDbVertex
100
AcDb2dVertex
 10
-1982.663131557286
 20
549.2145384369152
 30
0.0
  0
VERTEX
  5
F9
330
F7
100
AcDbEntity
  8
Layer 1
370
     0
100
AcDbVertex
100
AcDb2dVertex
 10
-1994.789867665365
 20
549.2145384369152
 30
0.0
  0
VERTEX
  5
FA
330
F7
100
AcDbEntity
  8
Layer 1
370
     0
100
AcDbVertex
100
AcDb2dVertex
 10
-1982.663131557286
 20
579.5310341975652
 30
0.0
  0
VERTEX
  5
FB
330
F7
100
AcDbEntity
  8
Layer 1
370
     0
100
AcDbVertex
100
AcDb2dVertex
 10
-1970.536567703981
 20
549.2145384369152
 30
0.0
  0
VERTEX
  5
FC
330
F7
100
AcDbEntity
  8
Layer 1
370
     0
100
AcDbVertex
100
AcDb2dVertex
 10
-1982.663131557286
 20
549.2145384369152
 30
0.0
  0
SEQEND
  5
FD
330
F7
100
AcDbEntity
  8
Layer 1
370
     0
  0
POLYLINE
  5
FE
330
EB
100
AcDbEntity
  8
Layer 1
 62
     7
370
    35
100
AcDb2dPolyline
 66
     1
 10
0.0
 20
0.0
 30
0.0
  0
VERTEX
  5
FF
330
FE
100
AcDbEntity
  8
Layer 1
 62
     7
370
    35
100
AcDbVertex
100
AcDb2dVertex
 10
-1994.785389041234
 20
549.2231511756282
 30
0.0
  0
VERTEX
  5
3AD
330
FE
100
AcDbEntity
  8
0
100
AcDbVertex
100
AcDb2dVertex
 10
-1994.785389041234
 20
549.2231511756282
 30
0.0
  0
SEQEND
  5
100
330
FE
100
AcDbEntity
  8
Layer 1
370
    35
  0
POLYLINE
  5
101
330
EB
100
AcDbEntity
  8
Layer 1
 62
     7
370
    35
100
AcDb2dPolyline
 66
     1
 10
0.0
 20
0.0
 30
0.0
  0
VERTEX
  5
102
330
101
100
AcDbEntity
  8
Layer 1
 62
     7
370
    35
100
AcDbVertex
100
AcDb2dVertex
 10
-1982.663131557286
 20
579.5439533056349
 30
0.0
  0
VERTEX
  5
3AE
330
101
100
AcDbEntity
  8
0
100
AcDbVertex
100
AcDb2dVertex
 10
-1982.663131557286
 20
579.5439533056349
 30
0.0
  0
SEQEND
  5
103
330
101
100
AcDbEntity
  8
Layer 1
370
    35
  0
POLYLINE
  5
104
330
EB
100
AcDbEntity
  8
Layer 1
 62
     7
370
    35
100
AcDb2dPolyline
 66
     1
 10
0.0
 20
0.0
 30
0.0
  0
VERTEX
  5
105
330
104
100
AcDbEntity
  8
Layer 1
 62
     7
370
    35
100
AcDbVertex
100
AcDb2dVertex
 10
-1970.532261334624
 20
549.2231511756282
 30
0.0
  0
VERTEX
  5
3AF
330
104
100
AcDbEntity
  8
0
100
AcDbVertex
100
AcDb2dVertex
 10
-1970.532261334624
 20
549.2231511756282
 30
0.0
  0
SEQEND
  5
106
330
104
100
AcDbEntity
  8
Layer 1
370
    35
  0
POLYLINE
  5
107
330
EB
100
AcDbEntity
  8
Layer 1
 62
     7
370
    35
100
AcDb2dPolyline
 66
     1
 10
0.0
 20
0.0
 30
0.0
  0
VERTEX
  5
108
330
107
100
AcDbEntity
  8
Layer 1
 62
     7
370
    35
100
AcDbVertex
100
AcDb2dVertex
 10
-1982.663131557286
 20
549.2231511756282
 30
0.0
  0
VERTEX
  5
3B0
330
107
100
AcDbEntity
  8
0
100
AcDbVertex
100
AcDb2dVertex
 10
-1982.663131557286
 20
549.2231511756282
 30
0.0
  0
SEQEND
  5
109
330
107
100
AcDbEntity
  8
Layer 1
370
    35
  0
POLYLINE
  5
10A
330
EB
100
AcDbEntity
  8
Layer 1
 62
     7
370
    35
100
AcDb2dPolyline
 66
     1
 10
0.0
 20
0.0
 30
0.0
  0
VERTEX
  5
10B
330
10A
100
AcDbEntity
  8
Layer 1
 62
     7
370
    35
100
AcDbVertex
100
AcDb2dVertex
 10
-1982.663131557286
 20
549.2231511756282
 30
0.0
  0
VERTEX
  5
10C
330
10A
100
AcDbEntity
  8
Layer 1
 62
     7
370
    35
100
AcDbVertex
100
AcDb2dVertex
 10
-1994.785389041234
 20
549.2231511756282
 30
0.0
  0
VERTEX
  5
10D
330
10A
100
AcDbEntity
  8
Layer 1
 62
     7
370
    35
100
AcDbVertex
100
AcDb2dVertex
 10
-1982.663131557286
 20
579.5439533056349
 30
0.0
  0
VERTEX
  5
10E
330
10A
100
AcDbEntity
  8
Layer 1
 62
     7
370
    35
100
AcDbVertex
100
AcDb2dVertex
 10
-1970.532261334624
 20
549.2231511756282
 30
0.0
  0
VERTEX
  5
10F
330
10A
100
AcDbEntity
  8
Layer 1
 62
     7
370
    35
100
AcDbVertex
100
AcDb2dVertex
 10
-1982.663131557286
 20
549.2231511756282
 30
0.0
  0
SEQEND
  5
110
330
10A
100
AcDbEntity
  8
Layer 1
370
    35
  0
POLYLINE
  5
111
330
EB
100
AcDbEntity
  8
Layer 1
370
     0
100
AcDb2dPolyline
 66
     1
 10
0.0
 20
0.0
 30
0.0
  0
VERTEX
  5
112
330
111
100
AcDbEntity
  8
Layer 1
370
     0
100
AcDbVertex
100
AcDb2dVertex
 10
-1982.663131557286
 20
549.222978920854
 30
0.0
  0
VERTEX
  5
113
330
111
100
AcDbEntity
  8
Layer 1
370
     0
100
AcDbVertex
100
AcDb2dVertex
 10
-1994.785389041234
 20
549.222978920854
 30
0.0
  0
VERTEX
  5
114
330
111
100
AcDbEntity
  8
Layer 1
370
     0
100
AcDbVertex
100
AcDb2dVertex
 10
-1994.785389041234
 20
549.222978920854
 30
0.0
  0
VERTEX
  5
115
330
111
100
AcDbEntity
  8
Layer 1
370
     0
100
AcDbVertex
100
AcDb2dVertex
 10
-1982.663131557286
 20
579.5439533056349
 30
0.0
  0
VERTEX
  5
116
330
111
100
AcDbEntity
  8
Layer 1
370
     0
100
AcDbVertex
100
AcDb2dVertex
 10
-1982.663131557286
 20
579.5439533056349
 30
0.0
  0
VERTEX
  5
117
330
111
100
AcDbEntity
  8
Layer 1
370
     0
100
AcDbVertex
100
AcDb2dVertex
 10
-1970.532261334624
 20
549.222978920854
 30
0.0
  0
VERTEX
  5
118
330
111
100
AcDbEntity
  8
Layer 1
370
     0
100
AcDbVertex
100
AcDb2dVertex
 10
-1970.532261334624
 20
549.222978920854
 30
0.0
  0
VERTEX
  5
119
330
111
100
AcDbEntity
  8
Layer 1
370
     0
100
AcDbVertex
100
AcDb2dVertex
 10
-1982.663131557286
 20
549.222978920854
 30
0.0
  0
VERTEX
  5
11A
330
111
100
AcDbEntity
  8
Layer 1
370
     0
100
AcDbVertex
100
AcDb2dVertex
 10
-1982.663131557286
 20
549.222978920854
 30
0.0
  0
SEQEND
  5
11B
330
111
100
AcDbEntity
  8
Layer 1
370
     0
  0
HATCH
  5
11C
330
EB
100
AcDbEntity
  8
Layer 1
 62
     7
100
AcDbHatch
 10
0.0
 20
0.0
 30
0.0
210
0.0
220
0.0
230
1.0
  2
SOLID
 70
     1
 71
     0
 91
        1
 92
        1
 93
        4
 72
     1
 10
-1982.663131557286
 20
549.222978920854
 11
-1994.785389041234
 21
549.222978920854
 72
     1
 10
-1994.785389041234
 20
549.222978920854
 11
-1982.663131557286
 21
579.5439533056349
 72
     1
 10
-1982.663131557286
 20
579.5439533056349
 11
-1970.532261334624
 21
549.222978920854
 72
     1
 10
-1970.532261334624
 20
549.222978920854
 11
-1982.663131557286
 21
549.222978920854
 97
        0
 75
     0
 76
     1
 98
        0
  0
POLYLINE
  5
11D
330
EB
100
AcDbEntity
  8
Layer 1
370
     0
100
AcDb2dPolyline
 66
     1
 10
0.0
 20
0.0
 30
0.0
  0
VERTEX
  5
11E
330
11D
100
AcDbEntity
  8
Layer 1
370
     0
100
AcDbVertex
100
AcDb2dVertex
 10
-1982.663131557286
 20
-390.0919513998729
 30
0.0
  0
VERTEX
  5
11F
330
11D
100
AcDbEntity
  8
Layer 1
370
     0
100
AcDbVertex
100
AcDb2dVertex
 10
-1970.536567703981
 20
-390.0919513998729
 30
0.0
  0
VERTEX
  5
120
330
11D
100
AcDbEntity
  8
Layer 1
370
     0
100
AcDbVertex
100
AcDb2dVertex
 10
-1982.663131557286
 20
-420.4087916700714
 30
0.0
  0
VERTEX
  5
121
330
11D
100
AcDbEntity
  8
Layer 1
370
     0
100
AcDbVertex
100
AcDb2dVertex
 10
-1994.789867665365
 20
-390.0919513998729
 30
0.0
  0
VERTEX
  5
122
330
11D
100
AcDbEntity
  8
Layer 1
370
     0
100
AcDbVertex
100
AcDb2dVertex
 10
-1982.663131557286
 20
-390.0919513998729
 30
0.0
  0
SEQEND
  5
123
330
11D
100
AcDbEntity
  8
Layer 1
370
     0
  0
POLYLINE
  5
124
330
EB
100
AcDbEntity
  8
Layer 1
 62
     7
370
    35
100
AcDb2dPolyline
 66
     1
 10
0.0
 20
0.0
 30
0.0
  0
VERTEX
  5
125
330
124
100
AcDbEntity
  8
Layer 1
 62
     7
370
    35
100
AcDbVertex
100
AcDb2dVertex
 10
-1970.532261334624
 20
-390.0919513998729
 30
0.0
  0
VERTEX
  5
3B1
330
124
100
AcDbEntity
  8
0
100
AcDbVertex
100
AcDb2dVertex
 10
-1970.532261334624
 20
-390.0919513998729
 30
0.0
  0
SEQEND
  5
126
330
124
100
AcDbEntity
  8
Layer 1
370
    35
  0
POLYLINE
  5
127
330
EB
100
AcDbEntity
  8
Layer 1
 62
     7
370
    35
100
AcDb2dPolyline
 66
     1
 10
0.0
 20
0.0
 30
0.0
  0
VERTEX
  5
128
330
127
100
AcDbEntity
  8
Layer 1
 62
     7
370
    35
100
AcDbVertex
100
AcDb2dVertex
 10
-1982.663131557286
 20
-420.3915661926452
 30
0.0
  0
VERTEX
  5
3B2
330
127
100
AcDbEntity
  8
0
100
AcDbVertex
100
AcDb2dVertex
 10
-1982.663131557286
 20
-420.3915661926452
 30
0.0
  0
SEQEND
  5
129
330
127
100
AcDbEntity
  8
Layer 1
370
    35
  0
POLYLINE
  5
12A
330
EB
100
AcDbEntity
  8
Layer 1
 62
     7
370
    35
100
AcDb2dPolyline
 66
     1
 10
0.0
 20
0.0
 30
0.0
  0
VERTEX
  5
12B
330
12A
100
AcDbEntity
  8
Layer 1
 62
     7
370
    35
100
AcDbVertex
100
AcDb2dVertex
 10
-1994.785389041234
 20
-390.0919513998729
 30
0.0
  0
VERTEX
  5
3B3
330
12A
100
AcDbEntity
  8
0
100
AcDbVertex
100
AcDb2dVertex
 10
-1994.785389041234
 20
-390.0919513998729
 30
0.0
  0
SEQEND
  5
12C
330
12A
100
AcDbEntity
  8
Layer 1
370
    35
  0
POLYLINE
  5
12D
330
EB
100
AcDbEntity
  8
Layer 1
 62
     7
370
    35
100
AcDb2dPolyline
 66
     1
 10
0.0
 20
0.0
 30
0.0
  0
VERTEX
  5
12E
330
12D
100
AcDbEntity
  8
Layer 1
 62
     7
370
    35
100
AcDbVertex
100
AcDb2dVertex
 10
-1982.663131557286
 20
-390.0919513998729
 30
0.0
  0
VERTEX
  5
3B4
330
12D
100
AcDbEntity
  8
0
100
AcDbVertex
100
AcDb2dVertex
 10
-1982.663131557286
 20
-390.0919513998729
 30
0.0
  0
SEQEND
  5
12F
330
12D
100
AcDbEntity
  8
Layer 1
370
    35
  0
POLYLINE
  5
130
330
EB
100
AcDbEntity
  8
Layer 1
 62
     7
370
    35
100
AcDb2dPolyline
 66
     1
 10
0.0
 20
0.0
 30
0.0
  0
VERTEX
  5
131
330
130
100
AcDbEntity
  8
Layer 1
 62
     7
370
    35
100
AcDbVertex
100
AcDb2dVertex
 10
-1982.663131557286
 20
-390.0919513998729
 30
0.0
  0
VERTEX
  5
132
330
130
100
AcDbEntity
  8
Layer 1
 62
     7
370
    35
100
AcDbVertex
100
AcDb2dVertex
 10
-1970.532261334624
 20
-390.0919513998729
 30
0.0
  0
VERTEX
  5
133
330
130
100
AcDbEntity
  8
Layer 1
 62
     7
370
    35
100
AcDbVertex
100
AcDb2dVertex
 10
-1982.663131557286
 20
-420.3915661926452
 30
0.0
  0
VERTEX
  5
134
330
130
100
AcDbEntity
  8
Layer 1
 62
     7
370
    35
100
AcDbVertex
100
AcDb2dVertex
 10
-1994.785389041234
 20
-390.0919513998729
 30
0.0
  0
VERTEX
  5
135
330
130
100
AcDbEntity
  8
Layer 1
 62
     7
370
    35
100
AcDbVertex
100
AcDb2dVertex
 10
-1982.663131557286
 20
-390.0919513998729
 30
0.0
  0
SEQEND
  5
136
330
130
100
AcDbEntity
  8
Layer 1
370
    35
  0
POLYLINE
  5
137
330
EB
100
AcDbEntity
  8
Layer 1
370
     0
100
AcDb2dPolyline
 66
     1
 10
0.0
 20
0.0
 30
0.0
  0
VERTEX
  5
138
330
137
100
AcDbEntity
  8
Layer 1
370
     0
100
AcDbVertex
100
AcDb2dVertex
 10
-1982.663131557286
 20
-390.0922959094214
 30
0.0
  0
VERTEX
  5
139
330
137
100
AcDbEntity
  8
Layer 1
370
     0
100
AcDbVertex
100
AcDb2dVertex
 10
-1970.532261334624
 20
-390.0922959094214
 30
0.0
  0
VERTEX
  5
13A
330
137
100
AcDbEntity
  8
Layer 1
370
     0
100
AcDbVertex
100
AcDb2dVertex
 10
-1970.532261334624
 20
-390.0922959094214
 30
0.0
  0
VERTEX
  5
13B
330
137
100
AcDbEntity
  8
Layer 1
370
     0
100
AcDbVertex
100
AcDb2dVertex
 10
-1982.663131557286
 20
-420.3919107021937
 30
0.0
  0
VERTEX
  5
13C
330
137
100
AcDbEntity
  8
Layer 1
370
     0
100
AcDbVertex
100
AcDb2dVertex
 10
-1982.663131557286
 20
-420.3919107021937
 30
0.0
  0
VERTEX
  5
13D
330
137
100
AcDbEntity
  8
Layer 1
370
     0
100
AcDbVertex
100
AcDb2dVertex
 10
-1994.785389041234
 20
-390.0922959094214
 30
0.0
  0
VERTEX
  5
13E
330
137
100
AcDbEntity
  8
Layer 1
370
     0
100
AcDbVertex
100
AcDb2dVertex
 10
-1994.785389041234
 20
-390.0922959094214
 30
0.0
  0
VERTEX
  5
13F
330
137
100
AcDbEntity
  8
Layer 1
370
     0
100
AcDbVertex
100
AcDb2dVertex
 10
-1982.663131557286
 20
-390.0922959094214
 30
0.0
  0
VERTEX
  5
140
330
137
100
AcDbEntity
  8
Layer 1
370
     0
100
AcDbVertex
100
AcDb2dVertex
 10
-1982.663131557286
 20
-390.0922959094214
 30
0.0
  0
SEQEND
  5
141
330
137
100
AcDbEntity
  8
Layer 1
370
     0
  0
HATCH
  5
142
330
EB
100
AcDbEntity
  8
Layer 1
 62
     7
100
AcDbHatch
 10
0.0
 20
0.0
 30
0.0
210
0.0
220
0.0
230
1.0
  2
SOLID
 70
     1
 71
     0
 91
        1
 92
        1
 93
        4
 72
     1
 10
-1982.663131557286
 20
-390.0922959094214
 11
-1970.532261334624
 21
-390.0922959094214
 72
     1
 10
-1970.532261334624
 20
-390.0922959094214
 11
-1982.663131557286
 21
-420.3919107021937
 72
     1
 10
-1982.663131557286
 20
-420.3919107021937
 11
-1994.785389041234
 21
-390.0922959094214
 72
     1
 10
-1994.785389041234
 20
-390.0922959094214
 11
-1982.663131557286
 21
-390.0922959094214
 97
        0
 75
     0
 76
     1
 98
        0
  0
POLYLINE
  5
143
330
EB
100
AcDbEntity
  8
Layer 1
 62
     7
370
     9
100
AcDb2dPolyline
 66
     1
 10
0.0
 20
0.0
 30
0.0
  0
VERTEX
  5
144
330
143
100
AcDbEntity
  8
Layer 1
 62
     7
370
     9
100
AcDbVertex
100
AcDb2dVertex
 10
-1982.658825187929
 20
551.2383597797251
 30
0.0
  0
VERTEX
  5
145
330
143
100
AcDbEntity
  8
Layer 1
 62
     7
370
     9
100
AcDbVertex
100
AcDb2dVertex
 10
-1982.658825187929
 20
-392.1159449974571
 30
0.0
  0
SEQEND
  5
146
330
143
100
AcDbEntity
  8
Layer 1
370
     9
  0
MTEXT
  5
147
330
EB
100
AcDbEntity
  8
Layer 1
 62
     7
100
AcDbMText
 10
-2024.107630244841
 20
-103.6784260808512
 30
0.0
 40
41.97786514080491
 41
0.0
 71
     7
 72
     1
  1
\fVerdana|b0|i0|c0|p34;\W1;HEIGHT ‘H’
 11
-4.371139000186241E-8
 21
0.999999999999999
 31
0.0
 73
     1
 44
1.0
  0
POLYLINE
  5
148
330
EB
100
AcDbEntity
  8
Layer 1
  6
AI-Linetype-1
 62
     7
370
     9
100
AcDb2dPolyline
 66
     1
 10
0.0
 20
0.0
 30
0.0
  0
VERTEX
  5
149
330
148
100
AcDbEntity
  8
Layer 1
  6
AI-Linetype-1
 62
     7
370
     9
100
AcDbVertex
100
AcDb2dVertex
 10
-1748.74390418521
 20
602.3804577487105
 30
0.0
  0
VERTEX
  5
14A
330
148
100
AcDbEntity
  8
Layer 1
  6
AI-Linetype-1
 62
     7
370
     9
100
AcDbVertex
100
AcDb2dVertex
 10
-1748.74390418521
 20
792.9228323755541
 30
0.0
  0
SEQEND
  5
14B
330
148
100
AcDbEntity
  8
Layer 1
  6
AI-Linetype-1
370
     9
  0
POLYLINE
  5
14D
330
EB
100
AcDbEntity
  8
Layer 1
  6
AI-Linetype-2
 62
     7
370
     9
100
AcDb2dPolyline
 66
     1
 10
0.0
 20
0.0
 30
0.0
  0
VERTEX
  5
14E
330
14D
100
AcDbEntity
  8
Layer 1
  6
AI-Linetype-2
 62
     7
370
     9
100
AcDbVertex
100
AcDb2dVertex
 10
-289.7438991246127
 20
602.3804577487105
 30
0.0
  0
VERTEX
  5
14F
330
14D
100
AcDbEntity
  8
Layer 1
  6
AI-Linetype-2
 62
     7
370
     9
100
AcDbVertex
100
AcDb2dVertex
 10
-289.7438991246127
 20
792.9228323755541
 30
0.0
  0
SEQEND
  5
150
330
14D
100
AcDbEntity
  8
Layer 1
  6
AI-Linetype-2
370
     9
  0
POLYLINE
  5
152
330
EB
100
AcDbEntity
  8
Layer 1
370
     0
100
AcDb2dPolyline
 66
     1
 10
0.0
 20
0.0
 30
0.0
  0
VERTEX
  5
153
330
152
100
AcDbEntity
  8
Layer 1
370
     0
100
AcDbVertex
100
AcDb2dVertex
 10
-1717.077447758665
 20
740.7516843851246
 30
0.0
  0
VERTEX
  5
154
330
152
100
AcDbEntity
  8
Layer 1
370
     0
100
AcDbVertex
100
AcDb2dVertex
 10
-1717.077447758665
 20
728.6249482770452
 30
0.0
  0
VERTEX
  5
155
330
152
100
AcDbEntity
  8
Layer 1
370
     0
100
AcDbVertex
100
AcDb2dVertex
 10
-1747.393943519315
 20
740.7516843851246
 30
0.0
  0
VERTEX
  5
156
330
152
100
AcDbEntity
  8
Layer 1
370
     0
100
AcDbVertex
100
AcDb2dVertex
 10
-1717.077447758665
 20
752.8784204932041
 30
0.0
  0
VERTEX
  5
157
330
152
100
AcDbEntity
  8
Layer 1
370
     0
100
AcDbVertex
100
AcDb2dVertex
 10
-1717.077447758665
 20
740.7516843851246
 30
0.0
  0
SEQEND
  5
158
330
152
100
AcDbEntity
  8
Layer 1
370
     0
  0
POLYLINE
  5
159
330
EB
100
AcDbEntity
  8
Layer 1
 62
     7
370
    35
100
AcDb2dPolyline
 66
     1
 10
0.0
 20
0.0
 30
0.0
  0
VERTEX
  5
15A
330
159
100
AcDbEntity
  8
Layer 1
 62
     7
370
    35
100
AcDbVertex
100
AcDb2dVertex
 10
-1717.077447758665
 20
728.629426901176
 30
0.0
  0
VERTEX
  5
3B5
330
159
100
AcDbEntity
  8
0
100
AcDbVertex
100
AcDb2dVertex
 10
-1717.077447758665
 20
728.629426901176
 30
0.0
  0
SEQEND
  5
15B
330
159
100
AcDbEntity
  8
Layer 1
370
    35
  0
POLYLINE
  5
15C
330
EB
100
AcDbEntity
  8
Layer 1
 62
     7
370
    35
100
AcDb2dPolyline
 66
     1
 10
0.0
 20
0.0
 30
0.0
  0
VERTEX
  5
15D
330
15C
100
AcDbEntity
  8
Layer 1
 62
     7
370
    35
100
AcDbVertex
100
AcDb2dVertex
 10
-1747.398249888671
 20
740.7646034931943
 30
0.0
  0
VERTEX
  5
3B6
330
15C
100
AcDbEntity
  8
0
100
AcDbVertex
100
AcDb2dVertex
 10
-1747.398249888671
 20
740.7646034931943
 30
0.0
  0
SEQEND
  5
15E
330
15C
100
AcDbEntity
  8
Layer 1
370
    35
  0
POLYLINE
  5
15F
330
EB
100
AcDbEntity
  8
Layer 1
 62
     7
370
    35
100
AcDb2dPolyline
 66
     1
 10
0.0
 20
0.0
 30
0.0
  0
VERTEX
  5
160
330
15F
100
AcDbEntity
  8
Layer 1
 62
     7
370
    35
100
AcDbVertex
100
AcDb2dVertex
 10
-1717.077447758665
 20
752.8698077544909
 30
0.0
  0
VERTEX
  5
3B7
330
15F
100
AcDbEntity
  8
0
100
AcDbVertex
100
AcDb2dVertex
 10
-1717.077447758665
 20
752.8698077544909
 30
0.0
  0
SEQEND
  5
161
330
15F
100
AcDbEntity
  8
Layer 1
370
    35
  0
POLYLINE
  5
162
330
EB
100
AcDbEntity
  8
Layer 1
 62
     7
370
    35
100
AcDb2dPolyline
 66
     1
 10
0.0
 20
0.0
 30
0.0
  0
VERTEX
  5
163
330
162
100
AcDbEntity
  8
Layer 1
 62
     7
370
    35
100
AcDbVertex
100
AcDb2dVertex
 10
-1717.077447758665
 20
740.7646034931943
 30
0.0
  0
VERTEX
  5
3B8
330
162
100
AcDbEntity
  8
0
100
AcDbVertex
100
AcDb2dVertex
 10
-1717.077447758665
 20
740.7646034931943
 30
0.0
  0
SEQEND
  5
164
330
162
100
AcDbEntity
  8
Layer 1
370
    35
  0
POLYLINE
  5
165
330
EB
100
AcDbEntity
  8
Layer 1
 62
     7
370
    35
100
AcDb2dPolyline
 66
     1
 10
0.0
 20
0.0
 30
0.0
  0
VERTEX
  5
166
330
165
100
AcDbEntity
  8
Layer 1
 62
     7
370
    35
100
AcDbVertex
100
AcDb2dVertex
 10
-1717.077447758665
 20
740.7646034931943
 30
0.0
  0
VERTEX
  5
167
330
165
100
AcDbEntity
  8
Layer 1
 62
     7
370
    35
100
AcDbVertex
100
AcDb2dVertex
 10
-1717.077447758665
 20
728.629426901176
 30
0.0
  0
VERTEX
  5
168
330
165
100
AcDbEntity
  8
Layer 1
 62
     7
370
    35
100
AcDbVertex
100
AcDb2dVertex
 10
-1747.398249888671
 20
740.7646034931943
 30
0.0
  0
VERTEX
  5
169
330
165
100
AcDbEntity
  8
Layer 1
 62
     7
370
    35
100
AcDbVertex
100
AcDb2dVertex
 10
-1717.077447758665
 20
752.8698077544909
 30
0.0
  0
VERTEX
  5
16A
330
165
100
AcDbEntity
  8
Layer 1
 62
     7
370
    35
100
AcDbVertex
100
AcDb2dVertex
 10
-1717.077447758665
 20
740.7646034931943
 30
0.0
  0
SEQEND
  5
16B
330
165
100
AcDbEntity
  8
Layer 1
370
    35
  0
POLYLINE
  5
16C
330
EB
100
AcDbEntity
  8
Layer 1
370
     0
100
AcDb2dPolyline
 66
     1
 10
0.0
 20
0.0
 30
0.0
  0
VERTEX
  5
16D
330
16C
100
AcDbEntity
  8
Layer 1
370
     0
100
AcDbVertex
100
AcDb2dVertex
 10
-1717.077620013439
 20
740.7647757479685
 30
0.0
  0
VERTEX
  5
16E
330
16C
100
AcDbEntity
  8
Layer 1
370
     0
100
AcDbVertex
100
AcDb2dVertex
 10
-1717.077620013439
 20
728.6290823916274
 30
0.0
  0
VERTEX
  5
16F
330
16C
100
AcDbEntity
  8
Layer 1
370
     0
100
AcDbVertex
100
AcDb2dVertex
 10
-1717.077620013439
 20
728.6290823916274
 30
0.0
  0
VERTEX
  5
170
330
16C
100
AcDbEntity
  8
Layer 1
370
     0
100
AcDbVertex
100
AcDb2dVertex
 10
-1747.398249888671
 20
740.7647757479685
 30
0.0
  0
VERTEX
  5
171
330
16C
100
AcDbEntity
  8
Layer 1
370
     0
100
AcDbVertex
100
AcDb2dVertex
 10
-1747.398249888671
 20
740.7647757479685
 30
0.0
  0
VERTEX
  5
172
330
16C
100
AcDbEntity
  8
Layer 1
370
     0
100
AcDbVertex
100
AcDb2dVertex
 10
-1717.077620013439
 20
752.8698077544909
 30
0.0
  0
VERTEX
  5
173
330
16C
100
AcDbEntity
  8
Layer 1
370
     0
100
AcDbVertex
100
AcDb2dVertex
 10
-1717.077620013439
 20
752.8698077544909
 30
0.0
  0
VERTEX
  5
174
330
16C
100
AcDbEntity
  8
Layer 1
370
     0
100
AcDbVertex
100
AcDb2dVertex
 10
-1717.077620013439
 20
740.7647757479685
 30
0.0
  0
VERTEX
  5
175
330
16C
100
AcDbEntity
  8
Layer 1
370
     0
100
AcDbVertex
100
AcDb2dVertex
 10
-1717.077620013439
 20
740.7647757479685
 30
0.0
  0
SEQEND
  5
176
330
16C
100
AcDbEntity
  8
Layer 1
370
     0
  0
HATCH
  5
177
330
EB
100
AcDbEntity
  8
Layer 1
 62
     7
100
AcDbHatch
 10
0.0
 20
0.0
 30
0.0
210
0.0
220
0.0
230
1.0
  2
SOLID
 70
     1
 71
     0
 91
        1
 92
        1
 93
        4
 72
     1
 10
-1717.077620013439
 20
740.7647757479685
 11
-1717.077620013439
 21
728.6290823916274
 72
     1
 10
-1717.077620013439
 20
728.6290823916274
 11
-1747.398249888671
 21
740.7647757479685
 72
     1
 10
-1747.398249888671
 20
740.7647757479685
 11
-1717.077620013439
 21
752.8698077544909
 72
     1
 10
-1717.077620013439
 20
752.8698077544909
 11
-1717.077620013439
 21
740.7647757479685
 97
        0
 75
     0
 76
     1
 98
        0
  0
POLYLINE
  5
178
330
EB
100
AcDbEntity
  8
Layer 1
370
     0
100
AcDb2dPolyline
 66
     1
 10
0.0
 20
0.0
 30
0.0
  0
VERTEX
  5
179
330
178
100
AcDbEntity
  8
Layer 1
370
     0
100
AcDbVertex
100
AcDb2dVertex
 10
-321.4053601627043
 20
740.7516843851246
 30
0.0
  0
VERTEX
  5
17A
330
178
100
AcDbEntity
  8
Layer 1
370
     0
100
AcDbVertex
100
AcDb2dVertex
 10
-321.4053601627043
 20
752.8784204932041
 30
0.0
  0
VERTEX
  5
17B
330
178
100
AcDbEntity
  8
Layer 1
370
     0
100
AcDbVertex
100
AcDb2dVertex
 10
-291.0886921472799
 20
740.7516843851246
 30
0.0
  0
VERTEX
  5
17C
330
178
100
AcDbEntity
  8
Layer 1
370
     0
100
AcDbVertex
100
AcDb2dVertex
 10
-321.4053601627043
 20
728.6249482770452
 30
0.0
  0
VERTEX
  5
17D
330
178
100
AcDbEntity
  8
Layer 1
370
     0
100
AcDbVertex
100
AcDb2dVertex
 10
-321.4053601627043
 20
740.7516843851246
 30
0.0
  0
SEQEND
  5
17E
330
178
100
AcDbEntity
  8
Layer 1
370
     0
  0
POLYLINE
  5
17F
330
EB
100
AcDbEntity
  8
Layer 1
 62
     7
370
    35
100
AcDb2dPolyline
 66
     1
 10
0.0
 20
0.0
 30
0.0
  0
VERTEX
  5
180
330
17F
100
AcDbEntity
  8
Layer 1
 62
     7
370
    35
100
AcDbVertex
100
AcDb2dVertex
 10
-321.4098387868351
 20
752.8698077544909
 30
0.0
  0
VERTEX
  5
3B9
330
17F
100
AcDbEntity
  8
0
100
AcDbVertex
100
AcDb2dVertex
 10
-321.4098387868351
 20
752.8698077544909
 30
0.0
  0
SEQEND
  5
181
330
17F
100
AcDbEntity
  8
Layer 1
370
    35
  0
POLYLINE
  5
182
330
EB
100
AcDbEntity
  8
Layer 1
 62
     7
370
    35
100
AcDb2dPolyline
 66
     1
 10
0.0
 20
0.0
 30
0.0
  0
VERTEX
  5
183
330
182
100
AcDbEntity
  8
Layer 1
 62
     7
370
    35
100
AcDbVertex
100
AcDb2dVertex
 10
-291.0886921472799
 20
740.7646034931943
 30
0.0
  0
VERTEX
  5
3BA
330
182
100
AcDbEntity
  8
0
100
AcDbVertex
100
AcDb2dVertex
 10
-291.0886921472799
 20
740.7646034931943
 30
0.0
  0
SEQEND
  5
184
330
182
100
AcDbEntity
  8
Layer 1
370
    35
  0
POLYLINE
  5
185
330
EB
100
AcDbEntity
  8
Layer 1
 62
     7
370
    35
100
AcDb2dPolyline
 66
     1
 10
0.0
 20
0.0
 30
0.0
  0
VERTEX
  5
186
330
185
100
AcDbEntity
  8
Layer 1
 62
     7
370
    35
100
AcDbVertex
100
AcDb2dVertex
 10
-321.4098387868351
 20
728.629426901176
 30
0.0
  0
VERTEX
  5
3BB
330
185
100
AcDbEntity
  8
0
100
AcDbVertex
100
AcDb2dVertex
 10
-321.4098387868351
 20
728.629426901176
 30
0.0
  0
SEQEND
  5
187
330
185
100
AcDbEntity
  8
Layer 1
370
    35
  0
POLYLINE
  5
188
330
EB
100
AcDbEntity
  8
Layer 1
 62
     7
370
    35
100
AcDb2dPolyline
 66
     1
 10
0.0
 20
0.0
 30
0.0
  0
VERTEX
  5
189
330
188
100
AcDbEntity
  8
Layer 1
 62
     7
370
    35
100
AcDbVertex
100
AcDb2dVertex
 10
-321.4098387868351
 20
740.7646034931943
 30
0.0
  0
VERTEX
  5
3BC
330
188
100
AcDbEntity
  8
0
100
AcDbVertex
100
AcDb2dVertex
 10
-321.4098387868351
 20
740.7646034931943
 30
0.0
  0
SEQEND
  5
18A
330
188
100
AcDbEntity
  8
Layer 1
370
    35
  0
POLYLINE
  5
18B
330
EB
100
AcDbEntity
  8
Layer 1
 62
     7
370
    35
100
AcDb2dPolyline
 66
     1
 10
0.0
 20
0.0
 30
0.0
  0
VERTEX
  5
18C
330
18B
100
AcDbEntity
  8
Layer 1
 62
     7
370
    35
100
AcDbVertex
100
AcDb2dVertex
 10
-321.4098387868351
 20
740.7646034931943
 30
0.0
  0
VERTEX
  5
18D
330
18B
100
AcDbEntity
  8
Layer 1
 62
     7
370
    35
100
AcDbVertex
100
AcDb2dVertex
 10
-321.4098387868351
 20
752.8698077544909
 30
0.0
  0
VERTEX
  5
18E
330
18B
100
AcDbEntity
  8
Layer 1
 62
     7
370
    35
100
AcDbVertex
100
AcDb2dVertex
 10
-291.0886921472799
 20
740.7646034931943
 30
0.0
  0
VERTEX
  5
18F
330
18B
100
AcDbEntity
  8
Layer 1
 62
     7
370
    35
100
AcDbVertex
100
AcDb2dVertex
 10
-321.4098387868351
 20
728.629426901176
 30
0.0
  0
VERTEX
  5
190
330
18B
100
AcDbEntity
  8
Layer 1
 62
     7
370
    35
100
AcDbVertex
100
AcDb2dVertex
 10
-321.4098387868351
 20
740.7646034931943
 30
0.0
  0
SEQEND
  5
191
330
18B
100
AcDbEntity
  8
Layer 1
370
    35
  0
POLYLINE
  5
192
330
EB
100
AcDbEntity
  8
Layer 1
370
     0
100
AcDb2dPolyline
 66
     1
 10
0.0
 20
0.0
 30
0.0
  0
VERTEX
  5
193
330
192
100
AcDbEntity
  8
Layer 1
370
     0
100
AcDbVertex
100
AcDb2dVertex
 10
-321.4098387868351
 20
740.7647757479685
 30
0.0
  0
VERTEX
  5
194
330
192
100
AcDbEntity
  8
Layer 1
370
     0
100
AcDbVertex
100
AcDb2dVertex
 10
-321.4098387868351
 20
752.8698077544909
 30
0.0
  0
VERTEX
  5
195
330
192
100
AcDbEntity
  8
Layer 1
370
     0
100
AcDbVertex
100
AcDb2dVertex
 10
-321.4098387868351
 20
752.8698077544909
 30
0.0
  0
VERTEX
  5
196
330
192
100
AcDbEntity
  8
Layer 1
370
     0
100
AcDbVertex
100
AcDb2dVertex
 10
-291.0888644020542
 20
740.7647757479685
 30
0.0
  0
VERTEX
  5
197
330
192
100
AcDbEntity
  8
Layer 1
370
     0
100
AcDbVertex
100
AcDb2dVertex
 10
-291.0888644020542
 20
740.7647757479685
 30
0.0
  0
VERTEX
  5
198
330
192
100
AcDbEntity
  8
Layer 1
370
     0
100
AcDbVertex
100
AcDb2dVertex
 10
-321.4098387868351
 20
728.6290823916274
 30
0.0
  0
VERTEX
  5
199
330
192
100
AcDbEntity
  8
Layer 1
370
     0
100
AcDbVertex
100
AcDb2dVertex
 10
-321.4098387868351
 20
728.6290823916274
 30
0.0
  0
VERTEX
  5
19A
330
192
100
AcDbEntity
  8
Layer 1
370
     0
100
AcDbVertex
100
AcDb2dVertex
 10
-321.4098387868351
 20
740.7647757479685
 30
0.0
  0
VERTEX
  5
19B
330
192
100
AcDbEntity
  8
Layer 1
370
     0
100
AcDbVertex
100
AcDb2dVertex
 10
-321.4098387868351
 20
740.7647757479685
 30
0.0
  0
SEQEND
  5
19C
330
192
100
AcDbEntity
  8
Layer 1
370
     0
  0
HATCH
  5
19D
330
EB
100
AcDbEntity
  8
Layer 1
 62
     7
100
AcDbHatch
 10
0.0
 20
0.0
 30
0.0
210
0.0
220
0.0
230
1.0
  2
SOLID
 70
     1
 71
     0
 91
        1
 92
        1
 93
        4
 72
     1
 10
-321.4098387868351
 20
740.7647757479685
 11
-321.4098387868351
 21
752.8698077544909
 72
     1
 10
-321.4098387868351
 20
752.8698077544909
 11
-291.0888644020542
 21
740.7647757479685
 72
     1
 10
-291.0888644020542
 20
740.7647757479685
 11
-321.4098387868351
 21
728.6290823916274
 72
     1
 10
-321.4098387868351
 20
728.6290823916274
 11
-321.4098387868351
 21
740.7647757479685
 97
        0
 75
     0
 76
     1
 98
        0
  0
POLYLINE
  5
19E
330
EB
100
AcDbEntity
  8
Layer 1
 62
     7
370
     9
100
AcDb2dPolyline
 66
     1
 10
0.0
 20
0.0
 30
0.0
  0
VERTEX
  5
19F
330
19E
100
AcDbEntity
  8
Layer 1
 62
     7
370
     9
100
AcDbVertex
100
AcDb2dVertex
 10
-1717.077447758665
 20
740.7516843851246
 30
0.0
  0
VERTEX
  5
1A0
330
19E
100
AcDbEntity
  8
Layer 1
 62
     7
370
     9
100
AcDbVertex
100
AcDb2dVertex
 10
-321.4053601627043
 20
740.7516843851246
 30
0.0
  0
SEQEND
  5
1A1
330
19E
100
AcDbEntity
  8
Layer 1
370
     9
  0
MTEXT
  5
1A2
330
EB
100
AcDbEntity
  8
Layer 1
 62
     7
100
AcDbMText
 10
-1638.956634789914
 20
791.847273565059
 30
0.0
 40
41.97786514080491
 41
0.0
 71
     7
 72
     1
  1
\fVerdana|b0|i0|c0|p34;\W1;SPAN ‘S max’ BETWEEN POST CENTRES
 73
     1
 44
1.0
  0
MTEXT
  5
1A3
330
EB
100
AcDbEntity
  8
Layer 1
 62
     7
100
AcDbMText
 10
-2041.379616460141
 20
-664.8297036098343
 30
0.0
 40
41.97786514080491
 41
0.0
 71
     7
 72
     1
  1
\fVerdana|b0|i0|c0|p34;\W1;SUBSTRATE LEVEL
 73
     1
 44
1.0
  0
MTEXT
  5
1A4
330
EB
100
AcDbEntity
  8
Layer 1
 62
     7
100
AcDbMText
 10
-2038.022026400217
 20
-717.4173636444305
 30
0.0
 40
41.97786514080491
 41
0.0
 71
     7
 72
     1
  1
\fVerdana|b0|i0|c0|p34;\W1;(as defined by the 
 73
     1
 44
1.0
  0
MTEXT
  5
1A5
330
EB
100
AcDbEntity
  8
Layer 1
 62
     7
100
AcDbMText
 10
-2068.934179170266
 20
-790.9167532744931
 30
0.0
 40
41.97786514080491
 41
0.0
 71
     7
 72
     1
  1
\fVerdana|b0|i0|c0|p34;\W1;Fixing Specification)
 73
     1
 44
1.0
  0
MTEXT
  5
1A6
330
EB
100
AcDbEntity
  8
Layer 1
 62
     7
100
AcDbMText
 10
-294.3586045271048
 20
-664.8297036098343
 30
0.0
 40
41.97786514080491
 41
0.0
 71
     7
 72
     1
  1
\fVerdana|b0|i0|c0|p34;\W1;UNDERSPACE
 73
     1
 44
1.0
  0
MTEXT
  5
1A7
330
EB
100
AcDbEntity
  8
Layer 1
 62
     7
100
AcDbMText
 10
-112.9998209352917
 20
-738.9120033960012
 30
0.0
 40
41.97786514080491
 41
0.0
 71
     7
 72
     1
  1
\fVerdana|b0|i0|c0|p34;\W1;‘U’
 73
     1
 44
1.0
  0
POLYLINE
  5
1A8
330
EB
100
AcDbEntity
  8
Layer 1
 62
     7
370
     9
100
AcDb2dPolyline
 66
     1
 10
0.0
 20
0.0
 30
0.0
  0
VERTEX
  5
1A9
330
1A8
100
AcDbEntity
  8
Layer 1
 62
     7
370
     9
100
AcDbVertex
100
AcDb2dVertex
 10
-114.0021714667252
 20
-332.4124402380775
 30
0.0
  0
VERTEX
  5
1AA
330
1A8
100
AcDbEntity
  8
Layer 1
 62
     7
370
     9
100
AcDbVertex
100
AcDb2dVertex
 10
-32.59077554523773
 20
-332.4124402380775
 30
0.0
  0
SEQEND
  5
1AB
330
1A8
100
AcDbEntity
  8
Layer 1
370
     9
  0
POLYLINE
  5
1AC
330
EB
100
AcDbEntity
  8
Layer 1
 62
     7
370
     9
100
AcDb2dPolyline
 66
     1
 10
0.0
 20
0.0
 30
0.0
  0
VERTEX
  5
1AD
330
1AC
100
AcDbEntity
  8
Layer 1
 62
     7
370
     9
100
AcDbVertex
100
AcDb2dVertex
 10
-114.0021714667252
 20
-420.4087916700714
 30
0.0
  0
VERTEX
  5
1AE
330
1AC
100
AcDbEntity
  8
Layer 1
 62
     7
370
     9
100
AcDbVertex
100
AcDb2dVertex
 10
-32.59077554523773
 20
-420.4087916700714
 30
0.0
  0
SEQEND
  5
1AF
330
1AC
100
AcDbEntity
  8
Layer 1
370
     9
  0
POLYLINE
  5
1B0
330
EB
100
AcDbEntity
  8
Layer 1
370
     0
100
AcDb2dPolyline
 66
     1
 10
0.0
 20
0.0
 30
0.0
  0
VERTEX
  5
1B1
330
1B0
100
AcDbEntity
  8
Layer 1
370
     0
100
AcDbVertex
100
AcDb2dVertex
 10
-74.91790769611427
 20
-450.7166746920083
 30
0.0
  0
VERTEX
  5
1B2
330
1B0
100
AcDbEntity
  8
Layer 1
370
     0
100
AcDbVertex
100
AcDb2dVertex
 10
-87.03999292528862
 20
-450.7166746920083
 30
0.0
  0
VERTEX
  5
1B3
330
1B0
100
AcDbEntity
  8
Layer 1
370
     0
100
AcDbVertex
100
AcDb2dVertex
 10
-74.91790769611427
 20
-420.4087916700714
 30
0.0
  0
VERTEX
  5
1B4
330
1B0
100
AcDbEntity
  8
Layer 1
370
     0
100
AcDbVertex
100
AcDb2dVertex
 10
-62.79117158803485
 20
-450.7166746920083
 30
0.0
  0
VERTEX
  5
1B5
330
1B0
100
AcDbEntity
  8
Layer 1
370
     0
100
AcDbVertex
100
AcDb2dVertex
 10
-74.91790769611427
 20
-450.7166746920083
 30
0.0
  0
SEQEND
  5
1B6
330
1B0
100
AcDbEntity
  8
Layer 1
370
     0
  0
POLYLINE
  5
1B7
330
EB
100
AcDbEntity
  8
Layer 1
 62
     7
370
    35
100
AcDb2dPolyline
 66
     1
 10
0.0
 20
0.0
 30
0.0
  0
VERTEX
  5
1B8
330
1B7
100
AcDbEntity
  8
Layer 1
 62
     7
370
    35
100
AcDbVertex
100
AcDb2dVertex
 10
-87.04447154941944
 20
-450.7166746920083
 30
0.0
  0
VERTEX
  5
3BD
330
1B7
100
AcDbEntity
  8
0
100
AcDbVertex
100
AcDb2dVertex
 10
-87.04447154941944
 20
-450.7166746920083
 30
0.0
  0
SEQEND
  5
1B9
330
1B7
100
AcDbEntity
  8
Layer 1
370
    35
  0
POLYLINE
  5
1BA
330
EB
100
AcDbEntity
  8
Layer 1
 62
     7
370
    35
100
AcDb2dPolyline
 66
     1
 10
0.0
 20
0.0
 30
0.0
  0
VERTEX
  5
1BB
330
1BA
100
AcDbEntity
  8
Layer 1
 62
     7
370
    35
100
AcDbVertex
100
AcDb2dVertex
 10
-74.91342907198346
 20
-420.3915661926452
 30
0.0
  0
VERTEX
  5
3BE
330
1BA
100
AcDbEntity
  8
0
100
AcDbVertex
100
AcDb2dVertex
 10
-74.91342907198346
 20
-420.3915661926452
 30
0.0
  0
SEQEND
  5
1BC
330
1BA
100
AcDbEntity
  8
Layer 1
370
    35
  0
POLYLINE
  5
1BD
330
EB
100
AcDbEntity
  8
Layer 1
 62
     7
370
    35
100
AcDb2dPolyline
 66
     1
 10
0.0
 20
0.0
 30
0.0
  0
VERTEX
  5
1BE
330
1BD
100
AcDbEntity
  8
Layer 1
 62
     7
370
    35
100
AcDbVertex
100
AcDb2dVertex
 10
-62.79117158803485
 20
-450.7166746920083
 30
0.0
  0
VERTEX
  5
3BF
330
1BD
100
AcDbEntity
  8
0
100
AcDbVertex
100
AcDb2dVertex
 10
-62.79117158803485
 20
-450.7166746920083
 30
0.0
  0
SEQEND
  5
1BF
330
1BD
100
AcDbEntity
  8
Layer 1
370
    35
  0
POLYLINE
  5
1C0
330
EB
100
AcDbEntity
  8
Layer 1
 62
     7
370
    35
100
AcDb2dPolyline
 66
     1
 10
0.0
 20
0.0
 30
0.0
  0
VERTEX
  5
1C1
330
1C0
100
AcDbEntity
  8
Layer 1
 62
     7
370
    35
100
AcDbVertex
100
AcDb2dVertex
 10
-74.91342907198346
 20
-450.7166746920083
 30
0.0
  0
VERTEX
  5
3C0
330
1C0
100
AcDbEntity
  8
0
100
AcDbVertex
100
AcDb2dVertex
 10
-74.91342907198346
 20
-450.7166746920083
 30
0.0
  0
SEQEND
  5
1C2
330
1C0
100
AcDbEntity
  8
Layer 1
370
    35
  0
POLYLINE
  5
1C3
330
EB
100
AcDbEntity
  8
Layer 1
 62
     7
370
    35
100
AcDb2dPolyline
 66
     1
 10
0.0
 20
0.0
 30
0.0
  0
VERTEX
  5
1C4
330
1C3
100
AcDbEntity
  8
Layer 1
 62
     7
370
    35
100
AcDbVertex
100
AcDb2dVertex
 10
-74.91342907198346
 20
-450.7166746920083
 30
0.0
  0
VERTEX
  5
1C5
330
1C3
100
AcDbEntity
  8
Layer 1
 62
     7
370
    35
100
AcDbVertex
100
AcDb2dVertex
 10
-87.04447154941944
 20
-450.7166746920083
 30
0.0
  0
VERTEX
  5
1C6
330
1C3
100
AcDbEntity
  8
Layer 1
 62
     7
370
    35
100
AcDbVertex
100
AcDb2dVertex
 10
-74.91342907198346
 20
-420.3915661926452
 30
0.0
  0
VERTEX
  5
1C7
330
1C3
100
AcDbEntity
  8
Layer 1
 62
     7
370
    35
100
AcDbVertex
100
AcDb2dVertex
 10
-62.79117158803485
 20
-450.7166746920083
 30
0.0
  0
VERTEX
  5
1C8
330
1C3
100
AcDbEntity
  8
Layer 1
 62
     7
370
    35
100
AcDbVertex
100
AcDb2dVertex
 10
-74.91342907198346
 20
-450.7166746920083
 30
0.0
  0
SEQEND
  5
1C9
330
1C3
100
AcDbEntity
  8
Layer 1
370
    35
  0
POLYLINE
  5
1CA
330
EB
100
AcDbEntity
  8
Layer 1
370
     0
100
AcDb2dPolyline
 66
     1
 10
0.0
 20
0.0
 30
0.0
  0
VERTEX
  5
1CB
330
1CA
100
AcDbEntity
  8
Layer 1
370
     0
100
AcDbVertex
100
AcDb2dVertex
 10
-74.91360132675771
 20
-450.7166746920083
 30
0.0
  0
VERTEX
  5
1CC
330
1CA
100
AcDbEntity
  8
Layer 1
370
     0
100
AcDbVertex
100
AcDb2dVertex
 10
-87.04429929464519
 20
-450.7166746920083
 30
0.0
  0
VERTEX
  5
1CD
330
1CA
100
AcDbEntity
  8
Layer 1
370
     0
100
AcDbVertex
100
AcDb2dVertex
 10
-87.04429929464519
 20
-450.7166746920083
 30
0.0
  0
VERTEX
  5
1CE
330
1CA
100
AcDbEntity
  8
Layer 1
370
     0
100
AcDbVertex
100
AcDb2dVertex
 10
-74.91360132675771
 20
-420.3919107021937
 30
0.0
  0
VERTEX
  5
1CF
330
1CA
100
AcDbEntity
  8
Layer 1
370
     0
100
AcDbVertex
100
AcDb2dVertex
 10
-74.91360132675771
 20
-420.3919107021937
 30
0.0
  0
VERTEX
  5
1D0
330
1CA
100
AcDbEntity
  8
Layer 1
370
     0
100
AcDbVertex
100
AcDb2dVertex
 10
-62.79151609758338
 20
-450.7166746920083
 30
0.0
  0
VERTEX
  5
1D1
330
1CA
100
AcDbEntity
  8
Layer 1
370
     0
100
AcDbVertex
100
AcDb2dVertex
 10
-62.79151609758338
 20
-450.7166746920083
 30
0.0
  0
VERTEX
  5
1D2
330
1CA
100
AcDbEntity
  8
Layer 1
370
     0
100
AcDbVertex
100
AcDb2dVertex
 10
-74.91360132675771
 20
-450.7166746920083
 30
0.0
  0
VERTEX
  5
1D3
330
1CA
100
AcDbEntity
  8
Layer 1
370
     0
100
AcDbVertex
100
AcDb2dVertex
 10
-74.91360132675771
 20
-450.7166746920083
 30
0.0
  0
SEQEND
  5
1D4
330
1CA
100
AcDbEntity
  8
Layer 1
370
     0
  0
HATCH
  5
1D5
330
EB
100
AcDbEntity
  8
Layer 1
 62
     7
100
AcDbHatch
 10
0.0
 20
0.0
 30
0.0
210
0.0
220
0.0
230
1.0
  2
SOLID
 70
     1
 71
     0
 91
        1
 92
        1
 93
        4
 72
     1
 10
-74.91360132675771
 20
-450.7166746920083
 11
-87.04429929464519
 21
-450.7166746920083
 72
     1
 10
-87.04429929464519
 20
-450.7166746920083
 11
-74.91360132675771
 21
-420.3919107021937
 72
     1
 10
-74.91360132675771
 20
-420.3919107021937
 11
-62.79151609758338
 21
-450.7166746920083
 72
     1
 10
-62.79151609758338
 20
-450.7166746920083
 11
-74.91360132675771
 21
-450.7166746920083
 97
        0
 75
     0
 76
     1
 98
        0
  0
POLYLINE
  5
1D6
330
EB
100
AcDbEntity
  8
Layer 1
 62
     7
370
     9
100
AcDb2dPolyline
 66
     1
 10
0.0
 20
0.0
 30
0.0
  0
VERTEX
  5
1D7
330
1D6
100
AcDbEntity
  8
Layer 1
 62
     7
370
     9
100
AcDbVertex
100
AcDb2dVertex
 10
-74.92204181069657
 20
-448.6926810944241
 30
0.0
  0
VERTEX
  5
1D8
330
1D6
100
AcDbEntity
  8
Layer 1
 62
     7
370
     9
100
AcDbVertex
100
AcDb2dVertex
 10
-74.92204181069657
 20
-582.0116752017193
 30
0.0
  0
SEQEND
  5
1D9
330
1D6
100
AcDbEntity
  8
Layer 1
370
     9
  0
POLYLINE
  5
1DA
330
EB
100
AcDbEntity
  8
Layer 1
 62
     7
370
    35
100
AcDb2dPolyline
 66
     1
 10
0.0
 20
0.0
 30
0.0
  0
VERTEX
  5
1DB
330
1DA
100
AcDbEntity
  8
Layer 1
 62
     7
370
    35
100
AcDbVertex
100
AcDb2dVertex
 10
-1019.297128380158
 20
-420.4211940138183
 30
0.0
  0
VERTEX
  5
3C1
330
1DA
100
AcDbEntity
  8
0
100
AcDbVertex
100
AcDb2dVertex
 10
-1019.297128380158
 20
-420.4211940138183
 30
0.0
  0
SEQEND
  5
1DC
330
1DA
100
AcDbEntity
  8
Layer 1
370
    35
  0
POLYLINE
  5
1DD
330
EB
100
AcDbEntity
  8
Layer 1
370
     0
100
AcDb2dPolyline
 66
     1
 10
0.0
 20
0.0
 30
0.0
  0
VERTEX
  5
1DE
330
1DD
100
AcDbEntity
  8
Layer 1
370
     0
100
AcDbVertex
100
AcDb2dVertex
 10
-1824.801449467845
 20
-450.7166746920083
 30
0.0
  0
VERTEX
  5
1DF
330
1DD
100
AcDbEntity
  8
Layer 1
370
     0
100
AcDbVertex
100
AcDb2dVertex
 10
-1836.928185575924
 20
-450.7166746920083
 30
0.0
  0
VERTEX
  5
1E0
330
1DD
100
AcDbEntity
  8
Layer 1
370
     0
100
AcDbVertex
100
AcDb2dVertex
 10
-1824.801449467845
 20
-420.4087916700714
 30
0.0
  0
VERTEX
  5
1E1
330
1DD
100
AcDbEntity
  8
Layer 1
370
     0
100
AcDbVertex
100
AcDb2dVertex
 10
-1812.67488561454
 20
-450.7166746920083
 30
0.0
  0
VERTEX
  5
1E2
330
1DD
100
AcDbEntity
  8
Layer 1
370
     0
100
AcDbVertex
100
AcDb2dVertex
 10
-1824.801449467845
 20
-450.7166746920083
 30
0.0
  0
SEQEND
  5
1E3
330
1DD
100
AcDbEntity
  8
Layer 1
370
     0
  0
POLYLINE
  5
1E4
330
EB
100
AcDbEntity
  8
Layer 1
 62
     7
370
    35
100
AcDb2dPolyline
 66
     1
 10
0.0
 20
0.0
 30
0.0
  0
VERTEX
  5
1E5
330
1E4
100
AcDbEntity
  8
Layer 1
 62
     7
370
    35
100
AcDbVertex
100
AcDb2dVertex
 10
-1836.919572837211
 20
-450.7166746920083
 30
0.0
  0
VERTEX
  5
3C2
330
1E4
100
AcDbEntity
  8
0
100
AcDbVertex
100
AcDb2dVertex
 10
-1836.919572837211
 20
-450.7166746920083
 30
0.0
  0
SEQEND
  5
1E6
330
1E4
100
AcDbEntity
  8
Layer 1
370
    35
  0
POLYLINE
  5
1E7
330
EB
100
AcDbEntity
  8
Layer 1
 62
     7
370
    35
100
AcDb2dPolyline
 66
     1
 10
0.0
 20
0.0
 30
0.0
  0
VERTEX
  5
1E8
330
1E7
100
AcDbEntity
  8
Layer 1
 62
     7
370
    35
100
AcDbVertex
100
AcDb2dVertex
 10
-1824.801449467845
 20
-420.3915661926452
 30
0.0
  0
VERTEX
  5
3C3
330
1E7
100
AcDbEntity
  8
0
100
AcDbVertex
100
AcDb2dVertex
 10
-1824.801449467845
 20
-420.3915661926452
 30
0.0
  0
SEQEND
  5
1E9
330
1E7
100
AcDbEntity
  8
Layer 1
370
    35
  0
POLYLINE
  5
1EA
330
EB
100
AcDbEntity
  8
Layer 1
 62
     7
370
    35
100
AcDb2dPolyline
 66
     1
 10
0.0
 20
0.0
 30
0.0
  0
VERTEX
  5
1EB
330
1EA
100
AcDbEntity
  8
Layer 1
 62
     7
370
    35
100
AcDbVertex
100
AcDb2dVertex
 10
-1812.679191983896
 20
-450.7166746920083
 30
0.0
  0
VERTEX
  5
3C4
330
1EA
100
AcDbEntity
  8
0
100
AcDbVertex
100
AcDb2dVertex
 10
-1812.679191983896
 20
-450.7166746920083
 30
0.0
  0
SEQEND
  5
1EC
330
1EA
100
AcDbEntity
  8
Layer 1
370
    35
  0
POLYLINE
  5
1ED
330
EB
100
AcDbEntity
  8
Layer 1
 62
     7
370
    35
100
AcDb2dPolyline
 66
     1
 10
0.0
 20
0.0
 30
0.0
  0
VERTEX
  5
1EE
330
1ED
100
AcDbEntity
  8
Layer 1
 62
     7
370
    35
100
AcDbVertex
100
AcDb2dVertex
 10
-1824.801449467845
 20
-450.7166746920083
 30
0.0
  0
VERTEX
  5
3C5
330
1ED
100
AcDbEntity
  8
0
100
AcDbVertex
100
AcDb2dVertex
 10
-1824.801449467845
 20
-450.7166746920083
 30
0.0
  0
SEQEND
  5
1EF
330
1ED
100
AcDbEntity
  8
Layer 1
370
    35
  0
POLYLINE
  5
1F0
330
EB
100
AcDbEntity
  8
Layer 1
 62
     7
370
    35
100
AcDb2dPolyline
 66
     1
 10
0.0
 20
0.0
 30
0.0
  0
VERTEX
  5
1F1
330
1F0
100
AcDbEntity
  8
Layer 1
 62
     7
370
    35
100
AcDbVertex
100
AcDb2dVertex
 10
-1824.801449467845
 20
-450.7166746920083
 30
0.0
  0
VERTEX
  5
1F2
330
1F0
100
AcDbEntity
  8
Layer 1
 62
     7
370
    35
100
AcDbVertex
100
AcDb2dVertex
 10
-1836.919572837211
 20
-450.7166746920083
 30
0.0
  0
VERTEX
  5
1F3
330
1F0
100
AcDbEntity
  8
Layer 1
 62
     7
370
    35
100
AcDbVertex
100
AcDb2dVertex
 10
-1824.801449467845
 20
-420.3915661926452
 30
0.0
  0
VERTEX
  5
1F4
330
1F0
100
AcDbEntity
  8
Layer 1
 62
     7
370
    35
100
AcDbVertex
100
AcDb2dVertex
 10
-1812.679191983896
 20
-450.7166746920083
 30
0.0
  0
VERTEX
  5
1F5
330
1F0
100
AcDbEntity
  8
Layer 1
 62
     7
370
    35
100
AcDbVertex
100
AcDb2dVertex
 10
-1824.801449467845
 20
-450.7166746920083
 30
0.0
  0
SEQEND
  5
1F6
330
1F0
100
AcDbEntity
  8
Layer 1
370
    35
  0
POLYLINE
  5
1F7
330
EB
100
AcDbEntity
  8
Layer 1
370
     0
100
AcDb2dPolyline
 66
     1
 10
0.0
 20
0.0
 30
0.0
  0
VERTEX
  5
1F8
330
1F7
100
AcDbEntity
  8
Layer 1
370
     0
100
AcDbVertex
100
AcDb2dVertex
 10
-1824.801449467845
 20
-450.7166746920083
 30
0.0
  0
VERTEX
  5
1F9
330
1F7
100
AcDbEntity
  8
Layer 1
370
     0
100
AcDbVertex
100
AcDb2dVertex
 10
-1836.919572837211
 20
-450.7166746920083
 30
0.0
  0
VERTEX
  5
1FA
330
1F7
100
AcDbEntity
  8
Layer 1
370
     0
100
AcDbVertex
100
AcDb2dVertex
 10
-1836.919572837211
 20
-450.7166746920083
 30
0.0
  0
VERTEX
  5
1FB
330
1F7
100
AcDbEntity
  8
Layer 1
370
     0
100
AcDbVertex
100
AcDb2dVertex
 10
-1824.801449467845
 20
-420.3919107021937
 30
0.0
  0
VERTEX
  5
1FC
330
1F7
100
AcDbEntity
  8
Layer 1
370
     0
100
AcDbVertex
100
AcDb2dVertex
 10
-1824.801449467845
 20
-420.3919107021937
 30
0.0
  0
VERTEX
  5
1FD
330
1F7
100
AcDbEntity
  8
Layer 1
370
     0
100
AcDbVertex
100
AcDb2dVertex
 10
-1812.679019729122
 20
-450.7166746920083
 30
0.0
  0
VERTEX
  5
1FE
330
1F7
100
AcDbEntity
  8
Layer 1
370
     0
100
AcDbVertex
100
AcDb2dVertex
 10
-1812.679019729122
 20
-450.7166746920083
 30
0.0
  0
VERTEX
  5
1FF
330
1F7
100
AcDbEntity
  8
Layer 1
370
     0
100
AcDbVertex
100
AcDb2dVertex
 10
-1824.801449467845
 20
-450.7166746920083
 30
0.0
  0
VERTEX
  5
200
330
1F7
100
AcDbEntity
  8
Layer 1
370
     0
100
AcDbVertex
100
AcDb2dVertex
 10
-1824.801449467845
 20
-450.7166746920083
 30
0.0
  0
SEQEND
  5
201
330
1F7
100
AcDbEntity
  8
Layer 1
370
     0
  0
HATCH
  5
202
330
EB
100
AcDbEntity
  8
Layer 1
 62
     7
100
AcDbHatch
 10
0.0
 20
0.0
 30
0.0
210
0.0
220
0.0
230
1.0
  2
SOLID
 70
     1
 71
     0
 91
        1
 92
        1
 93
        4
 72
     1
 10
-1824.801449467845
 20
-450.7166746920083
 11
-1836.919572837211
 21
-450.7166746920083
 72
     1
 10
-1836.919572837211
 20
-450.7166746920083
 11
-1824.801449467845
 21
-420.3919107021937
 72
     1
 10
-1824.801449467845
 20
-420.3919107021937
 11
-1812.679019729122
 21
-450.7166746920083
 72
     1
 10
-1812.679019729122
 20
-450.7166746920083
 11
-1824.801449467845
 21
-450.7166746920083
 97
        0
 75
     0
 76
     1
 98
        0
  0
POLYLINE
  5
203
330
EB
100
AcDbEntity
  8
Layer 1
 62
     7
370
     9
100
AcDb2dPolyline
 66
     1
 10
0.0
 20
0.0
 30
0.0
  0
VERTEX
  5
204
330
203
100
AcDbEntity
  8
Layer 1
 62
     7
370
     9
100
AcDbVertex
100
AcDb2dVertex
 10
-1824.797143098488
 20
-448.6926810944241
 30
0.0
  0
VERTEX
  5
205
330
203
100
AcDbEntity
  8
Layer 1
 62
     7
370
     9
100
AcDbVertex
100
AcDb2dVertex
 10
-1824.797143098488
 20
-582.0116752017193
 30
0.0
  0
SEQEND
  5
206
330
203
100
AcDbEntity
  8
Layer 1
370
     9
  0
POLYLINE
  5
207
330
EB
100
AcDbEntity
  8
Layer 1
370
     0
100
AcDb2dPolyline
 66
     1
 10
0.0
 20
0.0
 30
0.0
  0
VERTEX
  5
208
330
207
100
AcDbEntity
  8
Layer 1
370
     0
100
AcDbVertex
100
AcDb2dVertex
 10
-74.91790769611427
 20
-302.0959444774274
 30
0.0
  0
VERTEX
  5
209
330
207
100
AcDbEntity
  8
Layer 1
370
     0
100
AcDbVertex
100
AcDb2dVertex
 10
-62.79117158803485
 20
-302.0959444774274
 30
0.0
  0
VERTEX
  5
20A
330
207
100
AcDbEntity
  8
Layer 1
370
     0
100
AcDbVertex
100
AcDb2dVertex
 10
-74.91790769611427
 20
-332.4124402380775
 30
0.0
  0
VERTEX
  5
20B
330
207
100
AcDbEntity
  8
Layer 1
370
     0
100
AcDbVertex
100
AcDb2dVertex
 10
-87.03999292528862
 20
-302.0959444774274
 30
0.0
  0
VERTEX
  5
20C
330
207
100
AcDbEntity
  8
Layer 1
370
     0
100
AcDbVertex
100
AcDb2dVertex
 10
-74.91790769611427
 20
-302.0959444774274
 30
0.0
  0
SEQEND
  5
20D
330
207
100
AcDbEntity
  8
Layer 1
370
     0
  0
POLYLINE
  5
20E
330
EB
100
AcDbEntity
  8
Layer 1
 62
     7
370
    35
100
AcDb2dPolyline
 66
     1
 10
0.0
 20
0.0
 30
0.0
  0
VERTEX
  5
20F
330
20E
100
AcDbEntity
  8
Layer 1
 62
     7
370
    35
100
AcDbVertex
100
AcDb2dVertex
 10
-62.79117158803485
 20
-302.0959444774274
 30
0.0
  0
VERTEX
  5
3C6
330
20E
100
AcDbEntity
  8
0
100
AcDbVertex
100
AcDb2dVertex
 10
-62.79117158803485
 20
-302.0959444774274
 30
0.0
  0
SEQEND
  5
210
330
20E
100
AcDbEntity
  8
Layer 1
370
    35
  0
POLYLINE
  5
211
330
EB
100
AcDbEntity
  8
Layer 1
 62
     7
370
    35
100
AcDb2dPolyline
 66
     1
 10
0.0
 20
0.0
 30
0.0
  0
VERTEX
  5
212
330
211
100
AcDbEntity
  8
Layer 1
 62
     7
370
    35
100
AcDbVertex
100
AcDb2dVertex
 10
-74.91342907198346
 20
-332.4124402380775
 30
0.0
  0
VERTEX
  5
3C7
330
211
100
AcDbEntity
  8
0
100
AcDbVertex
100
AcDb2dVertex
 10
-74.91342907198346
 20
-332.4124402380775
 30
0.0
  0
SEQEND
  5
213
330
211
100
AcDbEntity
  8
Layer 1
370
    35
  0
POLYLINE
  5
214
330
EB
100
AcDbEntity
  8
Layer 1
 62
     7
370
    35
100
AcDb2dPolyline
 66
     1
 10
0.0
 20
0.0
 30
0.0
  0
VERTEX
  5
215
330
214
100
AcDbEntity
  8
Layer 1
 62
     7
370
    35
100
AcDbVertex
100
AcDb2dVertex
 10
-87.04447154941944
 20
-302.0959444774274
 30
0.0
  0
VERTEX
  5
3C8
330
214
100
AcDbEntity
  8
0
100
AcDbVertex
100
AcDb2dVertex
 10
-87.04447154941944
 20
-302.0959444774274
 30
0.0
  0
SEQEND
  5
216
330
214
100
AcDbEntity
  8
Layer 1
370
    35
  0
POLYLINE
  5
217
330
EB
100
AcDbEntity
  8
Layer 1
 62
     7
370
    35
100
AcDb2dPolyline
 66
     1
 10
0.0
 20
0.0
 30
0.0
  0
VERTEX
  5
218
330
217
100
AcDbEntity
  8
Layer 1
 62
     7
370
    35
100
AcDbVertex
100
AcDb2dVertex
 10
-74.91342907198346
 20
-302.0959444774274
 30
0.0
  0
VERTEX
  5
3C9
330
217
100
AcDbEntity
  8
0
100
AcDbVertex
100
AcDb2dVertex
 10
-74.91342907198346
 20
-302.0959444774274
 30
0.0
  0
SEQEND
  5
219
330
217
100
AcDbEntity
  8
Layer 1
370
    35
  0
POLYLINE
  5
21A
330
EB
100
AcDbEntity
  8
Layer 1
 62
     7
370
    35
100
AcDb2dPolyline
 66
     1
 10
0.0
 20
0.0
 30
0.0
  0
VERTEX
  5
21B
330
21A
100
AcDbEntity
  8
Layer 1
 62
     7
370
    35
100
AcDbVertex
100
AcDb2dVertex
 10
-74.91342907198346
 20
-302.0959444774274
 30
0.0
  0
VERTEX
  5
21C
330
21A
100
AcDbEntity
  8
Layer 1
 62
     7
370
    35
100
AcDbVertex
100
AcDb2dVertex
 10
-62.79117158803485
 20
-302.0959444774274
 30
0.0
  0
VERTEX
  5
21D
330
21A
100
AcDbEntity
  8
Layer 1
 62
     7
370
    35
100
AcDbVertex
100
AcDb2dVertex
 10
-74.91342907198346
 20
-332.4124402380775
 30
0.0
  0
VERTEX
  5
21E
330
21A
100
AcDbEntity
  8
Layer 1
 62
     7
370
    35
100
AcDbVertex
100
AcDb2dVertex
 10
-87.04447154941944
 20
-302.0959444774274
 30
0.0
  0
VERTEX
  5
21F
330
21A
100
AcDbEntity
  8
Layer 1
 62
     7
370
    35
100
AcDbVertex
100
AcDb2dVertex
 10
-74.91342907198346
 20
-302.0959444774274
 30
0.0
  0
SEQEND
  5
220
330
21A
100
AcDbEntity
  8
Layer 1
370
    35
  0
POLYLINE
  5
221
330
EB
100
AcDbEntity
  8
Layer 1
370
     0
100
AcDb2dPolyline
 66
     1
 10
0.0
 20
0.0
 30
0.0
  0
VERTEX
  5
222
330
221
100
AcDbEntity
  8
Layer 1
370
     0
100
AcDbVertex
100
AcDb2dVertex
 10
-74.91360132675771
 20
-302.0955999678789
 30
0.0
  0
VERTEX
  5
223
330
221
100
AcDbEntity
  8
Layer 1
370
     0
100
AcDbVertex
100
AcDb2dVertex
 10
-62.79151609758338
 20
-302.0955999678789
 30
0.0
  0
VERTEX
  5
224
330
221
100
AcDbEntity
  8
Layer 1
370
     0
100
AcDbVertex
100
AcDb2dVertex
 10
-62.79151609758338
 20
-302.0955999678789
 30
0.0
  0
VERTEX
  5
225
330
221
100
AcDbEntity
  8
Layer 1
370
     0
100
AcDbVertex
100
AcDb2dVertex
 10
-74.91360132675771
 20
-332.412784747626
 30
0.0
  0
VERTEX
  5
226
330
221
100
AcDbEntity
  8
Layer 1
370
     0
100
AcDbVertex
100
AcDb2dVertex
 10
-74.91360132675771
 20
-332.412784747626
 30
0.0
  0
VERTEX
  5
227
330
221
100
AcDbEntity
  8
Layer 1
370
     0
100
AcDbVertex
100
AcDb2dVertex
 10
-87.04429929464519
 20
-302.0955999678789
 30
0.0
  0
VERTEX
  5
228
330
221
100
AcDbEntity
  8
Layer 1
370
     0
100
AcDbVertex
100
AcDb2dVertex
 10
-87.04429929464519
 20
-302.0955999678789
 30
0.0
  0
VERTEX
  5
229
330
221
100
AcDbEntity
  8
Layer 1
370
     0
100
AcDbVertex
100
AcDb2dVertex
 10
-74.91360132675771
 20
-302.0955999678789
 30
0.0
  0
VERTEX
  5
22A
330
221
100
AcDbEntity
  8
Layer 1
370
     0
100
AcDbVertex
100
AcDb2dVertex
 10
-74.91360132675771
 20
-302.0955999678789
 30
0.0
  0
SEQEND
  5
22B
330
221
100
AcDbEntity
  8
Layer 1
370
     0
  0
HATCH
  5
22C
330
EB
100
AcDbEntity
  8
Layer 1
 62
     7
100
AcDbHatch
 10
0.0
 20
0.0
 30
0.0
210
0.0
220
0.0
230
1.0
  2
SOLID
 70
     1
 71
     0
 91
        1
 92
        1
 93
        4
 72
     1
 10
-74.91360132675771
 20
-302.0955999678789
 11
-62.79151609758338
 21
-302.0955999678789
 72
     1
 10
-62.79151609758338
 20
-302.0955999678789
 11
-74.91360132675771
 21
-332.412784747626
 72
     1
 10
-74.91360132675771
 20
-332.412784747626
 11
-87.04429929464519
 21
-302.0955999678789
 72
     1
 10
-87.04429929464519
 20
-302.0955999678789
 11
-74.91360132675771
 21
-302.0955999678789
 97
        0
 75
     0
 76
     1
 98
        0
  0
POLYLINE
  5
22D
330
EB
100
AcDbEntity
  8
Layer 1
 62
     7
370
     9
100
AcDb2dPolyline
 66
     1
 10
0.0
 20
0.0
 30
0.0
  0
VERTEX
  5
22E
330
22D
100
AcDbEntity
  8
Layer 1
 62
     7
370
     9
100
AcDbVertex
100
AcDb2dVertex
 10
-74.92204181069657
 20
-197.6413383837494
 30
0.0
  0
VERTEX
  5
22F
330
22D
100
AcDbEntity
  8
Layer 1
 62
     7
370
     9
100
AcDbVertex
100
AcDb2dVertex
 10
-74.92204181069657
 20
-304.1199380750117
 30
0.0
  0
SEQEND
  5
230
330
22D
100
AcDbEntity
  8
Layer 1
370
     9
  0
INSERT
  5
232
330
EB
100
AcDbEntity
  8
Layer 1
100
AcDbBlockReference
  2
block 4
 10
0.0
 20
0.0
 30
0.0
  0
ENDBLK
  5
EE
330
EB
100
AcDbEntity
  8
0
100
AcDbBlockEnd
  0
BLOCK
  5
233
330
231
100
AcDbEntity
  8
0
100
AcDbBlockBegin
  2
block 4
 70
     0
 71
     0
 10
0.0
 20
0.0
 30
0.0
  3
block 4
  1

  0
POLYLINE
  5
235
330
231
100
AcDbEntity
  8
Layer 1
 62
     7
370
    20
100
AcDb2dPolyline
 66
     1
 10
0.0
 20
0.0
 30
0.0
  0
VERTEX
  5
236
330
235
100
AcDbEntity
  8
Layer 1
 62
     7
370
    20
100
AcDbVertex
100
AcDb2dVertex
 10
-1718.74384044488
 20
-302.4125487525219
 30
0.0
  0
VERTEX
  5
237
330
235
100
AcDbEntity
  8
Layer 1
 62
     7
370
    20
100
AcDbVertex
100
AcDb2dVertex
 10
-319.7439628649425
 20
-302.4125487525219
 30
0.0
  0
SEQEND
  5
238
330
235
100
AcDbEntity
  8
Layer 1
370
    20
  0
POLYLINE
  5
239
330
231
100
AcDbEntity
  8
Layer 1
 62
     7
370
    20
100
AcDb2dPolyline
 66
     1
 10
0.0
 20
0.0
 30
0.0
  0
VERTEX
  5
23A
330
239
100
AcDbEntity
  8
Layer 1
 62
     7
370
    20
100
AcDbVertex
100
AcDb2dVertex
 10
-1718.74384044488
 20
-332.4124402380775
 30
0.0
  0
VERTEX
  5
23B
330
239
100
AcDbEntity
  8
Layer 1
 62
     7
370
    20
100
AcDbVertex
100
AcDb2dVertex
 10
-319.7439628649425
 20
-332.4124402380775
 30
0.0
  0
SEQEND
  5
23C
330
239
100
AcDbEntity
  8
Layer 1
370
    20
  0
POLYLINE
  5
23D
330
231
100
AcDbEntity
  8
Layer 1
 62
     7
370
    20
100
AcDb2dPolyline
 66
     1
 10
0.0
 20
0.0
 30
0.0
  0
VERTEX
  5
23E
330
23D
100
AcDbEntity
  8
Layer 1
 62
     7
370
    20
100
AcDbVertex
100
AcDb2dVertex
 10
-259.7438353842828
 20
-302.4125487525219
 30
0.0
  0
VERTEX
  5
23F
330
23D
100
AcDbEntity
  8
Layer 1
 62
     7
370
    20
100
AcDbVertex
100
AcDb2dVertex
 10
-144.243736400571
 20
-302.4125487525219
 30
0.0
  0
SEQEND
  5
240
330
23D
100
AcDbEntity
  8
Layer 1
370
    20
  0
POLYLINE
  5
241
330
231
100
AcDbEntity
  8
Layer 1
 62
     7
370
    20
100
AcDb2dPolyline
 66
     1
 10
0.0
 20
0.0
 30
0.0
  0
VERTEX
  5
242
330
241
100
AcDbEntity
  8
Layer 1
 62
     7
370
    20
100
AcDbVertex
100
AcDb2dVertex
 10
-259.7438353842828
 20
-332.4124402380775
 30
0.0
  0
VERTEX
  5
243
330
241
100
AcDbEntity
  8
Layer 1
 62
     7
370
    20
100
AcDbVertex
100
AcDb2dVertex
 10
-144.243736400571
 20
-332.4124402380775
 30
0.0
  0
SEQEND
  5
244
330
241
100
AcDbEntity
  8
Layer 1
370
    20
  0
POLYLINE
  5
245
330
231
100
AcDbEntity
  8
Layer 1
 62
     7
370
    20
100
AcDb2dPolyline
 66
     1
 10
0.0
 20
0.0
 30
0.0
  0
VERTEX
  5
246
330
245
100
AcDbEntity
  8
Layer 1
 62
     7
370
    20
100
AcDbVertex
100
AcDb2dVertex
 10
-1894.243722399703
 20
579.587361508749
 30
0.0
  0
VERTEX
  5
247
330
245
100
AcDbEntity
  8
Layer 1
 62
     7
370
    20
100
AcDbVertex
100
AcDb2dVertex
 10
-144.243736400571
 20
579.587361508749
 30
0.0
  0
SEQEND
  5
248
330
245
100
AcDbEntity
  8
Layer 1
370
    20
  0
POLYLINE
  5
249
330
231
100
AcDbEntity
  8
Layer 1
 62
     7
370
    20
100
AcDb2dPolyline
 66
     1
 10
0.0
 20
0.0
 30
0.0
  0
VERTEX
  5
24A
330
249
100
AcDbEntity
  8
Layer 1
 62
     7
370
    20
100
AcDbVertex
100
AcDb2dVertex
 10
-1894.243722399703
 20
535.5872909902351
 30
0.0
  0
VERTEX
  5
24B
330
249
100
AcDbEntity
  8
Layer 1
 62
     7
370
    20
100
AcDbVertex
100
AcDb2dVertex
 10
-144.243736400571
 20
535.5872909902351
 30
0.0
  0
SEQEND
  5
24C
330
249
100
AcDbEntity
  8
Layer 1
370
    20
  0
POLYLINE
  5
24D
330
231
100
AcDbEntity
  8
Layer 1
 62
     7
370
    20
100
AcDb2dPolyline
 66
     1
 10
0.0
 20
0.0
 30
0.0
  0
VERTEX
  5
24E
330
24D
100
AcDbEntity
  8
Layer 1
 62
     7
370
    20
100
AcDbVertex
100
AcDb2dVertex
 10
-1894.243722399703
 20
-302.4125487525219
 30
0.0
  0
VERTEX
  5
24F
330
24D
100
AcDbEntity
  8
Layer 1
 62
     7
370
    20
100
AcDbVertex
100
AcDb2dVertex
 10
-1778.74396792554
 20
-302.4125487525219
 30
0.0
  0
SEQEND
  5
250
330
24D
100
AcDbEntity
  8
Layer 1
370
    20
  0
POLYLINE
  5
251
330
231
100
AcDbEntity
  8
Layer 1
 62
     7
370
    20
100
AcDb2dPolyline
 66
     1
 10
0.0
 20
0.0
 30
0.0
  0
VERTEX
  5
252
330
251
100
AcDbEntity
  8
Layer 1
 62
     7
370
    20
100
AcDbVertex
100
AcDb2dVertex
 10
-1894.243722399703
 20
-332.4124402380775
 30
0.0
  0
VERTEX
  5
253
330
251
100
AcDbEntity
  8
Layer 1
 62
     7
370
    20
100
AcDbVertex
100
AcDb2dVertex
 10
-1778.74396792554
 20
-332.4124402380775
 30
0.0
  0
SEQEND
  5
254
330
251
100
AcDbEntity
  8
Layer 1
370
    20
  0
POLYLINE
  5
255
330
231
100
AcDbEntity
  8
Layer 1
  6
AI-Linetype-3
 62
     7
370
    20
100
AcDb2dPolyline
 66
     1
 10
0.0
 20
0.0
 30
0.0
  0
VERTEX
  5
256
330
255
100
AcDbEntity
  8
Layer 1
  6
AI-Linetype-3
 62
     7
370
    20
100
AcDbVertex
100
AcDb2dVertex
 10
-1894.243722399703
 20
-420.4125812751052
 30
0.0
  0
VERTEX
  5
257
330
255
100
AcDbEntity
  8
Layer 1
  6
AI-Linetype-3
 62
     7
370
    20
100
AcDbVertex
100
AcDb2dVertex
 10
-144.243736400571
 20
-420.4125812751052
 30
0.0
  0
SEQEND
  5
258
330
255
100
AcDbEntity
  8
Layer 1
  6
AI-Linetype-3
370
    20
  0
INSERT
  5
25B
330
231
100
AcDbEntity
  8
Layer 1
100
AcDbBlockReference
  2
block 5
 10
0.0
 20
0.0
 30
0.0
  0
INSERT
  5
267
330
231
100
AcDbEntity
  8
Layer 1
100
AcDbBlockReference
  2
block 6
 10
0.0
 20
0.0
 30
0.0
  0
INSERT
  5
273
330
231
100
AcDbEntity
  8
Layer 1
100
AcDbBlockReference
  2
block 7
 10
0.0
 20
0.0
 30
0.0
  0
INSERT
  5
27F
330
231
100
AcDbEntity
  8
Layer 1
100
AcDbBlockReference
  2
block 8
 10
0.0
 20
0.0
 30
0.0
  0
INSERT
  5
28B
330
231
100
AcDbEntity
  8
Layer 1
100
AcDbBlockReference
  2
block 9
 10
0.0
 20
0.0
 30
0.0
  0
INSERT
  5
297
330
231
100
AcDbEntity
  8
Layer 1
100
AcDbBlockReference
  2
block 10
 10
0.0
 20
0.0
 30
0.0
  0
INSERT
  5
2A3
330
231
100
AcDbEntity
  8
Layer 1
100
AcDbBlockReference
  2
block 11
 10
0.0
 20
0.0
 30
0.0
  0
INSERT
  5
2AF
330
231
100
AcDbEntity
  8
Layer 1
100
AcDbBlockReference
  2
block 12
 10
0.0
 20
0.0
 30
0.0
  0
INSERT
  5
2BB
330
231
100
AcDbEntity
  8
Layer 1
100
AcDbBlockReference
  2
block 13
 10
0.0
 20
0.0
 30
0.0
  0
INSERT
  5
2C7
330
231
100
AcDbEntity
  8
Layer 1
100
AcDbBlockReference
  2
block 14
 10
0.0
 20
0.0
 30
0.0
  0
INSERT
  5
2D3
330
231
100
AcDbEntity
  8
Layer 1
100
AcDbBlockReference
  2
block 15
 10
0.0
 20
0.0
 30
0.0
  0
INSERT
  5
2DF
330
231
100
AcDbEntity
  8
Layer 1
100
AcDbBlockReference
  2
block 16
 10
0.0
 20
0.0
 30
0.0
  0
INSERT
  5
2EB
330
231
100
AcDbEntity
  8
Layer 1
100
AcDbBlockReference
  2
block 17
 10
0.0
 20
0.0
 30
0.0
  0
INSERT
  5
2F7
330
231
100
AcDbEntity
  8
Layer 1
100
AcDbBlockReference
  2
block 18
 10
0.0
 20
0.0
 30
0.0
  0
INSERT
  5
303
330
231
100
AcDbEntity
  8
Layer 1
100
AcDbBlockReference
  2
block 19
 10
0.0
 20
0.0
 30
0.0
  0
POLYLINE
  5
30E
330
231
100
AcDbEntity
  8
Layer 1
  6
AI-Linetype-4
 62
     7
370
    20
100
AcDb2dPolyline
 66
     1
 10
0.0
 20
0.0
 30
0.0
  0
VERTEX
  5
30F
330
30E
100
AcDbEntity
  8
Layer 1
  6
AI-Linetype-4
 62
     7
370
    20
100
AcDbVertex
100
AcDb2dVertex
 10
17.55155571392809
 20
-420.4125812751052
 30
0.0
  0
VERTEX
  5
310
330
30E
100
AcDbEntity
  8
Layer 1
  6
AI-Linetype-4
 62
     7
370
    20
100
AcDbVertex
100
AcDb2dVertex
 10
193.7252983456659
 20
-420.4125812751052
 30
0.0
  0
SEQEND
  5
311
330
30E
100
AcDbEntity
  8
Layer 1
  6
AI-Linetype-4
370
    20
  0
POLYLINE
  5
313
330
231
100
AcDbEntity
  8
Layer 1
 62
     7
370
    20
100
AcDb2dPolyline
 66
     1
 10
0.0
 20
0.0
 30
0.0
  0
VERTEX
  5
314
330
313
100
AcDbEntity
  8
Layer 1
 62
     7
370
    20
100
AcDbVertex
100
AcDb2dVertex
 10
70.62945283607527
 20
535.5874632450094
 30
0.0
  0
VERTEX
  5
315
330
313
100
AcDbEntity
  8
Layer 1
 62
     7
370
    20
100
AcDbVertex
100
AcDb2dVertex
 10
70.62945283607527
 20
-560.4126490569455
 30
0.0
  0
SEQEND
  5
316
330
313
100
AcDbEntity
  8
Layer 1
370
    20
  0
POLYLINE
  5
317
330
231
100
AcDbEntity
  8
Layer 1
 62
     7
370
    20
100
AcDb2dPolyline
 66
     1
 10
0.0
 20
0.0
 30
0.0
  0
VERTEX
  5
318
330
317
100
AcDbEntity
  8
Layer 1
 62
     7
370
    20
100
AcDbVertex
100
AcDb2dVertex
 10
140.6294867269954
 20
535.5874632450094
 30
0.0
  0
VERTEX
  5
319
330
317
100
AcDbEntity
  8
Layer 1
 62
     7
370
    20
100
AcDbVertex
100
AcDb2dVertex
 10
140.6294867269954
 20
-560.4126490569455
 30
0.0
  0
SEQEND
  5
31A
330
317
100
AcDbEntity
  8
Layer 1
370
    20
  0
POLYLINE
  5
31B
330
231
100
AcDbEntity
  8
Layer 1
 62
     7
370
    20
100
AcDb2dPolyline
 66
     1
 10
0.0
 20
0.0
 30
0.0
  0
VERTEX
  5
31C
330
31B
100
AcDbEntity
  8
Layer 1
 62
     7
370
    20
100
AcDbVertex
100
AcDb2dVertex
 10
115.1288899451761
 20
535.5874632450094
 30
0.0
  0
VERTEX
  5
31D
330
31B
100
AcDbEntity
  8
Layer 1
 62
     7
370
    20
100
AcDbVertex
100
AcDb2dVertex
 10
140.6298312365439
 20
535.5874632450094
 30
0.0
  0
SEQEND
  5
31E
330
31B
100
AcDbEntity
  8
Layer 1
370
    20
  0
POLYLINE
  5
31F
330
231
100
AcDbEntity
  8
Layer 1
 62
     7
370
    20
100
AcDb2dPolyline
 66
     1
 10
0.0
 20
0.0
 30
0.0
  0
VERTEX
  5
320
330
31F
100
AcDbEntity
  8
Layer 1
 62
     7
370
    20
100
AcDbVertex
100
AcDb2dVertex
 10
96.13056638221737
 20
537.5875134289712
 30
0.0
  0
VERTEX
  5
321
330
31F
100
AcDbEntity
  8
Layer 1
 62
     7
370
    20
100
AcDbVertex
100
AcDb2dVertex
 10
115.1306124929187
 20
537.5875134289712
 30
0.0
  0
SEQEND
  5
322
330
31F
100
AcDbEntity
  8
Layer 1
370
    20
  0
POLYLINE
  5
323
330
231
100
AcDbEntity
  8
Layer 1
 62
     7
370
    20
100
AcDb2dPolyline
 66
     1
 10
0.0
 20
0.0
 30
0.0
  0
VERTEX
  5
324
330
323
100
AcDbEntity
  8
Layer 1
 62
     7
370
    20
100
AcDbVertex
100
AcDb2dVertex
 10
70.6297973456238
 20
535.5874632450094
 30
0.0
  0
VERTEX
  5
325
330
323
100
AcDbEntity
  8
Layer 1
 62
     7
370
    20
100
AcDbVertex
100
AcDb2dVertex
 10
96.12953285357179
 20
535.5874632450094
 30
0.0
  0
SEQEND
  5
326
330
323
100
AcDbEntity
  8
Layer 1
370
    20
  0
POLYLINE
  5
327
330
231
100
AcDbEntity
  8
Layer 1
 62
     7
370
    20
100
AcDb2dPolyline
 66
     1
 10
0.0
 20
0.0
 30
0.0
  0
VERTEX
  5
328
330
327
100
AcDbEntity
  8
Layer 1
 62
     7
370
    20
100
AcDbVertex
100
AcDb2dVertex
 10
96.12987736312031
 20
537.5875134289712
 30
0.0
  0
VERTEX
  5
329
330
327
100
AcDbEntity
  8
Layer 1
 62
     7
370
    20
100
AcDbVertex
100
AcDb2dVertex
 10
96.12953285357179
 20
-302.4122042429734
 30
0.0
  0
SEQEND
  5
32A
330
327
100
AcDbEntity
  8
Layer 1
370
    20
  0
POLYLINE
  5
32B
330
231
100
AcDbEntity
  8
Layer 1
 62
     7
370
    20
100
AcDb2dPolyline
 66
     1
 10
0.0
 20
0.0
 30
0.0
  0
VERTEX
  5
32C
330
32B
100
AcDbEntity
  8
Layer 1
 62
     7
370
    20
100
AcDbVertex
100
AcDb2dVertex
 10
115.1295789642732
 20
537.5875134289712
 30
0.0
  0
VERTEX
  5
32D
330
32B
100
AcDbEntity
  8
Layer 1
 62
     7
370
    20
100
AcDbVertex
100
AcDb2dVertex
 10
115.1288899451761
 20
-302.4122042429734
 30
0.0
  0
SEQEND
  5
32E
330
32B
100
AcDbEntity
  8
Layer 1
370
    20
  0
SPLINE
  5
32F
330
231
100
AcDbEntity
  8
Layer 1
 62
     7
370
    20
100
AcDbSpline
210
0.0
220
0.0
230
1.0
 70
     8
 71
     3
 72
    38
 73
    34
 74
     0
 42
0.0000000001
 43
0.0000000001
 40
0.0
 40
0.0
 40
0.0
 40
0.0
 40
1.0
 40
1.0
 40
1.0
 40
2.0
 40
2.0
 40
2.0
 40
3.0
 40
3.0
 40
3.0
 40
4.0
 40
4.0
 40
4.0
 40
5.0
 40
5.0
 40
5.0
 40
6.0
 40
6.0
 40
6.0
 40
7.0
 40
7.0
 40
7.0
 40
8.0
 40
8.0
 40
8.0
 40
9.0
 40
9.0
 40
9.0
 40
10.0
 40
10.0
 40
10.0
 40
11.0
 40
11.0
 40
11.0
 40
11.0
 10
94.33033173640005
 20
-332.4120957285289
 30
0.0
 10
94.33033173640005
 20
-332.4120957285289
 30
0.0
 10
90.07357175482537
 20
-332.4120957285289
 30
0.0
 10
90.07357175482537
 20
-332.4120957285289
 30
0.0
 10
88.57667776648431
 20
-332.439656492411
 30
0.0
 10
87.21345348297095
 20
-331.2724581420083
 30
0.0
 10
87.01019284934121
 20
-329.7896890451568
 30
0.0
 10
85.71966008056661
 20
-323.3232448193428
 30
0.0
 10
85.86779918643236
 20
-311.6250785896285
 30
0.0
 10
87.32094046211074
 20
-305.193085318667
 30
0.0
 10
87.52420109574048
 20
-303.854321213099
 30
0.0
 10
88.76891409456125
 20
-302.7270859703252
 30
0.0
 10
90.1211140725218
 20
-302.6568060224261
 30
0.0
 10
91.63971216241994
 20
-302.5148680884338
 30
0.0
 10
94.60456133702594
 20
-302.3949787655471
 30
0.0
 10
96.12970510834604
 20
-302.4142713002645
 30
0.0
 10
96.12970510834604
 20
-302.4142713002645
 30
0.0
 10
115.1288899451761
 20
-302.4142713002645
 30
0.0
 10
115.1288899451761
 20
-302.4142713002645
 30
0.0
 10
116.6536892069477
 20
-302.3949787655471
 30
0.0
 10
119.6185383815537
 20
-302.5148680884338
 30
0.0
 10
121.1378254905489
 20
-302.6568060224261
 30
0.0
 10
122.4896809589609
 20
-302.7270859703252
 30
0.0
 10
123.7340494482332
 20
-303.854321213099
 30
0.0
 10
123.9373100818629
 20
-305.193085318667
 30
0.0
 10
125.3911403766383
 20
-311.6250785896285
 30
0.0
 10
125.5389349729555
 20
-323.3232448193428
 30
0.0
 10
124.248402204181
 20
-329.7896890451568
 30
0.0
 10
124.0451415705512
 20
-331.2724581420083
 30
0.0
 10
122.6819172870379
 20
-332.439656492411
 30
0.0
 10
121.1857123177939
 20
-332.4120957285289
 30
0.0
 10
121.1857123177939
 20
-332.4120957285289
 30
0.0
 10
116.9279188075736
 20
-332.4120957285289
 30
0.0
 10
116.9279188075736
 20
-332.4120957285289
 30
0.0
  0
INSERT
  5
331
330
231
100
AcDbEntity
  8
Layer 1
100
AcDbBlockReference
  2
block 20
 10
0.0
 20
0.0
 30
0.0
  0
POLYLINE
  5
338
330
231
100
AcDbEntity
  8
Layer 1
 62
     7
370
    20
100
AcDb2dPolyline
 66
     1
 10
0.0
 20
0.0
 30
0.0
  0
VERTEX
  5
339
330
338
100
AcDbEntity
  8
Layer 1
 62
     7
370
    20
100
AcDbVertex
100
AcDb2dVertex
 10
-1718.74384044488
 20
-563.412638205501
 30
0.0
  0
VERTEX
  5
33A
330
338
100
AcDbEntity
  8
Layer 1
 62
     7
370
    20
100
AcDbVertex
100
AcDb2dVertex
 10
-1778.74396792554
 20
-563.412638205501
 30
0.0
  0
VERTEX
  5
33B
330
338
100
AcDbEntity
  8
Layer 1
 62
     7
370
    20
100
AcDbVertex
100
AcDb2dVertex
 10
-1778.74396792554
 20
-560.4126490569455
 30
0.0
  0
VERTEX
  5
33C
330
338
100
AcDbEntity
  8
Layer 1
 62
     7
370
    20
100
AcDbVertex
100
AcDb2dVertex
 10
-1718.74384044488
 20
-560.4126490569455
 30
0.0
  0
VERTEX
  5
33D
330
338
100
AcDbEntity
  8
Layer 1
 62
     7
370
    20
100
AcDbVertex
100
AcDb2dVertex
 10
-1718.74384044488
 20
-563.412638205501
 30
0.0
  0
SEQEND
  5
33E
330
338
100
AcDbEntity
  8
Layer 1
370
    20
  0
POLYLINE
  5
33F
330
231
100
AcDbEntity
  8
Layer 1
 62
     7
370
    20
100
AcDb2dPolyline
 66
     1
 10
0.0
 20
0.0
 30
0.0
  0
VERTEX
  5
340
330
33F
100
AcDbEntity
  8
Layer 1
 62
     7
370
    20
100
AcDbVertex
100
AcDb2dVertex
 10
-259.7438353842828
 20
-563.412638205501
 30
0.0
  0
VERTEX
  5
341
330
33F
100
AcDbEntity
  8
Layer 1
 62
     7
370
    20
100
AcDbVertex
100
AcDb2dVertex
 10
-319.7439628649425
 20
-563.412638205501
 30
0.0
  0
VERTEX
  5
342
330
33F
100
AcDbEntity
  8
Layer 1
 62
     7
370
    20
100
AcDbVertex
100
AcDb2dVertex
 10
-319.7439628649425
 20
-560.4126490569455
 30
0.0
  0
VERTEX
  5
343
330
33F
100
AcDbEntity
  8
Layer 1
 62
     7
370
    20
100
AcDbVertex
100
AcDb2dVertex
 10
-259.7438353842828
 20
-560.4126490569455
 30
0.0
  0
VERTEX
  5
344
330
33F
100
AcDbEntity
  8
Layer 1
 62
     7
370
    20
100
AcDbVertex
100
AcDb2dVertex
 10
-259.7438353842828
 20
-563.412638205501
 30
0.0
  0
SEQEND
  5
345
330
33F
100
AcDbEntity
  8
Layer 1
370
    20
  0
POLYLINE
  5
346
330
231
100
AcDbEntity
  8
Layer 1
 62
     7
370
    20
100
AcDb2dPolyline
 66
     1
 10
0.0
 20
0.0
 30
0.0
  0
VERTEX
  5
347
330
346
100
AcDbEntity
  8
Layer 1
 62
     7
370
    20
100
AcDbVertex
100
AcDb2dVertex
 10
140.6294867269954
 20
-563.412638205501
 30
0.0
  0
VERTEX
  5
348
330
346
100
AcDbEntity
  8
Layer 1
 62
     7
370
    20
100
AcDbVertex
100
AcDb2dVertex
 10
70.62945283607527
 20
-563.412638205501
 30
0.0
  0
VERTEX
  5
349
330
346
100
AcDbEntity
  8
Layer 1
 62
     7
370
    20
100
AcDbVertex
100
AcDb2dVertex
 10
70.62945283607527
 20
-560.4126490569455
 30
0.0
  0
VERTEX
  5
34A
330
346
100
AcDbEntity
  8
Layer 1
 62
     7
370
    20
100
AcDbVertex
100
AcDb2dVertex
 10
140.6294867269954
 20
-560.4126490569455
 30
0.0
  0
VERTEX
  5
34B
330
346
100
AcDbEntity
  8
Layer 1
 62
     7
370
    20
100
AcDbVertex
100
AcDb2dVertex
 10
140.6294867269954
 20
-563.412638205501
 30
0.0
  0
SEQEND
  5
34C
330
346
100
AcDbEntity
  8
Layer 1
370
    20
  0
INSERT
  5
34E
330
231
100
AcDbEntity
  8
Layer 1
100
AcDbBlockReference
  2
block 21
 10
0.0
 20
0.0
 30
0.0
  0
ENDBLK
  5
234
330
231
100
AcDbEntity
  8
0
100
AcDbBlockEnd
  0
BLOCK
  5
25C
330
25A
100
AcDbEntity
  8
0
100
AcDbBlockBegin
  2
block 5
 70
     0
 71
     0
 10
0.0
 20
0.0
 30
0.0
  3
block 5
  1

  0
POLYLINE
  5
25E
330
25A
100
AcDbEntity
  8
Layer 1
 62
     7
370
    20
100
AcDb2dPolyline
 66
     1
 10
0.0
 20
0.0
 30
0.0
  0
VERTEX
  5
25F
330
25E
100
AcDbEntity
  8
Layer 1
 62
     7
370
    20
100
AcDbVertex
100
AcDb2dVertex
 10
-1718.74384044488
 20
-560.4126490569455
 30
0.0
  0
VERTEX
  5
260
330
25E
100
AcDbEntity
  8
Layer 1
 62
     7
370
    20
100
AcDbVertex
100
AcDb2dVertex
 10
-1718.74384044488
 20
535.5872909902351
 30
0.0
  0
SEQEND
  5
261
330
25E
100
AcDbEntity
  8
Layer 1
370
    20
  0
POLYLINE
  5
262
330
25A
100
AcDbEntity
  8
Layer 1
 62
     7
370
    20
100
AcDb2dPolyline
 66
     1
 10
0.0
 20
0.0
 30
0.0
  0
VERTEX
  5
263
330
262
100
AcDbEntity
  8
Layer 1
 62
     7
370
    20
100
AcDbVertex
100
AcDb2dVertex
 10
-1778.74396792554
 20
-560.4126490569455
 30
0.0
  0
VERTEX
  5
264
330
262
100
AcDbEntity
  8
Layer 1
 62
     7
370
    20
100
AcDbVertex
100
AcDb2dVertex
 10
-1778.74396792554
 20
535.5872909902351
 30
0.0
  0
SEQEND
  5
265
330
262
100
AcDbEntity
  8
Layer 1
370
    20
  0
ENDBLK
  5
25D
330
25A
100
AcDbEntity
  8
0
100
AcDbBlockEnd
  0
BLOCK
  5
268
330
266
100
AcDbEntity
  8
0
100
AcDbBlockBegin
  2
block 6
 70
     0
 71
     0
 10
0.0
 20
0.0
 30
0.0
  3
block 6
  1

  0
POLYLINE
  5
26A
330
266
100
AcDbEntity
  8
Layer 1
 62
     7
370
    20
100
AcDb2dPolyline
 66
     1
 10
0.0
 20
0.0
 30
0.0
  0
VERTEX
  5
26B
330
26A
100
AcDbEntity
  8
Layer 1
 62
     7
370
    20
100
AcDbVertex
100
AcDb2dVertex
 10
-259.7443521486056
 20
-560.4126490569455
 30
0.0
  0
VERTEX
  5
26C
330
26A
100
AcDbEntity
  8
Layer 1
 62
     7
370
    20
100
AcDbVertex
100
AcDb2dVertex
 10
-259.7443521486056
 20
535.5872909902351
 30
0.0
  0
SEQEND
  5
26D
330
26A
100
AcDbEntity
  8
Layer 1
370
    20
  0
POLYLINE
  5
26E
330
266
100
AcDbEntity
  8
Layer 1
 62
     7
370
    20
100
AcDb2dPolyline
 66
     1
 10
0.0
 20
0.0
 30
0.0
  0
VERTEX
  5
26F
330
26E
100
AcDbEntity
  8
Layer 1
 62
     7
370
    20
100
AcDbVertex
100
AcDb2dVertex
 10
-319.7437906101682
 20
-560.4126490569455
 30
0.0
  0
VERTEX
  5
270
330
26E
100
AcDbEntity
  8
Layer 1
 62
     7
370
    20
100
AcDbVertex
100
AcDb2dVertex
 10
-319.7437906101682
 20
535.5872909902351
 30
0.0
  0
SEQEND
  5
271
330
26E
100
AcDbEntity
  8
Layer 1
370
    20
  0
ENDBLK
  5
269
330
266
100
AcDbEntity
  8
0
100
AcDbBlockEnd
  0
BLOCK
  5
274
330
272
100
AcDbEntity
  8
0
100
AcDbBlockBegin
  2
block 7
 70
     0
 71
     0
 10
0.0
 20
0.0
 30
0.0
  3
block 7
  1

  0
POLYLINE
  5
276
330
272
100
AcDbEntity
  8
Layer 1
 62
     7
370
    20
100
AcDb2dPolyline
 66
     1
 10
0.0
 20
0.0
 30
0.0
  0
VERTEX
  5
277
330
276
100
AcDbEntity
  8
Layer 1
 62
     7
370
    20
100
AcDbVertex
100
AcDb2dVertex
 10
-891.5771034554912
 20
-302.4125487525219
 30
0.0
  0
VERTEX
  5
278
330
276
100
AcDbEntity
  8
Layer 1
 62
     7
370
    20
100
AcDbVertex
100
AcDb2dVertex
 10
-891.5771034554912
 20
535.5872909902351
 30
0.0
  0
SEQEND
  5
279
330
276
100
AcDbEntity
  8
Layer 1
370
    20
  0
POLYLINE
  5
27A
330
272
100
AcDbEntity
  8
Layer 1
 62
     7
370
    20
100
AcDb2dPolyline
 66
     1
 10
0.0
 20
0.0
 30
0.0
  0
VERTEX
  5
27B
330
27A
100
AcDbEntity
  8
Layer 1
 62
     7
370
    20
100
AcDbVertex
100
AcDb2dVertex
 10
-910.5771495661926
 20
-302.4125487525219
 30
0.0
  0
VERTEX
  5
27C
330
27A
100
AcDbEntity
  8
Layer 1
 62
     7
370
    20
100
AcDbVertex
100
AcDb2dVertex
 10
-910.5771495661926
 20
535.5872909902351
 30
0.0
  0
SEQEND
  5
27D
330
27A
100
AcDbEntity
  8
Layer 1
370
    20
  0
ENDBLK
  5
275
330
272
100
AcDbEntity
  8
0
100
AcDbBlockEnd
  0
BLOCK
  5
280
330
27E
100
AcDbEntity
  8
0
100
AcDbBlockBegin
  2
block 8
 70
     0
 71
     0
 10
0.0
 20
0.0
 30
0.0
  3
block 8
  1

  0
POLYLINE
  5
282
330
27E
100
AcDbEntity
  8
Layer 1
 62
     7
370
    20
100
AcDb2dPolyline
 66
     1
 10
0.0
 20
0.0
 30
0.0
  0
VERTEX
  5
283
330
282
100
AcDbEntity
  8
Layer 1
 62
     7
370
    20
100
AcDbVertex
100
AcDb2dVertex
 10
-792.4105466768974
 20
-302.4125487525219
 30
0.0
  0
VERTEX
  5
284
330
282
100
AcDbEntity
  8
Layer 1
 62
     7
370
    20
100
AcDbVertex
100
AcDb2dVertex
 10
-792.4105466768974
 20
535.5872909902351
 30
0.0
  0
SEQEND
  5
285
330
282
100
AcDbEntity
  8
Layer 1
370
    20
  0
POLYLINE
  5
286
330
27E
100
AcDbEntity
  8
Layer 1
 62
     7
370
    20
100
AcDb2dPolyline
 66
     1
 10
0.0
 20
0.0
 30
0.0
  0
VERTEX
  5
287
330
286
100
AcDbEntity
  8
Layer 1
 62
     7
370
    20
100
AcDbVertex
100
AcDb2dVertex
 10
-773.410500566196
 20
-302.4125487525219
 30
0.0
  0
VERTEX
  5
288
330
286
100
AcDbEntity
  8
Layer 1
 62
     7
370
    20
100
AcDbVertex
100
AcDb2dVertex
 10
-773.410500566196
 20
535.5872909902351
 30
0.0
  0
SEQEND
  5
289
330
286
100
AcDbEntity
  8
Layer 1
370
    20
  0
ENDBLK
  5
281
330
27E
100
AcDbEntity
  8
0
100
AcDbBlockEnd
  0
BLOCK
  5
28C
330
28A
100
AcDbEntity
  8
0
100
AcDbBlockBegin
  2
block 9
 70
     0
 71
     0
 10
0.0
 20
0.0
 30
0.0
  3
block 9
  1

  0
POLYLINE
  5
28E
330
28A
100
AcDbEntity
  8
Layer 1
 62
     7
370
    20
100
AcDb2dPolyline
 66
     1
 10
0.0
 20
0.0
 30
0.0
  0
VERTEX
  5
28F
330
28E
100
AcDbEntity
  8
Layer 1
 62
     7
370
    20
100
AcDbVertex
100
AcDb2dVertex
 10
-674.243771532828
 20
-302.4125487525219
 30
0.0
  0
VERTEX
  5
290
330
28E
100
AcDbEntity
  8
Layer 1
 62
     7
370
    20
100
AcDbVertex
100
AcDb2dVertex
 10
-674.243771532828
 20
535.5872909902351
 30
0.0
  0
SEQEND
  5
291
330
28E
100
AcDbEntity
  8
Layer 1
370
    20
  0
POLYLINE
  5
292
330
28A
100
AcDbEntity
  8
Layer 1
 62
     7
370
    20
100
AcDb2dPolyline
 66
     1
 10
0.0
 20
0.0
 30
0.0
  0
VERTEX
  5
293
330
292
100
AcDbEntity
  8
Layer 1
 62
     7
370
    20
100
AcDbVertex
100
AcDb2dVertex
 10
-655.2437254221265
 20
-302.4125487525219
 30
0.0
  0
VERTEX
  5
294
330
292
100
AcDbEntity
  8
Layer 1
 62
     7
370
    20
100
AcDbVertex
100
AcDb2dVertex
 10
-655.2437254221265
 20
535.5872909902351
 30
0.0
  0
SEQEND
  5
295
330
292
100
AcDbEntity
  8
Layer 1
370
    20
  0
ENDBLK
  5
28D
330
28A
100
AcDbEntity
  8
0
100
AcDbBlockEnd
  0
BLOCK
  5
298
330
296
100
AcDbEntity
  8
0
100
AcDbBlockBegin
  2
block 10
 70
     0
 71
     0
 10
0.0
 20
0.0
 30
0.0
  3
block 10
  1

  0
POLYLINE
  5
29A
330
296
100
AcDbEntity
  8
Layer 1
 62
     7
370
    20
100
AcDb2dPolyline
 66
     1
 10
0.0
 20
0.0
 30
0.0
  0
VERTEX
  5
29B
330
29A
100
AcDbEntity
  8
Layer 1
 62
     7
370
    20
100
AcDbVertex
100
AcDb2dVertex
 10
-556.0769963887585
 20
-302.4125487525219
 30
0.0
  0
VERTEX
  5
29C
330
29A
100
AcDbEntity
  8
Layer 1
 62
     7
370
    20
100
AcDbVertex
100
AcDb2dVertex
 10
-556.0769963887585
 20
535.5872909902351
 30
0.0
  0
SEQEND
  5
29D
330
29A
100
AcDbEntity
  8
Layer 1
370
    20
  0
POLYLINE
  5
29E
330
296
100
AcDbEntity
  8
Layer 1
 62
     7
370
    20
100
AcDb2dPolyline
 66
     1
 10
0.0
 20
0.0
 30
0.0
  0
VERTEX
  5
29F
330
29E
100
AcDbEntity
  8
Layer 1
 62
     7
370
    20
100
AcDbVertex
100
AcDb2dVertex
 10
-537.0772947876058
 20
-302.4125487525219
 30
0.0
  0
VERTEX
  5
2A0
330
29E
100
AcDbEntity
  8
Layer 1
 62
     7
370
    20
100
AcDbVertex
100
AcDb2dVertex
 10
-537.0772947876058
 20
535.5872909902351
 30
0.0
  0
SEQEND
  5
2A1
330
29E
100
AcDbEntity
  8
Layer 1
370
    20
  0
ENDBLK
  5
299
330
296
100
AcDbEntity
  8
0
100
AcDbBlockEnd
  0
BLOCK
  5
2A4
330
2A2
100
AcDbEntity
  8
0
100
AcDbBlockBegin
  2
block 11
 70
     0
 71
     0
 10
0.0
 20
0.0
 30
0.0
  3
block 11
  1

  0
POLYLINE
  5
2A6
330
2A2
100
AcDbEntity
  8
Layer 1
 62
     7
370
    20
100
AcDb2dPolyline
 66
     1
 10
0.0
 20
0.0
 30
0.0
  0
VERTEX
  5
2A7
330
2A6
100
AcDbEntity
  8
Layer 1
 62
     7
370
    20
100
AcDbVertex
100
AcDb2dVertex
 10
-437.9105657542377
 20
-302.4125487525219
 30
0.0
  0
VERTEX
  5
2A8
330
2A6
100
AcDbEntity
  8
Layer 1
 62
     7
370
    20
100
AcDbVertex
100
AcDb2dVertex
 10
-437.9105657542377
 20
535.5872909902351
 30
0.0
  0
SEQEND
  5
2A9
330
2A6
100
AcDbEntity
  8
Layer 1
370
    20
  0
POLYLINE
  5
2AA
330
2A2
100
AcDbEntity
  8
Layer 1
 62
     7
370
    20
100
AcDb2dPolyline
 66
     1
 10
0.0
 20
0.0
 30
0.0
  0
VERTEX
  5
2AB
330
2AA
100
AcDbEntity
  8
Layer 1
 62
     7
370
    20
100
AcDbVertex
100
AcDb2dVertex
 10
-418.9105196435363
 20
-302.4125487525219
 30
0.0
  0
VERTEX
  5
2AC
330
2AA
100
AcDbEntity
  8
Layer 1
 62
     7
370
    20
100
AcDbVertex
100
AcDb2dVertex
 10
-418.9105196435363
 20
535.5872909902351
 30
0.0
  0
SEQEND
  5
2AD
330
2AA
100
AcDbEntity
  8
Layer 1
370
    20
  0
ENDBLK
  5
2A5
330
2A2
100
AcDbEntity
  8
0
100
AcDbBlockEnd
  0
BLOCK
  5
2B0
330
2AE
100
AcDbEntity
  8
0
100
AcDbBlockBegin
  2
block 12
 70
     0
 71
     0
 10
0.0
 20
0.0
 30
0.0
  3
block 12
  1

  0
POLYLINE
  5
2B2
330
2AE
100
AcDbEntity
  8
Layer 1
 62
     7
370
    20
100
AcDb2dPolyline
 66
     1
 10
0.0
 20
0.0
 30
0.0
  0
VERTEX
  5
2B3
330
2B2
100
AcDbEntity
  8
Layer 1
 62
     7
370
    20
100
AcDbVertex
100
AcDb2dVertex
 10
-1009.743706344786
 20
-302.4125487525219
 30
0.0
  0
VERTEX
  5
2B4
330
2B2
100
AcDbEntity
  8
Layer 1
 62
     7
370
    20
100
AcDbVertex
100
AcDb2dVertex
 10
-1009.743706344786
 20
535.5872909902351
 30
0.0
  0
SEQEND
  5
2B5
330
2B2
100
AcDbEntity
  8
Layer 1
370
    20
  0
POLYLINE
  5
2B6
330
2AE
100
AcDbEntity
  8
Layer 1
 62
     7
370
    20
100
AcDb2dPolyline
 66
     1
 10
0.0
 20
0.0
 30
0.0
  0
VERTEX
  5
2B7
330
2B6
100
AcDbEntity
  8
Layer 1
 62
     7
370
    20
100
AcDbVertex
100
AcDb2dVertex
 10
-1028.743752455488
 20
-302.4125487525219
 30
0.0
  0
VERTEX
  5
2B8
330
2B6
100
AcDbEntity
  8
Layer 1
 62
     7
370
    20
100
AcDbVertex
100
AcDb2dVertex
 10
-1028.743752455488
 20
535.5872909902351
 30
0.0
  0
SEQEND
  5
2B9
330
2B6
100
AcDbEntity
  8
Layer 1
370
    20
  0
ENDBLK
  5
2B1
330
2AE
100
AcDbEntity
  8
0
100
AcDbBlockEnd
  0
BLOCK
  5
2BC
330
2BA
100
AcDbEntity
  8
0
100
AcDbBlockBegin
  2
block 13
 70
     0
 71
     0
 10
0.0
 20
0.0
 30
0.0
  3
block 13
  1

  0
POLYLINE
  5
2BE
330
2BA
100
AcDbEntity
  8
Layer 1
 62
     7
370
    20
100
AcDb2dPolyline
 66
     1
 10
0.0
 20
0.0
 30
0.0
  0
VERTEX
  5
2BF
330
2BE
100
AcDbEntity
  8
Layer 1
 62
     7
370
    20
100
AcDbVertex
100
AcDb2dVertex
 10
-1127.910481488856
 20
-302.4125487525219
 30
0.0
  0
VERTEX
  5
2C0
330
2BE
100
AcDbEntity
  8
Layer 1
 62
     7
370
    20
100
AcDbVertex
100
AcDb2dVertex
 10
-1127.910481488856
 20
535.5872909902351
 30
0.0
  0
SEQEND
  5
2C1
330
2BE
100
AcDbEntity
  8
Layer 1
370
    20
  0
POLYLINE
  5
2C2
330
2BA
100
AcDbEntity
  8
Layer 1
 62
     7
370
    20
100
AcDb2dPolyline
 66
     1
 10
0.0
 20
0.0
 30
0.0
  0
VERTEX
  5
2C3
330
2C2
100
AcDbEntity
  8
Layer 1
 62
     7
370
    20
100
AcDbVertex
100
AcDb2dVertex
 10
-1146.910527599557
 20
-302.4125487525219
 30
0.0
  0
VERTEX
  5
2C4
330
2C2
100
AcDbEntity
  8
Layer 1
 62
     7
370
    20
100
AcDbVertex
100
AcDb2dVertex
 10
-1146.910527599557
 20
535.5872909902351
 30
0.0
  0
SEQEND
  5
2C5
330
2C2
100
AcDbEntity
  8
Layer 1
370
    20
  0
ENDBLK
  5
2BD
330
2BA
100
AcDbEntity
  8
0
100
AcDbBlockEnd
  0
BLOCK
  5
2C8
330
2C6
100
AcDbEntity
  8
0
100
AcDbBlockBegin
  2
block 14
 70
     0
 71
     0
 10
0.0
 20
0.0
 30
0.0
  3
block 14
  1

  0
POLYLINE
  5
2CA
330
2C6
100
AcDbEntity
  8
Layer 1
 62
     7
370
    20
100
AcDb2dPolyline
 66
     1
 10
0.0
 20
0.0
 30
0.0
  0
VERTEX
  5
2CB
330
2CA
100
AcDbEntity
  8
Layer 1
 62
     7
370
    20
100
AcDbVertex
100
AcDb2dVertex
 10
-1246.077256632925
 20
-302.4125487525219
 30
0.0
  0
VERTEX
  5
2CC
330
2CA
100
AcDbEntity
  8
Layer 1
 62
     7
370
    20
100
AcDbVertex
100
AcDb2dVertex
 10
-1246.077256632925
 20
535.5872909902351
 30
0.0
  0
SEQEND
  5
2CD
330
2CA
100
AcDbEntity
  8
Layer 1
370
    20
  0
POLYLINE
  5
2CE
330
2C6
100
AcDbEntity
  8
Layer 1
 62
     7
370
    20
100
AcDb2dPolyline
 66
     1
 10
0.0
 20
0.0
 30
0.0
  0
VERTEX
  5
2CF
330
2CE
100
AcDbEntity
  8
Layer 1
 62
     7
370
    20
100
AcDbVertex
100
AcDb2dVertex
 10
-1265.077302743627
 20
-302.4125487525219
 30
0.0
  0
VERTEX
  5
2D0
330
2CE
100
AcDbEntity
  8
Layer 1
 62
     7
370
    20
100
AcDbVertex
100
AcDb2dVertex
 10
-1265.077302743627
 20
535.5872909902351
 30
0.0
  0
SEQEND
  5
2D1
330
2CE
100
AcDbEntity
  8
Layer 1
370
    20
  0
ENDBLK
  5
2C9
330
2C6
100
AcDbEntity
  8
0
100
AcDbBlockEnd
  0
BLOCK
  5
2D4
330
2D2
100
AcDbEntity
  8
0
100
AcDbBlockBegin
  2
block 15
 70
     0
 71
     0
 10
0.0
 20
0.0
 30
0.0
  3
block 15
  1

  0
POLYLINE
  5
2D6
330
2D2
100
AcDbEntity
  8
Layer 1
 62
     7
370
    20
100
AcDb2dPolyline
 66
     1
 10
0.0
 20
0.0
 30
0.0
  0
VERTEX
  5
2D7
330
2D6
100
AcDbEntity
  8
Layer 1
 62
     7
370
    20
100
AcDbVertex
100
AcDb2dVertex
 10
-1364.24385952222
 20
-302.4125487525219
 30
0.0
  0
VERTEX
  5
2D8
330
2D6
100
AcDbEntity
  8
Layer 1
 62
     7
370
    20
100
AcDbVertex
100
AcDb2dVertex
 10
-1364.24385952222
 20
535.5872909902351
 30
0.0
  0
SEQEND
  5
2D9
330
2D6
100
AcDbEntity
  8
Layer 1
370
    20
  0
POLYLINE
  5
2DA
330
2D2
100
AcDbEntity
  8
Layer 1
 62
     7
370
    20
100
AcDb2dPolyline
 66
     1
 10
0.0
 20
0.0
 30
0.0
  0
VERTEX
  5
2DB
330
2DA
100
AcDbEntity
  8
Layer 1
 62
     7
370
    20
100
AcDbVertex
100
AcDb2dVertex
 10
-1383.243991760309
 20
-302.4125487525219
 30
0.0
  0
VERTEX
  5
2DC
330
2DA
100
AcDbEntity
  8
Layer 1
 62
     7
370
    20
100
AcDbVertex
100
AcDb2dVertex
 10
-1383.243991760309
 20
535.5872909902351
 30
0.0
  0
SEQEND
  5
2DD
330
2DA
100
AcDbEntity
  8
Layer 1
370
    20
  0
ENDBLK
  5
2D5
330
2D2
100
AcDbEntity
  8
0
100
AcDbBlockEnd
  0
BLOCK
  5
2E0
330
2DE
100
AcDbEntity
  8
0
100
AcDbBlockBegin
  2
block 16
 70
     0
 71
     0
 10
0.0
 20
0.0
 30
0.0
  3
block 16
  1

  0
POLYLINE
  5
2E2
330
2DE
100
AcDbEntity
  8
Layer 1
 62
     7
370
    20
100
AcDb2dPolyline
 66
     1
 10
0.0
 20
0.0
 30
0.0
  0
VERTEX
  5
2E3
330
2E2
100
AcDbEntity
  8
Layer 1
 62
     7
370
    20
100
AcDbVertex
100
AcDb2dVertex
 10
-1482.41063466629
 20
-302.4125487525219
 30
0.0
  0
VERTEX
  5
2E4
330
2E2
100
AcDbEntity
  8
Layer 1
 62
     7
370
    20
100
AcDbVertex
100
AcDb2dVertex
 10
-1482.41063466629
 20
535.5872909902351
 30
0.0
  0
SEQEND
  5
2E5
330
2E2
100
AcDbEntity
  8
Layer 1
370
    20
  0
POLYLINE
  5
2E6
330
2DE
100
AcDbEntity
  8
Layer 1
 62
     7
370
    20
100
AcDb2dPolyline
 66
     1
 10
0.0
 20
0.0
 30
0.0
  0
VERTEX
  5
2E7
330
2E6
100
AcDbEntity
  8
Layer 1
 62
     7
370
    20
100
AcDbVertex
100
AcDb2dVertex
 10
-1501.410680776991
 20
-302.4125487525219
 30
0.0
  0
VERTEX
  5
2E8
330
2E6
100
AcDbEntity
  8
Layer 1
 62
     7
370
    20
100
AcDbVertex
100
AcDb2dVertex
 10
-1501.410680776991
 20
535.5872909902351
 30
0.0
  0
SEQEND
  5
2E9
330
2E6
100
AcDbEntity
  8
Layer 1
370
    20
  0
ENDBLK
  5
2E1
330
2DE
100
AcDbEntity
  8
0
100
AcDbBlockEnd
  0
BLOCK
  5
2EC
330
2EA
100
AcDbEntity
  8
0
100
AcDbBlockBegin
  2
block 17
 70
     0
 71
     0
 10
0.0
 20
0.0
 30
0.0
  3
block 17
  1

  0
POLYLINE
  5
2EE
330
2EA
100
AcDbEntity
  8
Layer 1
 62
     7
370
    20
100
AcDb2dPolyline
 66
     1
 10
0.0
 20
0.0
 30
0.0
  0
VERTEX
  5
2EF
330
2EE
100
AcDbEntity
  8
Layer 1
 62
     7
370
    20
100
AcDbVertex
100
AcDb2dVertex
 10
-1600.577237555585
 20
-302.4125487525219
 30
0.0
  0
VERTEX
  5
2F0
330
2EE
100
AcDbEntity
  8
Layer 1
 62
     7
370
    20
100
AcDbVertex
100
AcDb2dVertex
 10
-1600.577237555585
 20
535.5872909902351
 30
0.0
  0
SEQEND
  5
2F1
330
2EE
100
AcDbEntity
  8
Layer 1
370
    20
  0
POLYLINE
  5
2F2
330
2EA
100
AcDbEntity
  8
Layer 1
 62
     7
370
    20
100
AcDb2dPolyline
 66
     1
 10
0.0
 20
0.0
 30
0.0
  0
VERTEX
  5
2F3
330
2F2
100
AcDbEntity
  8
Layer 1
 62
     7
370
    20
100
AcDbVertex
100
AcDb2dVertex
 10
-1619.577283666286
 20
-302.4125487525219
 30
0.0
  0
VERTEX
  5
2F4
330
2F2
100
AcDbEntity
  8
Layer 1
 62
     7
370
    20
100
AcDbVertex
100
AcDb2dVertex
 10
-1619.577283666286
 20
535.5872909902351
 30
0.0
  0
SEQEND
  5
2F5
330
2F2
100
AcDbEntity
  8
Layer 1
370
    20
  0
ENDBLK
  5
2ED
330
2EA
100
AcDbEntity
  8
0
100
AcDbBlockEnd
  0
BLOCK
  5
2F8
330
2F6
100
AcDbEntity
  8
0
100
AcDbBlockBegin
  2
block 18
 70
     0
 71
     0
 10
0.0
 20
0.0
 30
0.0
  3
block 18
  1

  0
POLYLINE
  5
2FA
330
2F6
100
AcDbEntity
  8
Layer 1
 62
     7
370
    20
100
AcDb2dPolyline
 66
     1
 10
0.0
 20
0.0
 30
0.0
  0
VERTEX
  5
2FB
330
2FA
100
AcDbEntity
  8
Layer 1
 62
     7
370
    20
100
AcDbVertex
100
AcDb2dVertex
 10
-164.7441215950987
 20
-302.4125487525219
 30
0.0
  0
VERTEX
  5
2FC
330
2FA
100
AcDbEntity
  8
Layer 1
 62
     7
370
    20
100
AcDbVertex
100
AcDb2dVertex
 10
-164.7441215950987
 20
535.5872909902351
 30
0.0
  0
SEQEND
  5
2FD
330
2FA
100
AcDbEntity
  8
Layer 1
370
    20
  0
POLYLINE
  5
2FE
330
2F6
100
AcDbEntity
  8
Layer 1
 62
     7
370
    20
100
AcDb2dPolyline
 66
     1
 10
0.0
 20
0.0
 30
0.0
  0
VERTEX
  5
2FF
330
2FE
100
AcDbEntity
  8
Layer 1
 62
     7
370
    20
100
AcDbVertex
100
AcDb2dVertex
 10
-145.7440754843973
 20
-302.4125487525219
 30
0.0
  0
VERTEX
  5
300
330
2FE
100
AcDbEntity
  8
Layer 1
 62
     7
370
    20
100
AcDbVertex
100
AcDb2dVertex
 10
-145.7440754843973
 20
535.5872909902351
 30
0.0
  0
SEQEND
  5
301
330
2FE
100
AcDbEntity
  8
Layer 1
370
    20
  0
ENDBLK
  5
2F9
330
2F6
100
AcDbEntity
  8
0
100
AcDbBlockEnd
  0
BLOCK
  5
304
330
302
100
AcDbEntity
  8
0
100
AcDbBlockBegin
  2
block 19
 70
     0
 71
     0
 10
0.0
 20
0.0
 30
0.0
  3
block 19
  1

  0
POLYLINE
  5
306
330
302
100
AcDbEntity
  8
Layer 1
 62
     7
370
    20
100
AcDb2dPolyline
 66
     1
 10
0.0
 20
0.0
 30
0.0
  0
VERTEX
  5
307
330
306
100
AcDbEntity
  8
Layer 1
 62
     7
370
    20
100
AcDbVertex
100
AcDb2dVertex
 10
-1873.743853969498
 20
-302.4125487525219
 30
0.0
  0
VERTEX
  5
308
330
306
100
AcDbEntity
  8
Layer 1
 62
     7
370
    20
100
AcDbVertex
100
AcDb2dVertex
 10
-1873.743853969498
 20
535.5872909902351
 30
0.0
  0
SEQEND
  5
309
330
306
100
AcDbEntity
  8
Layer 1
370
    20
  0
POLYLINE
  5
30A
330
302
100
AcDbEntity
  8
Layer 1
 62
     7
370
    20
100
AcDb2dPolyline
 66
     1
 10
0.0
 20
0.0
 30
0.0
  0
VERTEX
  5
30B
330
30A
100
AcDbEntity
  8
Layer 1
 62
     7
370
    20
100
AcDbVertex
100
AcDb2dVertex
 10
-1892.7439000802
 20
-302.4125487525219
 30
0.0
  0
VERTEX
  5
30C
330
30A
100
AcDbEntity
  8
Layer 1
 62
     7
370
    20
100
AcDbVertex
100
AcDb2dVertex
 10
-1892.7439000802
 20
535.5872909902351
 30
0.0
  0
SEQEND
  5
30D
330
30A
100
AcDbEntity
  8
Layer 1
370
    20
  0
ENDBLK
  5
305
330
302
100
AcDbEntity
  8
0
100
AcDbBlockEnd
  0
BLOCK
  5
332
330
330
100
AcDbEntity
  8
0
100
AcDbBlockBegin
  2
block 20
 70
     0
 71
     0
 10
0.0
 20
0.0
 30
0.0
  3
block 20
  1

  0
SPLINE
  5
334
330
330
100
AcDbEntity
  8
Layer 1
 62
     7
370
    20
100
AcDbSpline
210
0.0
220
0.0
230
1.0
 70
     8
 71
     3
 72
    26
 73
    22
 74
     0
 42
0.0000000001
 43
0.0000000001
 40
0.0
 40
0.0
 40
0.0
 40
0.0
 40
1.0
 40
1.0
 40
1.0
 40
2.0
 40
2.0
 40
2.0
 40
3.0
 40
3.0
 40
3.0
 40
4.0
 40
4.0
 40
4.0
 40
5.0
 40
5.0
 40
5.0
 40
6.0
 40
6.0
 40
6.0
 40
7.0
 40
7.0
 40
7.0
 40
7.0
 10
95.82980954635505
 20
538.2377752018122
 30
0.0
 10
95.82980954635505
 20
538.2377752018122
 30
0.0
 10
95.82980954635505
 20
536.8376883966066
 30
0.0
 10
95.82980954635505
 20
536.8376883966066
 30
0.0
 10
95.82980954635505
 20
536.6995400676481
 30
0.0
 10
95.71784394308443
 20
536.5875744643774
 30
0.0
 10
95.57969561412591
 20
536.5875744643774
 30
0.0
 10
95.57969561412591
 20
536.5875744643774
 30
0.0
 10
94.87965221152315
 20
536.5875744643774
 30
0.0
 10
94.87965221152315
 20
536.5875744643774
 30
0.0
 10
94.74184839211316
 20
536.5875744643774
 30
0.0
 10
94.62988278884254
 20
536.4756088611068
 30
0.0
 10
94.62988278884254
 20
536.3374605321483
 30
0.0
 10
94.62988278884254
 20
536.3374605321483
 30
0.0
 10
94.62988278884254
 20
535.8375771772386
 30
0.0
 10
94.62988278884254
 20
535.8375771772386
 30
0.0
 10
94.62988278884254
 20
535.69942884828
 30
0.0
 10
94.51791718557192
 20
535.5874632450094
 30
0.0
 10
94.3797688566134
 20
535.5874632450094
 30
0.0
 10
94.3797688566134
 20
535.5874632450094
 30
0.0
 10
70.87973902307868
 20
535.5874632450094
 30
0.0
 10
70.87973902307868
 20
535.5874632450094
 30
0.0
  0
SPLINE
  5
335
330
330
100
AcDbEntity
  8
Layer 1
 62
     7
370
    20
100
AcDbSpline
210
0.0
220
0.0
230
1.0
 70
     8
 71
     3
 72
    26
 73
    22
 74
     0
 42
0.0000000001
 43
0.0000000001
 40
0.0
 40
0.0
 40
0.0
 40
0.0
 40
1.0
 40
1.0
 40
1.0
 40
2.0
 40
2.0
 40
2.0
 40
3.0
 40
3.0
 40
3.0
 40
4.0
 40
4.0
 40
4.0
 40
5.0
 40
5.0
 40
5.0
 40
6.0
 40
6.0
 40
6.0
 40
7.0
 40
7.0
 40
7.0
 40
7.0
 10
140.3793727947663
 20
535.5874632450094
 30
0.0
 10
140.3793727947663
 20
535.5874632450094
 30
0.0
 10
116.8796874707801
 20
535.5874632450094
 30
0.0
 10
116.8796874707801
 20
535.5874632450094
 30
0.0
 10
116.7418836513701
 20
535.5874632450094
 30
0.0
 10
116.6295735385509
 20
535.69942884828
 30
0.0
 10
116.6295735385509
 20
535.8375771772386
 30
0.0
 10
116.6295735385509
 20
535.8375771772386
 30
0.0
 10
116.6295735385509
 20
536.3374605321483
 30
0.0
 10
116.6295735385509
 20
536.3374605321483
 30
0.0
 10
116.6295735385509
 20
536.4756088611068
 30
0.0
 10
116.5179524448289
 20
536.5875744643774
 30
0.0
 10
116.3794596063218
 20
536.5875744643774
 30
0.0
 10
116.3794596063218
 20
536.5875744643774
 30
0.0
 10
115.679416203719
 20
536.5875744643774
 30
0.0
 10
115.679416203719
 20
536.5875744643774
 30
0.0
 10
115.541612384309
 20
536.5875744643774
 30
0.0
 10
115.429991290587
 20
536.6995400676481
 30
0.0
 10
115.429991290587
 20
536.8376883966066
 30
0.0
 10
115.429991290587
 20
536.8376883966066
 30
0.0
 10
115.429991290587
 20
538.2377752018122
 30
0.0
 10
115.429991290587
 20
538.2377752018122
 30
0.0
  0
SPLINE
  5
336
330
330
100
AcDbEntity
  8
Layer 1
 62
     7
370
    20
100
AcDbSpline
210
0.0
220
0.0
230
1.0
 70
     8
 71
     3
 72
    32
 73
    28
 74
     0
 42
0.0000000001
 43
0.0000000001
 40
0.0
 40
0.0
 40
0.0
 40
0.0
 40
1.0
 40
1.0
 40
1.0
 40
2.0
 40
2.0
 40
2.0
 40
3.0
 40
3.0
 40
3.0
 40
4.0
 40
4.0
 40
4.0
 40
5.0
 40
5.0
 40
5.0
 40
6.0
 40
6.0
 40
6.0
 40
7.0
 40
7.0
 40
7.0
 40
8.0
 40
8.0
 40
8.0
 40
9.0
 40
9.0
 40
9.0
 40
9.0
 10
142.3031141137298
 20
535.5874632450094
 30
0.0
 10
142.3031141137298
 20
535.5874632450094
 30
0.0
 10
142.6290201466344
 20
535.5874632450094
 30
0.0
 10
142.6290201466344
 20
535.5874632450094
 30
0.0
 10
144.2861110750396
 20
535.5874632450094
 30
0.0
 10
145.629698314287
 20
536.9307059747083
 30
0.0
 10
145.629698314287
 20
538.587452393565
 30
0.0
 10
145.629698314287
 20
538.587452393565
 30
0.0
 10
145.629698314287
 20
569.787270636633
 30
0.0
 10
145.629698314287
 20
569.787270636633
 30
0.0
 10
145.629698314287
 20
572.5908893425294
 30
0.0
 10
143.6880424988002
 20
575.0203706787275
 30
0.0
 10
140.954014721706
 20
575.6391098278784
 30
0.0
 10
117.6982421580754
 20
580.9035602388888
 30
0.0
 10
93.56069740499525
 20
580.9035602388888
 30
0.0
 10
70.30475258659048
 20
575.6391098278784
 30
0.0
 10
67.57072480949621
 20
575.0203706787275
 30
0.0
 10
65.62975801310645
 20
572.5908893425294
 30
0.0
 10
65.62975801310645
 20
569.787270636633
 30
0.0
 10
65.62975801310645
 20
569.787270636633
 30
0.0
 10
65.62975801310645
 20
538.587452393565
 30
0.0
 10
65.62975801310645
 20
538.587452393565
 30
0.0
 10
65.62975801310645
 20
536.9307059747083
 30
0.0
 10
66.97265623325684
 20
535.5874632450094
 30
0.0
 10
68.62974716166201
 20
535.5874632450094
 30
0.0
 10
68.62974716166201
 20
535.5874632450094
 30
0.0
 10
68.95565319456665
 20
535.5874632450094
 30
0.0
 10
68.95565319456665
 20
535.5874632450094
 30
0.0
  0
SPLINE
  5
337
330
330
100
AcDbEntity
  8
Layer 1
 62
     7
370
    20
100
AcDbSpline
210
0.0
220
0.0
230
1.0
 70
     8
 71
     3
 72
    74
 73
    70
 74
     0
 42
0.0000000001
 43
0.0000000001
 40
0.0
 40
0.0
 40
0.0
 40
0.0
 40
1.0
 40
1.0
 40
1.0
 40
2.0
 40
2.0
 40
2.0
 40
3.0
 40
3.0
 40
3.0
 40
4.0
 40
4.0
 40
4.0
 40
5.0
 40
5.0
 40
5.0
 40
6.0
 40
6.0
 40
6.0
 40
7.0
 40
7.0
 40
7.0
 40
8.0
 40
8.0
 40
8.0
 40
9.0
 40
9.0
 40
9.0
 40
10.0
 40
10.0
 40
10.0
 40
11.0
 40
11.0
 40
11.0
 40
12.0
 40
12.0
 40
12.0
 40
13.0
 40
13.0
 40
13.0
 40
14.0
 40
14.0
 40
14.0
 40
15.0
 40
15.0
 40
15.0
 40
16.0
 40
16.0
 40
16.0
 40
17.0
 40
17.0
 40
17.0
 40
18.0
 40
18.0
 40
18.0
 40
19.0
 40
19.0
 40
19.0
 40
20.0
 40
20.0
 40
20.0
 40
21.0
 40
21.0
 40
21.0
 40
22.0
 40
22.0
 40
22.0
 40
23.0
 40
23.0
 40
23.0
 40
23.0
 10
114.8298556570564
 20
537.5875134289712
 30
0.0
 10
114.8298556570564
 20
537.5875134289712
 30
0.0
 10
111.1959689392149
 20
537.5875134289712
 30
0.0
 10
111.1959689392149
 20
537.5875134289712
 30
0.0
 10
111.0891709791722
 20
537.5875134289712
 30
0.0
 10
110.9878851719058
 20
537.6290268295685
 30
0.0
 10
110.9127820903274
 20
537.7043021659211
 30
0.0
 10
110.9127820903274
 20
537.7043021659211
 30
0.0
 10
110.8421576328797
 20
537.7754433876916
 30
0.0
 10
110.8421576328797
 20
537.7754433876916
 30
0.0
 10
110.7856580669216
 20
537.8314261893269
 30
0.0
 10
110.7095214566976
 20
537.8631210677912
 30
0.0
 10
110.6295952414398
 20
537.8631210677912
 30
0.0
 10
110.5503580452791
 20
537.8631210677912
 30
0.0
 10
110.4738769255065
 20
537.8314261893269
 30
0.0
 10
110.4180663786455
 20
537.7754433876916
 30
0.0
 10
110.4180663786455
 20
537.7754433876916
 30
0.0
 10
110.3470974116493
 20
537.7046466754697
 30
0.0
 10
110.3470974116493
 20
537.7046466754697
 30
0.0
 10
110.2719943300709
 20
537.6295435938913
 30
0.0
 10
110.1700195037075
 20
537.5875134289712
 30
0.0
 10
110.0642550723103
 20
537.5875134289712
 30
0.0
 10
110.0642550723103
 20
537.5875134289712
 30
0.0
 10
106.1957573519233
 20
537.5875134289712
 30
0.0
 10
106.1957573519233
 20
537.5875134289712
 30
0.0
 10
106.0893039014291
 20
537.5875134289712
 30
0.0
 10
105.9876735846142
 20
537.6290268295685
 30
0.0
 10
105.9125705030358
 20
537.7043021659211
 30
0.0
 10
105.9125705030358
 20
537.7043021659211
 30
0.0
 10
105.8422905551367
 20
537.7754433876916
 30
0.0
 10
105.8422905551367
 20
537.7754433876916
 30
0.0
 10
105.7857909891786
 20
537.8314261893269
 30
0.0
 10
105.709309869406
 20
537.8631210677912
 30
0.0
 10
105.6297281636967
 20
537.8631210677912
 30
0.0
 10
105.5501464579875
 20
537.8631210677912
 30
0.0
 10
105.474354357312
 20
537.8314261893269
 30
0.0
 10
105.4178547913539
 20
537.7754433876916
 30
0.0
 10
105.4178547913539
 20
537.7754433876916
 30
0.0
 10
105.3472303339063
 20
537.7046466754697
 30
0.0
 10
105.3472303339063
 20
537.7046466754697
 30
0.0
 10
105.2717827427793
 20
537.6295435938913
 30
0.0
 10
105.1701524259644
 20
537.5875134289712
 30
0.0
 10
105.0643879945672
 20
537.5875134289712
 30
0.0
 10
105.0643879945672
 20
537.5875134289712
 30
0.0
 10
101.1955457646317
 20
537.5875134289712
 30
0.0
 10
101.1955457646317
 20
537.5875134289712
 30
0.0
 10
101.089436823686
 20
537.5875134289712
 30
0.0
 10
100.9878065068711
 20
537.6290268295685
 30
0.0
 10
100.9127034252927
 20
537.7043021659211
 30
0.0
 10
100.9127034252927
 20
537.7043021659211
 30
0.0
 10
100.842078967845
 20
537.7754433876916
 30
0.0
 10
100.842078967845
 20
537.7754433876916
 30
0.0
 10
100.842078967845
 20
537.7754433876916
 30
0.0
 10
100.842078967845
 20
537.7754433876916
 30
0.0
 10
100.842078967845
 20
537.7754433876916
 30
0.0
 10
100.7855794018869
 20
537.8314261893269
 30
0.0
 10
100.7090982821144
 20
537.8631210677912
 30
0.0
 10
100.6298610859536
 20
537.8631210677912
 30
0.0
 10
100.5502793802444
 20
537.8631210677912
 30
0.0
 10
100.4737982604718
 20
537.8314261893269
 30
0.0
 10
100.4176432040623
 20
537.7754433876916
 30
0.0
 10
100.4176432040623
 20
537.7754433876916
 30
0.0
 10
100.3473632561632
 20
537.7046466754697
 30
0.0
 10
100.3473632561632
 20
537.7046466754697
 30
0.0
 10
100.2719156650362
 20
537.6295435938913
 30
0.0
 10
100.1702853482213
 20
537.5875134289712
 30
0.0
 10
100.0641764072756
 20
537.5875134289712
 30
0.0
 10
100.0641764072756
 20
537.5875134289712
 30
0.0
 10
96.42994517988558
 20
537.5875134289712
 30
0.0
 10
96.42994517988558
 20
537.5875134289712
 30
0.0
  0
ENDBLK
  5
333
330
330
100
AcDbEntity
  8
0
100
AcDbBlockEnd
  0
BLOCK
  5
34F
330
34D
100
AcDbEntity
  8
0
100
AcDbBlockBegin
  2
block 21
 70
     0
 71
     0
 10
0.0
 20
0.0
 30
0.0
  3
block 21
  1

  0
POLYLINE
  5
351
330
34D
100
AcDbEntity
  8
Layer 1
 62
     7
370
    20
100
AcDb2dPolyline
 66
     1
 10
0.0
 20
0.0
 30
0.0
  0
VERTEX
  5
352
330
351
100
AcDbEntity
  8
Layer 1
 62
     7
370
    20
100
AcDbVertex
100
AcDb2dVertex
 10
94.62936602451974
 20
535.5876354997837
 30
0.0
  0
VERTEX
  5
353
330
351
100
AcDbEntity
  8
Layer 1
 62
     7
370
    20
100
AcDbVertex
100
AcDb2dVertex
 10
94.62936602451974
 20
-560.4126490569455
 30
0.0
  0
SEQEND
  5
354
330
351
100
AcDbEntity
  8
Layer 1
370
    20
  0
POLYLINE
  5
355
330
34D
100
AcDbEntity
  8
Layer 1
 62
     7
370
    20
100
AcDb2dPolyline
 66
     1
 10
0.0
 20
0.0
 30
0.0
  0
VERTEX
  5
356
330
355
100
AcDbEntity
  8
Layer 1
 62
     7
370
    20
100
AcDbVertex
100
AcDb2dVertex
 10
116.6295735385509
 20
535.5876354997837
 30
0.0
  0
VERTEX
  5
357
330
355
100
AcDbEntity
  8
Layer 1
 62
     7
370
    20
100
AcDbVertex
100
AcDb2dVertex
 10
116.6295735385509
 20
-560.4126490569455
 30
0.0
  0
SEQEND
  5
358
330
355
100
AcDbEntity
  8
Layer 1
370
    20
  0
ENDBLK
  5
350
330
34D
100
AcDbEntity
  8
0
100
AcDbBlockEnd
  0
BLOCK
  5
36A
330
368
100
AcDbEntity
  8
0
100
AcDbBlockBegin
  2
block 22
 70
     0
 71
     0
 10
0.0
 20
0.0
 30
0.0
  3
block 22
  1

  0
POLYLINE
  5
36C
330
368
100
AcDbEntity
  8
Layer 1
370
     0
100
AcDb2dPolyline
 66
     1
 10
0.0
 20
0.0
 30
0.0
  0
VERTEX
  5
36D
330
36C
100
AcDbEntity
  8
Layer 1
370
     0
100
AcDbVertex
100
AcDb2dVertex
 10
146.1926269165768
 20
-365.8481254510727
 30
0.0
  0
VERTEX
  5
36E
330
36C
100
AcDbEntity
  8
Layer 1
370
     0
100
AcDbVertex
100
AcDb2dVertex
 10
148.9342339037387
 20
-377.6579127745092
 30
0.0
  0
VERTEX
  5
36F
330
36C
100
AcDbEntity
  8
Layer 1
370
     0
100
AcDbVertex
100
AcDb2dVertex
 10
116.6626464552093
 20
-372.69215214207
 30
0.0
  0
VERTEX
  5
370
330
36C
100
AcDbEntity
  8
Layer 1
370
     0
100
AcDbVertex
100
AcDb2dVertex
 10
143.4599771776767
 20
-354.0293808793746
 30
0.0
  0
VERTEX
  5
371
330
36C
100
AcDbEntity
  8
Layer 1
370
     0
100
AcDbVertex
100
AcDb2dVertex
 10
146.1926269165768
 20
-365.8481254510727
 30
0.0
  0
SEQEND
  5
372
330
36C
100
AcDbEntity
  8
Layer 1
370
     0
  0
POLYLINE
  5
373
330
368
100
AcDbEntity
  8
Layer 1
370
     0
100
AcDb2dPolyline
 66
     1
 10
0.0
 20
0.0
 30
0.0
  0
VERTEX
  5
374
330
373
100
AcDbEntity
  8
Layer 1
370
     0
100
AcDbVertex
100
AcDb2dVertex
 10
146.1926269165768
 20
-365.8481254510727
 30
0.0
  0
VERTEX
  5
375
330
373
100
AcDbEntity
  8
Layer 1
370
     0
100
AcDbVertex
100
AcDb2dVertex
 10
148.9342339037387
 20
-377.6579127745092
 30
0.0
  0
VERTEX
  5
376
330
373
100
AcDbEntity
  8
Layer 1
370
     0
100
AcDbVertex
100
AcDb2dVertex
 10
148.9342339037387
 20
-377.6579127745092
 30
0.0
  0
VERTEX
  5
377
330
373
100
AcDbEntity
  8
Layer 1
370
     0
100
AcDbVertex
100
AcDb2dVertex
 10
116.6629909647579
 20
-372.6838839129055
 30
0.0
  0
VERTEX
  5
378
330
373
100
AcDbEntity
  8
Layer 1
370
     0
100
AcDbVertex
100
AcDb2dVertex
 10
116.6629909647579
 20
-372.6838839129055
 30
0.0
  0
VERTEX
  5
379
330
373
100
AcDbEntity
  8
Layer 1
370
     0
100
AcDbVertex
100
AcDb2dVertex
 10
143.4599771776767
 20
-354.0293808793746
 30
0.0
  0
VERTEX
  5
37A
330
373
100
AcDbEntity
  8
Layer 1
370
     0
100
AcDbVertex
100
AcDb2dVertex
 10
143.4599771776767
 20
-354.0293808793746
 30
0.0
  0
VERTEX
  5
37B
330
373
100
AcDbEntity
  8
Layer 1
370
     0
100
AcDbVertex
100
AcDb2dVertex
 10
146.1926269165768
 20
-365.8481254510727
 30
0.0
  0
VERTEX
  5
37C
330
373
100
AcDbEntity
  8
Layer 1
370
     0
100
AcDbVertex
100
AcDb2dVertex
 10
146.1926269165768
 20
-365.8481254510727
 30
0.0
  0
SEQEND
  5
37D
330
373
100
AcDbEntity
  8
Layer 1
370
     0
  0
HATCH
  5
37E
330
368
100
AcDbEntity
  8
Layer 1
 62
     7
100
AcDbHatch
 10
0.0
 20
0.0
 30
0.0
210
0.0
220
0.0
230
1.0
  2
SOLID
 70
     1
 71
     0
 91
        1
 92
        1
 93
        4
 72
     1
 10
146.1926269165768
 20
-365.8481254510727
 11
148.9342339037387
 21
-377.6579127745092
 72
     1
 10
148.9342339037387
 20
-377.6579127745092
 11
116.6629909647579
 21
-372.6838839129055
 72
     1
 10
116.6629909647579
 20
-372.6838839129055
 11
143.4599771776767
 21
-354.0293808793746
 72
     1
 10
143.4599771776767
 20
-354.0293808793746
 11
146.1926269165768
 21
-365.8481254510727
 97
        0
 75
     0
 76
     1
 98
        0
  0
POLYLINE
  5
37F
330
368
100
AcDbEntity
  8
Layer 1
 62
     7
370
     9
100
AcDb2dPolyline
 66
     1
 10
0.0
 20
0.0
 30
0.0
  0
VERTEX
  5
380
330
37F
100
AcDbEntity
  8
Layer 1
 62
     7
370
     9
100
AcDbVertex
100
AcDb2dVertex
 10
144.2344346427608
 20
-366.2994329596405
 30
0.0
  0
VERTEX
  5
381
330
37F
100
AcDbEntity
  8
Layer 1
 62
     7
370
     9
100
AcDbVertex
100
AcDb2dVertex
 10
303.8064343858539
 20
-334.0199217914951
 30
0.0
  0
SEQEND
  5
382
330
37F
100
AcDbEntity
  8
Layer 1
370
     9
  0
ENDBLK
  5
36B
330
368
100
AcDbEntity
  8
0
100
AcDbBlockEnd
  0
BLOCK
  5
385
330
383
100
AcDbEntity
  8
0
100
AcDbBlockBegin
  2
block 23
 70
     0
 71
     0
 10
0.0
 20
0.0
 30
0.0
  3
block 23
  1

  0
POLYLINE
  5
387
330
383
100
AcDbEntity
  8
Layer 1
370
     0
100
AcDb2dPolyline
 66
     1
 10
0.0
 20
0.0
 30
0.0
  0
VERTEX
  5
388
330
387
100
AcDbEntity
  8
Layer 1
370
     0
100
AcDbVertex
100
AcDb2dVertex
 10
168.8548095280988
 20
-552.7707382515642
 30
0.0
  0
VERTEX
  5
389
330
387
100
AcDbEntity
  8
Layer 1
370
     0
100
AcDbVertex
100
AcDb2dVertex
 10
171.5964165152606
 20
-564.5805255750007
 30
0.0
  0
VERTEX
  5
38A
330
387
100
AcDbEntity
  8
Layer 1
370
     0
100
AcDbVertex
100
AcDb2dVertex
 10
139.3248290667313
 20
-559.6147649425616
 30
0.0
  0
VERTEX
  5
38B
330
387
100
AcDbEntity
  8
Layer 1
370
     0
100
AcDbVertex
100
AcDb2dVertex
 10
166.1221597891986
 20
-540.9519936798662
 30
0.0
  0
VERTEX
  5
38C
330
387
100
AcDbEntity
  8
Layer 1
370
     0
100
AcDbVertex
100
AcDb2dVertex
 10
168.8548095280988
 20
-552.7707382515642
 30
0.0
  0
SEQEND
  5
38D
330
387
100
AcDbEntity
  8
Layer 1
370
     0
  0
POLYLINE
  5
38E
330
383
100
AcDbEntity
  8
Layer 1
370
     0
100
AcDb2dPolyline
 66
     1
 10
0.0
 20
0.0
 30
0.0
  0
VERTEX
  5
38F
330
38E
100
AcDbEntity
  8
Layer 1
370
     0
100
AcDbVertex
100
AcDb2dVertex
 10
168.8548095280988
 20
-552.7707382515642
 30
0.0
  0
VERTEX
  5
390
330
38E
100
AcDbEntity
  8
Layer 1
370
     0
100
AcDbVertex
100
AcDb2dVertex
 10
171.5964165152606
 20
-564.5805255750007
 30
0.0
  0
VERTEX
  5
391
330
38E
100
AcDbEntity
  8
Layer 1
370
     0
100
AcDbVertex
100
AcDb2dVertex
 10
171.5964165152606
 20
-564.5805255750007
 30
0.0
  0
VERTEX
  5
392
330
38E
100
AcDbEntity
  8
Layer 1
370
     0
100
AcDbVertex
100
AcDb2dVertex
 10
139.3251735762798
 20
-559.6064967133971
 30
0.0
  0
VERTEX
  5
393
330
38E
100
AcDbEntity
  8
Layer 1
370
     0
100
AcDbVertex
100
AcDb2dVertex
 10
139.3251735762798
 20
-559.6064967133971
 30
0.0
  0
VERTEX
  5
394
330
38E
100
AcDbEntity
  8
Layer 1
370
     0
100
AcDbVertex
100
AcDb2dVertex
 10
166.1221597891986
 20
-540.9519936798662
 30
0.0
  0
VERTEX
  5
395
330
38E
100
AcDbEntity
  8
Layer 1
370
     0
100
AcDbVertex
100
AcDb2dVertex
 10
166.1221597891986
 20
-540.9519936798662
 30
0.0
  0
VERTEX
  5
396
330
38E
100
AcDbEntity
  8
Layer 1
370
     0
100
AcDbVertex
100
AcDb2dVertex
 10
168.8548095280988
 20
-552.7707382515642
 30
0.0
  0
VERTEX
  5
397
330
38E
100
AcDbEntity
  8
Layer 1
370
     0
100
AcDbVertex
100
AcDb2dVertex
 10
168.8548095280988
 20
-552.7707382515642
 30
0.0
  0
SEQEND
  5
398
330
38E
100
AcDbEntity
  8
Layer 1
370
     0
  0
HATCH
  5
399
330
383
100
AcDbEntity
  8
Layer 1
 62
     7
100
AcDbHatch
 10
0.0
 20
0.0
 30
0.0
210
0.0
220
0.0
230
1.0
  2
SOLID
 70
     1
 71
     0
 91
        1
 92
        1
 93
        4
 72
     1
 10
168.8548095280988
 20
-552.7707382515642
 11
171.5964165152606
 21
-564.5805255750007
 72
     1
 10
171.5964165152606
 20
-564.5805255750007
 11
139.3251735762798
 21
-559.6064967133971
 72
     1
 10
139.3251735762798
 20
-559.6064967133971
 11
166.1221597891986
 21
-540.9519936798662
 72
     1
 10
166.1221597891986
 20
-540.9519936798662
 11
168.8548095280988
 21
-552.7707382515642
 97
        0
 75
     0
 76
     1
 98
        0
  0
POLYLINE
  5
39A
330
383
100
AcDbEntity
  8
Layer 1
 62
     7
370
     9
100
AcDb2dPolyline
 66
     1
 10
0.0
 20
0.0
 30
0.0
  0
VERTEX
  5
39B
330
39A
100
AcDbEntity
  8
Layer 1
 62
     7
370
     9
100
AcDbVertex
100
AcDb2dVertex
 10
166.8966172542828
 20
-553.222045760132
 30
0.0
  0
VERTEX
  5
39C
330
39A
100
AcDbEntity
  8
Layer 1
 62
     7
370
     9
100
AcDbVertex
100
AcDb2dVertex
 10
303.8064343858539
 20
-525.5269231542086
 30
0.0
  0
SEQEND
  5
39D
330
39A
100
AcDbEntity
  8
Layer 1
370
     9
  0
ENDBLK
  5
386
330
383
100
AcDbEntity
  8
0
100
AcDbBlockEnd
  0
ENDSEC
  0
SECTION
  2
ENTITIES
  0
INSERT
  5
3D
330
1F
100
AcDbEntity
  8
Layer 1
100
AcDbBlockReference
  2
block 2
 10
0.0
 20
0.0
 30
0.0
  0
ENDSEC
  0
SECTION
  2
OBJECTS
  0
DICTIONARY
  5
C
330
0
100
AcDbDictionary
281
     1
  3
ACAD_GROUP
350
D
  3
ACAD_LAYOUT
350
1A
  3
ACAD_MLINESTYLE
350
17
  3
ACAD_PLOTSETTINGS
350
19
  3
ACAD_PLOTSTYLENAME
350
E
  3
ACAD_TABLESTYLE
350
3CA
  3
ACAD_VISUALSTYLE
350
2A
  0
DICTIONARY
  5
D
102
{ACAD_REACTORS
330
C
102
}
330
C
100
AcDbDictionary
281
     1
  0
DICTIONARY
  5
1A
102
{ACAD_REACTORS
330
C
102
}
330
C
100
AcDbDictionary
281
     1
  3
Layout1
350
1E
  3
Layout2
350
26
  3
Model
350
22
  0
DICTIONARY
  5
17
102
{ACAD_REACTORS
330
C
102
}
330
C
100
AcDbDictionary
281
     1
  3
Standard
350
18
  0
DICTIONARY
  5
19
102
{ACAD_REACTORS
330
C
102
}
330
C
100
AcDbDictionary
281
     1
  0
ACDBDICTIONARYWDFLT
  5
E
102
{ACAD_REACTORS
330
C
102
}
330
C
100
AcDbDictionary
281
     1
  3
Normal
350
F
100
AcDbDictionaryWithDefault
340
F
  0
DICTIONARY
  5
3CA
102
{ACAD_REACTORS
330
C
102
}
330
C
100
AcDbDictionary
281
     1
  0
DICTIONARY
  5
2A
102
{ACAD_REACTORS
330
C
102
}
330
C
100
AcDbDictionary
281
     1
  3
2dWireframe
350
2F
  3
3D Hidden
350
31
  3
3dWireframe
350
30
  3
Basic
350
32
  3
Brighten
350
36
  3
ColorChange
350
3A
  3
Conceptual
350
34
  3
Dim
350
35
  3
Facepattern
350
39
  3
Flat
350
2B
  3
FlatWithEdges
350
2C
  3
Gouraud
350
2D
  3
GouraudWithEdges
350
2E
  3
Linepattern
350
38
  3
Realistic
350
33
  3
Thicken
350
37
  0
LAYOUT
  5
1E
102
{ACAD_REACTORS
330
1A
102
}
330
1A
100
AcDbPlotSettings
  1

  2
none_device
  4

  6

 40
0.0
 41
0.0
 42
0.0
 43
0.0
 44
0.0
 45
0.0
 46
0.0
 47
0.0
 48
0.0
 49
0.0
140
0.0
141
0.0
142
1.0
143
1.0
 70
   688
 72
     0
 73
     0
 74
     5
  7

 75
    16
147
1.0
148
0.0
149
0.0
100
AcDbLayout
  1
Layout1
 70
     1
 71
     1
 10
0.0
 20
0.0
 11
12.0
 21
9.0
 12
0.0
 22
0.0
 32
0.0
 14
1.000000000000000E+20
 24
1.000000000000000E+20
 34
1.000000000000000E+20
 15
-1.000000000000000E+20
 25
-1.000000000000000E+20
 35
-1.000000000000000E+20
146
0.0
 13
0.0
 23
0.0
 33
0.0
 16
1.0
 26
0.0
 36
0.0
 17
0.0
 27
1.0
 37
0.0
 76
     0
330
1B
  0
LAYOUT
  5
26
102
{ACAD_REACTORS
330
1A
102
}
330
1A
100
AcDbPlotSettings
  1

  2
none_device
  4

  6

 40
0.0
 41
0.0
 42
0.0
 43
0.0
 44
0.0
 45
0.0
 46
0.0
 47
0.0
 48
0.0
 49
0.0
140
0.0
141
0.0
142
1.0
143
1.0
 70
   688
 72
     0
 73
     0
 74
     5
  7

 75
    16
147
1.0
148
0.0
149
0.0
100
AcDbLayout
  1
Layout2
 70
     1
 71
     2
 10
0.0
 20
0.0
 11
0.0
 21
0.0
 12
0.0
 22
0.0
 32
0.0
 14
0.0
 24
0.0
 34
0.0
 15
0.0
 25
0.0
 35
0.0
146
0.0
 13
0.0
 23
0.0
 33
0.0
 16
1.0
 26
0.0
 36
0.0
 17
0.0
 27
1.0
 37
0.0
 76
     0
330
23
  0
LAYOUT
  5
22
102
{ACAD_REACTORS
330
1A
102
}
330
1A
100
AcDbPlotSettings
  1

  2
none_device
  4

  6

 40
0.0
 41
0.0
 42
0.0
 43
0.0
 44
0.0
 45
0.0
 46
0.0
 47
0.0
 48
0.0
 49
0.0
140
0.0
141
0.0
142
1.0
143
1.0
 70
  1712
 72
     0
 73
     0
 74
     0
  7

 75
     0
147
1.0
148
0.0
149
0.0
100
AcDbLayout
  1
Model
 70
     1
 71
     0
 10
0.0
 20
0.0
 11
12.0
 21
9.0
 12
0.0
 22
0.0
 32
0.0
 14
1.000000000000000E+20
 24
1.000000000000000E+20
 34
1.000000000000000E+20
 15
-1.000000000000000E+20
 25
-1.000000000000000E+20
 35
-1.000000000000000E+20
146
0.0
 13
0.0
 23
0.0
 33
0.0
 16
1.0
 26
0.0
 36
0.0
 17
0.0
 27
1.0
 37
0.0
 76
     0
330
1F
331
29
  0
MLINESTYLE
  5
18
102
{ACAD_REACTORS
330
17
102
}
330
17
100
AcDbMlineStyle
  2
Standard
 70
     0
  3

 62
   256
 51
90.0
 52
90.0
 71
     2
 49
0.5
 62
   256
  6
BYLAYER
 49
-0.5
 62
   256
  6
BYLAYER
  0
ACDBPLACEHOLDER
  5
F
102
{ACAD_REACTORS
330
E
102
}
330
E
  0
VISUALSTYLE
  5
2F
102
{ACAD_REACTORS
330
2A
102
}
330
2A
100
AcDbVisualStyle
  2
2dWireframe
 70
     4
 71
     0
 72
     2
 73
     0
 90
        0
 40
-0.6
 41
-30.0
 62
     5
 63
     7
 74
     1
 91
        4
 64
     7
 65
   257
 75
     1
175
     1
 42
1.0
 92
        0
 66
   257
 43
1.0
 76
     1
 77
     6
 78
     2
 67
     7
 79
     5
170
     0
171
     0
290
     0
174
     0
 93
        1
 44
0.0
173
     0
291
     0
 45
0.0
1001
ACAD
1000
AcDbSavedByObjectVersion
1070
     0
  0
VISUALSTYLE
  5
31
102
{ACAD_REACTORS
330
2A
102
}
330
2A
100
AcDbVisualStyle
  2
3D Hidden
 70
     6
 71
     1
 72
     2
 73
     2
 90
        0
 40
-0.6
 41
-30.0
 62
     5
 63
     7
 74
     2
 91
        2
 64
     7
 65
   257
 75
     2
175
     1
 42
40.0
 92
        0
 66
   257
 43
1.0
 76
     1
 77
     6
 78
     2
 67
     7
 79
     3
170
     0
171
     0
290
     0
174
     0
 93
        1
 44
0.0
173
     0
291
     0
 45
0.0
1001
ACAD
1000
AcDbSavedByObjectVersion
1070
     0
  0
VISUALSTYLE
  5
30
102
{ACAD_REACTORS
330
2A
102
}
330
2A
100
AcDbVisualStyle
  2
3dWireframe
 70
     5
 71
     0
 72
     2
 73
     0
 90
        0
 40
-0.6
 41
-30.0
 62
     5
 63
     7
 74
     1
 91
        4
 64
     7
 65
   257
 75
     1
175
     1
 42
1.0
 92
        0
 66
   257
 43
1.0
 76
     1
 77
     6
 78
     2
 67
     7
 79
     5
170
     0
171
     0
290
     0
174
     0
 93
        1
 44
0.0
173
     0
291
     0
 45
0.0
1001
ACAD
1000
AcDbSavedByObjectVersion
1070
     0
  0
VISUALSTYLE
  5
32
102
{ACAD_REACTORS
330
2A
102
}
330
2A
100
AcDbVisualStyle
  2
Basic
 70
     7
 71
     1
 72
     0
 73
     1
 90
        0
 40
-0.6
 41
-30.0
 62
     5
 63
     7
 74
     0
 91
        4
 64
     7
 65
   257
 75
     1
175
     1
 42
1.0
 92
        8
 66
     7
 43
1.0
 76
     1
 77
     6
 78
     2
 67
     7
 79
     5
170
     0
171
     0
290
     0
174
     0
 93
        1
 44
0.0
173
     0
291
     1
 45
0.0
1001
ACAD
1000
AcDbSavedByObjectVersion
1070
     0
  0
VISUALSTYLE
  5
36
102
{ACAD_REACTORS
330
2A
102
}
330
2A
100
AcDbVisualStyle
  2
Brighten
 70
    12
 71
     2
 72
     2
 73
     0
 90
        0
 40
-0.6
 41
-30.0
 62
     5
 63
     7
 74
     1
 91
        4
 64
     7
 65
   257
 75
     1
175
     1
 42
1.0
 92
        8
 66
     7
 43
1.0
 76
     1
 77
     6
 78
     2
 67
     7
 79
     5
170
     0
171
     0
290
     0
174
     0
 93
        1
 44
50.0
173
     0
291
     1
 45
0.0
1001
ACAD
1000
AcDbSavedByObjectVersion
1070
     0
  0
VISUALSTYLE
  5
3A
102
{ACAD_REACTORS
330
2A
102
}
330
2A
100
AcDbVisualStyle
  2
ColorChange
 70
    16
 71
     2
 72
     2
 73
     3
 90
        0
 40
-0.6
 41
-30.0
 62
     5
 63
     8
 74
     1
 91
        4
 64
     7
 65
   257
 75
     1
175
     1
 42
1.0
 92
        8
 66
     8
 43
1.0
 76
     1
 77
     6
 78
     2
 67
     7
 79
     5
170
     0
171
     0
290
     0
174
     0
 93
        1
 44
0.0
173
     0
291
     1
 45
0.0
1001
ACAD
1000
AcDbSavedByObjectVersion
1070
     0
  0
VISUALSTYLE
  5
34
102
{ACAD_REACTORS
330
2A
102
}
330
2A
100
AcDbVisualStyle
  2
Conceptual
 70
     9
 71
     3
 72
     2
 73
     0
 90
        0
 40
-0.6
 41
-30.0
 62
     5
 63
     7
 74
     2
 91
        2
 64
     7
 65
   257
 75
     1
175
     1
 42
40.0
 92
        8
 66
     7
 43
1.0
 76
     1
 77
     6
 78
     2
 67
     7
 79
     3
170
     0
171
     0
290
     0
174
     0
 93
        1
 44
0.0
173
     0
291
     0
 45
0.0
1001
ACAD
1000
AcDbSavedByObjectVersion
1070
     0
  0
VISUALSTYLE
  5
35
102
{ACAD_REACTORS
330
2A
102
}
330
2A
100
AcDbVisualStyle
  2
Dim
 70
    11
 71
     2
 72
     2
 73
     0
 90
        0
 40
-0.6
 41
-30.0
 62
     5
 63
     7
 74
     1
 91
        4
 64
     7
 65
   257
 75
     1
175
     1
 42
1.0
 92
        8
 66
     7
 43
1.0
 76
     1
 77
     6
 78
     2
 67
     7
 79
     5
170
     0
171
     0
290
     0
174
     0
 93
        1
 44
-50.0
173
     0
291
     1
 45
0.0
1001
ACAD
1000
AcDbSavedByObjectVersion
1070
     0
  0
VISUALSTYLE
  5
39
102
{ACAD_REACTORS
330
2A
102
}
330
2A
100
AcDbVisualStyle
  2
Facepattern
 70
    15
 71
     2
 72
     2
 73
     0
 90
        0
 40
-0.6
 41
-30.0
 62
     5
 63
     7
 74
     1
 91
        4
 64
     7
 65
   257
 75
     1
175
     1
 42
1.0
 92
        8
 66
     7
 43
1.0
 76
     1
 77
     6
 78
     2
 67
     7
 79
     5
170
     0
171
     0
290
     0
174
     0
 93
        1
 44
0.0
173
     0
291
     1
 45
0.0
1001
ACAD
1000
AcDbSavedByObjectVersion
1070
     0
  0
VISUALSTYLE
  5
2B
102
{ACAD_REACTORS
330
2A
102
}
330
2A
100
AcDbVisualStyle
  2
Flat
 70
     0
 71
     2
 72
     1
 73
     1
 90
        2
 40
-0.6
 41
30.0
 62
     5
 63
     7
 74
     0
 91
        4
 64
     7
 65
   257
 75
     1
175
     1
 42
1.0
 92
        8
 66
     7
 43
1.0
 76
     1
 77
     6
 78
     2
 67
     7
 79
     5
170
     0
171
     0
290
     0
174
     0
 93
       13
 44
0.0
173
     0
291
     1
 45
0.0
1001
ACAD
1000
AcDbSavedByObjectVersion
1070
     0
  0
VISUALSTYLE
  5
2C
102
{ACAD_REACTORS
330
2A
102
}
330
2A
100
AcDbVisualStyle
  2
FlatWithEdges
 70
     1
 71
     2
 72
     1
 73
     1
 90
        2
 40
-0.6
 41
30.0
 62
     5
 63
     7
 74
     1
 91
        4
 64
     7
 65
   257
 75
     1
175
     1
 42
1.0
 92
        0
 66
   257
 43
1.0
 76
     1
 77
     6
 78
     2
 67
     7
 79
     5
170
     0
171
     0
290
     0
174
     0
 93
       13
 44
0.0
173
     0
291
     1
 45
0.0
1001
ACAD
1000
AcDbSavedByObjectVersion
1070
     0
  0
VISUALSTYLE
  5
2D
102
{ACAD_REACTORS
330
2A
102
}
330
2A
100
AcDbVisualStyle
  2
Gouraud
 70
     2
 71
     2
 72
     2
 73
     1
 90
        2
 40
-0.6
 41
30.0
 62
     5
 63
     7
 74
     0
 91
        4
 64
     7
 65
   257
 75
     1
175
     1
 42
1.0
 92
        0
 66
     7
 43
1.0
 76
     1
 77
     6
 78
     2
 67
     7
 79
     5
170
     0
171
     0
290
     0
174
     0
 93
       13
 44
0.0
173
     0
291
     1
 45
0.0
1001
ACAD
1000
AcDbSavedByObjectVersion
1070
     0
  0
VISUALSTYLE
  5
2E
102
{ACAD_REACTORS
330
2A
102
}
330
2A
100
AcDbVisualStyle
  2
GouraudWithEdges
 70
     3
 71
     2
 72
     2
 73
     1
 90
        2
 40
-0.6
 41
30.0
 62
     5
 63
     7
 74
     1
 91
        4
 64
     7
 65
   257
 75
     1
175
     1
 42
1.0
 92
        0
 66
   257
 43
1.0
 76
     1
 77
     6
 78
     2
 67
     7
 79
     5
170
     0
171
     0
290
     0
174
     0
 93
       13
 44
0.0
173
     0
291
     1
 45
0.0
1001
ACAD
1000
AcDbSavedByObjectVersion
1070
     0
  0
VISUALSTYLE
  5
38
102
{ACAD_REACTORS
330
2A
102
}
330
2A
100
AcDbVisualStyle
  2
Linepattern
 70
    14
 71
     2
 72
     2
 73
     0
 90
        0
 40
-0.6
 41
-30.0
 62
     5
 63
     7
 74
     1
 91
        4
 64
     7
 65
   257
 75
     7
175
     7
 42
1.0
 92
        8
 66
     7
 43
1.0
 76
     1
 77
     6
 78
     2
 67
     7
 79
     5
170
     0
171
     0
290
     0
174
     0
 93
        1
 44
0.0
173
     0
291
     1
 45
0.0
1001
ACAD
1000
AcDbSavedByObjectVersion
1070
     0
  0
VISUALSTYLE
  5
33
102
{ACAD_REACTORS
330
2A
102
}
330
2A
100
AcDbVisualStyle
  2
Realistic
 70
     8
 71
     2
 72
     2
 73
     0
 90
        0
 40
-0.6
 41
-30.0
 62
     5
 63
     7
 74
     1
 91
        0
 64
     7
 65
   257
 75
     1
175
     1
 42
1.0
 92
        8
 66
     8
 43
1.0
 76
     1
 77
     6
 78
     2
 67
     7
 79
     5
170
     0
171
     0
290
     0
174
     0
 93
       13
 44
0.0
173
     0
291
     0
 45
0.0
1001
ACAD
1000
AcDbSavedByObjectVersion
1070
     0
  0
VISUALSTYLE
  5
37
102
{ACAD_REACTORS
330
2A
102
}
330
2A
100
AcDbVisualStyle
  2
Thicken
 70
    13
 71
     2
 72
     2
 73
     0
 90
        0
 40
-0.6
 41
-30.0
 62
     5
 63
     7
 74
     1
 91
        4
 64
     7
 65
   257
 75
     1
175
     1
 42
1.0
 92
       12
 66
     7
 43
1.0
 76
     1
 77
     6
 78
     2
 67
     7
 79
     5
170
     0
171
     0
290
     0
174
     0
 93
        1
 44
0.0
173
     0
291
     1
 45
0.0
1001
ACAD
1000
AcDbSavedByObjectVersion
1070
     0
  0
ENDSEC
  0
EOF
