  0
SECTION
  2
HEADER
  9
$ACADVER
  1
AC1015
  9
$ACADMAINTVER
 70
     6
  9
$DWGCODEPAGE
  3
ANSI_1252
  9
$INSBASE
 10
0.0
 20
0.0
 30
0.0
  9
$EXTMIN
 10
1.000000000000000E+20
 20
1.000000000000000E+20
 30
1.000000000000000E+20
  9
$EXTMAX
 10
-1.000000000000000E+20
 20
-1.000000000000000E+20
 30
-1.000000000000000E+20
  9
$LIMMIN
 10
0.0
 20
0.0
  9
$LIMMAX
 10
12.0
 20
9.0
  9
$ORTHOMODE
 70
     0
  9
$REGENMODE
 70
     1
  9
$FILLMODE
 70
     1
  9
$QTEXTMODE
 70
     0
  9
$MIRRTEXT
 70
     1
  9
$LTSCALE
 40
1.0
  9
$ATTMODE
 70
     1
  9
$TEXTSIZE
 40
0.2
  9
$TRACEWID
 40
0.05
  9
$TEXTSTYLE
  7
Standard
  9
$CLAYER
  8
0
  9
$CELTYPE
  6
ByLayer
  9
$CECOLOR
 62
   256
  9
$CELTSCALE
 40
1.0
  9
$DISPSILH
 70
     0
  9
$DIMSCALE
 40
1.0
  9
$DIMASZ
 40
0.18
  9
$DIMEXO
 40
0.0625
  9
$DIMDLI
 40
0.38
  9
$DIMRND
 40
0.0
  9
$DIMDLE
 40
0.0
  9
$DIMEXE
 40
0.18
  9
$DIMTP
 40
0.0
  9
$DIMTM
 40
0.0
  9
$DIMTXT
 40
0.18
  9
$DIMCEN
 40
0.09
  9
$DIMTSZ
 40
0.0
  9
$DIMTOL
 70
     0
  9
$DIMLIM
 70
     0
  9
$DIMTIH
 70
     1
  9
$DIMTOH
 70
     1
  9
$DIMSE1
 70
     0
  9
$DIMSE2
 70
     0
  9
$DIMTAD
 70
     0
  9
$DIMZIN
 70
     0
  9
$DIMBLK
  1

  9
$DIMASO
 70
     1
  9
$DIMSHO
 70
     1
  9
$DIMPOST
  1

  9
$DIMAPOST
  1

  9
$DIMALT
 70
     0
  9
$DIMALTD
 70
     2
  9
$DIMALTF
 40
25.4
  9
$DIMLFAC
 40
1.0
  9
$DIMTOFL
 70
     0
  9
$DIMTVP
 40
0.0
  9
$DIMTIX
 70
     0
  9
$DIMSOXD
 70
     0
  9
$DIMSAH
 70
     0
  9
$DIMBLK1
  1

  9
$DIMBLK2
  1

  9
$DIMSTYLE
  2
Standard
  9
$DIMCLRD
 70
     0
  9
$DIMCLRE
 70
     0
  9
$DIMCLRT
 70
     0
  9
$DIMTFAC
 40
1.0
  9
$DIMGAP
 40
0.09
  9
$DIMJUST
 70
     0
  9
$DIMSD1
 70
     0
  9
$DIMSD2
 70
     0
  9
$DIMTOLJ
 70
     1
  9
$DIMTZIN
 70
     0
  9
$DIMALTZ
 70
     0
  9
$DIMALTTZ
 70
     0
  9
$DIMUPT
 70
     0
  9
$DIMDEC
 70
     4
  9
$DIMTDEC
 70
     4
  9
$DIMALTU
 70
     2
  9
$DIMALTTD
 70
     2
  9
$DIMTXSTY
  7
Standard
  9
$DIMAUNIT
 70
     0
  9
$DIMADEC
 70
     0
  9
$DIMALTRND
 40
0.0
  9
$DIMAZIN
 70
     0
  9
$DIMDSEP
 70
    46
  9
$DIMATFIT
 70
     3
  9
$DIMFRAC
 70
     0
  9
$DIMLDRBLK
  1

  9
$DIMLUNIT
 70
     2
  9
$DIMLWD
 70
    -2
  9
$DIMLWE
 70
    -2
  9
$DIMTMOVE
 70
     0
  9
$LUNITS
 70
     2
  9
$LUPREC
 70
     4
  9
$SKETCHINC
 40
0.1
  9
$FILLETRAD
 40
0.5
  9
$AUNITS
 70
     0
  9
$AUPREC
 70
     0
  9
$MENU
  1
.
  9
$ELEVATION
 40
0.0
  9
$PELEVATION
 40
0.0
  9
$THICKNESS
 40
0.0
  9
$LIMCHECK
 70
     0
  9
$CHAMFERA
 40
0.5
  9
$CHAMFERB
 40
0.5
  9
$CHAMFERC
 40
1.0
  9
$CHAMFERD
 40
0.0
  9
$SKPOLY
 70
     0
  9
$TDCREATE
 40
2456020.388673611
  9
$TDUCREATE
 40
2456019.888673611
  9
$TDUPDATE
 40
2456020.388673623
  9
$TDUUPDATE
 40
2456019.888673623
  9
$TDINDWG
 40
0.0000000116
  9
$TDUSRTIMER
 40
0.0000000116
  9
$USRTIMER
 70
     1
  9
$ANGBASE
 50
0.0
  9
$ANGDIR
 70
     0
  9
$PDMODE
 70
     0
  9
$PDSIZE
 40
0.0
  9
$PLINEWID
 40
0.0
  9
$SPLFRAME
 70
     0
  9
$SPLINETYPE
 70
     6
  9
$SPLINESEGS
 70
     8
  9
$HANDSEED
  5
4ED
  9
$SURFTAB1
 70
     6
  9
$SURFTAB2
 70
     6
  9
$SURFTYPE
 70
     6
  9
$SURFU
 70
     6
  9
$SURFV
 70
     6
  9
$UCSBASE
  2

  9
$UCSNAME
  2

  9
$UCSORG
 10
0.0
 20
0.0
 30
0.0
  9
$UCSXDIR
 10
1.0
 20
0.0
 30
0.0
  9
$UCSYDIR
 10
0.0
 20
1.0
 30
0.0
  9
$UCSORTHOREF
  2

  9
$UCSORTHOVIEW
 70
     0
  9
$UCSORGTOP
 10
0.0
 20
0.0
 30
0.0
  9
$UCSORGBOTTOM
 10
0.0
 20
0.0
 30
0.0
  9
$UCSORGLEFT
 10
0.0
 20
0.0
 30
0.0
  9
$UCSORGRIGHT
 10
0.0
 20
0.0
 30
0.0
  9
$UCSORGFRONT
 10
0.0
 20
0.0
 30
0.0
  9
$UCSORGBACK
 10
0.0
 20
0.0
 30
0.0
  9
$PUCSBASE
  2

  9
$PUCSNAME
  2

  9
$PUCSORG
 10
0.0
 20
0.0
 30
0.0
  9
$PUCSXDIR
 10
1.0
 20
0.0
 30
0.0
  9
$PUCSYDIR
 10
0.0
 20
1.0
 30
0.0
  9
$PUCSORTHOREF
  2

  9
$PUCSORTHOVIEW
 70
     0
  9
$PUCSORGTOP
 10
0.0
 20
0.0
 30
0.0
  9
$PUCSORGBOTTOM
 10
0.0
 20
0.0
 30
0.0
  9
$PUCSORGLEFT
 10
0.0
 20
0.0
 30
0.0
  9
$PUCSORGRIGHT
 10
0.0
 20
0.0
 30
0.0
  9
$PUCSORGFRONT
 10
0.0
 20
0.0
 30
0.0
  9
$PUCSORGBACK
 10
0.0
 20
0.0
 30
0.0
  9
$USERI1
 70
     0
  9
$USERI2
 70
     0
  9
$USERI3
 70
     0
  9
$USERI4
 70
     0
  9
$USERI5
 70
     0
  9
$USERR1
 40
0.0
  9
$USERR2
 40
0.0
  9
$USERR3
 40
0.0
  9
$USERR4
 40
0.0
  9
$USERR5
 40
0.0
  9
$WORLDVIEW
 70
     1
  9
$SHADEDGE
 70
     3
  9
$SHADEDIF
 70
    70
  9
$TILEMODE
 70
     1
  9
$MAXACTVP
 70
    64
  9
$PINSBASE
 10
0.0
 20
0.0
 30
0.0
  9
$PLIMCHECK
 70
     0
  9
$PEXTMIN
 10
1.000000000000000E+20
 20
1.000000000000000E+20
 30
1.000000000000000E+20
  9
$PEXTMAX
 10
-1.000000000000000E+20
 20
-1.000000000000000E+20
 30
-1.000000000000000E+20
  9
$PLIMMIN
 10
0.0
 20
0.0
  9
$PLIMMAX
 10
12.0
 20
9.0
  9
$UNITMODE
 70
     0
  9
$VISRETAIN
 70
     1
  9
$PLINEGEN
 70
     0
  9
$PSLTSCALE
 70
     1
  9
$TREEDEPTH
 70
  3020
  9
$CMLSTYLE
  2
Standard
  9
$CMLJUST
 70
     0
  9
$CMLSCALE
 40
1.0
  9
$PROXYGRAPHICS
 70
     1
  9
$MEASUREMENT
 70
     0
  9
$CELWEIGHT
370
    -1
  9
$ENDCAPS
280
     0
  9
$JOINSTYLE
280
     0
  9
$LWDISPLAY
290
     1
  9
$INSUNITS
 70
     1
  9
$HYPERLINKBASE
  1

  9
$STYLESHEET
  1

  9
$XEDIT
290
     1
  9
$CEPSNTYPE
380
     0
  9
$PSTYLEMODE
290
     1
  9
$FINGERPRINTGUID
  2
{A9E63338-4274-4079-A791-1CEA45977F4B}
  9
$VERSIONGUID
  2
{FAEB1C32-E019-11D5-929B-00C0DF256EC4}
  9
$EXTNAMES
290
     1
  9
$PSVPSCALE
 40
0.0
  9
$OLESTARTUP
290
     0
  0
ENDSEC
  0
SECTION
  2
CLASSES
  0
CLASS
  1
ACDBDICTIONARYWDFLT
  2
AcDbDictionaryWithDefault
  3
ObjectDBX Classes
 90
        0
280
     0
281
     0
  0
CLASS
  1
VISUALSTYLE
  2
AcDbVisualStyle
  3
ObjectDBX Classes
 90
     4095
280
     0
281
     0
  0
CLASS
  1
ACDBPLACEHOLDER
  2
AcDbPlaceHolder
  3
ObjectDBX Classes
 90
        0
280
     0
281
     0
  0
CLASS
  1
LAYOUT
  2
AcDbLayout
  3
ObjectDBX Classes
 90
        0
280
     0
281
     0
  0
ENDSEC
  0
SECTION
  2
TABLES
  0
TABLE
  2
VPORT
  5
8
330
0
100
AcDbSymbolTable
 70
     1
  0
VPORT
  5
29
330
8
100
AcDbSymbolTableRecord
100
AcDbViewportTableRecord
  2
*Active
 70
     0
 10
0.0
 20
0.0
 11
1.0
 21
1.0
 12
0.0
 22
0.0
 13
0.0
 23
0.0
 14
0.5
 24
0.5
 15
0.5
 25
0.5
 16
0.0
 26
0.0
 36
1.0
 17
104.9999647089931
 27
148.4999796178229
 37
0.0
 40
296.9999592356459
 41
0.7070705664688927
 42
50.0
 43
0.0
 44
0.0
 50
0.0
 51
0.0
 71
     0
 72
   100
 73
     1
 74
     3
 75
     0
 76
     0
 77
     0
 78
     0
281
     0
 65
     1
110
0.0
120
0.0
130
0.0
111
1.0
121
0.0
131
0.0
112
0.0
122
1.0
132
0.0
 79
     0
146
0.0
  0
ENDTAB
  0
TABLE
  2
LTYPE
  5
5
330
0
100
AcDbSymbolTable
 70
     2
  0
LTYPE
  5
14
330
5
100
AcDbSymbolTableRecord
100
AcDbLinetypeTableRecord
  2
ByBlock
 70
     0
  3

 72
    65
 73
     0
 40
0.0
  0
LTYPE
  5
15
330
5
100
AcDbSymbolTableRecord
100
AcDbLinetypeTableRecord
  2
ByLayer
 70
     0
  3

 72
    65
 73
     0
 40
0.0
  0
LTYPE
  5
16
330
5
100
AcDbSymbolTableRecord
100
AcDbLinetypeTableRecord
  2
Continuous
 70
     0
  3
Solid line
 72
    65
 73
     0
 40
0.0
  0
LTYPE
  5
61
330
5
100
AcDbSymbolTableRecord
100
AcDbLinetypeTableRecord
  2
AI-Linetype-1
 70
     0
  3
Adobe Illustrator Linetype No. 1
 72
    65
 73
     4
 40
6.349999998412502
 49
4.233333332275
 74
     0
 49
-0.7055555553791667
 74
     0
 49
0.7055555553791667
 74
     0
 49
-0.7055555553791667
 74
     0
  0
ENDTAB
  0
TABLE
  2
LAYER
  5
2
330
0
100
AcDbSymbolTable
 70
     2
  0
LAYER
  5
10
330
2
100
AcDbSymbolTableRecord
100
AcDbLayerTableRecord
  2
0
 70
     0
 62
     7
  6
Continuous
370
    -3
390
F
  0
LAYER
  5
3B
330
2
100
AcDbSymbolTableRecord
100
AcDbLayerTableRecord
  2
Layer 1
 70
     0
 62
     7
  6
Continuous
370
    -3
390
F
  0
ENDTAB
  0
TABLE
  2
STYLE
  5
3
330
0
100
AcDbSymbolTable
 70
     1
  0
STYLE
  5
11
330
3
100
AcDbSymbolTableRecord
100
AcDbTextStyleTableRecord
  2
Standard
 70
     0
 40
0.0
 41
1.0
 50
0.0
 71
     0
 42
0.2
  3
txt
  4

  0
ENDTAB
  0
TABLE
  2
VIEW
  5
6
330
0
100
AcDbSymbolTable
 70
     0
  0
ENDTAB
  0
TABLE
  2
UCS
  5
7
330
0
100
AcDbSymbolTable
 70
     0
  0
ENDTAB
  0
TABLE
  2
APPID
  5
9
330
0
100
AcDbSymbolTable
 70
     1
  0
APPID
  5
12
330
9
100
AcDbSymbolTableRecord
100
AcDbRegAppTableRecord
  2
ACAD
 70
     0
  0
ENDTAB
  0
TABLE
  2
DIMSTYLE
  5
A
330
0
100
AcDbSymbolTable
 70
     1
100
AcDbDimStyleTable
  0
DIMSTYLE
105
27
330
A
100
AcDbSymbolTableRecord
100
AcDbDimStyleTableRecord
  2
Standard
 70
     0
340
11
  0
ENDTAB
  0
TABLE
  2
BLOCK_RECORD
  5
1
330
0
100
AcDbSymbolTable
 70
    15
  0
BLOCK_RECORD
  5
1F
330
1
100
AcDbSymbolTableRecord
100
AcDbBlockTableRecord
  2
*Model_Space
340
22
  0
BLOCK_RECORD
  5
1B
330
1
100
AcDbSymbolTableRecord
100
AcDbBlockTableRecord
  2
*Paper_Space
340
1E
  0
BLOCK_RECORD
  5
23
330
1
100
AcDbSymbolTableRecord
100
AcDbBlockTableRecord
  2
*Paper_Space0
340
26
  0
BLOCK_RECORD
  5
3C
330
1
100
AcDbSymbolTableRecord
100
AcDbBlockTableRecord
  2
block 2
340
0
102
{BLKREFS
331
3D
102
}
  0
BLOCK_RECORD
  5
4C
330
1
100
AcDbSymbolTableRecord
100
AcDbBlockTableRecord
  2
block 3
340
0
102
{BLKREFS
331
4D
102
}
  0
BLOCK_RECORD
  5
50
330
1
100
AcDbSymbolTableRecord
100
AcDbBlockTableRecord
  2
block 4
340
0
102
{BLKREFS
331
51
102
}
  0
BLOCK_RECORD
  5
62
330
1
100
AcDbSymbolTableRecord
100
AcDbBlockTableRecord
  2
block 5
340
0
102
{BLKREFS
331
63
102
}
  0
BLOCK_RECORD
  5
6E
330
1
100
AcDbSymbolTableRecord
100
AcDbBlockTableRecord
  2
block 6
340
0
102
{BLKREFS
331
6F
102
}
  0
BLOCK_RECORD
  5
72
330
1
100
AcDbSymbolTableRecord
100
AcDbBlockTableRecord
  2
block 7
340
0
102
{BLKREFS
331
73
102
}
  0
BLOCK_RECORD
  5
7C
330
1
100
AcDbSymbolTableRecord
100
AcDbBlockTableRecord
  2
block 8
340
0
102
{BLKREFS
331
7D
102
}
  0
BLOCK_RECORD
  5
22F
330
1
100
AcDbSymbolTableRecord
100
AcDbBlockTableRecord
  2
block 9
340
0
102
{BLKREFS
331
230
102
}
  0
BLOCK_RECORD
  5
270
330
1
100
AcDbSymbolTableRecord
100
AcDbBlockTableRecord
  2
block 10
340
0
102
{BLKREFS
331
271
102
}
  0
BLOCK_RECORD
  5
28B
330
1
100
AcDbSymbolTableRecord
100
AcDbBlockTableRecord
  2
block 11
340
0
102
{BLKREFS
331
28C
102
}
  0
BLOCK_RECORD
  5
28F
330
1
100
AcDbSymbolTableRecord
100
AcDbBlockTableRecord
  2
block 12
340
0
102
{BLKREFS
331
290
102
}
  0
BLOCK_RECORD
  5
299
330
1
100
AcDbSymbolTableRecord
100
AcDbBlockTableRecord
  2
block 13
340
0
102
{BLKREFS
331
29A
102
}
  0
BLOCK_RECORD
  5
44C
330
1
100
AcDbSymbolTableRecord
100
AcDbBlockTableRecord
  2
block 14
340
0
102
{BLKREFS
331
44D
102
}
  0
BLOCK_RECORD
  5
48D
330
1
100
AcDbSymbolTableRecord
100
AcDbBlockTableRecord
  2
block 15
340
0
102
{BLKREFS
331
48E
102
}
  0
ENDTAB
  0
ENDSEC
  0
SECTION
  2
BLOCKS
  0
BLOCK
  5
20
330
1F
100
AcDbEntity
  8
0
100
AcDbBlockBegin
  2
*Model_Space
 70
     0
 71
     0
 10
0.0
 20
0.0
 30
0.0
  3
*Model_Space
  1

  0
ENDBLK
  5
21
330
1F
100
AcDbEntity
  8
0
100
AcDbBlockEnd
  0
BLOCK
  5
1C
330
1B
100
AcDbEntity
 67
     1
  8
0
100
AcDbBlockBegin
  2
*Paper_Space
 70
     0
 71
     0
 10
0.0
 20
0.0
 30
0.0
  3
*Paper_Space
  1

  0
ENDBLK
  5
1D
330
1B
100
AcDbEntity
 67
     1
  8
0
100
AcDbBlockEnd
  0
BLOCK
  5
24
330
23
100
AcDbEntity
  8
0
100
AcDbBlockBegin
  2
*Paper_Space0
 70
     0
 71
     0
 10
0.0
 20
0.0
 30
0.0
  3
*Paper_Space0
  1

  0
ENDBLK
  5
25
330
23
100
AcDbEntity
  8
0
100
AcDbBlockEnd
  0
BLOCK
  5
3E
330
3C
100
AcDbEntity
  8
0
100
AcDbBlockBegin
  2
block 2
 70
     0
 71
     0
 10
0.0
 20
0.0
 30
0.0
  3
block 2
  1

  0
MTEXT
  5
40
330
3C
100
AcDbEntity
  8
Layer 1
 62
     7
100
AcDbMText
 10
-79.49678410555984
 20
255.5831935667466
 30
0.0
 40
8.396111109012084
 41
0.0
 71
     7
 72
     1
  1
\fVerdana|b0|i0|c0|p34;\W1;SUBSTRATE LEVEL
 73
     1
 44
1.0
  0
MTEXT
  5
41
330
3C
100
AcDbEntity
  8
Layer 1
 62
     7
100
AcDbMText
 10
-63.48087970418187
 20
240.7665269037841
 30
0.0
 40
8.396111109012084
 41
0.0
 71
     7
 72
     1
  1
\fVerdana|b0|i0|c0|p34;\W1;(Underside of 
 73
     1
 44
1.0
  0
MTEXT
  5
42
330
3C
100
AcDbEntity
  8
Layer 1
 62
     7
100
AcDbMText
 10
75.95574271104579
 20
323.890996555312
 30
0.0
 40
8.396111109012084
 41
0.0
 71
     7
 72
     1
  1
\fVerdana|b0|i0|c0|p34;\W1;100 c/c
 73
     1
 44
1.0
  0
MTEXT
  5
43
330
3C
100
AcDbEntity
  8
Layer 1
 62
     7
100
AcDbMText
 10
204.5525444367091
 20
300.7382323466904
 30
0.0
 40
8.396111109012084
 41
0.0
 71
     7
 72
     1
  1
\fVerdana|b0|i0|c0|p34;\W1;BALUSTRADE
 73
     1
 44
1.0
  0
MTEXT
  5
44
330
3C
100
AcDbEntity
  8
Layer 1
 62
     7
100
AcDbMText
 10
204.5525444367091
 20
285.921565683728
 30
0.0
 40
8.396111109012084
 41
0.0
 71
     7
 72
     1
  1
\fVerdana|b0|i0|c0|p34;\W1;POST
 73
     1
 44
1.0
  0
MTEXT
  5
45
330
3C
100
AcDbEntity
  8
Layer 1
 62
     7
100
AcDbMText
 10
204.5525444367091
 20
183.5130017987398
 30
0.0
 40
8.396111109012084
 41
0.0
 71
     7
 72
     1
  1
\fVerdana|b0|i0|c0|p34;\W1;BASEPLATE WITH
 73
     1
 44
1.0
  0
MTEXT
  5
46
330
3C
100
AcDbEntity
  8
Layer 1
 62
     7
100
AcDbMText
 10
204.5525444367091
 20
168.6963351357773
 30
0.0
 40
8.396111109012084
 41
0.0
 71
     7
 72
     1
  1
\fVerdana|b0|i0|c0|p34;\W1;FASTENERS @ 100mm 
 73
     1
 44
1.0
  0
MTEXT
  5
47
330
3C
100
AcDbEntity
  8
Layer 1
 62
     7
100
AcDbMText
 10
204.5525444367091
 20
153.8796684728148
 30
0.0
 40
8.396111109012084
 41
0.0
 71
     7
 72
     1
  1
\fVerdana|b0|i0|c0|p34;\W1;c/c TRANSVERSELY TO 
 73
     1
 44
1.0
  0
MTEXT
  5
48
330
3C
100
AcDbEntity
  8
Layer 1
 62
     7
100
AcDbMText
 10
204.5525444367091
 20
139.0630018098523
 30
0.0
 40
8.396111109012084
 41
0.0
 71
     7
 72
     1
  1
\fVerdana|b0|i0|c0|p34;\W1;RAILS
 73
     1
 44
1.0
  0
MTEXT
  5
49
330
3C
100
AcDbEntity
  8
Layer 1
 62
     7
100
AcDbMText
 10
204.5525444367091
 20
99.61665850374168
 30
0.0
 40
8.396111109012084
 41
0.0
 71
     7
 72
     1
  1
\fVerdana|b0|i0|c0|p34;\W0.98453;STEEL U.B. WITH 
 73
     1
 44
1.0
  0
MTEXT
  5
4A
330
3C
100
AcDbEntity
  8
Layer 1
 62
     7
100
AcDbMText
 10
204.5525444367091
 20
84.79999184077917
 30
0.0
 40
8.396111109012084
 41
0.0
 71
     7
 72
     1
  1
\fVerdana|b0|i0|c0|p34;\W0.98453;133mm WIDE FLANGE 
 73
     1
 44
1.0
  0
MTEXT
  5
4B
330
3C
100
AcDbEntity
  8
Layer 1
 62
     7
100
AcDbMText
 10
204.5525444367091
 20
69.98332517781667
 30
0.0
 40
8.396111109012084
 41
0.0
 71
     7
 72
     1
  1
\fVerdana|b0|i0|c0|p34;\W0.98453;OR GREATER.
 73
     1
 44
1.0
  0
INSERT
  5
4D
330
3C
100
AcDbEntity
  8
Layer 1
100
AcDbBlockReference
  2
block 3
 10
0.0
 20
0.0
 30
0.0
  0
MTEXT
  5
4E2
330
3C
100
AcDbEntity
  8
Layer 1
 62
     7
100
AcDbMText
 10
-11.93071017496871
 20
-55.51047904428211
 30
0.0
 40
8.396111109012084
 41
0.0
 71
     7
 72
     1
  1
\fVerdana|b0|i0|c0|p34;\W1;Balustrade supplied by Unex Systems
 73
     1
 44
1.0
  0
MTEXT
  5
4E3
330
3C
100
AcDbEntity
  8
Layer 1
 62
     7
100
AcDbMText
 10
-85.64938013266752
 20
-70.32714570724461
 30
0.0
 40
8.396111109012084
 41
0.0
 71
     7
 72
     1
  1
\fVerdana|b0|i0|c0|p34;\W1;Contact Unex for authorised fabricator/installer in the region.
 73
     1
 44
1.0
  0
MTEXT
  5
4E4
330
3C
100
AcDbEntity
  8
Layer 1
 62
     7
100
AcDbMText
 10
-12.7385850662598
 20
-85.1438123702071
 30
0.0
 40
8.396111109012084
 41
0.0
 71
     7
 72
     1
  1
\fVerdana|b0|i0|c0|p34;\W1;Ph 0800 333 777, or info@unex.co.nz
 73
     1
 44
1.0
  0
MTEXT
  5
4E5
330
3C
100
AcDbEntity
  8
0
100
AcDbMText
 10
0.0
 20
0.0
 30
0.0
 40
0.0
 41
0.0
 71
     1
 72
     1
  1

 73
     1
 44
1.0
  0
MTEXT
  5
4E6
330
3C
100
AcDbEntity
  8
Layer 1
 62
     7
100
AcDbMText
 10
72.08535018814186
 20
-114.7771456961321
 30
0.0
 40
8.396111109012084
 41
0.0
 71
     7
 72
     1
  1
\fVerdana|b0|i0|c0|p34;\W1;SCALE 1:1
 73
     1
 44
1.0
  0
MTEXT
  5
4E7
330
3C
100
AcDbEntity
  8
Layer 1
 62
     7
100
AcDbMText
 10
-69.35011662762776
 20
-129.5938123590946
 30
0.0
 40
8.396111109012084
 41
0.0
 71
     7
 72
     1
  1
\fVerdana|b0|i0|c0|p34;\W1;Extreme Barriers Fixing Specification (EX-BA.01)F.53.31
 73
     1
 44
1.0
  0
MTEXT
  5
4E8
330
3C
100
AcDbEntity
  8
Layer 1
 62
     7
100
AcDbMText
 10
75.35319551067559
 20
-19.48546006457308
 30
0.0
 40
8.396111109012084
 41
0.0
 71
     7
 72
     1
  1
\fVerdana|b0|i0|c0|p34;\W1;133mm
 73
     1
 44
1.0
  0
MTEXT
  5
4E9
330
3C
100
AcDbEntity
  8
Layer 1
 62
     7
100
AcDbMText
 10
204.5525444367091
 20
251.3233329992352
 30
0.0
 40
8.396111109012084
 41
0.0
 71
     7
 72
     1
  1
\fVerdana|b0|i0|c0|p34;\W1;4 OFF M10 S/S CLASS 70 
 73
     1
 44
1.0
  0
MTEXT
  5
4EA
330
3C
100
AcDbEntity
  8
Layer 1
 62
     7
100
AcDbMText
 10
204.5525444367091
 20
236.5066663362726
 30
0.0
 40
8.396111109012084
 41
0.0
 71
     7
 72
     1
  1
\fVerdana|b0|i0|c0|p34;\W1;BOLTS, NYLOCK NUTS & 
 73
     1
 44
1.0
  0
MTEXT
  5
4EB
330
3C
100
AcDbEntity
  8
Layer 1
 62
     7
100
AcDbMText
 10
204.5525444367091
 20
221.6899996733102
 30
0.0
 40
8.396111109012084
 41
0.0
 71
     7
 72
     1
  1
\fVerdana|b0|i0|c0|p34;\W1;WASHERS
 73
     1
 44
1.0
  0
ENDBLK
  5
3F
330
3C
100
AcDbEntity
  8
0
100
AcDbBlockEnd
  0
BLOCK
  5
4E
330
4C
100
AcDbEntity
  8
0
100
AcDbBlockBegin
  2
block 3
 70
     0
 71
     0
 10
0.0
 20
0.0
 30
0.0
  3
block 3
  1

  0
INSERT
  5
51
330
4C
100
AcDbEntity
  8
Layer 1
100
AcDbBlockReference
  2
block 4
 10
0.0
 20
0.0
 30
0.0
  0
POLYLINE
  5
4A8
330
4C
100
AcDbEntity
  8
Layer 1
 62
     7
370
     9
100
AcDb2dPolyline
 66
     1
 10
0.0
 20
0.0
 30
0.0
  0
VERTEX
  5
4A9
330
4A8
100
AcDbEntity
  8
Layer 1
 62
     7
370
     9
100
AcDbVertex
100
AcDb2dVertex
 10
25.41274684694542
 20
204.5404866025107
 30
0.0
  0
VERTEX
  5
4AA
330
4A8
100
AcDbEntity
  8
Layer 1
 62
     7
370
     9
100
AcDbVertex
100
AcDb2dVertex
 10
5.41258951687602
 20
204.5404866025107
 30
0.0
  0
SEQEND
  5
4AB
330
4A8
100
AcDbEntity
  8
Layer 1
370
     9
  0
POLYLINE
  5
4AC
330
4C
100
AcDbEntity
  8
Layer 1
 62
     7
370
     9
100
AcDb2dPolyline
 66
     1
 10
0.0
 20
0.0
 30
0.0
  0
VERTEX
  5
4AD
330
4AC
100
AcDbEntity
  8
Layer 1
 62
     7
370
     9
100
AcDbVertex
100
AcDb2dVertex
 10
9.023738604514898
 20
204.5404866025107
 30
0.0
  0
VERTEX
  5
4AE
330
4AC
100
AcDbEntity
  8
Layer 1
 62
     7
370
     9
100
AcDbVertex
100
AcDb2dVertex
 10
9.023738604514898
 20
236.5709173670726
 30
0.0
  0
SEQEND
  5
4AF
330
4AC
100
AcDbEntity
  8
Layer 1
370
     9
  0
POLYLINE
  5
4B0
330
4C
100
AcDbEntity
  8
Layer 1
 62
     7
370
     9
100
AcDb2dPolyline
 66
     1
 10
0.0
 20
0.0
 30
0.0
  0
VERTEX
  5
4B1
330
4B0
100
AcDbEntity
  8
Layer 1
 62
     7
370
     9
100
AcDbVertex
100
AcDb2dVertex
 10
49.13705239656991
 20
231.4261840241747
 30
0.0
  0
VERTEX
  5
4B2
330
4B0
100
AcDbEntity
  8
Layer 1
 62
     7
370
     9
100
AcDbVertex
100
AcDb2dVertex
 10
49.13705239656991
 20
331.4262816554247
 30
0.0
  0
SEQEND
  5
4B3
330
4B0
100
AcDbEntity
  8
Layer 1
370
     9
  0
POLYLINE
  5
4B4
330
4C
100
AcDbEntity
  8
Layer 1
 62
     7
370
     9
100
AcDb2dPolyline
 66
     1
 10
0.0
 20
0.0
 30
0.0
  0
VERTEX
  5
4B5
330
4B4
100
AcDbEntity
  8
Layer 1
 62
     7
370
     9
100
AcDbVertex
100
AcDb2dVertex
 10
124.7658555460655
 20
327.8149603130116
 30
0.0
  0
VERTEX
  5
4B6
330
4B4
100
AcDbEntity
  8
Layer 1
 62
     7
370
     9
100
AcDbVertex
100
AcDb2dVertex
 10
149.1371500278199
 20
327.8149603130116
 30
0.0
  0
SEQEND
  5
4B7
330
4B4
100
AcDbEntity
  8
Layer 1
370
     9
  0
POLYLINE
  5
4B8
330
4C
100
AcDbEntity
  8
Layer 1
 62
     7
370
     9
100
AcDb2dPolyline
 66
     1
 10
0.0
 20
0.0
 30
0.0
  0
VERTEX
  5
4B9
330
4B8
100
AcDbEntity
  8
Layer 1
 62
     7
370
     9
100
AcDbVertex
100
AcDb2dVertex
 10
49.13705239656991
 20
327.8149603130116
 30
0.0
  0
VERTEX
  5
4BA
330
4B8
100
AcDbEntity
  8
Layer 1
 62
     7
370
     9
100
AcDbVertex
100
AcDb2dVertex
 10
75.37696666952382
 20
327.8149603130116
 30
0.0
  0
SEQEND
  5
4BB
330
4B8
100
AcDbEntity
  8
Layer 1
370
     9
  0
POLYLINE
  5
4BC
330
4C
100
AcDbEntity
  8
Layer 1
 62
     7
370
     9
100
AcDb2dPolyline
 66
     1
 10
0.0
 20
0.0
 30
0.0
  0
VERTEX
  5
4BD
330
4BC
100
AcDbEntity
  8
Layer 1
 62
     7
370
     9
100
AcDbVertex
100
AcDb2dVertex
 10
149.1371500278199
 20
231.4261840241747
 30
0.0
  0
VERTEX
  5
4BE
330
4BC
100
AcDbEntity
  8
Layer 1
 62
     7
370
     9
100
AcDbVertex
100
AcDb2dVertex
 10
149.1371500278199
 20
331.4262816554247
 30
0.0
  0
SEQEND
  5
4BF
330
4BC
100
AcDbEntity
  8
Layer 1
370
     9
  0
POLYLINE
  5
4C0
330
4C
100
AcDbEntity
  8
Layer 1
 62
     7
370
     9
100
AcDb2dPolyline
 66
     1
 10
0.0
 20
0.0
 30
0.0
  0
VERTEX
  5
4C1
330
4C0
100
AcDbEntity
  8
Layer 1
 62
     7
370
     9
100
AcDbVertex
100
AcDb2dVertex
 10
125.6371201942852
 20
-15.56115179732499
 30
0.0
  0
VERTEX
  5
4C2
330
4C0
100
AcDbEntity
  8
Layer 1
 62
     7
370
     9
100
AcDbVertex
100
AcDb2dVertex
 10
165.6370903448754
 20
-15.56115179732499
 30
0.0
  0
SEQEND
  5
4C3
330
4C0
100
AcDbEntity
  8
Layer 1
370
     9
  0
POLYLINE
  5
4C4
330
4C
100
AcDbEntity
  8
Layer 1
 62
     7
370
     9
100
AcDb2dPolyline
 66
     1
 10
0.0
 20
0.0
 30
0.0
  0
VERTEX
  5
4C5
330
4C4
100
AcDbEntity
  8
Layer 1
 62
     7
370
     9
100
AcDbVertex
100
AcDb2dVertex
 10
134.1372042850421
 20
304.3929618922177
 30
0.0
  0
VERTEX
  5
4C6
330
4C4
100
AcDbEntity
  8
Layer 1
 62
     7
370
     9
100
AcDbVertex
100
AcDb2dVertex
 10
199.1375433529934
 20
304.3929618922177
 30
0.0
  0
SEQEND
  5
4C7
330
4C4
100
AcDbEntity
  8
Layer 1
370
     9
  0
POLYLINE
  5
4C8
330
4C
100
AcDbEntity
  8
Layer 1
 62
     7
370
     9
100
AcDb2dPolyline
 66
     1
 10
0.0
 20
0.0
 30
0.0
  0
VERTEX
  5
4C9
330
4C8
100
AcDbEntity
  8
Layer 1
 62
     7
370
     9
100
AcDbVertex
100
AcDb2dVertex
 10
165.6370903448754
 20
211.5405761189899
 30
0.0
  0
VERTEX
  5
4CA
330
4C8
100
AcDbEntity
  8
Layer 1
 62
     7
370
     9
100
AcDbVertex
100
AcDb2dVertex
 10
181.8834716342166
 20
211.5405761189899
 30
0.0
  0
VERTEX
  5
4CB
330
4C8
100
AcDbEntity
  8
Layer 1
 62
     7
370
     9
100
AcDbVertex
100
AcDb2dVertex
 10
199.1375433529934
 20
187.8741481735176
 30
0.0
  0
SEQEND
  5
4CC
330
4C8
100
AcDbEntity
  8
Layer 1
370
     9
  0
POLYLINE
  5
4CD
330
4C
100
AcDbEntity
  8
Layer 1
 62
     7
370
     9
100
AcDb2dPolyline
 66
     1
 10
0.0
 20
0.0
 30
0.0
  0
VERTEX
  5
4CE
330
4CD
100
AcDbEntity
  8
Layer 1
 62
     7
370
     9
100
AcDbVertex
100
AcDb2dVertex
 10
158.2215223128752
 20
230.5013481411594
 30
0.0
  0
VERTEX
  5
4CF
330
4CD
100
AcDbEntity
  8
Layer 1
 62
     7
370
     9
100
AcDbVertex
100
AcDb2dVertex
 10
175.3305555117229
 20
255.7249592459646
 30
0.0
  0
VERTEX
  5
4D0
330
4CD
100
AcDbEntity
  8
Layer 1
 62
     7
370
     9
100
AcDbVertex
100
AcDb2dVertex
 10
199.1375433529934
 20
255.7249592459646
 30
0.0
  0
SEQEND
  5
4D1
330
4CD
100
AcDbEntity
  8
Layer 1
370
     9
  0
POLYLINE
  5
4D2
330
4C
100
AcDbEntity
  8
Layer 1
 62
     7
370
     9
100
AcDb2dPolyline
 66
     1
 10
0.0
 20
0.0
 30
0.0
  0
VERTEX
  5
4D3
330
4D2
100
AcDbEntity
  8
Layer 1
 62
     7
370
     9
100
AcDbVertex
100
AcDb2dVertex
 10
99.13055553077292
 20
103.5406222614412
 30
0.0
  0
VERTEX
  5
4D4
330
4D2
100
AcDbEntity
  8
Layer 1
 62
     7
370
     9
100
AcDbVertex
100
AcDb2dVertex
 10
199.1375433529934
 20
103.5406222614412
 30
0.0
  0
SEQEND
  5
4D5
330
4D2
100
AcDbEntity
  8
Layer 1
370
     9
  0
POLYLINE
  5
4D6
330
4C
100
AcDbEntity
  8
Layer 1
 62
     7
370
     9
100
AcDb2dPolyline
 66
     1
 10
0.0
 20
0.0
 30
0.0
  0
VERTEX
  5
4D7
330
4D6
100
AcDbEntity
  8
Layer 1
 62
     7
370
     9
100
AcDbVertex
100
AcDb2dVertex
 10
32.63711207951433
 20
-0.3527777776895833
 30
0.0
  0
VERTEX
  5
4D8
330
4D6
100
AcDbEntity
  8
Layer 1
 62
     7
370
     9
100
AcDbVertex
100
AcDb2dVertex
 10
32.63711207951433
 20
-20.35293510775899
 30
0.0
  0
SEQEND
  5
4D9
330
4D6
100
AcDbEntity
  8
Layer 1
370
     9
  0
POLYLINE
  5
4DA
330
4C
100
AcDbEntity
  8
Layer 1
 62
     7
370
     9
100
AcDb2dPolyline
 66
     1
 10
0.0
 20
0.0
 30
0.0
  0
VERTEX
  5
4DB
330
4DA
100
AcDbEntity
  8
Layer 1
 62
     7
370
     9
100
AcDbVertex
100
AcDb2dVertex
 10
165.6370903448754
 20
-0.3527777776895833
 30
0.0
  0
VERTEX
  5
4DC
330
4DA
100
AcDbEntity
  8
Layer 1
 62
     7
370
     9
100
AcDbVertex
100
AcDb2dVertex
 10
165.6370903448754
 20
-20.35293510775899
 30
0.0
  0
SEQEND
  5
4DD
330
4DA
100
AcDbEntity
  8
Layer 1
370
     9
  0
POLYLINE
  5
4DE
330
4C
100
AcDbEntity
  8
Layer 1
 62
     7
370
     9
100
AcDb2dPolyline
 66
     1
 10
0.0
 20
0.0
 30
0.0
  0
VERTEX
  5
4DF
330
4DE
100
AcDbEntity
  8
Layer 1
 62
     7
370
     9
100
AcDbVertex
100
AcDb2dVertex
 10
32.63711207951433
 20
-15.56115179732499
 30
0.0
  0
VERTEX
  5
4E0
330
4DE
100
AcDbEntity
  8
Layer 1
 62
     7
370
     9
100
AcDbVertex
100
AcDb2dVertex
 10
72.63708223010462
 20
-15.56115179732499
 30
0.0
  0
SEQEND
  5
4E1
330
4DE
100
AcDbEntity
  8
Layer 1
370
     9
  0
ENDBLK
  5
4F
330
4C
100
AcDbEntity
  8
0
100
AcDbBlockEnd
  0
BLOCK
  5
52
330
50
100
AcDbEntity
  8
0
100
AcDbBlockBegin
  2
block 4
 70
     0
 71
     0
 10
0.0
 20
0.0
 30
0.0
  3
block 4
  1

  0
SPLINE
  5
54
330
50
100
AcDbEntity
  8
Layer 1
 62
     7
370
    20
100
AcDbSpline
210
0.0
220
0.0
230
1.0
 70
    11
 71
     3
 72
    53
 73
    49
 74
     0
 42
0.0000000001
 43
0.0000000001
 40
0.0
 40
0.0
 40
0.0
 40
0.0
 40
1.0
 40
1.0
 40
1.0
 40
2.0
 40
2.0
 40
2.0
 40
3.0
 40
3.0
 40
3.0
 40
4.0
 40
4.0
 40
4.0
 40
5.0
 40
5.0
 40
5.0
 40
6.0
 40
6.0
 40
6.0
 40
7.0
 40
7.0
 40
7.0
 40
8.0
 40
8.0
 40
8.0
 40
9.0
 40
9.0
 40
9.0
 40
10.0
 40
10.0
 40
10.0
 40
11.0
 40
11.0
 40
11.0
 40
12.0
 40
12.0
 40
12.0
 40
13.0
 40
13.0
 40
13.0
 40
14.0
 40
14.0
 40
14.0
 40
15.0
 40
15.0
 40
15.0
 40
16.0
 40
16.0
 40
16.0
 40
16.0
 10
101.6372070058407
 20
188.6406819189857
 30
0.0
 10
101.6372070058407
 20
193.5561441573401
 30
0.0
 10
105.6218044440807
 20
197.5407415955801
 30
0.0
 10
110.5372666824351
 20
197.5407415955801
 30
0.0
 10
110.5372666824351
 20
197.5407415955801
 30
0.0
 10
165.6370903448754
 20
197.5407415955801
 30
0.0
 10
165.6370903448754
 20
197.5407415955801
 30
0.0
 10
165.6370903448754
 20
197.5407415955801
 30
0.0
 10
165.6370903448754
 20
204.540658857285
 30
0.0
 10
165.6370903448754
 20
204.540658857285
 30
0.0
 10
165.6370903448754
 20
204.540658857285
 30
0.0
 10
32.63711207951433
 20
204.540658857285
 30
0.0
 10
32.63711207951433
 20
204.540658857285
 30
0.0
 10
32.63711207951433
 20
204.540658857285
 30
0.0
 10
32.63711207951433
 20
197.5407415955801
 30
0.0
 10
32.63711207951433
 20
197.5407415955801
 30
0.0
 10
32.63711207951433
 20
197.5407415955801
 30
0.0
 10
87.73710799672892
 20
197.5407415955801
 30
0.0
 10
87.73710799672892
 20
197.5407415955801
 30
0.0
 10
92.65239798030913
 20
197.5407415955801
 30
0.0
 10
96.63699541854909
 20
193.5561441573401
 30
0.0
 10
96.63699541854909
 20
188.6406819189857
 30
0.0
 10
96.63699541854909
 20
188.6406819189857
 30
0.0
 10
96.63699541854909
 20
18.4405626038968
 30
0.0
 10
96.63699541854909
 20
18.4405626038968
 30
0.0
 10
96.63699541854909
 20
13.52544487509086
 30
0.0
 10
92.65239798030913
 20
9.5408474368509
 30
0.0
 10
87.73710799672892
 20
9.5408474368509
 30
0.0
 10
87.73710799672892
 20
9.5408474368509
 30
0.0
 10
32.63711207951433
 20
9.5408474368509
 30
0.0
 10
32.63711207951433
 20
9.5408474368509
 30
0.0
 10
32.63711207951433
 20
9.5408474368509
 30
0.0
 10
32.63711207951433
 20
2.540757920371755
 30
0.0
 10
32.63711207951433
 20
2.540757920371755
 30
0.0
 10
32.63711207951433
 20
2.540757920371755
 30
0.0
 10
165.6370903448754
 20
2.540757920371755
 30
0.0
 10
165.6370903448754
 20
2.540757920371755
 30
0.0
 10
165.6370903448754
 20
2.540757920371755
 30
0.0
 10
165.6370903448754
 20
9.5408474368509
 30
0.0
 10
165.6370903448754
 20
9.5408474368509
 30
0.0
 10
165.6370903448754
 20
9.5408474368509
 30
0.0
 10
110.5372666824351
 20
9.5408474368509
 30
0.0
 10
110.5372666824351
 20
9.5408474368509
 30
0.0
 10
105.6218044440807
 20
9.5408474368509
 30
0.0
 10
101.6372070058407
 20
13.52544487509086
 30
0.0
 10
101.6372070058407
 20
18.4405626038968
 30
0.0
 10
101.6372070058407
 20
18.4405626038968
 30
0.0
 10
101.6372070058407
 20
188.6406819189857
 30
0.0
 10
101.6372070058407
 20
188.6406819189857
 30
0.0
  0
HATCH
  5
55
330
50
100
AcDbEntity
  8
Layer 1
 62
     7
100
AcDbHatch
 10
0.0
 20
0.0
 30
0.0
210
0.0
220
0.0
230
1.0
  2
AI_USER_DEFINED_HATCH
 70
     0
 71
     0
 91
        1
 92
        1
 93
        1
 72
     4
 94
        3
 73
     0
 74
     1
 95
       53
 96
       49
 40
0.0
 40
0.0
 40
0.0
 40
0.0
 40
1.0
 40
1.0
 40
1.0
 40
2.0
 40
2.0
 40
2.0
 40
3.0
 40
3.0
 40
3.0
 40
4.0
 40
4.0
 40
4.0
 40
5.0
 40
5.0
 40
5.0
 40
6.0
 40
6.0
 40
6.0
 40
7.0
 40
7.0
 40
7.0
 40
8.0
 40
8.0
 40
8.0
 40
9.0
 40
9.0
 40
9.0
 40
10.0
 40
10.0
 40
10.0
 40
11.0
 40
11.0
 40
11.0
 40
12.0
 40
12.0
 40
12.0
 40
13.0
 40
13.0
 40
13.0
 40
14.0
 40
14.0
 40
14.0
 40
15.0
 40
15.0
 40
15.0
 40
16.0
 40
16.0
 40
16.0
 40
16.0
 10
101.6372070058407
 20
188.6406819189857
 10
101.6372070058407
 20
193.5561441573401
 10
105.6218044440807
 20
197.5407415955801
 10
110.5372666824351
 20
197.5407415955801
 10
110.5372666824351
 20
197.5407415955801
 10
165.6370903448754
 20
197.5407415955801
 10
165.6370903448754
 20
197.5407415955801
 10
165.6370903448754
 20
197.5407415955801
 10
165.6370903448754
 20
204.540658857285
 10
165.6370903448754
 20
204.540658857285
 10
165.6370903448754
 20
204.540658857285
 10
32.63711207951433
 20
204.540658857285
 10
32.63711207951433
 20
204.540658857285
 10
32.63711207951433
 20
204.540658857285
 10
32.63711207951433
 20
197.5407415955801
 10
32.63711207951433
 20
197.5407415955801
 10
32.63711207951433
 20
197.5407415955801
 10
87.73710799672892
 20
197.5407415955801
 10
87.73710799672892
 20
197.5407415955801
 10
92.65239798030913
 20
197.5407415955801
 10
96.63699541854909
 20
193.5561441573401
 10
96.63699541854909
 20
188.6406819189857
 10
96.63699541854909
 20
188.6406819189857
 10
96.63699541854909
 20
18.4405626038968
 10
96.63699541854909
 20
18.4405626038968
 10
96.63699541854909
 20
13.52544487509086
 10
92.65239798030913
 20
9.5408474368509
 10
87.73710799672892
 20
9.5408474368509
 10
87.73710799672892
 20
9.5408474368509
 10
32.63711207951433
 20
9.5408474368509
 10
32.63711207951433
 20
9.5408474368509
 10
32.63711207951433
 20
9.5408474368509
 10
32.63711207951433
 20
2.540757920371755
 10
32.63711207951433
 20
2.540757920371755
 10
32.63711207951433
 20
2.540757920371755
 10
165.6370903448754
 20
2.540757920371755
 10
165.6370903448754
 20
2.540757920371755
 10
165.6370903448754
 20
2.540757920371755
 10
165.6370903448754
 20
9.5408474368509
 10
165.6370903448754
 20
9.5408474368509
 10
165.6370903448754
 20
9.5408474368509
 10
110.5372666824351
 20
9.5408474368509
 10
110.5372666824351
 20
9.5408474368509
 10
105.6218044440807
 20
9.5408474368509
 10
101.6372070058407
 20
13.52544487509086
 10
101.6372070058407
 20
18.4405626038968
 10
101.6372070058407
 20
18.4405626038968
 10
101.6372070058407
 20
188.6406819189857
 10
101.6372070058407
 20
188.6406819189857
 97
        0
 75
     2
 76
     0
 52
45.0
 41
10.0
 77
     0
 78
     1
 53
45.0
 43
0.0
 44
0.0
 45
-7.071067811865475
 46
7.071067811865476
 79
     0
 98
        0
  0
POLYLINE
  5
56
330
50
100
AcDbEntity
  8
Layer 1
 62
     7
370
    20
100
AcDb2dPolyline
 66
     1
 10
0.0
 20
0.0
 30
0.0
  0
VERTEX
  5
57
330
56
100
AcDbEntity
  8
Layer 1
 62
     7
370
    20
100
AcDbVertex
100
AcDb2dVertex
 10
164.1370957705977
 20
204.540658857285
 30
0.0
  0
VERTEX
  5
58
330
56
100
AcDbEntity
  8
Layer 1
 62
     7
370
    20
100
AcDbVertex
100
AcDb2dVertex
 10
164.1370957705977
 20
218.540665635469
 30
0.0
  0
VERTEX
  5
59
330
56
100
AcDbEntity
  8
Layer 1
 62
     7
370
    20
100
AcDbVertex
100
AcDb2dVertex
 10
34.13710665379212
 20
218.540665635469
 30
0.0
  0
VERTEX
  5
5A
330
56
100
AcDbEntity
  8
Layer 1
 62
     7
370
    20
100
AcDbVertex
100
AcDb2dVertex
 10
34.13710665379212
 20
204.540658857285
 30
0.0
  0
VERTEX
  5
5B
330
56
100
AcDbEntity
  8
Layer 1
 62
     7
370
    20
100
AcDbVertex
100
AcDb2dVertex
 10
164.1370957705977
 20
204.540658857285
 30
0.0
  0
SEQEND
  5
5C
330
56
100
AcDbEntity
  8
Layer 1
370
    20
  0
POLYLINE
  5
5D
330
50
100
AcDbEntity
  8
Layer 1
  6
AI-Linetype-1
 62
     7
370
     9
100
AcDb2dPolyline
 66
     1
 10
0.0
 20
0.0
 30
0.0
  0
VERTEX
  5
5E
330
5D
100
AcDbEntity
  8
Layer 1
  6
AI-Linetype-1
 62
     7
370
     9
100
AcDbVertex
100
AcDb2dVertex
 10
59.13713106160461
 20
313.5407239342017
 30
0.0
  0
VERTEX
  5
5F
330
5D
100
AcDbEntity
  8
Layer 1
  6
AI-Linetype-1
 62
     7
370
     9
100
AcDbVertex
100
AcDb2dVertex
 10
139.1370713627852
 20
313.5407239342017
 30
0.0
  0
SEQEND
  5
60
330
5D
100
AcDbEntity
  8
Layer 1
  6
AI-Linetype-1
370
     9
  0
INSERT
  5
63
330
50
100
AcDbEntity
  8
Layer 1
100
AcDbBlockReference
  2
block 5
 10
0.0
 20
0.0
 30
0.0
  0
INSERT
  5
6F
330
50
100
AcDbEntity
  8
Layer 1
100
AcDbBlockReference
  2
block 6
 10
0.0
 20
0.0
 30
0.0
  0
INSERT
  5
28C
330
50
100
AcDbEntity
  8
Layer 1
100
AcDbBlockReference
  2
block 11
 10
0.0
 20
0.0
 30
0.0
  0
ENDBLK
  5
53
330
50
100
AcDbEntity
  8
0
100
AcDbBlockEnd
  0
BLOCK
  5
64
330
62
100
AcDbEntity
  8
0
100
AcDbBlockBegin
  2
block 5
 70
     0
 71
     0
 10
0.0
 20
0.0
 30
0.0
  3
block 5
  1

  0
POLYLINE
  5
66
330
62
100
AcDbEntity
  8
Layer 1
 62
     7
370
    20
100
AcDb2dPolyline
 66
     1
 10
0.0
 20
0.0
 30
0.0
  0
VERTEX
  5
67
330
66
100
AcDbEntity
  8
Layer 1
 62
     7
370
    20
100
AcDbVertex
100
AcDb2dVertex
 10
64.13717039412197
 20
218.540665635469
 30
0.0
  0
VERTEX
  5
68
330
66
100
AcDbEntity
  8
Layer 1
 62
     7
370
    20
100
AcDbVertex
100
AcDb2dVertex
 10
64.13717039412197
 20
313.5407239342017
 30
0.0
  0
SEQEND
  5
69
330
66
100
AcDbEntity
  8
Layer 1
370
    20
  0
POLYLINE
  5
6A
330
62
100
AcDbEntity
  8
Layer 1
 62
     7
370
    20
100
AcDb2dPolyline
 66
     1
 10
0.0
 20
0.0
 30
0.0
  0
VERTEX
  5
6B
330
6A
100
AcDbEntity
  8
Layer 1
 62
     7
370
    20
100
AcDbVertex
100
AcDb2dVertex
 10
134.1372042850421
 20
218.540665635469
 30
0.0
  0
VERTEX
  5
6C
330
6A
100
AcDbEntity
  8
Layer 1
 62
     7
370
    20
100
AcDbVertex
100
AcDb2dVertex
 10
134.1372042850421
 20
313.5407239342017
 30
0.0
  0
SEQEND
  5
6D
330
6A
100
AcDbEntity
  8
Layer 1
370
    20
  0
ENDBLK
  5
65
330
62
100
AcDbEntity
  8
0
100
AcDbBlockEnd
  0
BLOCK
  5
70
330
6E
100
AcDbEntity
  8
0
100
AcDbBlockBegin
  2
block 6
 70
     0
 71
     0
 10
0.0
 20
0.0
 30
0.0
  3
block 6
  1

  0
INSERT
  5
73
330
6E
100
AcDbEntity
  8
Layer 1
100
AcDbBlockReference
  2
block 7
 10
0.0
 20
0.0
 30
0.0
  0
POLYLINE
  5
224
330
6E
100
AcDbEntity
  8
Layer 1
 62
     7
370
    20
100
AcDb2dPolyline
 66
     1
 10
0.0
 20
0.0
 30
0.0
  0
VERTEX
  5
225
330
224
100
AcDbEntity
  8
Layer 1
 62
     7
370
    20
100
AcDbVertex
100
AcDb2dVertex
 10
145.0171603370096
 20
183.5421128555902
 30
0.0
  0
VERTEX
  5
226
330
224
100
AcDbEntity
  8
Layer 1
 62
     7
370
    20
100
AcDbVertex
100
AcDb2dVertex
 10
153.8869031733338
 20
183.5421128555902
 30
0.0
  0
SEQEND
  5
227
330
224
100
AcDbEntity
  8
Layer 1
370
    20
  0
POLYLINE
  5
228
330
6E
100
AcDbEntity
  8
Layer 1
 62
     7
370
    20
100
AcDb2dPolyline
 66
     1
 10
0.0
 20
0.0
 30
0.0
  0
VERTEX
  5
229
330
228
100
AcDbEntity
  8
Layer 1
 62
     7
370
    20
100
AcDbVertex
100
AcDb2dVertex
 10
138.6368434983269
 20
221.0404269195663
 30
0.0
  0
VERTEX
  5
22A
330
228
100
AcDbEntity
  8
Layer 1
 62
     7
370
    20
100
AcDbVertex
100
AcDb2dVertex
 10
159.6374565573129
 20
221.0404269195663
 30
0.0
  0
VERTEX
  5
22B
330
228
100
AcDbEntity
  8
Layer 1
 62
     7
370
    20
100
AcDbVertex
100
AcDb2dVertex
 10
159.6374565573129
 20
220.0406602097468
 30
0.0
  0
VERTEX
  5
22C
330
228
100
AcDbEntity
  8
Layer 1
 62
     7
370
    20
100
AcDbVertex
100
AcDb2dVertex
 10
138.6368434983269
 20
220.0406602097468
 30
0.0
  0
VERTEX
  5
22D
330
228
100
AcDbEntity
  8
Layer 1
 62
     7
370
    20
100
AcDbVertex
100
AcDb2dVertex
 10
138.6368434983269
 20
221.0404269195663
 30
0.0
  0
SEQEND
  5
22E
330
228
100
AcDbEntity
  8
Layer 1
370
    20
  0
INSERT
  5
230
330
6E
100
AcDbEntity
  8
Layer 1
100
AcDbBlockReference
  2
block 9
 10
0.0
 20
0.0
 30
0.0
  0
POLYLINE
  5
261
330
6E
100
AcDbEntity
  8
Layer 1
 62
     7
370
    20
100
AcDb2dPolyline
 66
     1
 10
0.0
 20
0.0
 30
0.0
  0
VERTEX
  5
262
330
261
100
AcDbEntity
  8
Layer 1
 62
     7
370
    20
100
AcDbVertex
100
AcDb2dVertex
 10
138.1373046529657
 20
220.0406602097468
 30
0.0
  0
VERTEX
  5
263
330
261
100
AcDbEntity
  8
Layer 1
 62
     7
370
    20
100
AcDbVertex
100
AcDb2dVertex
 10
160.1369954026741
 20
220.0406602097468
 30
0.0
  0
VERTEX
  5
264
330
261
100
AcDbEntity
  8
Layer 1
 62
     7
370
    20
100
AcDbVertex
100
AcDb2dVertex
 10
160.1369954026741
 20
218.540665635469
 30
0.0
  0
VERTEX
  5
265
330
261
100
AcDbEntity
  8
Layer 1
 62
     7
370
    20
100
AcDbVertex
100
AcDb2dVertex
 10
138.1373046529657
 20
218.540665635469
 30
0.0
  0
VERTEX
  5
266
330
261
100
AcDbEntity
  8
Layer 1
 62
     7
370
    20
100
AcDbVertex
100
AcDb2dVertex
 10
138.1373046529657
 20
220.0406602097468
 30
0.0
  0
SEQEND
  5
267
330
261
100
AcDbEntity
  8
Layer 1
370
    20
  0
HATCH
  5
268
330
6E
100
AcDbEntity
  8
Layer 1
 62
     7
100
AcDbHatch
 10
0.0
 20
0.0
 30
0.0
210
0.0
220
0.0
230
1.0
  2
SOLID
 70
     1
 71
     0
 91
        1
 92
        1
 93
        4
 72
     1
 10
138.1373046529657
 20
220.0406602097468
 11
160.1369954026741
 21
220.0406602097468
 72
     1
 10
160.1369954026741
 20
220.0406602097468
 11
160.1369954026741
 21
218.540665635469
 72
     1
 10
160.1369954026741
 20
218.540665635469
 11
138.1373046529657
 21
218.540665635469
 72
     1
 10
138.1373046529657
 20
218.540665635469
 11
138.1373046529657
 21
220.0406602097468
 97
        0
 75
     2
 76
     1
 98
        0
  0
POLYLINE
  5
269
330
6E
100
AcDbEntity
  8
Layer 1
 62
     7
370
    20
100
AcDb2dPolyline
 66
     1
 10
0.0
 20
0.0
 30
0.0
  0
VERTEX
  5
26A
330
269
100
AcDbEntity
  8
Layer 1
 62
     7
370
    20
100
AcDbVertex
100
AcDb2dVertex
 10
138.6368434983269
 20
196.0407470213023
 30
0.0
  0
VERTEX
  5
26B
330
269
100
AcDbEntity
  8
Layer 1
 62
     7
370
    20
100
AcDbVertex
100
AcDb2dVertex
 10
159.6374565573129
 20
196.0407470213023
 30
0.0
  0
VERTEX
  5
26C
330
269
100
AcDbEntity
  8
Layer 1
 62
     7
370
    20
100
AcDbVertex
100
AcDb2dVertex
 10
159.6374565573129
 20
195.0409803114828
 30
0.0
  0
VERTEX
  5
26D
330
269
100
AcDbEntity
  8
Layer 1
 62
     7
370
    20
100
AcDbVertex
100
AcDb2dVertex
 10
138.6368434983269
 20
195.0409803114828
 30
0.0
  0
VERTEX
  5
26E
330
269
100
AcDbEntity
  8
Layer 1
 62
     7
370
    20
100
AcDbVertex
100
AcDb2dVertex
 10
138.6368434983269
 20
196.0407470213023
 30
0.0
  0
SEQEND
  5
26F
330
269
100
AcDbEntity
  8
Layer 1
370
    20
  0
INSERT
  5
271
330
6E
100
AcDbEntity
  8
Layer 1
100
AcDbBlockReference
  2
block 10
 10
0.0
 20
0.0
 30
0.0
  0
POLYLINE
  5
283
330
6E
100
AcDbEntity
  8
Layer 1
 62
     7
370
    20
100
AcDb2dPolyline
 66
     1
 10
0.0
 20
0.0
 30
0.0
  0
VERTEX
  5
284
330
283
100
AcDbEntity
  8
Layer 1
 62
     7
370
    20
100
AcDbVertex
100
AcDb2dVertex
 10
138.1373046529657
 20
197.5407415955801
 30
0.0
  0
VERTEX
  5
285
330
283
100
AcDbEntity
  8
Layer 1
 62
     7
370
    20
100
AcDbVertex
100
AcDb2dVertex
 10
160.1369954026741
 20
197.5407415955801
 30
0.0
  0
VERTEX
  5
286
330
283
100
AcDbEntity
  8
Layer 1
 62
     7
370
    20
100
AcDbVertex
100
AcDb2dVertex
 10
160.1369954026741
 20
196.0407470213023
 30
0.0
  0
VERTEX
  5
287
330
283
100
AcDbEntity
  8
Layer 1
 62
     7
370
    20
100
AcDbVertex
100
AcDb2dVertex
 10
138.1373046529657
 20
196.0407470213023
 30
0.0
  0
VERTEX
  5
288
330
283
100
AcDbEntity
  8
Layer 1
 62
     7
370
    20
100
AcDbVertex
100
AcDb2dVertex
 10
138.1373046529657
 20
197.5407415955801
 30
0.0
  0
SEQEND
  5
289
330
283
100
AcDbEntity
  8
Layer 1
370
    20
  0
HATCH
  5
28A
330
6E
100
AcDbEntity
  8
Layer 1
 62
     7
100
AcDbHatch
 10
0.0
 20
0.0
 30
0.0
210
0.0
220
0.0
230
1.0
  2
SOLID
 70
     1
 71
     0
 91
        1
 92
        1
 93
        4
 72
     1
 10
138.1373046529657
 20
197.5407415955801
 11
160.1369954026741
 21
197.5407415955801
 72
     1
 10
160.1369954026741
 20
197.5407415955801
 11
160.1369954026741
 21
196.0407470213023
 72
     1
 10
160.1369954026741
 20
196.0407470213023
 11
138.1373046529657
 21
196.0407470213023
 72
     1
 10
138.1373046529657
 20
196.0407470213023
 11
138.1373046529657
 21
197.5407415955801
 97
        0
 75
     2
 76
     1
 98
        0
  0
ENDBLK
  5
71
330
6E
100
AcDbEntity
  8
0
100
AcDbBlockEnd
  0
BLOCK
  5
74
330
72
100
AcDbEntity
  8
0
100
AcDbBlockBegin
  2
block 7
 70
     0
 71
     0
 10
0.0
 20
0.0
 30
0.0
  3
block 7
  1

  0
POLYLINE
  5
76
330
72
100
AcDbEntity
  8
Layer 1
 62
     7
370
    20
100
AcDb2dPolyline
 66
     1
 10
0.0
 20
0.0
 30
0.0
  0
VERTEX
  5
77
330
76
100
AcDbEntity
  8
Layer 1
 62
     7
370
    20
100
AcDbVertex
100
AcDb2dVertex
 10
145.2369574289685
 20
183.6048135934217
 30
0.0
  0
VERTEX
  5
78
330
76
100
AcDbEntity
  8
Layer 1
 62
     7
370
    20
100
AcDbVertex
100
AcDb2dVertex
 10
145.2376464480656
 20
218.5403211259205
 30
0.0
  0
VERTEX
  5
79
330
76
100
AcDbEntity
  8
Layer 1
 62
     7
370
    20
100
AcDbVertex
100
AcDb2dVertex
 10
153.0373426266712
 20
218.5403211259205
 30
0.0
  0
VERTEX
  5
7A
330
76
100
AcDbEntity
  8
Layer 1
 62
     7
370
    20
100
AcDbVertex
100
AcDb2dVertex
 10
153.0366536075742
 20
183.6048135934217
 30
0.0
  0
SEQEND
  5
7B
330
76
100
AcDbEntity
  8
Layer 1
370
    20
  0
INSERT
  5
7D
330
72
100
AcDbEntity
  8
Layer 1
100
AcDbBlockReference
  2
block 8
 10
0.0
 20
0.0
 30
0.0
  0
ENDBLK
  5
75
330
72
100
AcDbEntity
  8
0
100
AcDbBlockEnd
  0
BLOCK
  5
7E
330
7C
100
AcDbEntity
  8
0
100
AcDbBlockBegin
  2
block 8
 70
     0
 71
     0
 10
0.0
 20
0.0
 30
0.0
  3
block 8
  1

  0
POLYLINE
  5
80
330
7C
100
AcDbEntity
  8
Layer 1
 62
     7
370
    20
100
AcDb2dPolyline
 66
     1
 10
0.0
 20
0.0
 30
0.0
  0
VERTEX
  5
81
330
80
100
AcDbEntity
  8
Layer 1
 62
     7
370
    20
100
AcDbVertex
100
AcDb2dVertex
 10
154.0371093364907
 20
187.9154893193406
 30
0.0
  0
VERTEX
  5
82
330
80
100
AcDbEntity
  8
Layer 1
 62
     7
370
    20
100
AcDbVertex
100
AcDb2dVertex
 10
153.0373426266712
 20
187.1658365417502
 30
0.0
  0
SEQEND
  5
83
330
80
100
AcDbEntity
  8
Layer 1
370
    20
  0
POLYLINE
  5
84
330
7C
100
AcDbEntity
  8
Layer 1
 62
     7
370
    20
100
AcDb2dPolyline
 66
     1
 10
0.0
 20
0.0
 30
0.0
  0
VERTEX
  5
85
330
84
100
AcDbEntity
  8
Layer 1
 62
     7
370
    20
100
AcDbVertex
100
AcDb2dVertex
 10
154.0371093364907
 20
186.4154947450628
 30
0.0
  0
VERTEX
  5
86
330
84
100
AcDbEntity
  8
Layer 1
 62
     7
370
    20
100
AcDbVertex
100
AcDb2dVertex
 10
153.0373426266712
 20
187.1658365417502
 30
0.0
  0
SEQEND
  5
87
330
84
100
AcDbEntity
  8
Layer 1
370
    20
  0
POLYLINE
  5
88
330
7C
100
AcDbEntity
  8
Layer 1
 62
     7
370
    20
100
AcDb2dPolyline
 66
     1
 10
0.0
 20
0.0
 30
0.0
  0
VERTEX
  5
89
330
88
100
AcDbEntity
  8
Layer 1
 62
     7
370
    20
100
AcDbVertex
100
AcDb2dVertex
 10
154.0371093364907
 20
186.4154947450628
 30
0.0
  0
VERTEX
  5
8A
330
88
100
AcDbEntity
  8
Layer 1
 62
     7
370
    20
100
AcDbVertex
100
AcDb2dVertex
 10
153.0373426266712
 20
185.666186477021
 30
0.0
  0
SEQEND
  5
8B
330
88
100
AcDbEntity
  8
Layer 1
370
    20
  0
POLYLINE
  5
8C
330
7C
100
AcDbEntity
  8
Layer 1
 62
     7
370
    20
100
AcDb2dPolyline
 66
     1
 10
0.0
 20
0.0
 30
0.0
  0
VERTEX
  5
8D
330
8C
100
AcDbEntity
  8
Layer 1
 62
     7
370
    20
100
AcDbVertex
100
AcDb2dVertex
 10
154.0371093364907
 20
187.9154893193406
 30
0.0
  0
VERTEX
  5
8E
330
8C
100
AcDbEntity
  8
Layer 1
 62
     7
370
    20
100
AcDbVertex
100
AcDb2dVertex
 10
153.0373426266712
 20
188.6654866064795
 30
0.0
  0
SEQEND
  5
8F
330
8C
100
AcDbEntity
  8
Layer 1
370
    20
  0
POLYLINE
  5
90
330
7C
100
AcDbEntity
  8
Layer 1
 62
     7
370
    20
100
AcDb2dPolyline
 66
     1
 10
0.0
 20
0.0
 30
0.0
  0
VERTEX
  5
91
330
90
100
AcDbEntity
  8
Layer 1
 62
     7
370
    20
100
AcDbVertex
100
AcDb2dVertex
 10
144.2378797382461
 20
187.1658365417502
 30
0.0
  0
VERTEX
  5
92
330
90
100
AcDbEntity
  8
Layer 1
 62
     7
370
    20
100
AcDbVertex
100
AcDb2dVertex
 10
145.2376464480656
 20
187.9154893193406
 30
0.0
  0
SEQEND
  5
93
330
90
100
AcDbEntity
  8
Layer 1
370
    20
  0
POLYLINE
  5
94
330
7C
100
AcDbEntity
  8
Layer 1
 62
     7
370
    20
100
AcDb2dPolyline
 66
     1
 10
0.0
 20
0.0
 30
0.0
  0
VERTEX
  5
95
330
94
100
AcDbEntity
  8
Layer 1
 62
     7
370
    20
100
AcDbVertex
100
AcDb2dVertex
 10
144.2378797382461
 20
188.6654866064795
 30
0.0
  0
VERTEX
  5
96
330
94
100
AcDbEntity
  8
Layer 1
 62
     7
370
    20
100
AcDbVertex
100
AcDb2dVertex
 10
145.2376464480656
 20
187.9154893193406
 30
0.0
  0
SEQEND
  5
97
330
94
100
AcDbEntity
  8
Layer 1
370
    20
  0
POLYLINE
  5
98
330
7C
100
AcDbEntity
  8
Layer 1
 62
     7
370
    20
100
AcDb2dPolyline
 66
     1
 10
0.0
 20
0.0
 30
0.0
  0
VERTEX
  5
99
330
98
100
AcDbEntity
  8
Layer 1
 62
     7
370
    20
100
AcDbVertex
100
AcDb2dVertex
 10
144.2378797382461
 20
187.1651475226532
 30
0.0
  0
VERTEX
  5
9A
330
98
100
AcDbEntity
  8
Layer 1
 62
     7
370
    20
100
AcDbVertex
100
AcDb2dVertex
 10
145.2376464480656
 20
186.4154947450628
 30
0.0
  0
SEQEND
  5
9B
330
98
100
AcDbEntity
  8
Layer 1
370
    20
  0
POLYLINE
  5
9C
330
7C
100
AcDbEntity
  8
Layer 1
 62
     7
370
    20
100
AcDb2dPolyline
 66
     1
 10
0.0
 20
0.0
 30
0.0
  0
VERTEX
  5
9D
330
9C
100
AcDbEntity
  8
Layer 1
 62
     7
370
    20
100
AcDbVertex
100
AcDb2dVertex
 10
144.2378797382461
 20
188.6654866064795
 30
0.0
  0
VERTEX
  5
9E
330
9C
100
AcDbEntity
  8
Layer 1
 62
     7
370
    20
100
AcDbVertex
100
AcDb2dVertex
 10
145.2376464480656
 20
189.4158284031669
 30
0.0
  0
SEQEND
  5
9F
330
9C
100
AcDbEntity
  8
Layer 1
370
    20
  0
POLYLINE
  5
A0
330
7C
100
AcDbEntity
  8
Layer 1
 62
     7
370
    20
100
AcDb2dPolyline
 66
     1
 10
0.0
 20
0.0
 30
0.0
  0
VERTEX
  5
A1
330
A0
100
AcDbEntity
  8
Layer 1
 62
     7
370
    20
100
AcDbVertex
100
AcDb2dVertex
 10
154.0371093364907
 20
184.915500170785
 30
0.0
  0
VERTEX
  5
A2
330
A0
100
AcDbEntity
  8
Layer 1
 62
     7
370
    20
100
AcDbVertex
100
AcDb2dVertex
 10
153.0373426266712
 20
184.1651583740976
 30
0.0
  0
SEQEND
  5
A3
330
A0
100
AcDbEntity
  8
Layer 1
370
    20
  0
POLYLINE
  5
A4
330
7C
100
AcDbEntity
  8
Layer 1
 62
     7
370
    20
100
AcDb2dPolyline
 66
     1
 10
0.0
 20
0.0
 30
0.0
  0
VERTEX
  5
A5
330
A4
100
AcDbEntity
  8
Layer 1
 62
     7
370
    20
100
AcDbVertex
100
AcDb2dVertex
 10
153.0373426266712
 20
184.1651583740976
 30
0.0
  0
VERTEX
  5
A6
330
A4
100
AcDbEntity
  8
Layer 1
 62
     7
370
    20
100
AcDbVertex
100
AcDb2dVertex
 10
153.7849283469704
 20
183.6048135934217
 30
0.0
  0
VERTEX
  5
A7
330
A4
100
AcDbEntity
  8
Layer 1
 62
     7
370
    20
100
AcDbVertex
100
AcDb2dVertex
 10
144.9802978153174
 20
183.6079141793585
 30
0.0
  0
VERTEX
  5
A8
330
A4
100
AcDbEntity
  8
Layer 1
 62
     7
370
    20
100
AcDbVertex
100
AcDb2dVertex
 10
144.2378797382461
 20
184.1651583740976
 30
0.0
  0
SEQEND
  5
A9
330
A4
100
AcDbEntity
  8
Layer 1
370
    20
  0
POLYLINE
  5
AA
330
7C
100
AcDbEntity
  8
Layer 1
 62
     7
370
    20
100
AcDb2dPolyline
 66
     1
 10
0.0
 20
0.0
 30
0.0
  0
VERTEX
  5
AB
330
AA
100
AcDbEntity
  8
Layer 1
 62
     7
370
    20
100
AcDbVertex
100
AcDb2dVertex
 10
154.0371093364907
 20
184.915500170785
 30
0.0
  0
VERTEX
  5
AC
330
AA
100
AcDbEntity
  8
Layer 1
 62
     7
370
    20
100
AcDbVertex
100
AcDb2dVertex
 10
153.0373426266712
 20
185.666186477021
 30
0.0
  0
SEQEND
  5
AD
330
AA
100
AcDbEntity
  8
Layer 1
370
    20
  0
POLYLINE
  5
AE
330
7C
100
AcDbEntity
  8
Layer 1
 62
     7
370
    20
100
AcDb2dPolyline
 66
     1
 10
0.0
 20
0.0
 30
0.0
  0
VERTEX
  5
AF
330
AE
100
AcDbEntity
  8
Layer 1
 62
     7
370
    20
100
AcDbVertex
100
AcDb2dVertex
 10
144.2378797382461
 20
184.1651583740976
 30
0.0
  0
VERTEX
  5
B0
330
AE
100
AcDbEntity
  8
Layer 1
 62
     7
370
    20
100
AcDbVertex
100
AcDb2dVertex
 10
145.2376464480656
 20
184.915500170785
 30
0.0
  0
SEQEND
  5
B1
330
AE
100
AcDbEntity
  8
Layer 1
370
    20
  0
POLYLINE
  5
B2
330
7C
100
AcDbEntity
  8
Layer 1
 62
     7
370
    20
100
AcDb2dPolyline
 66
     1
 10
0.0
 20
0.0
 30
0.0
  0
VERTEX
  5
B3
330
B2
100
AcDbEntity
  8
Layer 1
 62
     7
370
    20
100
AcDbVertex
100
AcDb2dVertex
 10
144.2378797382461
 20
185.6651529483754
 30
0.0
  0
VERTEX
  5
B4
330
B2
100
AcDbEntity
  8
Layer 1
 62
     7
370
    20
100
AcDbVertex
100
AcDb2dVertex
 10
145.2376464480656
 20
184.915500170785
 30
0.0
  0
SEQEND
  5
B5
330
B2
100
AcDbEntity
  8
Layer 1
370
    20
  0
POLYLINE
  5
B6
330
7C
100
AcDbEntity
  8
Layer 1
 62
     7
370
    20
100
AcDb2dPolyline
 66
     1
 10
0.0
 20
0.0
 30
0.0
  0
VERTEX
  5
B7
330
B6
100
AcDbEntity
  8
Layer 1
 62
     7
370
    20
100
AcDbVertex
100
AcDb2dVertex
 10
144.2378797382461
 20
185.666186477021
 30
0.0
  0
VERTEX
  5
B8
330
B6
100
AcDbEntity
  8
Layer 1
 62
     7
370
    20
100
AcDbVertex
100
AcDb2dVertex
 10
145.2376464480656
 20
186.4154947450628
 30
0.0
  0
SEQEND
  5
B9
330
B6
100
AcDbEntity
  8
Layer 1
370
    20
  0
POLYLINE
  5
BA
330
7C
100
AcDbEntity
  8
Layer 1
 62
     7
370
    20
100
AcDb2dPolyline
 66
     1
 10
0.0
 20
0.0
 30
0.0
  0
VERTEX
  5
BB
330
BA
100
AcDbEntity
  8
Layer 1
 62
     7
370
    20
100
AcDbVertex
100
AcDb2dVertex
 10
154.0371093364907
 20
193.9154676164517
 30
0.0
  0
VERTEX
  5
BC
330
BA
100
AcDbEntity
  8
Layer 1
 62
     7
370
    20
100
AcDbVertex
100
AcDb2dVertex
 10
153.0373426266712
 20
193.1651258197643
 30
0.0
  0
SEQEND
  5
BD
330
BA
100
AcDbEntity
  8
Layer 1
370
    20
  0
POLYLINE
  5
BE
330
7C
100
AcDbEntity
  8
Layer 1
 62
     7
370
    20
100
AcDb2dPolyline
 66
     1
 10
0.0
 20
0.0
 30
0.0
  0
VERTEX
  5
BF
330
BE
100
AcDbEntity
  8
Layer 1
 62
     7
370
    20
100
AcDbVertex
100
AcDb2dVertex
 10
154.0371093364907
 20
192.4154730421739
 30
0.0
  0
VERTEX
  5
C0
330
BE
100
AcDbEntity
  8
Layer 1
 62
     7
370
    20
100
AcDbVertex
100
AcDb2dVertex
 10
153.0373426266712
 20
193.1651258197643
 30
0.0
  0
SEQEND
  5
C1
330
BE
100
AcDbEntity
  8
Layer 1
370
    20
  0
POLYLINE
  5
C2
330
7C
100
AcDbEntity
  8
Layer 1
 62
     7
370
    20
100
AcDb2dPolyline
 66
     1
 10
0.0
 20
0.0
 30
0.0
  0
VERTEX
  5
C3
330
C2
100
AcDbEntity
  8
Layer 1
 62
     7
370
    20
100
AcDbVertex
100
AcDb2dVertex
 10
154.0371093364907
 20
192.4154730421739
 30
0.0
  0
VERTEX
  5
C4
330
C2
100
AcDbEntity
  8
Layer 1
 62
     7
370
    20
100
AcDbVertex
100
AcDb2dVertex
 10
153.0373426266712
 20
191.6651312454865
 30
0.0
  0
SEQEND
  5
C5
330
C2
100
AcDbEntity
  8
Layer 1
370
    20
  0
POLYLINE
  5
C6
330
7C
100
AcDbEntity
  8
Layer 1
 62
     7
370
    20
100
AcDb2dPolyline
 66
     1
 10
0.0
 20
0.0
 30
0.0
  0
VERTEX
  5
C7
330
C6
100
AcDbEntity
  8
Layer 1
 62
     7
370
    20
100
AcDbVertex
100
AcDb2dVertex
 10
154.0371093364907
 20
193.9154676164517
 30
0.0
  0
VERTEX
  5
C8
330
C6
100
AcDbEntity
  8
Layer 1
 62
     7
370
    20
100
AcDbVertex
100
AcDb2dVertex
 10
153.0373426266712
 20
194.6658094131391
 30
0.0
  0
SEQEND
  5
C9
330
C6
100
AcDbEntity
  8
Layer 1
370
    20
  0
POLYLINE
  5
CA
330
7C
100
AcDbEntity
  8
Layer 1
 62
     7
370
    20
100
AcDb2dPolyline
 66
     1
 10
0.0
 20
0.0
 30
0.0
  0
VERTEX
  5
CB
330
CA
100
AcDbEntity
  8
Layer 1
 62
     7
370
    20
100
AcDbVertex
100
AcDb2dVertex
 10
144.2378797382461
 20
193.1651258197643
 30
0.0
  0
VERTEX
  5
CC
330
CA
100
AcDbEntity
  8
Layer 1
 62
     7
370
    20
100
AcDbVertex
100
AcDb2dVertex
 10
145.2376464480656
 20
193.9154676164517
 30
0.0
  0
SEQEND
  5
CD
330
CA
100
AcDbEntity
  8
Layer 1
370
    20
  0
POLYLINE
  5
CE
330
7C
100
AcDbEntity
  8
Layer 1
 62
     7
370
    20
100
AcDb2dPolyline
 66
     1
 10
0.0
 20
0.0
 30
0.0
  0
VERTEX
  5
CF
330
CE
100
AcDbEntity
  8
Layer 1
 62
     7
370
    20
100
AcDbVertex
100
AcDb2dVertex
 10
144.2378797382461
 20
194.6658094131391
 30
0.0
  0
VERTEX
  5
D0
330
CE
100
AcDbEntity
  8
Layer 1
 62
     7
370
    20
100
AcDbVertex
100
AcDb2dVertex
 10
145.2376464480656
 20
193.9154676164517
 30
0.0
  0
SEQEND
  5
D1
330
CE
100
AcDbEntity
  8
Layer 1
370
    20
  0
POLYLINE
  5
D2
330
7C
100
AcDbEntity
  8
Layer 1
 62
     7
370
    20
100
AcDb2dPolyline
 66
     1
 10
0.0
 20
0.0
 30
0.0
  0
VERTEX
  5
D3
330
D2
100
AcDbEntity
  8
Layer 1
 62
     7
370
    20
100
AcDbVertex
100
AcDb2dVertex
 10
144.2378797382461
 20
193.1651258197643
 30
0.0
  0
VERTEX
  5
D4
330
D2
100
AcDbEntity
  8
Layer 1
 62
     7
370
    20
100
AcDbVertex
100
AcDb2dVertex
 10
145.2376464480656
 20
192.4154730421739
 30
0.0
  0
SEQEND
  5
D5
330
D2
100
AcDbEntity
  8
Layer 1
370
    20
  0
POLYLINE
  5
D6
330
7C
100
AcDbEntity
  8
Layer 1
 62
     7
370
    20
100
AcDb2dPolyline
 66
     1
 10
0.0
 20
0.0
 30
0.0
  0
VERTEX
  5
D7
330
D6
100
AcDbEntity
  8
Layer 1
 62
     7
370
    20
100
AcDbVertex
100
AcDb2dVertex
 10
144.2378797382461
 20
194.6658094131391
 30
0.0
  0
VERTEX
  5
D8
330
D6
100
AcDbEntity
  8
Layer 1
 62
     7
370
    20
100
AcDbVertex
100
AcDb2dVertex
 10
145.2376464480656
 20
195.415117681181
 30
0.0
  0
SEQEND
  5
D9
330
D6
100
AcDbEntity
  8
Layer 1
370
    20
  0
POLYLINE
  5
DA
330
7C
100
AcDbEntity
  8
Layer 1
 62
     7
370
    20
100
AcDb2dPolyline
 66
     1
 10
0.0
 20
0.0
 30
0.0
  0
VERTEX
  5
DB
330
DA
100
AcDbEntity
  8
Layer 1
 62
     7
370
    20
100
AcDbVertex
100
AcDb2dVertex
 10
154.0371093364907
 20
190.9158229774447
 30
0.0
  0
VERTEX
  5
DC
330
DA
100
AcDbEntity
  8
Layer 1
 62
     7
370
    20
100
AcDbVertex
100
AcDb2dVertex
 10
153.0373426266712
 20
190.1654811807572
 30
0.0
  0
SEQEND
  5
DD
330
DA
100
AcDbEntity
  8
Layer 1
370
    20
  0
POLYLINE
  5
DE
330
7C
100
AcDbEntity
  8
Layer 1
 62
     7
370
    20
100
AcDb2dPolyline
 66
     1
 10
0.0
 20
0.0
 30
0.0
  0
VERTEX
  5
DF
330
DE
100
AcDbEntity
  8
Layer 1
 62
     7
370
    20
100
AcDbVertex
100
AcDb2dVertex
 10
154.0371093364907
 20
189.4151393840698
 30
0.0
  0
VERTEX
  5
E0
330
DE
100
AcDbEntity
  8
Layer 1
 62
     7
370
    20
100
AcDbVertex
100
AcDb2dVertex
 10
153.0373426266712
 20
190.1654811807572
 30
0.0
  0
SEQEND
  5
E1
330
DE
100
AcDbEntity
  8
Layer 1
370
    20
  0
POLYLINE
  5
E2
330
7C
100
AcDbEntity
  8
Layer 1
 62
     7
370
    20
100
AcDb2dPolyline
 66
     1
 10
0.0
 20
0.0
 30
0.0
  0
VERTEX
  5
E3
330
E2
100
AcDbEntity
  8
Layer 1
 62
     7
370
    20
100
AcDbVertex
100
AcDb2dVertex
 10
154.0371093364907
 20
189.4158284031669
 30
0.0
  0
VERTEX
  5
E4
330
E2
100
AcDbEntity
  8
Layer 1
 62
     7
370
    20
100
AcDbVertex
100
AcDb2dVertex
 10
153.0373426266712
 20
188.6654866064795
 30
0.0
  0
SEQEND
  5
E5
330
E2
100
AcDbEntity
  8
Layer 1
370
    20
  0
POLYLINE
  5
E6
330
7C
100
AcDbEntity
  8
Layer 1
 62
     7
370
    20
100
AcDb2dPolyline
 66
     1
 10
0.0
 20
0.0
 30
0.0
  0
VERTEX
  5
E7
330
E6
100
AcDbEntity
  8
Layer 1
 62
     7
370
    20
100
AcDbVertex
100
AcDb2dVertex
 10
154.0371093364907
 20
190.9158229774447
 30
0.0
  0
VERTEX
  5
E8
330
E6
100
AcDbEntity
  8
Layer 1
 62
     7
370
    20
100
AcDbVertex
100
AcDb2dVertex
 10
153.0373426266712
 20
191.6651312454865
 30
0.0
  0
SEQEND
  5
E9
330
E6
100
AcDbEntity
  8
Layer 1
370
    20
  0
POLYLINE
  5
EA
330
7C
100
AcDbEntity
  8
Layer 1
 62
     7
370
    20
100
AcDb2dPolyline
 66
     1
 10
0.0
 20
0.0
 30
0.0
  0
VERTEX
  5
EB
330
EA
100
AcDbEntity
  8
Layer 1
 62
     7
370
    20
100
AcDbVertex
100
AcDb2dVertex
 10
144.2378797382461
 20
190.1654811807572
 30
0.0
  0
VERTEX
  5
EC
330
EA
100
AcDbEntity
  8
Layer 1
 62
     7
370
    20
100
AcDbVertex
100
AcDb2dVertex
 10
145.2376464480656
 20
190.9158229774447
 30
0.0
  0
SEQEND
  5
ED
330
EA
100
AcDbEntity
  8
Layer 1
370
    20
  0
POLYLINE
  5
EE
330
7C
100
AcDbEntity
  8
Layer 1
 62
     7
370
    20
100
AcDb2dPolyline
 66
     1
 10
0.0
 20
0.0
 30
0.0
  0
VERTEX
  5
EF
330
EE
100
AcDbEntity
  8
Layer 1
 62
     7
370
    20
100
AcDbVertex
100
AcDb2dVertex
 10
144.2378797382461
 20
191.6651312454865
 30
0.0
  0
VERTEX
  5
F0
330
EE
100
AcDbEntity
  8
Layer 1
 62
     7
370
    20
100
AcDbVertex
100
AcDb2dVertex
 10
145.2376464480656
 20
190.9158229774447
 30
0.0
  0
SEQEND
  5
F1
330
EE
100
AcDbEntity
  8
Layer 1
370
    20
  0
POLYLINE
  5
F2
330
7C
100
AcDbEntity
  8
Layer 1
 62
     7
370
    20
100
AcDb2dPolyline
 66
     1
 10
0.0
 20
0.0
 30
0.0
  0
VERTEX
  5
F3
330
F2
100
AcDbEntity
  8
Layer 1
 62
     7
370
    20
100
AcDbVertex
100
AcDb2dVertex
 10
144.2378797382461
 20
190.1654811807572
 30
0.0
  0
VERTEX
  5
F4
330
F2
100
AcDbEntity
  8
Layer 1
 62
     7
370
    20
100
AcDbVertex
100
AcDb2dVertex
 10
145.2376464480656
 20
189.4151393840698
 30
0.0
  0
SEQEND
  5
F5
330
F2
100
AcDbEntity
  8
Layer 1
370
    20
  0
POLYLINE
  5
F6
330
7C
100
AcDbEntity
  8
Layer 1
 62
     7
370
    20
100
AcDb2dPolyline
 66
     1
 10
0.0
 20
0.0
 30
0.0
  0
VERTEX
  5
F7
330
F6
100
AcDbEntity
  8
Layer 1
 62
     7
370
    20
100
AcDbVertex
100
AcDb2dVertex
 10
144.2378797382461
 20
191.6651312454865
 30
0.0
  0
VERTEX
  5
F8
330
F6
100
AcDbEntity
  8
Layer 1
 62
     7
370
    20
100
AcDbVertex
100
AcDb2dVertex
 10
145.2376464480656
 20
192.4154730421739
 30
0.0
  0
SEQEND
  5
F9
330
F6
100
AcDbEntity
  8
Layer 1
370
    20
  0
POLYLINE
  5
FA
330
7C
100
AcDbEntity
  8
Layer 1
 62
     7
370
    20
100
AcDb2dPolyline
 66
     1
 10
0.0
 20
0.0
 30
0.0
  0
VERTEX
  5
FB
330
FA
100
AcDbEntity
  8
Layer 1
 62
     7
370
    20
100
AcDbVertex
100
AcDb2dVertex
 10
154.0371093364907
 20
198.415451339285
 30
0.0
  0
VERTEX
  5
FC
330
FA
100
AcDbEntity
  8
Layer 1
 62
     7
370
    20
100
AcDbVertex
100
AcDb2dVertex
 10
153.0373426266712
 20
197.6651095425976
 30
0.0
  0
SEQEND
  5
FD
330
FA
100
AcDbEntity
  8
Layer 1
370
    20
  0
POLYLINE
  5
FE
330
7C
100
AcDbEntity
  8
Layer 1
 62
     7
370
    20
100
AcDb2dPolyline
 66
     1
 10
0.0
 20
0.0
 30
0.0
  0
VERTEX
  5
FF
330
FE
100
AcDbEntity
  8
Layer 1
 62
     7
370
    20
100
AcDbVertex
100
AcDb2dVertex
 10
154.0371093364907
 20
196.9147677459102
 30
0.0
  0
VERTEX
  5
100
330
FE
100
AcDbEntity
  8
Layer 1
 62
     7
370
    20
100
AcDbVertex
100
AcDb2dVertex
 10
153.0373426266712
 20
196.1654594778684
 30
0.0
  0
SEQEND
  5
101
330
FE
100
AcDbEntity
  8
Layer 1
370
    20
  0
POLYLINE
  5
102
330
7C
100
AcDbEntity
  8
Layer 1
 62
     7
370
    20
100
AcDb2dPolyline
 66
     1
 10
0.0
 20
0.0
 30
0.0
  0
VERTEX
  5
103
330
102
100
AcDbEntity
  8
Layer 1
 62
     7
370
    20
100
AcDbVertex
100
AcDb2dVertex
 10
154.0371093364907
 20
195.415117681181
 30
0.0
  0
VERTEX
  5
104
330
102
100
AcDbEntity
  8
Layer 1
 62
     7
370
    20
100
AcDbVertex
100
AcDb2dVertex
 10
153.0373426266712
 20
196.1654594778684
 30
0.0
  0
SEQEND
  5
105
330
102
100
AcDbEntity
  8
Layer 1
370
    20
  0
POLYLINE
  5
106
330
7C
100
AcDbEntity
  8
Layer 1
 62
     7
370
    20
100
AcDb2dPolyline
 66
     1
 10
0.0
 20
0.0
 30
0.0
  0
VERTEX
  5
107
330
106
100
AcDbEntity
  8
Layer 1
 62
     7
370
    20
100
AcDbVertex
100
AcDb2dVertex
 10
154.0371093364907
 20
195.415117681181
 30
0.0
  0
VERTEX
  5
108
330
106
100
AcDbEntity
  8
Layer 1
 62
     7
370
    20
100
AcDbVertex
100
AcDb2dVertex
 10
153.0373426266712
 20
194.6658094131391
 30
0.0
  0
SEQEND
  5
109
330
106
100
AcDbEntity
  8
Layer 1
370
    20
  0
POLYLINE
  5
10A
330
7C
100
AcDbEntity
  8
Layer 1
 62
     7
370
    20
100
AcDb2dPolyline
 66
     1
 10
0.0
 20
0.0
 30
0.0
  0
VERTEX
  5
10B
330
10A
100
AcDbEntity
  8
Layer 1
 62
     7
370
    20
100
AcDbVertex
100
AcDb2dVertex
 10
154.0371093364907
 20
196.9158012745558
 30
0.0
  0
VERTEX
  5
10C
330
10A
100
AcDbEntity
  8
Layer 1
 62
     7
370
    20
100
AcDbVertex
100
AcDb2dVertex
 10
153.0373426266712
 20
197.6651095425976
 30
0.0
  0
SEQEND
  5
10D
330
10A
100
AcDbEntity
  8
Layer 1
370
    20
  0
POLYLINE
  5
10E
330
7C
100
AcDbEntity
  8
Layer 1
 62
     7
370
    20
100
AcDb2dPolyline
 66
     1
 10
0.0
 20
0.0
 30
0.0
  0
VERTEX
  5
10F
330
10E
100
AcDbEntity
  8
Layer 1
 62
     7
370
    20
100
AcDbVertex
100
AcDb2dVertex
 10
144.2378797382461
 20
196.1654594778684
 30
0.0
  0
VERTEX
  5
110
330
10E
100
AcDbEntity
  8
Layer 1
 62
     7
370
    20
100
AcDbVertex
100
AcDb2dVertex
 10
145.2376464480656
 20
196.9147677459102
 30
0.0
  0
SEQEND
  5
111
330
10E
100
AcDbEntity
  8
Layer 1
370
    20
  0
POLYLINE
  5
112
330
7C
100
AcDbEntity
  8
Layer 1
 62
     7
370
    20
100
AcDb2dPolyline
 66
     1
 10
0.0
 20
0.0
 30
0.0
  0
VERTEX
  5
113
330
112
100
AcDbEntity
  8
Layer 1
 62
     7
370
    20
100
AcDbVertex
100
AcDb2dVertex
 10
144.2378797382461
 20
197.6651095425976
 30
0.0
  0
VERTEX
  5
114
330
112
100
AcDbEntity
  8
Layer 1
 62
     7
370
    20
100
AcDbVertex
100
AcDb2dVertex
 10
145.2376464480656
 20
196.9147677459102
 30
0.0
  0
SEQEND
  5
115
330
112
100
AcDbEntity
  8
Layer 1
370
    20
  0
POLYLINE
  5
116
330
7C
100
AcDbEntity
  8
Layer 1
 62
     7
370
    20
100
AcDb2dPolyline
 66
     1
 10
0.0
 20
0.0
 30
0.0
  0
VERTEX
  5
117
330
116
100
AcDbEntity
  8
Layer 1
 62
     7
370
    20
100
AcDbVertex
100
AcDb2dVertex
 10
144.2378797382461
 20
196.1654594778684
 30
0.0
  0
VERTEX
  5
118
330
116
100
AcDbEntity
  8
Layer 1
 62
     7
370
    20
100
AcDbVertex
100
AcDb2dVertex
 10
145.2376464480656
 20
195.415117681181
 30
0.0
  0
SEQEND
  5
119
330
116
100
AcDbEntity
  8
Layer 1
370
    20
  0
SPLINE
  5
11A
330
7C
100
AcDbEntity
  8
Layer 1
 62
     7
370
     9
100
AcDbSpline
210
0.0
220
0.0
230
1.0
 70
     8
 71
     3
 72
     8
 73
     4
 74
     0
 42
0.0000000001
 43
0.0000000001
 40
0.0
 40
0.0
 40
0.0
 40
0.0
 40
1.0
 40
1.0
 40
1.0
 40
1.0
 10
149.1381835564655
 20
187.5406629305454
 30
0.0
 10
145.8701659791575
 20
187.4631482821273
 30
0.0
 10
143.7162922817793
 20
187.2736680304385
 30
0.0
 10
144.3040255715629
 20
187.115193638117
 30
0.0
  0
SPLINE
  5
11B
330
7C
100
AcDbEntity
  8
Layer 1
 62
     7
370
     9
100
AcDbSpline
210
0.0
220
0.0
230
1.0
 70
     8
 71
     3
 72
     8
 73
     4
 74
     0
 42
0.0000000001
 43
0.0000000001
 40
0.0
 40
0.0
 40
0.0
 40
0.0
 40
1.0
 40
1.0
 40
1.0
 40
1.0
 10
149.1381835564655
 20
186.0406683562676
 30
0.0
 10
152.4075791719676
 20
186.1181830046857
 30
0.0
 10
154.5593858120546
 20
186.3076632563745
 30
0.0
 10
153.9702744840769
 20
186.4654486295989
 30
0.0
  0
SPLINE
  5
11C
330
7C
100
AcDbEntity
  8
Layer 1
 62
     7
370
     9
100
AcDbSpline
210
0.0
220
0.0
230
1.0
 70
     8
 71
     3
 72
     8
 73
     4
 74
     0
 42
0.0000000001
 43
0.0000000001
 40
0.0
 40
0.0
 40
0.0
 40
0.0
 40
1.0
 40
1.0
 40
1.0
 40
1.0
 10
149.1381835564655
 20
189.0403129952747
 30
0.0
 10
145.8680989218663
 20
188.9627983468565
 30
0.0
 10
143.7162922817793
 20
188.7733180951678
 30
0.0
 10
144.3040255715629
 20
188.6155327219433
 30
0.0
  0
SPLINE
  5
11D
330
7C
100
AcDbEntity
  8
Layer 1
 62
     7
370
     9
100
AcDbSpline
210
0.0
220
0.0
230
1.0
 70
     8
 71
     3
 72
     8
 73
     4
 74
     0
 42
0.0000000001
 43
0.0000000001
 40
0.0
 40
0.0
 40
0.0
 40
0.0
 40
1.0
 40
1.0
 40
1.0
 40
1.0
 10
149.1381835564655
 20
187.5406629305454
 30
0.0
 10
152.4055121146764
 20
187.6181775789635
 30
0.0
 10
154.5580077738605
 20
187.8076578306523
 30
0.0
 10
153.9709635031739
 20
187.9654432038767
 30
0.0
  0
SPLINE
  5
11E
330
7C
100
AcDbEntity
  8
Layer 1
 62
     7
370
     9
100
AcDbSpline
210
0.0
220
0.0
230
1.0
 70
     8
 71
     3
 72
     8
 73
     4
 74
     0
 42
0.0000000001
 43
0.0000000001
 40
0.0
 40
0.0
 40
0.0
 40
0.0
 40
1.0
 40
1.0
 40
1.0
 40
1.0
 10
149.1381835564655
 20
184.5410182915384
 30
0.0
 10
145.8701659791575
 20
184.4635036431202
 30
0.0
 10
143.7162922817793
 20
184.2740233914315
 30
0.0
 10
144.3040255715629
 20
184.1152044895615
 30
0.0
  0
SPLINE
  5
11F
330
7C
100
AcDbEntity
  8
Layer 1
 62
     7
370
     9
100
AcDbSpline
210
0.0
220
0.0
230
1.0
 70
     8
 71
     3
 72
     8
 73
     4
 74
     0
 42
0.0000000001
 43
0.0000000001
 40
0.0
 40
0.0
 40
0.0
 40
0.0
 40
1.0
 40
1.0
 40
1.0
 40
1.0
 10
149.1381835564655
 20
186.0406683562676
 30
0.0
 10
145.8680989218663
 20
185.9631537078495
 30
0.0
 10
143.7162922817793
 20
185.7736734561608
 30
0.0
 10
144.3040255715629
 20
185.6151990638393
 30
0.0
  0
SPLINE
  5
120
330
7C
100
AcDbEntity
  8
Layer 1
 62
     7
370
     9
100
AcDbSpline
210
0.0
220
0.0
230
1.0
 70
     8
 71
     3
 72
     8
 73
     4
 74
     0
 42
0.0000000001
 43
0.0000000001
 40
0.0
 40
0.0
 40
0.0
 40
0.0
 40
1.0
 40
1.0
 40
1.0
 40
1.0
 10
149.1381835564655
 20
184.5410182915384
 30
0.0
 10
152.4055121146764
 20
184.6185329399565
 30
0.0
 10
154.5580077738605
 20
184.8069796629997
 30
0.0
 10
153.9709635031739
 20
184.9657985648697
 30
0.0
  0
SPLINE
  5
121
330
7C
100
AcDbEntity
  8
Layer 1
 62
     7
370
     9
100
AcDbSpline
210
0.0
220
0.0
230
1.0
 70
     8
 71
     3
 72
     8
 73
     4
 74
     0
 42
0.0000000001
 43
0.0000000001
 40
0.0
 40
0.0
 40
0.0
 40
0.0
 40
1.0
 40
1.0
 40
1.0
 40
1.0
 10
149.1381835564655
 20
193.5406412276565
 30
0.0
 10
145.8701659791575
 20
193.4631265792384
 30
0.0
 10
143.7162922817793
 20
193.2736463275496
 30
0.0
 10
144.3040255715629
 20
193.1151719352281
 30
0.0
  0
SPLINE
  5
122
330
7C
100
AcDbEntity
  8
Layer 1
 62
     7
370
     9
100
AcDbSpline
210
0.0
220
0.0
230
1.0
 70
     8
 71
     3
 72
     8
 73
     4
 74
     0
 42
0.0000000001
 43
0.0000000001
 40
0.0
 40
0.0
 40
0.0
 40
0.0
 40
1.0
 40
1.0
 40
1.0
 40
1.0
 10
149.1381835564655
 20
192.0406466533787
 30
0.0
 10
152.4075791719676
 20
192.1185058113454
 30
0.0
 10
154.5593858120546
 20
192.3069525343886
 30
0.0
 10
153.9702744840769
 20
192.4654269267101
 30
0.0
  0
SPLINE
  5
123
330
7C
100
AcDbEntity
  8
Layer 1
 62
     7
370
     9
100
AcDbSpline
210
0.0
220
0.0
230
1.0
 70
     8
 71
     3
 72
     8
 73
     4
 74
     0
 42
0.0000000001
 43
0.0000000001
 40
0.0
 40
0.0
 40
0.0
 40
0.0
 40
1.0
 40
1.0
 40
1.0
 40
1.0
 10
149.1381835564655
 20
195.0406358019343
 30
0.0
 10
145.8680989218663
 20
194.9627766439677
 30
0.0
 10
143.7162922817793
 20
194.7732963922789
 30
0.0
 10
144.3040255715629
 20
194.615855528603
 30
0.0
  0
SPLINE
  5
124
330
7C
100
AcDbEntity
  8
Layer 1
 62
     7
370
     9
100
AcDbSpline
210
0.0
220
0.0
230
1.0
 70
     8
 71
     3
 72
     8
 73
     4
 74
     0
 42
0.0000000001
 43
0.0000000001
 40
0.0
 40
0.0
 40
0.0
 40
0.0
 40
1.0
 40
1.0
 40
1.0
 40
1.0
 10
149.1381835564655
 20
193.5406412276565
 30
0.0
 10
152.4055121146764
 20
193.6181558760746
 30
0.0
 10
154.5580077738605
 20
193.8069471086663
 30
0.0
 10
153.9709635031739
 20
193.9654215009878
 30
0.0
  0
SPLINE
  5
125
330
7C
100
AcDbEntity
  8
Layer 1
 62
     7
370
     9
100
AcDbSpline
210
0.0
220
0.0
230
1.0
 70
     8
 71
     3
 72
     8
 73
     4
 74
     0
 42
0.0000000001
 43
0.0000000001
 40
0.0
 40
0.0
 40
0.0
 40
0.0
 40
1.0
 40
1.0
 40
1.0
 40
1.0
 10
149.1381835564655
 20
190.5399630600039
 30
0.0
 10
145.8701659791575
 20
190.4624484115858
 30
0.0
 10
143.7162922817793
 20
190.2740016885426
 30
0.0
 10
144.3040255715629
 20
190.1155272962211
 30
0.0
  0
SPLINE
  5
126
330
7C
100
AcDbEntity
  8
Layer 1
 62
     7
370
     9
100
AcDbSpline
210
0.0
220
0.0
230
1.0
 70
     8
 71
     3
 72
     8
 73
     4
 74
     0
 42
0.0000000001
 43
0.0000000001
 40
0.0
 40
0.0
 40
0.0
 40
0.0
 40
1.0
 40
1.0
 40
1.0
 40
1.0
 10
149.1381835564655
 20
189.0403129952747
 30
0.0
 10
152.4075791719676
 20
189.1178276436928
 30
0.0
 10
154.5593858120546
 20
189.3073078953815
 30
0.0
 10
153.9702744840769
 20
189.465782287703
 30
0.0
  0
SPLINE
  5
127
330
7C
100
AcDbEntity
  8
Layer 1
 62
     7
370
     9
100
AcDbSpline
210
0.0
220
0.0
230
1.0
 70
     8
 71
     3
 72
     8
 73
     4
 74
     0
 42
0.0000000001
 43
0.0000000001
 40
0.0
 40
0.0
 40
0.0
 40
0.0
 40
1.0
 40
1.0
 40
1.0
 40
1.0
 10
149.1381835564655
 20
192.0406466533787
 30
0.0
 10
145.8680989218663
 20
191.9631320049606
 30
0.0
 10
143.7162922817793
 20
191.7736517532719
 30
0.0
 10
144.3040255715629
 20
191.6151773609504
 30
0.0
  0
SPLINE
  5
128
330
7C
100
AcDbEntity
  8
Layer 1
 62
     7
370
     9
100
AcDbSpline
210
0.0
220
0.0
230
1.0
 70
     8
 71
     3
 72
     8
 73
     4
 74
     0
 42
0.0000000001
 43
0.0000000001
 40
0.0
 40
0.0
 40
0.0
 40
0.0
 40
1.0
 40
1.0
 40
1.0
 40
1.0
 10
149.1381835564655
 20
190.5399630600039
 30
0.0
 10
152.4055121146764
 20
190.617477708422
 30
0.0
 10
154.5580077738605
 20
190.8073024696593
 30
0.0
 10
153.9709635031739
 20
190.9657768619808
 30
0.0
  0
SPLINE
  5
129
330
7C
100
AcDbEntity
  8
Layer 1
 62
     7
370
     9
100
AcDbSpline
210
0.0
220
0.0
230
1.0
 70
     8
 71
     3
 72
     8
 73
     4
 74
     0
 42
0.0000000001
 43
0.0000000001
 40
0.0
 40
0.0
 40
0.0
 40
0.0
 40
1.0
 40
1.0
 40
1.0
 40
1.0
 10
149.1381835564655
 20
196.5402858666635
 30
0.0
 10
145.8701659791575
 20
196.4627712182454
 30
0.0
 10
143.7162922817793
 20
196.2729464570082
 30
0.0
 10
144.3040255715629
 20
196.1155055933322
 30
0.0
  0
SPLINE
  5
12A
330
7C
100
AcDbEntity
  8
Layer 1
 62
     7
370
     9
100
AcDbSpline
210
0.0
220
0.0
230
1.0
 70
     8
 71
     3
 72
     8
 73
     4
 74
     0
 42
0.0000000001
 43
0.0000000001
 40
0.0
 40
0.0
 40
0.0
 40
0.0
 40
1.0
 40
1.0
 40
1.0
 40
1.0
 10
149.1381835564655
 20
195.0406358019343
 30
0.0
 10
152.4075791719676
 20
195.1178059408039
 30
0.0
 10
154.5593858120546
 20
195.3072861924926
 30
0.0
 10
153.9702744840769
 20
195.4657605848141
 30
0.0
  0
SPLINE
  5
12B
330
7C
100
AcDbEntity
  8
Layer 1
 62
     7
370
     9
100
AcDbSpline
210
0.0
220
0.0
230
1.0
 70
     8
 71
     3
 72
     8
 73
     4
 74
     0
 42
0.0000000001
 43
0.0000000001
 40
0.0
 40
0.0
 40
0.0
 40
0.0
 40
1.0
 40
1.0
 40
1.0
 40
1.0
 10
149.1381835564655
 20
198.0399359313928
 30
0.0
 10
145.8680989218663
 20
197.9624212829747
 30
0.0
 10
143.7162922817793
 20
197.773630050383
 30
0.0
 10
144.3040255715629
 20
197.6151556580615
 30
0.0
  0
SPLINE
  5
12C
330
7C
100
AcDbEntity
  8
Layer 1
 62
     7
370
     9
100
AcDbSpline
210
0.0
220
0.0
230
1.0
 70
     8
 71
     3
 72
     8
 73
     4
 74
     0
 42
0.0000000001
 43
0.0000000001
 40
0.0
 40
0.0
 40
0.0
 40
0.0
 40
1.0
 40
1.0
 40
1.0
 40
1.0
 10
149.1381835564655
 20
196.5402858666635
 30
0.0
 10
152.4055121146764
 20
196.6178005150817
 30
0.0
 10
154.5580077738605
 20
196.8072807667704
 30
0.0
 10
153.9709635031739
 20
196.9657551590919
 30
0.0
  0
POLYLINE
  5
12D
330
7C
100
AcDbEntity
  8
Layer 1
 62
     7
370
    20
100
AcDb2dPolyline
 66
     1
 10
0.0
 20
0.0
 30
0.0
  0
VERTEX
  5
12E
330
12D
100
AcDbEntity
  8
Layer 1
 62
     7
370
    20
100
AcDbVertex
100
AcDb2dVertex
 10
154.0371093364907
 20
199.9147568944658
 30
0.0
  0
VERTEX
  5
12F
330
12D
100
AcDbEntity
  8
Layer 1
 62
     7
370
    20
100
AcDbVertex
100
AcDb2dVertex
 10
153.0373426266712
 20
199.1651041168754
 30
0.0
  0
SEQEND
  5
130
330
12D
100
AcDbEntity
  8
Layer 1
370
    20
  0
POLYLINE
  5
131
330
7C
100
AcDbEntity
  8
Layer 1
 62
     7
370
    20
100
AcDb2dPolyline
 66
     1
 10
0.0
 20
0.0
 30
0.0
  0
VERTEX
  5
132
330
131
100
AcDbEntity
  8
Layer 1
 62
     7
370
    20
100
AcDbVertex
100
AcDb2dVertex
 10
154.0371093364907
 20
198.414762320188
 30
0.0
  0
VERTEX
  5
133
330
131
100
AcDbEntity
  8
Layer 1
 62
     7
370
    20
100
AcDbVertex
100
AcDb2dVertex
 10
153.0373426266712
 20
199.1651041168754
 30
0.0
  0
SEQEND
  5
134
330
131
100
AcDbEntity
  8
Layer 1
370
    20
  0
POLYLINE
  5
135
330
7C
100
AcDbEntity
  8
Layer 1
 62
     7
370
    20
100
AcDb2dPolyline
 66
     1
 10
0.0
 20
0.0
 30
0.0
  0
VERTEX
  5
136
330
135
100
AcDbEntity
  8
Layer 1
 62
     7
370
    20
100
AcDbVertex
100
AcDb2dVertex
 10
154.0371093364907
 20
199.9147568944658
 30
0.0
  0
VERTEX
  5
137
330
135
100
AcDbEntity
  8
Layer 1
 62
     7
370
    20
100
AcDbVertex
100
AcDb2dVertex
 10
153.0373426266712
 20
200.6647541816046
 30
0.0
  0
SEQEND
  5
138
330
135
100
AcDbEntity
  8
Layer 1
370
    20
  0
POLYLINE
  5
139
330
7C
100
AcDbEntity
  8
Layer 1
 62
     7
370
    20
100
AcDb2dPolyline
 66
     1
 10
0.0
 20
0.0
 30
0.0
  0
VERTEX
  5
13A
330
139
100
AcDbEntity
  8
Layer 1
 62
     7
370
    20
100
AcDbVertex
100
AcDb2dVertex
 10
144.2378797382461
 20
199.1651041168754
 30
0.0
  0
VERTEX
  5
13B
330
139
100
AcDbEntity
  8
Layer 1
 62
     7
370
    20
100
AcDbVertex
100
AcDb2dVertex
 10
145.2376464480656
 20
199.9147568944658
 30
0.0
  0
SEQEND
  5
13C
330
139
100
AcDbEntity
  8
Layer 1
370
    20
  0
POLYLINE
  5
13D
330
7C
100
AcDbEntity
  8
Layer 1
 62
     7
370
    20
100
AcDb2dPolyline
 66
     1
 10
0.0
 20
0.0
 30
0.0
  0
VERTEX
  5
13E
330
13D
100
AcDbEntity
  8
Layer 1
 62
     7
370
    20
100
AcDbVertex
100
AcDb2dVertex
 10
144.2378797382461
 20
200.6647541816046
 30
0.0
  0
VERTEX
  5
13F
330
13D
100
AcDbEntity
  8
Layer 1
 62
     7
370
    20
100
AcDbVertex
100
AcDb2dVertex
 10
145.2376464480656
 20
199.9147568944658
 30
0.0
  0
SEQEND
  5
140
330
13D
100
AcDbEntity
  8
Layer 1
370
    20
  0
POLYLINE
  5
141
330
7C
100
AcDbEntity
  8
Layer 1
 62
     7
370
    20
100
AcDb2dPolyline
 66
     1
 10
0.0
 20
0.0
 30
0.0
  0
VERTEX
  5
142
330
141
100
AcDbEntity
  8
Layer 1
 62
     7
370
    20
100
AcDbVertex
100
AcDb2dVertex
 10
144.2378797382461
 20
199.1644150977783
 30
0.0
  0
VERTEX
  5
143
330
141
100
AcDbEntity
  8
Layer 1
 62
     7
370
    20
100
AcDbVertex
100
AcDb2dVertex
 10
145.2376464480656
 20
198.414762320188
 30
0.0
  0
SEQEND
  5
144
330
141
100
AcDbEntity
  8
Layer 1
370
    20
  0
POLYLINE
  5
145
330
7C
100
AcDbEntity
  8
Layer 1
 62
     7
370
    20
100
AcDb2dPolyline
 66
     1
 10
0.0
 20
0.0
 30
0.0
  0
VERTEX
  5
146
330
145
100
AcDbEntity
  8
Layer 1
 62
     7
370
    20
100
AcDbVertex
100
AcDb2dVertex
 10
144.2378797382461
 20
200.6647541816046
 30
0.0
  0
VERTEX
  5
147
330
145
100
AcDbEntity
  8
Layer 1
 62
     7
370
    20
100
AcDbVertex
100
AcDb2dVertex
 10
145.2376464480656
 20
201.4150959782921
 30
0.0
  0
SEQEND
  5
148
330
145
100
AcDbEntity
  8
Layer 1
370
    20
  0
POLYLINE
  5
149
330
7C
100
AcDbEntity
  8
Layer 1
 62
     7
370
    20
100
AcDb2dPolyline
 66
     1
 10
0.0
 20
0.0
 30
0.0
  0
VERTEX
  5
14A
330
149
100
AcDbEntity
  8
Layer 1
 62
     7
370
    20
100
AcDbVertex
100
AcDb2dVertex
 10
144.2378797382461
 20
197.6654540521461
 30
0.0
  0
VERTEX
  5
14B
330
149
100
AcDbEntity
  8
Layer 1
 62
     7
370
    20
100
AcDbVertex
100
AcDb2dVertex
 10
145.2376464480656
 20
198.414762320188
 30
0.0
  0
SEQEND
  5
14C
330
149
100
AcDbEntity
  8
Layer 1
370
    20
  0
POLYLINE
  5
14D
330
7C
100
AcDbEntity
  8
Layer 1
 62
     7
370
    20
100
AcDb2dPolyline
 66
     1
 10
0.0
 20
0.0
 30
0.0
  0
VERTEX
  5
14E
330
14D
100
AcDbEntity
  8
Layer 1
 62
     7
370
    20
100
AcDbVertex
100
AcDb2dVertex
 10
154.0371093364907
 20
205.9147351915769
 30
0.0
  0
VERTEX
  5
14F
330
14D
100
AcDbEntity
  8
Layer 1
 62
     7
370
    20
100
AcDbVertex
100
AcDb2dVertex
 10
153.0373426266712
 20
205.1643933948895
 30
0.0
  0
SEQEND
  5
150
330
14D
100
AcDbEntity
  8
Layer 1
370
    20
  0
POLYLINE
  5
151
330
7C
100
AcDbEntity
  8
Layer 1
 62
     7
370
    20
100
AcDb2dPolyline
 66
     1
 10
0.0
 20
0.0
 30
0.0
  0
VERTEX
  5
152
330
151
100
AcDbEntity
  8
Layer 1
 62
     7
370
    20
100
AcDbVertex
100
AcDb2dVertex
 10
154.0371093364907
 20
204.4147406172991
 30
0.0
  0
VERTEX
  5
153
330
151
100
AcDbEntity
  8
Layer 1
 62
     7
370
    20
100
AcDbVertex
100
AcDb2dVertex
 10
153.0373426266712
 20
205.1643933948895
 30
0.0
  0
SEQEND
  5
154
330
151
100
AcDbEntity
  8
Layer 1
370
    20
  0
POLYLINE
  5
155
330
7C
100
AcDbEntity
  8
Layer 1
 62
     7
370
    20
100
AcDb2dPolyline
 66
     1
 10
0.0
 20
0.0
 30
0.0
  0
VERTEX
  5
156
330
155
100
AcDbEntity
  8
Layer 1
 62
     7
370
    20
100
AcDbVertex
100
AcDb2dVertex
 10
154.0371093364907
 20
204.4147406172991
 30
0.0
  0
VERTEX
  5
157
330
155
100
AcDbEntity
  8
Layer 1
 62
     7
370
    20
100
AcDbVertex
100
AcDb2dVertex
 10
153.0373426266712
 20
203.6643988206117
 30
0.0
  0
SEQEND
  5
158
330
155
100
AcDbEntity
  8
Layer 1
370
    20
  0
POLYLINE
  5
159
330
7C
100
AcDbEntity
  8
Layer 1
 62
     7
370
    20
100
AcDb2dPolyline
 66
     1
 10
0.0
 20
0.0
 30
0.0
  0
VERTEX
  5
15A
330
159
100
AcDbEntity
  8
Layer 1
 62
     7
370
    20
100
AcDbVertex
100
AcDb2dVertex
 10
154.0371093364907
 20
205.9147351915769
 30
0.0
  0
VERTEX
  5
15B
330
159
100
AcDbEntity
  8
Layer 1
 62
     7
370
    20
100
AcDbVertex
100
AcDb2dVertex
 10
153.0373426266712
 20
206.6650769882643
 30
0.0
  0
SEQEND
  5
15C
330
159
100
AcDbEntity
  8
Layer 1
370
    20
  0
POLYLINE
  5
15D
330
7C
100
AcDbEntity
  8
Layer 1
 62
     7
370
    20
100
AcDb2dPolyline
 66
     1
 10
0.0
 20
0.0
 30
0.0
  0
VERTEX
  5
15E
330
15D
100
AcDbEntity
  8
Layer 1
 62
     7
370
    20
100
AcDbVertex
100
AcDb2dVertex
 10
144.2378797382461
 20
205.1643933948895
 30
0.0
  0
VERTEX
  5
15F
330
15D
100
AcDbEntity
  8
Layer 1
 62
     7
370
    20
100
AcDbVertex
100
AcDb2dVertex
 10
145.2376464480656
 20
205.9147351915769
 30
0.0
  0
SEQEND
  5
160
330
15D
100
AcDbEntity
  8
Layer 1
370
    20
  0
POLYLINE
  5
161
330
7C
100
AcDbEntity
  8
Layer 1
 62
     7
370
    20
100
AcDb2dPolyline
 66
     1
 10
0.0
 20
0.0
 30
0.0
  0
VERTEX
  5
162
330
161
100
AcDbEntity
  8
Layer 1
 62
     7
370
    20
100
AcDbVertex
100
AcDb2dVertex
 10
144.2378797382461
 20
206.6650769882643
 30
0.0
  0
VERTEX
  5
163
330
161
100
AcDbEntity
  8
Layer 1
 62
     7
370
    20
100
AcDbVertex
100
AcDb2dVertex
 10
145.2376464480656
 20
205.9147351915769
 30
0.0
  0
SEQEND
  5
164
330
161
100
AcDbEntity
  8
Layer 1
370
    20
  0
POLYLINE
  5
165
330
7C
100
AcDbEntity
  8
Layer 1
 62
     7
370
    20
100
AcDb2dPolyline
 66
     1
 10
0.0
 20
0.0
 30
0.0
  0
VERTEX
  5
166
330
165
100
AcDbEntity
  8
Layer 1
 62
     7
370
    20
100
AcDbVertex
100
AcDb2dVertex
 10
144.2378797382461
 20
205.1643933948895
 30
0.0
  0
VERTEX
  5
167
330
165
100
AcDbEntity
  8
Layer 1
 62
     7
370
    20
100
AcDbVertex
100
AcDb2dVertex
 10
145.2376464480656
 20
204.4147406172991
 30
0.0
  0
SEQEND
  5
168
330
165
100
AcDbEntity
  8
Layer 1
370
    20
  0
POLYLINE
  5
169
330
7C
100
AcDbEntity
  8
Layer 1
 62
     7
370
    20
100
AcDb2dPolyline
 66
     1
 10
0.0
 20
0.0
 30
0.0
  0
VERTEX
  5
16A
330
169
100
AcDbEntity
  8
Layer 1
 62
     7
370
    20
100
AcDbVertex
100
AcDb2dVertex
 10
144.2378797382461
 20
206.6650769882643
 30
0.0
  0
VERTEX
  5
16B
330
169
100
AcDbEntity
  8
Layer 1
 62
     7
370
    20
100
AcDbVertex
100
AcDb2dVertex
 10
145.2376464480656
 20
207.4143852563061
 30
0.0
  0
SEQEND
  5
16C
330
169
100
AcDbEntity
  8
Layer 1
370
    20
  0
POLYLINE
  5
16D
330
7C
100
AcDbEntity
  8
Layer 1
 62
     7
370
    20
100
AcDb2dPolyline
 66
     1
 10
0.0
 20
0.0
 30
0.0
  0
VERTEX
  5
16E
330
16D
100
AcDbEntity
  8
Layer 1
 62
     7
370
    20
100
AcDbVertex
100
AcDb2dVertex
 10
154.0371093364907
 20
202.9150905525698
 30
0.0
  0
VERTEX
  5
16F
330
16D
100
AcDbEntity
  8
Layer 1
 62
     7
370
    20
100
AcDbVertex
100
AcDb2dVertex
 10
153.0373426266712
 20
202.1647487558824
 30
0.0
  0
SEQEND
  5
170
330
16D
100
AcDbEntity
  8
Layer 1
370
    20
  0
POLYLINE
  5
171
330
7C
100
AcDbEntity
  8
Layer 1
 62
     7
370
    20
100
AcDb2dPolyline
 66
     1
 10
0.0
 20
0.0
 30
0.0
  0
VERTEX
  5
172
330
171
100
AcDbEntity
  8
Layer 1
 62
     7
370
    20
100
AcDbVertex
100
AcDb2dVertex
 10
154.0371093364907
 20
201.414406959195
 30
0.0
  0
VERTEX
  5
173
330
171
100
AcDbEntity
  8
Layer 1
 62
     7
370
    20
100
AcDbVertex
100
AcDb2dVertex
 10
153.0373426266712
 20
202.1647487558824
 30
0.0
  0
SEQEND
  5
174
330
171
100
AcDbEntity
  8
Layer 1
370
    20
  0
POLYLINE
  5
175
330
7C
100
AcDbEntity
  8
Layer 1
 62
     7
370
    20
100
AcDb2dPolyline
 66
     1
 10
0.0
 20
0.0
 30
0.0
  0
VERTEX
  5
176
330
175
100
AcDbEntity
  8
Layer 1
 62
     7
370
    20
100
AcDbVertex
100
AcDb2dVertex
 10
154.0371093364907
 20
201.4150959782921
 30
0.0
  0
VERTEX
  5
177
330
175
100
AcDbEntity
  8
Layer 1
 62
     7
370
    20
100
AcDbVertex
100
AcDb2dVertex
 10
153.0373426266712
 20
200.6647541816046
 30
0.0
  0
SEQEND
  5
178
330
175
100
AcDbEntity
  8
Layer 1
370
    20
  0
POLYLINE
  5
179
330
7C
100
AcDbEntity
  8
Layer 1
 62
     7
370
    20
100
AcDb2dPolyline
 66
     1
 10
0.0
 20
0.0
 30
0.0
  0
VERTEX
  5
17A
330
179
100
AcDbEntity
  8
Layer 1
 62
     7
370
    20
100
AcDbVertex
100
AcDb2dVertex
 10
154.0371093364907
 20
202.9150905525698
 30
0.0
  0
VERTEX
  5
17B
330
179
100
AcDbEntity
  8
Layer 1
 62
     7
370
    20
100
AcDbVertex
100
AcDb2dVertex
 10
153.0373426266712
 20
203.6643988206117
 30
0.0
  0
SEQEND
  5
17C
330
179
100
AcDbEntity
  8
Layer 1
370
    20
  0
POLYLINE
  5
17D
330
7C
100
AcDbEntity
  8
Layer 1
 62
     7
370
    20
100
AcDb2dPolyline
 66
     1
 10
0.0
 20
0.0
 30
0.0
  0
VERTEX
  5
17E
330
17D
100
AcDbEntity
  8
Layer 1
 62
     7
370
    20
100
AcDbVertex
100
AcDb2dVertex
 10
144.2378797382461
 20
202.1647487558824
 30
0.0
  0
VERTEX
  5
17F
330
17D
100
AcDbEntity
  8
Layer 1
 62
     7
370
    20
100
AcDbVertex
100
AcDb2dVertex
 10
145.2376464480656
 20
202.9150905525698
 30
0.0
  0
SEQEND
  5
180
330
17D
100
AcDbEntity
  8
Layer 1
370
    20
  0
POLYLINE
  5
181
330
7C
100
AcDbEntity
  8
Layer 1
 62
     7
370
    20
100
AcDb2dPolyline
 66
     1
 10
0.0
 20
0.0
 30
0.0
  0
VERTEX
  5
182
330
181
100
AcDbEntity
  8
Layer 1
 62
     7
370
    20
100
AcDbVertex
100
AcDb2dVertex
 10
144.2378797382461
 20
203.6643988206117
 30
0.0
  0
VERTEX
  5
183
330
181
100
AcDbEntity
  8
Layer 1
 62
     7
370
    20
100
AcDbVertex
100
AcDb2dVertex
 10
145.2376464480656
 20
202.9150905525698
 30
0.0
  0
SEQEND
  5
184
330
181
100
AcDbEntity
  8
Layer 1
370
    20
  0
POLYLINE
  5
185
330
7C
100
AcDbEntity
  8
Layer 1
 62
     7
370
    20
100
AcDb2dPolyline
 66
     1
 10
0.0
 20
0.0
 30
0.0
  0
VERTEX
  5
186
330
185
100
AcDbEntity
  8
Layer 1
 62
     7
370
    20
100
AcDbVertex
100
AcDb2dVertex
 10
144.2378797382461
 20
202.1647487558824
 30
0.0
  0
VERTEX
  5
187
330
185
100
AcDbEntity
  8
Layer 1
 62
     7
370
    20
100
AcDbVertex
100
AcDb2dVertex
 10
145.2376464480656
 20
201.414406959195
 30
0.0
  0
SEQEND
  5
188
330
185
100
AcDbEntity
  8
Layer 1
370
    20
  0
POLYLINE
  5
189
330
7C
100
AcDbEntity
  8
Layer 1
 62
     7
370
    20
100
AcDb2dPolyline
 66
     1
 10
0.0
 20
0.0
 30
0.0
  0
VERTEX
  5
18A
330
189
100
AcDbEntity
  8
Layer 1
 62
     7
370
    20
100
AcDbVertex
100
AcDb2dVertex
 10
144.2378797382461
 20
203.6643988206117
 30
0.0
  0
VERTEX
  5
18B
330
189
100
AcDbEntity
  8
Layer 1
 62
     7
370
    20
100
AcDbVertex
100
AcDb2dVertex
 10
145.2376464480656
 20
204.4147406172991
 30
0.0
  0
SEQEND
  5
18C
330
189
100
AcDbEntity
  8
Layer 1
370
    20
  0
POLYLINE
  5
18D
330
7C
100
AcDbEntity
  8
Layer 1
 62
     7
370
    20
100
AcDb2dPolyline
 66
     1
 10
0.0
 20
0.0
 30
0.0
  0
VERTEX
  5
18E
330
18D
100
AcDbEntity
  8
Layer 1
 62
     7
370
    20
100
AcDbVertex
100
AcDb2dVertex
 10
154.0371093364907
 20
207.4143852563061
 30
0.0
  0
VERTEX
  5
18F
330
18D
100
AcDbEntity
  8
Layer 1
 62
     7
370
    20
100
AcDbVertex
100
AcDb2dVertex
 10
153.0373426266712
 20
208.1647270529936
 30
0.0
  0
SEQEND
  5
190
330
18D
100
AcDbEntity
  8
Layer 1
370
    20
  0
POLYLINE
  5
191
330
7C
100
AcDbEntity
  8
Layer 1
 62
     7
370
    20
100
AcDb2dPolyline
 66
     1
 10
0.0
 20
0.0
 30
0.0
  0
VERTEX
  5
192
330
191
100
AcDbEntity
  8
Layer 1
 62
     7
370
    20
100
AcDbVertex
100
AcDb2dVertex
 10
154.0371093364907
 20
207.4143852563061
 30
0.0
  0
VERTEX
  5
193
330
191
100
AcDbEntity
  8
Layer 1
 62
     7
370
    20
100
AcDbVertex
100
AcDb2dVertex
 10
153.0373426266712
 20
206.6650769882643
 30
0.0
  0
SEQEND
  5
194
330
191
100
AcDbEntity
  8
Layer 1
370
    20
  0
POLYLINE
  5
195
330
7C
100
AcDbEntity
  8
Layer 1
 62
     7
370
    20
100
AcDb2dPolyline
 66
     1
 10
0.0
 20
0.0
 30
0.0
  0
VERTEX
  5
196
330
195
100
AcDbEntity
  8
Layer 1
 62
     7
370
    20
100
AcDbVertex
100
AcDb2dVertex
 10
144.2378797382461
 20
208.1647270529936
 30
0.0
  0
VERTEX
  5
197
330
195
100
AcDbEntity
  8
Layer 1
 62
     7
370
    20
100
AcDbVertex
100
AcDb2dVertex
 10
145.2376464480656
 20
207.4143852563061
 30
0.0
  0
SEQEND
  5
198
330
195
100
AcDbEntity
  8
Layer 1
370
    20
  0
SPLINE
  5
199
330
7C
100
AcDbEntity
  8
Layer 1
 62
     7
370
     9
100
AcDbSpline
210
0.0
220
0.0
230
1.0
 70
     8
 71
     3
 72
     8
 73
     4
 74
     0
 42
0.0000000001
 43
0.0000000001
 40
0.0
 40
0.0
 40
0.0
 40
0.0
 40
1.0
 40
1.0
 40
1.0
 40
1.0
 10
149.1381835564655
 20
199.5399305056706
 30
0.0
 10
145.8701659791575
 20
199.4624158572525
 30
0.0
 10
143.7162922817793
 20
199.2729356055637
 30
0.0
 10
144.3040255715629
 20
199.1144612132422
 30
0.0
  0
SPLINE
  5
19A
330
7C
100
AcDbEntity
  8
Layer 1
 62
     7
370
     9
100
AcDbSpline
210
0.0
220
0.0
230
1.0
 70
     8
 71
     3
 72
     8
 73
     4
 74
     0
 42
0.0000000001
 43
0.0000000001
 40
0.0
 40
0.0
 40
0.0
 40
0.0
 40
1.0
 40
1.0
 40
1.0
 40
1.0
 10
149.1381835564655
 20
198.0399359313928
 30
0.0
 10
152.4075791719676
 20
198.1174505798109
 30
0.0
 10
154.5593858120546
 20
198.3069308314997
 30
0.0
 10
153.9702744840769
 20
198.4647162047241
 30
0.0
  0
SPLINE
  5
19B
330
7C
100
AcDbEntity
  8
Layer 1
 62
     7
370
     9
100
AcDbSpline
210
0.0
220
0.0
230
1.0
 70
     8
 71
     3
 72
     8
 73
     4
 74
     0
 42
0.0000000001
 43
0.0000000001
 40
0.0
 40
0.0
 40
0.0
 40
0.0
 40
1.0
 40
1.0
 40
1.0
 40
1.0
 10
149.1381835564655
 20
201.0395805703998
 30
0.0
 10
145.8680989218663
 20
200.9620659219817
 30
0.0
 10
143.7162922817793
 20
200.772585670293
 30
0.0
 10
144.3040255715629
 20
200.6148002970685
 30
0.0
  0
SPLINE
  5
19C
330
7C
100
AcDbEntity
  8
Layer 1
 62
     7
370
     9
100
AcDbSpline
210
0.0
220
0.0
230
1.0
 70
     8
 71
     3
 72
     8
 73
     4
 74
     0
 42
0.0000000001
 43
0.0000000001
 40
0.0
 40
0.0
 40
0.0
 40
0.0
 40
1.0
 40
1.0
 40
1.0
 40
1.0
 10
149.1381835564655
 20
199.5399305056706
 30
0.0
 10
152.4055121146764
 20
199.6174451540887
 30
0.0
 10
154.5580077738605
 20
199.8069254057774
 30
0.0
 10
153.9709635031739
 20
199.9647107790019
 30
0.0
  0
SPLINE
  5
19D
330
7C
100
AcDbEntity
  8
Layer 1
 62
     7
370
     9
100
AcDbSpline
210
0.0
220
0.0
230
1.0
 70
     8
 71
     3
 72
     8
 73
     4
 74
     0
 42
0.0000000001
 43
0.0000000001
 40
0.0
 40
0.0
 40
0.0
 40
0.0
 40
1.0
 40
1.0
 40
1.0
 40
1.0
 10
149.1381835564655
 20
205.5399088027817
 30
0.0
 10
145.8701659791575
 20
205.4623941543636
 30
0.0
 10
143.7162922817793
 20
205.2729139026748
 30
0.0
 10
144.3040255715629
 20
205.1144395103533
 30
0.0
  0
SPLINE
  5
19E
330
7C
100
AcDbEntity
  8
Layer 1
 62
     7
370
     9
100
AcDbSpline
210
0.0
220
0.0
230
1.0
 70
     8
 71
     3
 72
     8
 73
     4
 74
     0
 42
0.0000000001
 43
0.0000000001
 40
0.0
 40
0.0
 40
0.0
 40
0.0
 40
1.0
 40
1.0
 40
1.0
 40
1.0
 10
149.1381835564655
 20
204.0399142285039
 30
0.0
 10
152.4075791719676
 20
204.1177733864706
 30
0.0
 10
154.5593858120546
 20
204.3062201095137
 30
0.0
 10
153.9702744840769
 20
204.4646945018352
 30
0.0
  0
SPLINE
  5
19F
330
7C
100
AcDbEntity
  8
Layer 1
 62
     7
370
     9
100
AcDbSpline
210
0.0
220
0.0
230
1.0
 70
     8
 71
     3
 72
     8
 73
     4
 74
     0
 42
0.0000000001
 43
0.0000000001
 40
0.0
 40
0.0
 40
0.0
 40
0.0
 40
1.0
 40
1.0
 40
1.0
 40
1.0
 10
149.1381835564655
 20
207.0399033770595
 30
0.0
 10
145.8680989218663
 20
206.9620442190928
 30
0.0
 10
143.7162922817793
 20
206.7725639674041
 30
0.0
 10
144.3040255715629
 20
206.6151231037282
 30
0.0
  0
SPLINE
  5
1A0
330
7C
100
AcDbEntity
  8
Layer 1
 62
     7
370
     9
100
AcDbSpline
210
0.0
220
0.0
230
1.0
 70
     8
 71
     3
 72
     8
 73
     4
 74
     0
 42
0.0000000001
 43
0.0000000001
 40
0.0
 40
0.0
 40
0.0
 40
0.0
 40
1.0
 40
1.0
 40
1.0
 40
1.0
 10
149.1381835564655
 20
205.5399088027817
 30
0.0
 10
152.4055121146764
 20
205.6174234511998
 30
0.0
 10
154.5580077738605
 20
205.8062146837915
 30
0.0
 10
153.9709635031739
 20
205.964689076113
 30
0.0
  0
SPLINE
  5
1A1
330
7C
100
AcDbEntity
  8
Layer 1
 62
     7
370
     9
100
AcDbSpline
210
0.0
220
0.0
230
1.0
 70
     8
 71
     3
 72
     8
 73
     4
 74
     0
 42
0.0000000001
 43
0.0000000001
 40
0.0
 40
0.0
 40
0.0
 40
0.0
 40
1.0
 40
1.0
 40
1.0
 40
1.0
 10
149.1381835564655
 20
202.5392306351291
 30
0.0
 10
145.8701659791575
 20
202.461715986711
 30
0.0
 10
143.7162922817793
 20
202.2732692636678
 30
0.0
 10
144.3040255715629
 20
202.1147948713463
 30
0.0
  0
SPLINE
  5
1A2
330
7C
100
AcDbEntity
  8
Layer 1
 62
     7
370
     9
100
AcDbSpline
210
0.0
220
0.0
230
1.0
 70
     8
 71
     3
 72
     8
 73
     4
 74
     0
 42
0.0000000001
 43
0.0000000001
 40
0.0
 40
0.0
 40
0.0
 40
0.0
 40
1.0
 40
1.0
 40
1.0
 40
1.0
 10
149.1381835564655
 20
201.0395805703998
 30
0.0
 10
152.4075791719676
 20
201.117095218818
 30
0.0
 10
154.5593858120546
 20
201.3065754705067
 30
0.0
 10
153.9702744840769
 20
201.4650498628282
 30
0.0
  0
SPLINE
  5
1A3
330
7C
100
AcDbEntity
  8
Layer 1
 62
     7
370
     9
100
AcDbSpline
210
0.0
220
0.0
230
1.0
 70
     8
 71
     3
 72
     8
 73
     4
 74
     0
 42
0.0000000001
 43
0.0000000001
 40
0.0
 40
0.0
 40
0.0
 40
0.0
 40
1.0
 40
1.0
 40
1.0
 40
1.0
 10
149.1381835564655
 20
204.0399142285039
 30
0.0
 10
145.8680989218663
 20
203.9623995800858
 30
0.0
 10
143.7162922817793
 20
203.7729193283971
 30
0.0
 10
144.3040255715629
 20
203.6144449360756
 30
0.0
  0
SPLINE
  5
1A4
330
7C
100
AcDbEntity
  8
Layer 1
 62
     7
370
     9
100
AcDbSpline
210
0.0
220
0.0
230
1.0
 70
     8
 71
     3
 72
     8
 73
     4
 74
     0
 42
0.0000000001
 43
0.0000000001
 40
0.0
 40
0.0
 40
0.0
 40
0.0
 40
1.0
 40
1.0
 40
1.0
 40
1.0
 10
149.1381835564655
 20
202.5392306351291
 30
0.0
 10
152.4055121146764
 20
202.6167452835472
 30
0.0
 10
154.5580077738605
 20
202.8065700447845
 30
0.0
 10
153.9709635031739
 20
202.965044437106
 30
0.0
  0
SPLINE
  5
1A5
330
7C
100
AcDbEntity
  8
Layer 1
 62
     7
370
     9
100
AcDbSpline
210
0.0
220
0.0
230
1.0
 70
     8
 71
     3
 72
     8
 73
     4
 74
     0
 42
0.0000000001
 43
0.0000000001
 40
0.0
 40
0.0
 40
0.0
 40
0.0
 40
1.0
 40
1.0
 40
1.0
 40
1.0
 10
149.1381835564655
 20
208.5395534417887
 30
0.0
 10
145.8701659791575
 20
208.4620387933706
 30
0.0
 10
143.7162922817793
 20
208.2722140321333
 30
0.0
 10
144.3040255715629
 20
208.1147731684574
 30
0.0
  0
SPLINE
  5
1A6
330
7C
100
AcDbEntity
  8
Layer 1
 62
     7
370
     9
100
AcDbSpline
210
0.0
220
0.0
230
1.0
 70
     8
 71
     3
 72
     8
 73
     4
 74
     0
 42
0.0000000001
 43
0.0000000001
 40
0.0
 40
0.0
 40
0.0
 40
0.0
 40
1.0
 40
1.0
 40
1.0
 40
1.0
 10
149.1381835564655
 20
207.0399033770595
 30
0.0
 10
152.4075791719676
 20
207.1170735159291
 30
0.0
 10
154.5593858120546
 20
207.3065537676178
 30
0.0
 10
153.9702744840769
 20
207.4650281599393
 30
0.0
  0
POLYLINE
  5
1A7
330
7C
100
AcDbEntity
  8
Layer 1
 62
     7
370
    20
100
AcDb2dPolyline
 66
     1
 10
0.0
 20
0.0
 30
0.0
  0
VERTEX
  5
1A8
330
1A7
100
AcDbEntity
  8
Layer 1
 62
     7
370
    20
100
AcDbVertex
100
AcDb2dVertex
 10
144.2378797382461
 20
208.1647270529936
 30
0.0
  0
VERTEX
  5
1A9
330
1A7
100
AcDbEntity
  8
Layer 1
 62
     7
370
    20
100
AcDbVertex
100
AcDb2dVertex
 10
145.2376464480656
 20
208.9140353210354
 30
0.0
  0
SEQEND
  5
1AA
330
1A7
100
AcDbEntity
  8
Layer 1
370
    20
  0
POLYLINE
  5
1AB
330
7C
100
AcDbEntity
  8
Layer 1
 62
     7
370
    20
100
AcDb2dPolyline
 66
     1
 10
0.0
 20
0.0
 30
0.0
  0
VERTEX
  5
1AC
330
1AB
100
AcDbEntity
  8
Layer 1
 62
     7
370
    20
100
AcDbVertex
100
AcDb2dVertex
 10
154.0371093364907
 20
211.9143689791395
 30
0.0
  0
VERTEX
  5
1AD
330
1AB
100
AcDbEntity
  8
Layer 1
 62
     7
370
    20
100
AcDbVertex
100
AcDb2dVertex
 10
153.0373426266712
 20
211.1640271824521
 30
0.0
  0
SEQEND
  5
1AE
330
1AB
100
AcDbEntity
  8
Layer 1
370
    20
  0
POLYLINE
  5
1AF
330
7C
100
AcDbEntity
  8
Layer 1
 62
     7
370
    20
100
AcDb2dPolyline
 66
     1
 10
0.0
 20
0.0
 30
0.0
  0
VERTEX
  5
1B0
330
1AF
100
AcDbEntity
  8
Layer 1
 62
     7
370
    20
100
AcDbVertex
100
AcDb2dVertex
 10
154.0371093364907
 20
210.4136853857646
 30
0.0
  0
VERTEX
  5
1B1
330
1AF
100
AcDbEntity
  8
Layer 1
 62
     7
370
    20
100
AcDbVertex
100
AcDb2dVertex
 10
153.0373426266712
 20
209.6643771177228
 30
0.0
  0
SEQEND
  5
1B2
330
1AF
100
AcDbEntity
  8
Layer 1
370
    20
  0
POLYLINE
  5
1B3
330
7C
100
AcDbEntity
  8
Layer 1
 62
     7
370
    20
100
AcDb2dPolyline
 66
     1
 10
0.0
 20
0.0
 30
0.0
  0
VERTEX
  5
1B4
330
1B3
100
AcDbEntity
  8
Layer 1
 62
     7
370
    20
100
AcDbVertex
100
AcDb2dVertex
 10
154.0371093364907
 20
208.9140353210354
 30
0.0
  0
VERTEX
  5
1B5
330
1B3
100
AcDbEntity
  8
Layer 1
 62
     7
370
    20
100
AcDbVertex
100
AcDb2dVertex
 10
153.0373426266712
 20
209.6643771177228
 30
0.0
  0
SEQEND
  5
1B6
330
1B3
100
AcDbEntity
  8
Layer 1
370
    20
  0
POLYLINE
  5
1B7
330
7C
100
AcDbEntity
  8
Layer 1
 62
     7
370
    20
100
AcDb2dPolyline
 66
     1
 10
0.0
 20
0.0
 30
0.0
  0
VERTEX
  5
1B8
330
1B7
100
AcDbEntity
  8
Layer 1
 62
     7
370
    20
100
AcDbVertex
100
AcDb2dVertex
 10
154.0371093364907
 20
208.9140353210354
 30
0.0
  0
VERTEX
  5
1B9
330
1B7
100
AcDbEntity
  8
Layer 1
 62
     7
370
    20
100
AcDbVertex
100
AcDb2dVertex
 10
153.0373426266712
 20
208.1647270529936
 30
0.0
  0
SEQEND
  5
1BA
330
1B7
100
AcDbEntity
  8
Layer 1
370
    20
  0
POLYLINE
  5
1BB
330
7C
100
AcDbEntity
  8
Layer 1
 62
     7
370
    20
100
AcDb2dPolyline
 66
     1
 10
0.0
 20
0.0
 30
0.0
  0
VERTEX
  5
1BC
330
1BB
100
AcDbEntity
  8
Layer 1
 62
     7
370
    20
100
AcDbVertex
100
AcDb2dVertex
 10
154.0371093364907
 20
210.4147189144102
 30
0.0
  0
VERTEX
  5
1BD
330
1BB
100
AcDbEntity
  8
Layer 1
 62
     7
370
    20
100
AcDbVertex
100
AcDb2dVertex
 10
153.0373426266712
 20
211.1640271824521
 30
0.0
  0
SEQEND
  5
1BE
330
1BB
100
AcDbEntity
  8
Layer 1
370
    20
  0
POLYLINE
  5
1BF
330
7C
100
AcDbEntity
  8
Layer 1
 62
     7
370
    20
100
AcDb2dPolyline
 66
     1
 10
0.0
 20
0.0
 30
0.0
  0
VERTEX
  5
1C0
330
1BF
100
AcDbEntity
  8
Layer 1
 62
     7
370
    20
100
AcDbVertex
100
AcDb2dVertex
 10
144.2378797382461
 20
209.6643771177228
 30
0.0
  0
VERTEX
  5
1C1
330
1BF
100
AcDbEntity
  8
Layer 1
 62
     7
370
    20
100
AcDbVertex
100
AcDb2dVertex
 10
145.2376464480656
 20
210.4136853857646
 30
0.0
  0
SEQEND
  5
1C2
330
1BF
100
AcDbEntity
  8
Layer 1
370
    20
  0
POLYLINE
  5
1C3
330
7C
100
AcDbEntity
  8
Layer 1
 62
     7
370
    20
100
AcDb2dPolyline
 66
     1
 10
0.0
 20
0.0
 30
0.0
  0
VERTEX
  5
1C4
330
1C3
100
AcDbEntity
  8
Layer 1
 62
     7
370
    20
100
AcDbVertex
100
AcDb2dVertex
 10
144.2378797382461
 20
211.1640271824521
 30
0.0
  0
VERTEX
  5
1C5
330
1C3
100
AcDbEntity
  8
Layer 1
 62
     7
370
    20
100
AcDbVertex
100
AcDb2dVertex
 10
145.2376464480656
 20
210.4136853857646
 30
0.0
  0
SEQEND
  5
1C6
330
1C3
100
AcDbEntity
  8
Layer 1
370
    20
  0
POLYLINE
  5
1C7
330
7C
100
AcDbEntity
  8
Layer 1
 62
     7
370
    20
100
AcDb2dPolyline
 66
     1
 10
0.0
 20
0.0
 30
0.0
  0
VERTEX
  5
1C8
330
1C7
100
AcDbEntity
  8
Layer 1
 62
     7
370
    20
100
AcDbVertex
100
AcDb2dVertex
 10
144.2378797382461
 20
209.6643771177228
 30
0.0
  0
VERTEX
  5
1C9
330
1C7
100
AcDbEntity
  8
Layer 1
 62
     7
370
    20
100
AcDbVertex
100
AcDb2dVertex
 10
145.2376464480656
 20
208.9140353210354
 30
0.0
  0
SEQEND
  5
1CA
330
1C7
100
AcDbEntity
  8
Layer 1
370
    20
  0
SPLINE
  5
1CB
330
7C
100
AcDbEntity
  8
Layer 1
 62
     7
370
     9
100
AcDbSpline
210
0.0
220
0.0
230
1.0
 70
     8
 71
     3
 72
     8
 73
     4
 74
     0
 42
0.0000000001
 43
0.0000000001
 40
0.0
 40
0.0
 40
0.0
 40
0.0
 40
1.0
 40
1.0
 40
1.0
 40
1.0
 10
149.1381835564655
 20
210.039203506518
 30
0.0
 10
145.8701659791575
 20
209.9616888580999
 30
0.0
 10
143.7162922817793
 20
209.7718640968626
 30
0.0
 10
144.3040255715629
 20
209.6144232331867
 30
0.0
  0
SPLINE
  5
1CC
330
7C
100
AcDbEntity
  8
Layer 1
 62
     7
370
     9
100
AcDbSpline
210
0.0
220
0.0
230
1.0
 70
     8
 71
     3
 72
     8
 73
     4
 74
     0
 42
0.0000000001
 43
0.0000000001
 40
0.0
 40
0.0
 40
0.0
 40
0.0
 40
1.0
 40
1.0
 40
1.0
 40
1.0
 10
149.1381835564655
 20
208.5395534417887
 30
0.0
 10
152.4075791719676
 20
208.6167235806583
 30
0.0
 10
154.5593858120546
 20
208.8062038323471
 30
0.0
 10
153.9702744840769
 20
208.9646782246686
 30
0.0
  0
SPLINE
  5
1CD
330
7C
100
AcDbEntity
  8
Layer 1
 62
     7
370
     9
100
AcDbSpline
210
0.0
220
0.0
230
1.0
 70
     8
 71
     3
 72
     8
 73
     4
 74
     0
 42
0.0000000001
 43
0.0000000001
 40
0.0
 40
0.0
 40
0.0
 40
0.0
 40
1.0
 40
1.0
 40
1.0
 40
1.0
 10
149.1381835564655
 20
211.5388535712472
 30
0.0
 10
145.8680989218663
 20
211.4613389228291
 30
0.0
 10
143.7162922817793
 20
211.2725476902374
 30
0.0
 10
144.3040255715629
 20
211.1140732979159
 30
0.0
  0
SPLINE
  5
1CE
330
7C
100
AcDbEntity
  8
Layer 1
 62
     7
370
     9
100
AcDbSpline
210
0.0
220
0.0
230
1.0
 70
     8
 71
     3
 72
     8
 73
     4
 74
     0
 42
0.0000000001
 43
0.0000000001
 40
0.0
 40
0.0
 40
0.0
 40
0.0
 40
1.0
 40
1.0
 40
1.0
 40
1.0
 10
149.1381835564655
 20
210.039203506518
 30
0.0
 10
152.4055121146764
 20
210.1167181549361
 30
0.0
 10
154.5580077738605
 20
210.3061984066248
 30
0.0
 10
153.9709635031739
 20
210.4646727989463
 30
0.0
  0
POLYLINE
  5
1CF
330
7C
100
AcDbEntity
  8
Layer 1
 62
     7
370
    20
100
AcDb2dPolyline
 66
     1
 10
0.0
 20
0.0
 30
0.0
  0
VERTEX
  5
1D0
330
1CF
100
AcDbEntity
  8
Layer 1
 62
     7
370
    20
100
AcDbVertex
100
AcDb2dVertex
 10
154.0371093364907
 20
213.4136745343202
 30
0.0
  0
VERTEX
  5
1D1
330
1CF
100
AcDbEntity
  8
Layer 1
 62
     7
370
    20
100
AcDbVertex
100
AcDb2dVertex
 10
153.0373426266712
 20
212.6640217567298
 30
0.0
  0
SEQEND
  5
1D2
330
1CF
100
AcDbEntity
  8
Layer 1
370
    20
  0
POLYLINE
  5
1D3
330
7C
100
AcDbEntity
  8
Layer 1
 62
     7
370
    20
100
AcDb2dPolyline
 66
     1
 10
0.0
 20
0.0
 30
0.0
  0
VERTEX
  5
1D4
330
1D3
100
AcDbEntity
  8
Layer 1
 62
     7
370
    20
100
AcDbVertex
100
AcDb2dVertex
 10
154.0371093364907
 20
211.9136799600424
 30
0.0
  0
VERTEX
  5
1D5
330
1D3
100
AcDbEntity
  8
Layer 1
 62
     7
370
    20
100
AcDbVertex
100
AcDb2dVertex
 10
153.0373426266712
 20
212.6640217567298
 30
0.0
  0
SEQEND
  5
1D6
330
1D3
100
AcDbEntity
  8
Layer 1
370
    20
  0
POLYLINE
  5
1D7
330
7C
100
AcDbEntity
  8
Layer 1
 62
     7
370
    20
100
AcDb2dPolyline
 66
     1
 10
0.0
 20
0.0
 30
0.0
  0
VERTEX
  5
1D8
330
1D7
100
AcDbEntity
  8
Layer 1
 62
     7
370
    20
100
AcDbVertex
100
AcDb2dVertex
 10
154.0371093364907
 20
213.4136745343202
 30
0.0
  0
VERTEX
  5
1D9
330
1D7
100
AcDbEntity
  8
Layer 1
 62
     7
370
    20
100
AcDbVertex
100
AcDb2dVertex
 10
153.0373426266712
 20
214.1636718214591
 30
0.0
  0
SEQEND
  5
1DA
330
1D7
100
AcDbEntity
  8
Layer 1
370
    20
  0
POLYLINE
  5
1DB
330
7C
100
AcDbEntity
  8
Layer 1
 62
     7
370
    20
100
AcDb2dPolyline
 66
     1
 10
0.0
 20
0.0
 30
0.0
  0
VERTEX
  5
1DC
330
1DB
100
AcDbEntity
  8
Layer 1
 62
     7
370
    20
100
AcDbVertex
100
AcDb2dVertex
 10
144.2378797382461
 20
212.6640217567298
 30
0.0
  0
VERTEX
  5
1DD
330
1DB
100
AcDbEntity
  8
Layer 1
 62
     7
370
    20
100
AcDbVertex
100
AcDb2dVertex
 10
145.2376464480656
 20
213.4136745343202
 30
0.0
  0
SEQEND
  5
1DE
330
1DB
100
AcDbEntity
  8
Layer 1
370
    20
  0
POLYLINE
  5
1DF
330
7C
100
AcDbEntity
  8
Layer 1
 62
     7
370
    20
100
AcDb2dPolyline
 66
     1
 10
0.0
 20
0.0
 30
0.0
  0
VERTEX
  5
1E0
330
1DF
100
AcDbEntity
  8
Layer 1
 62
     7
370
    20
100
AcDbVertex
100
AcDb2dVertex
 10
144.2378797382461
 20
214.1636718214591
 30
0.0
  0
VERTEX
  5
1E1
330
1DF
100
AcDbEntity
  8
Layer 1
 62
     7
370
    20
100
AcDbVertex
100
AcDb2dVertex
 10
145.2376464480656
 20
213.4136745343202
 30
0.0
  0
SEQEND
  5
1E2
330
1DF
100
AcDbEntity
  8
Layer 1
370
    20
  0
POLYLINE
  5
1E3
330
7C
100
AcDbEntity
  8
Layer 1
 62
     7
370
    20
100
AcDb2dPolyline
 66
     1
 10
0.0
 20
0.0
 30
0.0
  0
VERTEX
  5
1E4
330
1E3
100
AcDbEntity
  8
Layer 1
 62
     7
370
    20
100
AcDbVertex
100
AcDb2dVertex
 10
144.2378797382461
 20
212.6633327376328
 30
0.0
  0
VERTEX
  5
1E5
330
1E3
100
AcDbEntity
  8
Layer 1
 62
     7
370
    20
100
AcDbVertex
100
AcDb2dVertex
 10
145.2376464480656
 20
211.9136799600424
 30
0.0
  0
SEQEND
  5
1E6
330
1E3
100
AcDbEntity
  8
Layer 1
370
    20
  0
POLYLINE
  5
1E7
330
7C
100
AcDbEntity
  8
Layer 1
 62
     7
370
    20
100
AcDb2dPolyline
 66
     1
 10
0.0
 20
0.0
 30
0.0
  0
VERTEX
  5
1E8
330
1E7
100
AcDbEntity
  8
Layer 1
 62
     7
370
    20
100
AcDbVertex
100
AcDb2dVertex
 10
144.2378797382461
 20
214.1636718214591
 30
0.0
  0
VERTEX
  5
1E9
330
1E7
100
AcDbEntity
  8
Layer 1
 62
     7
370
    20
100
AcDbVertex
100
AcDb2dVertex
 10
145.2376464480656
 20
214.9140136181465
 30
0.0
  0
SEQEND
  5
1EA
330
1E7
100
AcDbEntity
  8
Layer 1
370
    20
  0
POLYLINE
  5
1EB
330
7C
100
AcDbEntity
  8
Layer 1
 62
     7
370
    20
100
AcDb2dPolyline
 66
     1
 10
0.0
 20
0.0
 30
0.0
  0
VERTEX
  5
1EC
330
1EB
100
AcDbEntity
  8
Layer 1
 62
     7
370
    20
100
AcDbVertex
100
AcDb2dVertex
 10
144.2378797382461
 20
211.1643716920006
 30
0.0
  0
VERTEX
  5
1ED
330
1EB
100
AcDbEntity
  8
Layer 1
 62
     7
370
    20
100
AcDbVertex
100
AcDb2dVertex
 10
145.2376464480656
 20
211.9136799600424
 30
0.0
  0
SEQEND
  5
1EE
330
1EB
100
AcDbEntity
  8
Layer 1
370
    20
  0
POLYLINE
  5
1EF
330
7C
100
AcDbEntity
  8
Layer 1
 62
     7
370
    20
100
AcDb2dPolyline
 66
     1
 10
0.0
 20
0.0
 30
0.0
  0
VERTEX
  5
1F0
330
1EF
100
AcDbEntity
  8
Layer 1
 62
     7
370
    20
100
AcDbVertex
100
AcDb2dVertex
 10
154.0371093364907
 20
217.9136582571535
 30
0.0
  0
VERTEX
  5
1F1
330
1EF
100
AcDbEntity
  8
Layer 1
 62
     7
370
    20
100
AcDbVertex
100
AcDb2dVertex
 10
153.2006401526721
 20
218.540665635469
 30
0.0
  0
SEQEND
  5
1F2
330
1EF
100
AcDbEntity
  8
Layer 1
370
    20
  0
POLYLINE
  5
1F3
330
7C
100
AcDbEntity
  8
Layer 1
 62
     7
370
    20
100
AcDb2dPolyline
 66
     1
 10
0.0
 20
0.0
 30
0.0
  0
VERTEX
  5
1F4
330
1F3
100
AcDbEntity
  8
Layer 1
 62
     7
370
    20
100
AcDbVertex
100
AcDb2dVertex
 10
154.0371093364907
 20
217.9136582571535
 30
0.0
  0
VERTEX
  5
1F5
330
1F3
100
AcDbEntity
  8
Layer 1
 62
     7
370
    20
100
AcDbVertex
100
AcDb2dVertex
 10
153.0373426266712
 20
217.1633164604661
 30
0.0
  0
SEQEND
  5
1F6
330
1F3
100
AcDbEntity
  8
Layer 1
370
    20
  0
POLYLINE
  5
1F7
330
7C
100
AcDbEntity
  8
Layer 1
 62
     7
370
    20
100
AcDb2dPolyline
 66
     1
 10
0.0
 20
0.0
 30
0.0
  0
VERTEX
  5
1F8
330
1F7
100
AcDbEntity
  8
Layer 1
 62
     7
370
    20
100
AcDbVertex
100
AcDb2dVertex
 10
144.3997992260528
 20
218.5420436736631
 30
0.0
  0
VERTEX
  5
1F9
330
1F7
100
AcDbEntity
  8
Layer 1
 62
     7
370
    20
100
AcDbVertex
100
AcDb2dVertex
 10
145.2376464480656
 20
217.9136582571535
 30
0.0
  0
SEQEND
  5
1FA
330
1F7
100
AcDbEntity
  8
Layer 1
370
    20
  0
POLYLINE
  5
1FB
330
7C
100
AcDbEntity
  8
Layer 1
 62
     7
370
    20
100
AcDb2dPolyline
 66
     1
 10
0.0
 20
0.0
 30
0.0
  0
VERTEX
  5
1FC
330
1FB
100
AcDbEntity
  8
Layer 1
 62
     7
370
    20
100
AcDbVertex
100
AcDb2dVertex
 10
154.0371093364907
 20
216.4140081924243
 30
0.0
  0
VERTEX
  5
1FD
330
1FB
100
AcDbEntity
  8
Layer 1
 62
     7
370
    20
100
AcDbVertex
100
AcDb2dVertex
 10
153.0373426266712
 20
215.6636663957369
 30
0.0
  0
SEQEND
  5
1FE
330
1FB
100
AcDbEntity
  8
Layer 1
370
    20
  0
POLYLINE
  5
1FF
330
7C
100
AcDbEntity
  8
Layer 1
 62
     7
370
    20
100
AcDb2dPolyline
 66
     1
 10
0.0
 20
0.0
 30
0.0
  0
VERTEX
  5
200
330
1FF
100
AcDbEntity
  8
Layer 1
 62
     7
370
    20
100
AcDbVertex
100
AcDb2dVertex
 10
154.0371093364907
 20
214.9133245990494
 30
0.0
  0
VERTEX
  5
201
330
1FF
100
AcDbEntity
  8
Layer 1
 62
     7
370
    20
100
AcDbVertex
100
AcDb2dVertex
 10
153.0373426266712
 20
215.6636663957369
 30
0.0
  0
SEQEND
  5
202
330
1FF
100
AcDbEntity
  8
Layer 1
370
    20
  0
POLYLINE
  5
203
330
7C
100
AcDbEntity
  8
Layer 1
 62
     7
370
    20
100
AcDb2dPolyline
 66
     1
 10
0.0
 20
0.0
 30
0.0
  0
VERTEX
  5
204
330
203
100
AcDbEntity
  8
Layer 1
 62
     7
370
    20
100
AcDbVertex
100
AcDb2dVertex
 10
154.0371093364907
 20
214.9140136181465
 30
0.0
  0
VERTEX
  5
205
330
203
100
AcDbEntity
  8
Layer 1
 62
     7
370
    20
100
AcDbVertex
100
AcDb2dVertex
 10
153.0373426266712
 20
214.1636718214591
 30
0.0
  0
SEQEND
  5
206
330
203
100
AcDbEntity
  8
Layer 1
370
    20
  0
POLYLINE
  5
207
330
7C
100
AcDbEntity
  8
Layer 1
 62
     7
370
    20
100
AcDb2dPolyline
 66
     1
 10
0.0
 20
0.0
 30
0.0
  0
VERTEX
  5
208
330
207
100
AcDbEntity
  8
Layer 1
 62
     7
370
    20
100
AcDbVertex
100
AcDb2dVertex
 10
154.0371093364907
 20
216.4140081924243
 30
0.0
  0
VERTEX
  5
209
330
207
100
AcDbEntity
  8
Layer 1
 62
     7
370
    20
100
AcDbVertex
100
AcDb2dVertex
 10
153.0373426266712
 20
217.1633164604661
 30
0.0
  0
SEQEND
  5
20A
330
207
100
AcDbEntity
  8
Layer 1
370
    20
  0
POLYLINE
  5
20B
330
7C
100
AcDbEntity
  8
Layer 1
 62
     7
370
    20
100
AcDb2dPolyline
 66
     1
 10
0.0
 20
0.0
 30
0.0
  0
VERTEX
  5
20C
330
20B
100
AcDbEntity
  8
Layer 1
 62
     7
370
    20
100
AcDbVertex
100
AcDb2dVertex
 10
144.2378797382461
 20
215.6636663957369
 30
0.0
  0
VERTEX
  5
20D
330
20B
100
AcDbEntity
  8
Layer 1
 62
     7
370
    20
100
AcDbVertex
100
AcDb2dVertex
 10
145.2376464480656
 20
216.4140081924243
 30
0.0
  0
SEQEND
  5
20E
330
20B
100
AcDbEntity
  8
Layer 1
370
    20
  0
POLYLINE
  5
20F
330
7C
100
AcDbEntity
  8
Layer 1
 62
     7
370
    20
100
AcDb2dPolyline
 66
     1
 10
0.0
 20
0.0
 30
0.0
  0
VERTEX
  5
210
330
20F
100
AcDbEntity
  8
Layer 1
 62
     7
370
    20
100
AcDbVertex
100
AcDb2dVertex
 10
144.2378797382461
 20
217.1633164604661
 30
0.0
  0
VERTEX
  5
211
330
20F
100
AcDbEntity
  8
Layer 1
 62
     7
370
    20
100
AcDbVertex
100
AcDb2dVertex
 10
145.2376464480656
 20
216.4140081924243
 30
0.0
  0
SEQEND
  5
212
330
20F
100
AcDbEntity
  8
Layer 1
370
    20
  0
POLYLINE
  5
213
330
7C
100
AcDbEntity
  8
Layer 1
 62
     7
370
    20
100
AcDb2dPolyline
 66
     1
 10
0.0
 20
0.0
 30
0.0
  0
VERTEX
  5
214
330
213
100
AcDbEntity
  8
Layer 1
 62
     7
370
    20
100
AcDbVertex
100
AcDb2dVertex
 10
144.2378797382461
 20
215.6636663957369
 30
0.0
  0
VERTEX
  5
215
330
213
100
AcDbEntity
  8
Layer 1
 62
     7
370
    20
100
AcDbVertex
100
AcDb2dVertex
 10
145.2376464480656
 20
214.9133245990494
 30
0.0
  0
SEQEND
  5
216
330
213
100
AcDbEntity
  8
Layer 1
370
    20
  0
POLYLINE
  5
217
330
7C
100
AcDbEntity
  8
Layer 1
 62
     7
370
    20
100
AcDb2dPolyline
 66
     1
 10
0.0
 20
0.0
 30
0.0
  0
VERTEX
  5
218
330
217
100
AcDbEntity
  8
Layer 1
 62
     7
370
    20
100
AcDbVertex
100
AcDb2dVertex
 10
144.2378797382461
 20
217.1633164604661
 30
0.0
  0
VERTEX
  5
219
330
217
100
AcDbEntity
  8
Layer 1
 62
     7
370
    20
100
AcDbVertex
100
AcDb2dVertex
 10
145.2376464480656
 20
217.9136582571535
 30
0.0
  0
SEQEND
  5
21A
330
217
100
AcDbEntity
  8
Layer 1
370
    20
  0
SPLINE
  5
21B
330
7C
100
AcDbEntity
  8
Layer 1
 62
     7
370
     9
100
AcDbSpline
210
0.0
220
0.0
230
1.0
 70
     8
 71
     3
 72
     8
 73
     4
 74
     0
 42
0.0000000001
 43
0.0000000001
 40
0.0
 40
0.0
 40
0.0
 40
0.0
 40
1.0
 40
1.0
 40
1.0
 40
1.0
 10
149.1381835564655
 20
213.038848145525
 30
0.0
 10
145.8701659791575
 20
212.9613334971069
 30
0.0
 10
143.7162922817793
 20
212.7718532454182
 30
0.0
 10
144.3040255715629
 20
212.6133788530967
 30
0.0
  0
SPLINE
  5
21C
330
7C
100
AcDbEntity
  8
Layer 1
 62
     7
370
     9
100
AcDbSpline
210
0.0
220
0.0
230
1.0
 70
     8
 71
     3
 72
     8
 73
     4
 74
     0
 42
0.0000000001
 43
0.0000000001
 40
0.0
 40
0.0
 40
0.0
 40
0.0
 40
1.0
 40
1.0
 40
1.0
 40
1.0
 10
149.1381835564655
 20
211.5388535712472
 30
0.0
 10
152.4075791719676
 20
211.6163682196654
 30
0.0
 10
154.5593858120546
 20
211.8058484713541
 30
0.0
 10
153.9702744840769
 20
211.9636338445785
 30
0.0
  0
SPLINE
  5
21D
330
7C
100
AcDbEntity
  8
Layer 1
 62
     7
370
     9
100
AcDbSpline
210
0.0
220
0.0
230
1.0
 70
     8
 71
     3
 72
     8
 73
     4
 74
     0
 42
0.0000000001
 43
0.0000000001
 40
0.0
 40
0.0
 40
0.0
 40
0.0
 40
1.0
 40
1.0
 40
1.0
 40
1.0
 10
149.1381835564655
 20
214.5384982102543
 30
0.0
 10
145.8680989218663
 20
214.4609835618361
 30
0.0
 10
143.7162922817793
 20
214.2715033101474
 30
0.0
 10
144.3040255715629
 20
214.113717936923
 30
0.0
  0
SPLINE
  5
21E
330
7C
100
AcDbEntity
  8
Layer 1
 62
     7
370
     9
100
AcDbSpline
210
0.0
220
0.0
230
1.0
 70
     8
 71
     3
 72
     8
 73
     4
 74
     0
 42
0.0000000001
 43
0.0000000001
 40
0.0
 40
0.0
 40
0.0
 40
0.0
 40
1.0
 40
1.0
 40
1.0
 40
1.0
 10
149.1381835564655
 20
213.038848145525
 30
0.0
 10
152.4055121146764
 20
213.1163627939432
 30
0.0
 10
154.5580077738605
 20
213.3058430456319
 30
0.0
 10
153.9709635031739
 20
213.4636284188563
 30
0.0
  0
SPLINE
  5
21F
330
7C
100
AcDbEntity
  8
Layer 1
 62
     7
370
     9
100
AcDbSpline
210
0.0
220
0.0
230
1.0
 70
     8
 71
     3
 72
     8
 73
     4
 74
     0
 42
0.0000000001
 43
0.0000000001
 40
0.0
 40
0.0
 40
0.0
 40
0.0
 40
1.0
 40
1.0
 40
1.0
 40
1.0
 10
149.1381835564655
 20
217.5388318683584
 30
0.0
 10
152.4075791719676
 20
217.616691026325
 30
0.0
 10
154.5593858120546
 20
217.8051377493682
 30
0.0
 10
153.9702744840769
 20
217.9636121416897
 30
0.0
  0
SPLINE
  5
220
330
7C
100
AcDbEntity
  8
Layer 1
 62
     7
370
     9
100
AcDbSpline
210
0.0
220
0.0
230
1.0
 70
     8
 71
     3
 72
     8
 73
     4
 74
     0
 42
0.0000000001
 43
0.0000000001
 40
0.0
 40
0.0
 40
0.0
 40
0.0
 40
1.0
 40
1.0
 40
1.0
 40
1.0
 10
149.1381835564655
 20
216.0381482749835
 30
0.0
 10
145.8701659791575
 20
215.9606336265654
 30
0.0
 10
143.7162922817793
 20
215.7721869035223
 30
0.0
 10
144.3040255715629
 20
215.6137125112008
 30
0.0
  0
SPLINE
  5
221
330
7C
100
AcDbEntity
  8
Layer 1
 62
     7
370
     9
100
AcDbSpline
210
0.0
220
0.0
230
1.0
 70
     8
 71
     3
 72
     8
 73
     4
 74
     0
 42
0.0000000001
 43
0.0000000001
 40
0.0
 40
0.0
 40
0.0
 40
0.0
 40
1.0
 40
1.0
 40
1.0
 40
1.0
 10
149.1381835564655
 20
214.5384982102543
 30
0.0
 10
152.4075791719676
 20
214.6160128586724
 30
0.0
 10
154.5593858120546
 20
214.8054931103611
 30
0.0
 10
153.9702744840769
 20
214.9639675026826
 30
0.0
  0
SPLINE
  5
222
330
7C
100
AcDbEntity
  8
Layer 1
 62
     7
370
     9
100
AcDbSpline
210
0.0
220
0.0
230
1.0
 70
     8
 71
     3
 72
     8
 73
     4
 74
     0
 42
0.0000000001
 43
0.0000000001
 40
0.0
 40
0.0
 40
0.0
 40
0.0
 40
1.0
 40
1.0
 40
1.0
 40
1.0
 10
149.1381835564655
 20
217.5388318683584
 30
0.0
 10
145.8680989218663
 20
217.4613172199402
 30
0.0
 10
143.7162922817793
 20
217.2718369682515
 30
0.0
 10
144.3040255715629
 20
217.11336257593
 30
0.0
  0
SPLINE
  5
223
330
7C
100
AcDbEntity
  8
Layer 1
 62
     7
370
     9
100
AcDbSpline
210
0.0
220
0.0
230
1.0
 70
     8
 71
     3
 72
     8
 73
     4
 74
     0
 42
0.0000000001
 43
0.0000000001
 40
0.0
 40
0.0
 40
0.0
 40
0.0
 40
1.0
 40
1.0
 40
1.0
 40
1.0
 10
149.1381835564655
 20
216.0381482749835
 30
0.0
 10
152.4055121146764
 20
216.1156629234017
 30
0.0
 10
154.5580077738605
 20
216.3054876846389
 30
0.0
 10
153.9709635031739
 20
216.4639620769604
 30
0.0
  0
ENDBLK
  5
7F
330
7C
100
AcDbEntity
  8
0
100
AcDbBlockEnd
  0
BLOCK
  5
231
330
22F
100
AcDbEntity
  8
0
100
AcDbBlockBegin
  2
block 9
 70
     0
 71
     0
 10
0.0
 20
0.0
 30
0.0
  3
block 9
  1

  0
POLYLINE
  5
233
330
22F
100
AcDbEntity
  8
Layer 1
 62
     7
370
    20
100
AcDb2dPolyline
 66
     1
 10
0.0
 20
0.0
 30
0.0
  0
VERTEX
  5
234
330
233
100
AcDbEntity
  8
Layer 1
 62
     7
370
    20
100
AcDbVertex
100
AcDb2dVertex
 10
140.8644422390894
 20
229.3145127464908
 30
0.0
  0
VERTEX
  5
235
330
233
100
AcDbEntity
  8
Layer 1
 62
     7
370
    20
100
AcDbVertex
100
AcDb2dVertex
 10
157.4098578165503
 20
229.3145127464908
 30
0.0
  0
SEQEND
  5
236
330
233
100
AcDbEntity
  8
Layer 1
370
    20
  0
POLYLINE
  5
237
330
22F
100
AcDbEntity
  8
Layer 1
 62
     7
370
    20
100
AcDb2dPolyline
 66
     1
 10
0.0
 20
0.0
 30
0.0
  0
VERTEX
  5
238
330
237
100
AcDbEntity
  8
Layer 1
 62
     7
370
    20
100
AcDbVertex
100
AcDb2dVertex
 10
140.8644422390894
 20
221.0411159386634
 30
0.0
  0
VERTEX
  5
239
330
237
100
AcDbEntity
  8
Layer 1
 62
     7
370
    20
100
AcDbVertex
100
AcDb2dVertex
 10
157.4098578165503
 20
221.0411159386634
 30
0.0
  0
SEQEND
  5
23A
330
237
100
AcDbEntity
  8
Layer 1
370
    20
  0
SPLINE
  5
23B
330
22F
100
AcDbEntity
  8
Layer 1
 62
     7
370
    20
100
AcDbSpline
210
0.0
220
0.0
230
1.0
 70
     8
 71
     3
 72
     8
 73
     4
 74
     0
 42
0.0000000001
 43
0.0000000001
 40
0.0
 40
0.0
 40
0.0
 40
0.0
 40
1.0
 40
1.0
 40
1.0
 40
1.0
 10
153.8869031733338
 20
227.9681694308552
 30
0.0
 10
151.2541612035059
 20
229.7627196691218
 30
0.0
 10
147.0194498330368
 20
229.7627196691218
 30
0.0
 10
144.3867078632089
 20
227.9681694308552
 30
0.0
  0
SPLINE
  5
23C
330
22F
100
AcDbEntity
  8
Layer 1
 62
     7
370
    20
100
AcDbSpline
210
0.0
220
0.0
230
1.0
 70
     8
 71
     3
 72
     8
 73
     4
 74
     0
 42
0.0000000001
 43
0.0000000001
 40
0.0
 40
0.0
 40
0.0
 40
0.0
 40
1.0
 40
1.0
 40
1.0
 40
1.0
 10
144.3867078632089
 20
222.3864257256534
 30
0.0
 10
147.0194498330368
 20
220.5925645064838
 30
0.0
 10
151.2541612035059
 20
220.5925645064838
 30
0.0
 10
153.8869031733338
 20
222.3864257256534
 30
0.0
  0
SPLINE
  5
23D
330
22F
100
AcDbEntity
  8
Layer 1
 62
     7
370
    20
100
AcDbSpline
210
0.0
220
0.0
230
1.0
 70
     8
 71
     3
 72
    11
 73
     7
 74
     0
 42
0.0000000001
 43
0.0000000001
 40
0.0
 40
0.0
 40
0.0
 40
0.0
 40
1.0
 40
1.0
 40
1.0
 40
2.0
 40
2.0
 40
2.0
 40
2.0
 10
144.3867078632089
 20
227.9681694308552
 30
0.0
 10
143.5984700161837
 20
229.2828178680265
 30
0.0
 10
141.8945257891791
 20
229.7079426509063
 30
0.0
 10
140.5833224474931
 20
228.916948727493
 30
0.0
 10
140.2546603382002
 20
228.7419378768423
 30
0.0
 10
139.8123100778942
 20
228.2988985974392
 30
0.0
 10
139.6372992272435
 20
227.9681694308552
 30
0.0
  0
SPLINE
  5
23E
330
22F
100
AcDbEntity
  8
Layer 1
 62
     7
370
    20
100
AcDbSpline
210
0.0
220
0.0
230
1.0
 70
     8
 71
     3
 72
    11
 73
     7
 74
     0
 42
0.0000000001
 43
0.0000000001
 40
0.0
 40
0.0
 40
0.0
 40
0.0
 40
1.0
 40
1.0
 40
1.0
 40
2.0
 40
2.0
 40
2.0
 40
2.0
 10
139.6372992272435
 20
222.3864257256534
 30
0.0
 10
140.4255370742686
 20
221.0721217980306
 30
0.0
 10
142.1294813012732
 20
220.6476860342478
 30
0.0
 10
143.4406846429593
 20
221.4386799576612
 30
0.0
 10
143.7693467522521
 20
221.6136908083119
 30
0.0
 10
144.2116970125582
 20
222.056041068618
 30
0.0
 10
144.3867078632089
 20
222.3864257256534
 30
0.0
  0
SPLINE
  5
23F
330
22F
100
AcDbEntity
  8
Layer 1
 62
     7
370
    20
100
AcDbSpline
210
0.0
220
0.0
230
1.0
 70
     8
 71
     3
 72
    11
 73
     7
 74
     0
 42
0.0000000001
 43
0.0000000001
 40
0.0
 40
0.0
 40
0.0
 40
0.0
 40
1.0
 40
1.0
 40
1.0
 40
2.0
 40
2.0
 40
2.0
 40
2.0
 10
153.8869031733338
 20
222.3864257256534
 30
0.0
 10
154.6765190585531
 20
221.0721217980306
 30
0.0
 10
156.3790852473636
 20
220.6476860342478
 30
0.0
 10
157.6909776081467
 20
221.4386799576612
 30
0.0
 10
158.0203287365366
 20
221.6136908083119
 30
0.0
 10
158.4626789968427
 20
222.056041068618
 30
0.0
 10
158.6370008283963
 20
222.3864257256534
 30
0.0
  0
SPLINE
  5
240
330
22F
100
AcDbEntity
  8
Layer 1
 62
     7
370
    20
100
AcDbSpline
210
0.0
220
0.0
230
1.0
 70
     8
 71
     3
 72
    11
 73
     7
 74
     0
 42
0.0000000001
 43
0.0000000001
 40
0.0
 40
0.0
 40
0.0
 40
0.0
 40
1.0
 40
1.0
 40
1.0
 40
2.0
 40
2.0
 40
2.0
 40
2.0
 10
158.6370008283963
 20
227.9681694308552
 30
0.0
 10
157.8480739622741
 20
229.2828178680265
 30
0.0
 10
156.1448187543666
 20
229.7079426509063
 30
0.0
 10
154.8329263935834
 20
228.916948727493
 30
0.0
 10
154.5042642842906
 20
228.7419378768423
 30
0.0
 10
154.0619140239845
 20
228.2988985974392
 30
0.0
 10
153.8869031733338
 20
227.9681694308552
 30
0.0
  0
POLYLINE
  5
241
330
22F
100
AcDbEntity
  8
Layer 1
 62
     7
370
    20
100
AcDb2dPolyline
 66
     1
 10
0.0
 20
0.0
 30
0.0
  0
VERTEX
  5
242
330
241
100
AcDbEntity
  8
Layer 1
 62
     7
370
    20
100
AcDbVertex
100
AcDb2dVertex
 10
139.6372992272435
 20
227.9681694308552
 30
0.0
  0
VERTEX
  5
243
330
241
100
AcDbEntity
  8
Layer 1
 62
     7
370
    20
100
AcDbVertex
100
AcDb2dVertex
 10
139.6372992272435
 20
222.3864257256534
 30
0.0
  0
SEQEND
  5
244
330
241
100
AcDbEntity
  8
Layer 1
370
    20
  0
POLYLINE
  5
245
330
22F
100
AcDbEntity
  8
Layer 1
 62
     7
370
    20
100
AcDb2dPolyline
 66
     1
 10
0.0
 20
0.0
 30
0.0
  0
VERTEX
  5
246
330
245
100
AcDbEntity
  8
Layer 1
 62
     7
370
    20
100
AcDbVertex
100
AcDb2dVertex
 10
144.3867078632089
 20
227.9681694308552
 30
0.0
  0
VERTEX
  5
247
330
245
100
AcDbEntity
  8
Layer 1
 62
     7
370
    20
100
AcDbVertex
100
AcDb2dVertex
 10
144.3867078632089
 20
222.3864257256534
 30
0.0
  0
SEQEND
  5
248
330
245
100
AcDbEntity
  8
Layer 1
370
    20
  0
POLYLINE
  5
249
330
22F
100
AcDbEntity
  8
Layer 1
 62
     7
370
    20
100
AcDb2dPolyline
 66
     1
 10
0.0
 20
0.0
 30
0.0
  0
VERTEX
  5
24A
330
249
100
AcDbEntity
  8
Layer 1
 62
     7
370
    20
100
AcDbVertex
100
AcDb2dVertex
 10
153.8869031733338
 20
227.9681694308552
 30
0.0
  0
VERTEX
  5
24B
330
249
100
AcDbEntity
  8
Layer 1
 62
     7
370
    20
100
AcDbVertex
100
AcDb2dVertex
 10
153.8869031733338
 20
222.3864257256534
 30
0.0
  0
SEQEND
  5
24C
330
249
100
AcDbEntity
  8
Layer 1
370
    20
  0
POLYLINE
  5
24D
330
22F
100
AcDbEntity
  8
Layer 1
 62
     7
370
    20
100
AcDb2dPolyline
 66
     1
 10
0.0
 20
0.0
 30
0.0
  0
VERTEX
  5
24E
330
24D
100
AcDbEntity
  8
Layer 1
 62
     7
370
    20
100
AcDbVertex
100
AcDb2dVertex
 10
158.6370008283963
 20
227.9681694308552
 30
0.0
  0
VERTEX
  5
24F
330
24D
100
AcDbEntity
  8
Layer 1
 62
     7
370
    20
100
AcDbVertex
100
AcDb2dVertex
 10
158.6370008283963
 20
222.3864257256534
 30
0.0
  0
SEQEND
  5
250
330
24D
100
AcDbEntity
  8
Layer 1
370
    20
  0
POLYLINE
  5
251
330
22F
100
AcDbEntity
  8
Layer 1
 62
     7
370
    20
100
AcDb2dPolyline
 66
     1
 10
0.0
 20
0.0
 30
0.0
  0
VERTEX
  5
252
330
251
100
AcDbEntity
  8
Layer 1
 62
     7
370
    20
100
AcDbVertex
100
AcDb2dVertex
 10
140.0520887236675
 20
228.5004366833263
 30
0.0
  0
VERTEX
  5
253
330
251
100
AcDbEntity
  8
Layer 1
 62
     7
370
    20
100
AcDbVertex
100
AcDb2dVertex
 10
140.8699543918659
 20
229.3196803897187
 30
0.0
  0
SEQEND
  5
254
330
251
100
AcDbEntity
  8
Layer 1
370
    20
  0
POLYLINE
  5
255
330
22F
100
AcDbEntity
  8
Layer 1
 62
     7
370
    20
100
AcDb2dPolyline
 66
     1
 10
0.0
 20
0.0
 30
0.0
  0
VERTEX
  5
256
330
255
100
AcDbEntity
  8
Layer 1
 62
     7
370
    20
100
AcDbVertex
100
AcDb2dVertex
 10
157.4098578165503
 20
221.0411159386634
 30
0.0
  0
VERTEX
  5
257
330
255
100
AcDbEntity
  8
Layer 1
 62
     7
370
    20
100
AcDbVertex
100
AcDb2dVertex
 10
158.2215223128752
 20
221.8541584731823
 30
0.0
  0
SEQEND
  5
258
330
255
100
AcDbEntity
  8
Layer 1
370
    20
  0
POLYLINE
  5
259
330
22F
100
AcDbEntity
  8
Layer 1
 62
     7
370
    20
100
AcDb2dPolyline
 66
     1
 10
0.0
 20
0.0
 30
0.0
  0
VERTEX
  5
25A
330
259
100
AcDbEntity
  8
Layer 1
 62
     7
370
    20
100
AcDbVertex
100
AcDb2dVertex
 10
158.2215223128752
 20
228.5004366833263
 30
0.0
  0
VERTEX
  5
25B
330
259
100
AcDbEntity
  8
Layer 1
 62
     7
370
    20
100
AcDbVertex
100
AcDb2dVertex
 10
157.4098578165503
 20
229.3145127464908
 30
0.0
  0
SEQEND
  5
25C
330
259
100
AcDbEntity
  8
Layer 1
370
    20
  0
POLYLINE
  5
25D
330
22F
100
AcDbEntity
  8
Layer 1
 62
     7
370
    20
100
AcDb2dPolyline
 66
     1
 10
0.0
 20
0.0
 30
0.0
  0
VERTEX
  5
25E
330
25D
100
AcDbEntity
  8
Layer 1
 62
     7
370
    20
100
AcDbVertex
100
AcDb2dVertex
 10
140.8644422390894
 20
221.0411159386634
 30
0.0
  0
VERTEX
  5
25F
330
25D
100
AcDbEntity
  8
Layer 1
 62
     7
370
    20
100
AcDbVertex
100
AcDb2dVertex
 10
140.0520887236675
 20
221.8541584731823
 30
0.0
  0
SEQEND
  5
260
330
25D
100
AcDbEntity
  8
Layer 1
370
    20
  0
ENDBLK
  5
232
330
22F
100
AcDbEntity
  8
0
100
AcDbBlockEnd
  0
BLOCK
  5
272
330
270
100
AcDbEntity
  8
0
100
AcDbBlockBegin
  2
block 10
 70
     0
 71
     0
 10
0.0
 20
0.0
 30
0.0
  3
block 10
  1

  0
SPLINE
  5
274
330
270
100
AcDbEntity
  8
Layer 1
 62
     7
370
    20
100
AcDbSpline
210
0.0
220
0.0
230
1.0
 70
    11
 71
     3
 72
    50
 73
    46
 74
     0
 42
0.0000000001
 43
0.0000000001
 40
0.0
 40
0.0
 40
0.0
 40
0.0
 40
1.0
 40
1.0
 40
1.0
 40
2.0
 40
2.0
 40
2.0
 40
3.0
 40
3.0
 40
3.0
 40
4.0
 40
4.0
 40
4.0
 40
5.0
 40
5.0
 40
5.0
 40
6.0
 40
6.0
 40
6.0
 40
7.0
 40
7.0
 40
7.0
 40
8.0
 40
8.0
 40
8.0
 40
9.0
 40
9.0
 40
9.0
 40
10.0
 40
10.0
 40
10.0
 40
11.0
 40
11.0
 40
11.0
 40
12.0
 40
12.0
 40
12.0
 40
13.0
 40
13.0
 40
13.0
 40
14.0
 40
14.0
 40
14.0
 40
15.0
 40
15.0
 40
15.0
 40
15.0
 10
158.6370008283963
 20
193.6894693526193
 30
0.0
 10
158.5064317095053
 20
193.9070271325128
 30
0.0
 10
158.3507133935721
 20
194.1002969892353
 30
0.0
 10
158.1760470524699
 20
194.2677286298185
 30
0.0
 10
158.1760470524699
 20
194.2677286298185
 30
0.0
 10
158.1767360715669
 20
194.2666951011729
 30
0.0
 10
158.1767360715669
 20
194.2666951011729
 30
0.0
 10
158.1767360715669
 20
194.2666951011729
 30
0.0
 10
157.4098578165503
 20
195.0358126682549
 30
0.0
 10
157.4098578165503
 20
195.0358126682549
 30
0.0
 10
157.4098578165503
 20
195.0358126682549
 30
0.0
 10
140.8644422390894
 20
195.0358126682549
 30
0.0
 10
140.8644422390894
 20
195.0358126682549
 30
0.0
 10
140.8644422390894
 20
195.0358126682549
 30
0.0
 10
140.0524332332161
 20
194.2222533694132
 30
0.0
 10
140.0524332332161
 20
194.2222533694132
 30
0.0
 10
139.879144930308
 20
194.0482760474081
 30
0.0
 10
139.7248046525688
 20
193.8548339359113
 30
0.0
 10
139.6372992272435
 20
193.6894693526193
 30
0.0
 10
139.6372992272435
 20
193.6894693526193
 30
0.0
 10
139.6372992272435
 20
188.1077256474175
 30
0.0
 10
139.6372992272435
 20
188.1077256474175
 30
0.0
 10
139.7654567792948
 20
187.8939574725578
 30
0.0
 10
139.9177299997428
 20
187.703788201772
 30
0.0
 10
140.0886067358112
 20
187.5385958732543
 30
0.0
 10
140.0886067358112
 20
187.5385958732543
 30
0.0
 10
140.0896402644568
 20
187.5379068541572
 30
0.0
 10
140.0896402644568
 20
187.5379068541572
 30
0.0
 10
140.0896402644568
 20
187.5379068541572
 30
0.0
 10
140.8644422390894
 20
186.7624158604275
 30
0.0
 10
140.8644422390894
 20
186.7624158604275
 30
0.0
 10
140.8644422390894
 20
186.7624158604275
 30
0.0
 10
157.4098578165503
 20
186.7624158604275
 30
0.0
 10
157.4098578165503
 20
186.7624158604275
 30
0.0
 10
157.4098578165503
 20
186.7624158604275
 30
0.0
 10
158.2215223128752
 20
187.5754583949464
 30
0.0
 10
158.2215223128752
 20
187.5754583949464
 30
0.0
 10
158.2215223128752
 20
187.5754583949464
 30
0.0
 10
158.2215223128752
 20
187.5752861401722
 30
0.0
 10
158.2215223128752
 20
187.5752861401722
 30
0.0
 10
158.3951551253318
 20
187.749091207403
 30
0.0
 10
158.549495403071
 20
187.9425333188998
 30
0.0
 10
158.6370008283963
 20
188.1077256474175
 30
0.0
 10
158.6370008283963
 20
188.1077256474175
 30
0.0
 10
158.6370008283963
 20
193.6894693526193
 30
0.0
 10
158.6370008283963
 20
193.6894693526193
 30
0.0
  0
SPLINE
  5
275
330
270
100
AcDbEntity
  8
Layer 1
 62
     7
370
    20
100
AcDbSpline
210
0.0
220
0.0
230
1.0
 70
     8
 71
     3
 72
     8
 73
     4
 74
     0
 42
0.0000000001
 43
0.0000000001
 40
0.0
 40
0.0
 40
0.0
 40
0.0
 40
1.0
 40
1.0
 40
1.0
 40
1.0
 10
153.8869031733338
 20
193.6894693526193
 30
0.0
 10
151.2541612035059
 20
195.4840195908859
 30
0.0
 10
147.0191053234883
 20
195.4840195908859
 30
0.0
 10
144.3863633536604
 20
193.6894693526193
 30
0.0
  0
SPLINE
  5
276
330
270
100
AcDbEntity
  8
Layer 1
 62
     7
370
    20
100
AcDbSpline
210
0.0
220
0.0
230
1.0
 70
     8
 71
     3
 72
     8
 73
     4
 74
     0
 42
0.0000000001
 43
0.0000000001
 40
0.0
 40
0.0
 40
0.0
 40
0.0
 40
1.0
 40
1.0
 40
1.0
 40
1.0
 10
144.3863633536604
 20
188.1077256474175
 30
0.0
 10
147.0191053234883
 20
186.3138644282479
 30
0.0
 10
151.2541612035059
 20
186.3138644282479
 30
0.0
 10
153.8869031733338
 20
188.1077256474175
 30
0.0
  0
SPLINE
  5
277
330
270
100
AcDbEntity
  8
Layer 1
 62
     7
370
    20
100
AcDbSpline
210
0.0
220
0.0
230
1.0
 70
     8
 71
     3
 72
    11
 73
     7
 74
     0
 42
0.0000000001
 43
0.0000000001
 40
0.0
 40
0.0
 40
0.0
 40
0.0
 40
1.0
 40
1.0
 40
1.0
 40
2.0
 40
2.0
 40
2.0
 40
2.0
 10
144.3863633536604
 20
193.6894693526193
 30
0.0
 10
143.5981255066352
 20
195.0041177897907
 30
0.0
 10
141.8941812796306
 20
195.4292425726705
 30
0.0
 10
140.5829779379445
 20
194.6382486492571
 30
0.0
 10
140.4186468832981
 20
194.5507432239318
 30
0.0
 10
140.2257215361241
 20
194.3962306914183
 30
0.0
 10
140.0524332332161
 20
194.2222533694132
 30
0.0
  0
SPLINE
  5
278
330
270
100
AcDbEntity
  8
Layer 1
 62
     7
370
    20
100
AcDbSpline
210
0.0
220
0.0
230
1.0
 70
     8
 71
     3
 72
    11
 73
     7
 74
     0
 42
0.0000000001
 43
0.0000000001
 40
0.0
 40
0.0
 40
0.0
 40
0.0
 40
1.0
 40
1.0
 40
1.0
 40
2.0
 40
2.0
 40
2.0
 40
2.0
 10
140.0886067358112
 20
187.5385958732543
 30
0.0
 10
140.9691731418411
 20
186.6874850336233
 30
0.0
 10
142.3423882022616
 20
186.497660272386
 30
0.0
 10
143.4403401334108
 20
187.1599798794253
 30
0.0
 10
143.7693467522521
 20
187.334990730076
 30
0.0
 10
144.2116970125582
 20
187.7773409903821
 30
0.0
 10
144.3863633536604
 20
188.1077256474175
 30
0.0
  0
SPLINE
  5
279
330
270
100
AcDbEntity
  8
Layer 1
 62
     7
370
    20
100
AcDbSpline
210
0.0
220
0.0
230
1.0
 70
     8
 71
     3
 72
    11
 73
     7
 74
     0
 42
0.0000000001
 43
0.0000000001
 40
0.0
 40
0.0
 40
0.0
 40
0.0
 40
1.0
 40
1.0
 40
1.0
 40
2.0
 40
2.0
 40
2.0
 40
2.0
 10
153.8869031733338
 20
188.1077256474175
 30
0.0
 10
154.6761745490046
 20
186.7934217197947
 30
0.0
 10
156.3790852473636
 20
186.3689859560119
 30
0.0
 10
157.6909776081467
 20
187.1599798794253
 30
0.0
 10
157.8556531723416
 20
187.2474853047506
 30
0.0
 10
158.0478895004186
 20
187.4016533277156
 30
0.0
 10
158.2215223128752
 20
187.5752861401722
 30
0.0
  0
SPLINE
  5
27A
330
270
100
AcDbEntity
  8
Layer 1
 62
     7
370
    20
100
AcDbSpline
210
0.0
220
0.0
230
1.0
 70
     8
 71
     3
 72
    11
 73
     7
 74
     0
 42
0.0000000001
 43
0.0000000001
 40
0.0
 40
0.0
 40
0.0
 40
0.0
 40
1.0
 40
1.0
 40
1.0
 40
2.0
 40
2.0
 40
2.0
 40
2.0
 10
158.1760470524699
 20
194.2677286298185
 30
0.0
 10
157.294791627343
 20
195.1116047689304
 30
0.0
 10
155.9277777387958
 20
195.298328944231
 30
0.0
 10
154.8329263935834
 20
194.6382486492571
 30
0.0
 10
154.5039197747421
 20
194.4632377986064
 30
0.0
 10
154.061569514436
 20
194.0201985192033
 30
0.0
 10
153.8869031733338
 20
193.6894693526193
 30
0.0
  0
POLYLINE
  5
27B
330
270
100
AcDbEntity
  8
Layer 1
 62
     7
370
    20
100
AcDb2dPolyline
 66
     1
 10
0.0
 20
0.0
 30
0.0
  0
VERTEX
  5
27C
330
27B
100
AcDbEntity
  8
Layer 1
 62
     7
370
    20
100
AcDbVertex
100
AcDb2dVertex
 10
144.3863633536604
 20
193.6894693526193
 30
0.0
  0
VERTEX
  5
27D
330
27B
100
AcDbEntity
  8
Layer 1
 62
     7
370
    20
100
AcDbVertex
100
AcDb2dVertex
 10
144.3863633536604
 20
188.1077256474175
 30
0.0
  0
SEQEND
  5
27E
330
27B
100
AcDbEntity
  8
Layer 1
370
    20
  0
POLYLINE
  5
27F
330
270
100
AcDbEntity
  8
Layer 1
 62
     7
370
    20
100
AcDb2dPolyline
 66
     1
 10
0.0
 20
0.0
 30
0.0
  0
VERTEX
  5
280
330
27F
100
AcDbEntity
  8
Layer 1
 62
     7
370
    20
100
AcDbVertex
100
AcDb2dVertex
 10
153.8869031733338
 20
193.6894693526193
 30
0.0
  0
VERTEX
  5
281
330
27F
100
AcDbEntity
  8
Layer 1
 62
     7
370
    20
100
AcDbVertex
100
AcDb2dVertex
 10
153.8869031733338
 20
188.1077256474175
 30
0.0
  0
SEQEND
  5
282
330
27F
100
AcDbEntity
  8
Layer 1
370
    20
  0
ENDBLK
  5
273
330
270
100
AcDbEntity
  8
0
100
AcDbBlockEnd
  0
BLOCK
  5
28D
330
28B
100
AcDbEntity
  8
0
100
AcDbBlockBegin
  2
block 11
 70
     0
 71
     0
 10
0.0
 20
0.0
 30
0.0
  3
block 11
  1

  0
INSERT
  5
290
330
28B
100
AcDbEntity
  8
Layer 1
100
AcDbBlockReference
  2
block 12
 10
0.0
 20
0.0
 30
0.0
  0
POLYLINE
  5
441
330
28B
100
AcDbEntity
  8
Layer 1
 62
     7
370
    20
100
AcDb2dPolyline
 66
     1
 10
0.0
 20
0.0
 30
0.0
  0
VERTEX
  5
442
330
441
100
AcDbEntity
  8
Layer 1
 62
     7
370
    20
100
AcDbVertex
100
AcDb2dVertex
 10
45.01706270575963
 20
183.5421128555902
 30
0.0
  0
VERTEX
  5
443
330
441
100
AcDbEntity
  8
Layer 1
 62
     7
370
    20
100
AcDbVertex
100
AcDb2dVertex
 10
53.88680554208386
 20
183.5421128555902
 30
0.0
  0
SEQEND
  5
444
330
441
100
AcDbEntity
  8
Layer 1
370
    20
  0
POLYLINE
  5
445
330
28B
100
AcDbEntity
  8
Layer 1
 62
     7
370
    20
100
AcDb2dPolyline
 66
     1
 10
0.0
 20
0.0
 30
0.0
  0
VERTEX
  5
446
330
445
100
AcDbEntity
  8
Layer 1
 62
     7
370
    20
100
AcDbVertex
100
AcDb2dVertex
 10
38.63674586707693
 20
221.0404269195663
 30
0.0
  0
VERTEX
  5
447
330
445
100
AcDbEntity
  8
Layer 1
 62
     7
370
    20
100
AcDbVertex
100
AcDb2dVertex
 10
59.63735892606289
 20
221.0404269195663
 30
0.0
  0
VERTEX
  5
448
330
445
100
AcDbEntity
  8
Layer 1
 62
     7
370
    20
100
AcDbVertex
100
AcDb2dVertex
 10
59.63735892606289
 20
220.0406602097468
 30
0.0
  0
VERTEX
  5
449
330
445
100
AcDbEntity
  8
Layer 1
 62
     7
370
    20
100
AcDbVertex
100
AcDb2dVertex
 10
38.63674586707693
 20
220.0406602097468
 30
0.0
  0
VERTEX
  5
44A
330
445
100
AcDbEntity
  8
Layer 1
 62
     7
370
    20
100
AcDbVertex
100
AcDb2dVertex
 10
38.63674586707693
 20
221.0404269195663
 30
0.0
  0
SEQEND
  5
44B
330
445
100
AcDbEntity
  8
Layer 1
370
    20
  0
INSERT
  5
44D
330
28B
100
AcDbEntity
  8
Layer 1
100
AcDbBlockReference
  2
block 14
 10
0.0
 20
0.0
 30
0.0
  0
POLYLINE
  5
47E
330
28B
100
AcDbEntity
  8
Layer 1
 62
     7
370
    20
100
AcDb2dPolyline
 66
     1
 10
0.0
 20
0.0
 30
0.0
  0
VERTEX
  5
47F
330
47E
100
AcDbEntity
  8
Layer 1
 62
     7
370
    20
100
AcDbVertex
100
AcDb2dVertex
 10
38.1372070217157
 20
220.0406602097468
 30
0.0
  0
VERTEX
  5
480
330
47E
100
AcDbEntity
  8
Layer 1
 62
     7
370
    20
100
AcDbVertex
100
AcDb2dVertex
 10
60.13689777142411
 20
220.0406602097468
 30
0.0
  0
VERTEX
  5
481
330
47E
100
AcDbEntity
  8
Layer 1
 62
     7
370
    20
100
AcDbVertex
100
AcDb2dVertex
 10
60.13689777142411
 20
218.540665635469
 30
0.0
  0
VERTEX
  5
482
330
47E
100
AcDbEntity
  8
Layer 1
 62
     7
370
    20
100
AcDbVertex
100
AcDb2dVertex
 10
38.1372070217157
 20
218.540665635469
 30
0.0
  0
VERTEX
  5
483
330
47E
100
AcDbEntity
  8
Layer 1
 62
     7
370
    20
100
AcDbVertex
100
AcDb2dVertex
 10
38.1372070217157
 20
220.0406602097468
 30
0.0
  0
SEQEND
  5
484
330
47E
100
AcDbEntity
  8
Layer 1
370
    20
  0
HATCH
  5
485
330
28B
100
AcDbEntity
  8
Layer 1
 62
     7
100
AcDbHatch
 10
0.0
 20
0.0
 30
0.0
210
0.0
220
0.0
230
1.0
  2
SOLID
 70
     1
 71
     0
 91
        1
 92
        1
 93
        4
 72
     1
 10
38.1372070217157
 20
220.0406602097468
 11
60.13689777142411
 21
220.0406602097468
 72
     1
 10
60.13689777142411
 20
220.0406602097468
 11
60.13689777142411
 21
218.540665635469
 72
     1
 10
60.13689777142411
 20
218.540665635469
 11
38.1372070217157
 21
218.540665635469
 72
     1
 10
38.1372070217157
 20
218.540665635469
 11
38.1372070217157
 21
220.0406602097468
 97
        0
 75
     2
 76
     1
 98
        0
  0
POLYLINE
  5
486
330
28B
100
AcDbEntity
  8
Layer 1
 62
     7
370
    20
100
AcDb2dPolyline
 66
     1
 10
0.0
 20
0.0
 30
0.0
  0
VERTEX
  5
487
330
486
100
AcDbEntity
  8
Layer 1
 62
     7
370
    20
100
AcDbVertex
100
AcDb2dVertex
 10
38.63674586707693
 20
196.0407470213023
 30
0.0
  0
VERTEX
  5
488
330
486
100
AcDbEntity
  8
Layer 1
 62
     7
370
    20
100
AcDbVertex
100
AcDb2dVertex
 10
59.63735892606289
 20
196.0407470213023
 30
0.0
  0
VERTEX
  5
489
330
486
100
AcDbEntity
  8
Layer 1
 62
     7
370
    20
100
AcDbVertex
100
AcDb2dVertex
 10
59.63735892606289
 20
195.0409803114828
 30
0.0
  0
VERTEX
  5
48A
330
486
100
AcDbEntity
  8
Layer 1
 62
     7
370
    20
100
AcDbVertex
100
AcDb2dVertex
 10
38.63674586707693
 20
195.0409803114828
 30
0.0
  0
VERTEX
  5
48B
330
486
100
AcDbEntity
  8
Layer 1
 62
     7
370
    20
100
AcDbVertex
100
AcDb2dVertex
 10
38.63674586707693
 20
196.0407470213023
 30
0.0
  0
SEQEND
  5
48C
330
486
100
AcDbEntity
  8
Layer 1
370
    20
  0
INSERT
  5
48E
330
28B
100
AcDbEntity
  8
Layer 1
100
AcDbBlockReference
  2
block 15
 10
0.0
 20
0.0
 30
0.0
  0
POLYLINE
  5
4A0
330
28B
100
AcDbEntity
  8
Layer 1
 62
     7
370
    20
100
AcDb2dPolyline
 66
     1
 10
0.0
 20
0.0
 30
0.0
  0
VERTEX
  5
4A1
330
4A0
100
AcDbEntity
  8
Layer 1
 62
     7
370
    20
100
AcDbVertex
100
AcDb2dVertex
 10
38.1372070217157
 20
197.5407415955801
 30
0.0
  0
VERTEX
  5
4A2
330
4A0
100
AcDbEntity
  8
Layer 1
 62
     7
370
    20
100
AcDbVertex
100
AcDb2dVertex
 10
60.13689777142411
 20
197.5407415955801
 30
0.0
  0
VERTEX
  5
4A3
330
4A0
100
AcDbEntity
  8
Layer 1
 62
     7
370
    20
100
AcDbVertex
100
AcDb2dVertex
 10
60.13689777142411
 20
196.0407470213023
 30
0.0
  0
VERTEX
  5
4A4
330
4A0
100
AcDbEntity
  8
Layer 1
 62
     7
370
    20
100
AcDbVertex
100
AcDb2dVertex
 10
38.1372070217157
 20
196.0407470213023
 30
0.0
  0
VERTEX
  5
4A5
330
4A0
100
AcDbEntity
  8
Layer 1
 62
     7
370
    20
100
AcDbVertex
100
AcDb2dVertex
 10
38.1372070217157
 20
197.5407415955801
 30
0.0
  0
SEQEND
  5
4A6
330
4A0
100
AcDbEntity
  8
Layer 1
370
    20
  0
HATCH
  5
4A7
330
28B
100
AcDbEntity
  8
Layer 1
 62
     7
100
AcDbHatch
 10
0.0
 20
0.0
 30
0.0
210
0.0
220
0.0
230
1.0
  2
SOLID
 70
     1
 71
     0
 91
        1
 92
        1
 93
        4
 72
     1
 10
38.1372070217157
 20
197.5407415955801
 11
60.13689777142411
 21
197.5407415955801
 72
     1
 10
60.13689777142411
 20
197.5407415955801
 11
60.13689777142411
 21
196.0407470213023
 72
     1
 10
60.13689777142411
 20
196.0407470213023
 11
38.1372070217157
 21
196.0407470213023
 72
     1
 10
38.1372070217157
 20
196.0407470213023
 11
38.1372070217157
 21
197.5407415955801
 97
        0
 75
     2
 76
     1
 98
        0
  0
ENDBLK
  5
28E
330
28B
100
AcDbEntity
  8
0
100
AcDbBlockEnd
  0
BLOCK
  5
291
330
28F
100
AcDbEntity
  8
0
100
AcDbBlockBegin
  2
block 12
 70
     0
 71
     0
 10
0.0
 20
0.0
 30
0.0
  3
block 12
  1

  0
POLYLINE
  5
293
330
28F
100
AcDbEntity
  8
Layer 1
 62
     7
370
    20
100
AcDb2dPolyline
 66
     1
 10
0.0
 20
0.0
 30
0.0
  0
VERTEX
  5
294
330
293
100
AcDbEntity
  8
Layer 1
 62
     7
370
    20
100
AcDbVertex
100
AcDb2dVertex
 10
45.23685979771857
 20
183.6048135934217
 30
0.0
  0
VERTEX
  5
295
330
293
100
AcDbEntity
  8
Layer 1
 62
     7
370
    20
100
AcDbVertex
100
AcDb2dVertex
 10
45.23754881681562
 20
218.5403211259205
 30
0.0
  0
VERTEX
  5
296
330
293
100
AcDbEntity
  8
Layer 1
 62
     7
370
    20
100
AcDbVertex
100
AcDb2dVertex
 10
53.03724499542125
 20
218.5403211259205
 30
0.0
  0
VERTEX
  5
297
330
293
100
AcDbEntity
  8
Layer 1
 62
     7
370
    20
100
AcDbVertex
100
AcDb2dVertex
 10
53.03655597632419
 20
183.6048135934217
 30
0.0
  0
SEQEND
  5
298
330
293
100
AcDbEntity
  8
Layer 1
370
    20
  0
INSERT
  5
29A
330
28F
100
AcDbEntity
  8
Layer 1
100
AcDbBlockReference
  2
block 13
 10
0.0
 20
0.0
 30
0.0
  0
ENDBLK
  5
292
330
28F
100
AcDbEntity
  8
0
100
AcDbBlockEnd
  0
BLOCK
  5
29B
330
299
100
AcDbEntity
  8
0
100
AcDbBlockBegin
  2
block 13
 70
     0
 71
     0
 10
0.0
 20
0.0
 30
0.0
  3
block 13
  1

  0
POLYLINE
  5
29D
330
299
100
AcDbEntity
  8
Layer 1
 62
     7
370
    20
100
AcDb2dPolyline
 66
     1
 10
0.0
 20
0.0
 30
0.0
  0
VERTEX
  5
29E
330
29D
100
AcDbEntity
  8
Layer 1
 62
     7
370
    20
100
AcDbVertex
100
AcDb2dVertex
 10
54.03701170524075
 20
187.9154893193406
 30
0.0
  0
VERTEX
  5
29F
330
29D
100
AcDbEntity
  8
Layer 1
 62
     7
370
    20
100
AcDbVertex
100
AcDb2dVertex
 10
53.03724499542125
 20
187.1658365417502
 30
0.0
  0
SEQEND
  5
2A0
330
29D
100
AcDbEntity
  8
Layer 1
370
    20
  0
POLYLINE
  5
2A1
330
299
100
AcDbEntity
  8
Layer 1
 62
     7
370
    20
100
AcDb2dPolyline
 66
     1
 10
0.0
 20
0.0
 30
0.0
  0
VERTEX
  5
2A2
330
2A1
100
AcDbEntity
  8
Layer 1
 62
     7
370
    20
100
AcDbVertex
100
AcDb2dVertex
 10
54.03701170524075
 20
186.4154947450628
 30
0.0
  0
VERTEX
  5
2A3
330
2A1
100
AcDbEntity
  8
Layer 1
 62
     7
370
    20
100
AcDbVertex
100
AcDb2dVertex
 10
53.03724499542125
 20
187.1658365417502
 30
0.0
  0
SEQEND
  5
2A4
330
2A1
100
AcDbEntity
  8
Layer 1
370
    20
  0
POLYLINE
  5
2A5
330
299
100
AcDbEntity
  8
Layer 1
 62
     7
370
    20
100
AcDb2dPolyline
 66
     1
 10
0.0
 20
0.0
 30
0.0
  0
VERTEX
  5
2A6
330
2A5
100
AcDbEntity
  8
Layer 1
 62
     7
370
    20
100
AcDbVertex
100
AcDb2dVertex
 10
54.03701170524075
 20
186.4154947450628
 30
0.0
  0
VERTEX
  5
2A7
330
2A5
100
AcDbEntity
  8
Layer 1
 62
     7
370
    20
100
AcDbVertex
100
AcDb2dVertex
 10
53.03724499542125
 20
185.666186477021
 30
0.0
  0
SEQEND
  5
2A8
330
2A5
100
AcDbEntity
  8
Layer 1
370
    20
  0
POLYLINE
  5
2A9
330
299
100
AcDbEntity
  8
Layer 1
 62
     7
370
    20
100
AcDb2dPolyline
 66
     1
 10
0.0
 20
0.0
 30
0.0
  0
VERTEX
  5
2AA
330
2A9
100
AcDbEntity
  8
Layer 1
 62
     7
370
    20
100
AcDbVertex
100
AcDb2dVertex
 10
54.03701170524075
 20
187.9154893193406
 30
0.0
  0
VERTEX
  5
2AB
330
2A9
100
AcDbEntity
  8
Layer 1
 62
     7
370
    20
100
AcDbVertex
100
AcDb2dVertex
 10
53.03724499542125
 20
188.6654866064795
 30
0.0
  0
SEQEND
  5
2AC
330
2A9
100
AcDbEntity
  8
Layer 1
370
    20
  0
POLYLINE
  5
2AD
330
299
100
AcDbEntity
  8
Layer 1
 62
     7
370
    20
100
AcDb2dPolyline
 66
     1
 10
0.0
 20
0.0
 30
0.0
  0
VERTEX
  5
2AE
330
2AD
100
AcDbEntity
  8
Layer 1
 62
     7
370
    20
100
AcDbVertex
100
AcDb2dVertex
 10
44.23778210699611
 20
187.1658365417502
 30
0.0
  0
VERTEX
  5
2AF
330
2AD
100
AcDbEntity
  8
Layer 1
 62
     7
370
    20
100
AcDbVertex
100
AcDb2dVertex
 10
45.23754881681562
 20
187.9154893193406
 30
0.0
  0
SEQEND
  5
2B0
330
2AD
100
AcDbEntity
  8
Layer 1
370
    20
  0
POLYLINE
  5
2B1
330
299
100
AcDbEntity
  8
Layer 1
 62
     7
370
    20
100
AcDb2dPolyline
 66
     1
 10
0.0
 20
0.0
 30
0.0
  0
VERTEX
  5
2B2
330
2B1
100
AcDbEntity
  8
Layer 1
 62
     7
370
    20
100
AcDbVertex
100
AcDb2dVertex
 10
44.23778210699611
 20
188.6654866064795
 30
0.0
  0
VERTEX
  5
2B3
330
2B1
100
AcDbEntity
  8
Layer 1
 62
     7
370
    20
100
AcDbVertex
100
AcDb2dVertex
 10
45.23754881681562
 20
187.9154893193406
 30
0.0
  0
SEQEND
  5
2B4
330
2B1
100
AcDbEntity
  8
Layer 1
370
    20
  0
POLYLINE
  5
2B5
330
299
100
AcDbEntity
  8
Layer 1
 62
     7
370
    20
100
AcDb2dPolyline
 66
     1
 10
0.0
 20
0.0
 30
0.0
  0
VERTEX
  5
2B6
330
2B5
100
AcDbEntity
  8
Layer 1
 62
     7
370
    20
100
AcDbVertex
100
AcDb2dVertex
 10
44.23778210699611
 20
187.1651475226532
 30
0.0
  0
VERTEX
  5
2B7
330
2B5
100
AcDbEntity
  8
Layer 1
 62
     7
370
    20
100
AcDbVertex
100
AcDb2dVertex
 10
45.23754881681562
 20
186.4154947450628
 30
0.0
  0
SEQEND
  5
2B8
330
2B5
100
AcDbEntity
  8
Layer 1
370
    20
  0
POLYLINE
  5
2B9
330
299
100
AcDbEntity
  8
Layer 1
 62
     7
370
    20
100
AcDb2dPolyline
 66
     1
 10
0.0
 20
0.0
 30
0.0
  0
VERTEX
  5
2BA
330
2B9
100
AcDbEntity
  8
Layer 1
 62
     7
370
    20
100
AcDbVertex
100
AcDb2dVertex
 10
44.23778210699611
 20
188.6654866064795
 30
0.0
  0
VERTEX
  5
2BB
330
2B9
100
AcDbEntity
  8
Layer 1
 62
     7
370
    20
100
AcDbVertex
100
AcDb2dVertex
 10
45.23754881681562
 20
189.4158284031669
 30
0.0
  0
SEQEND
  5
2BC
330
2B9
100
AcDbEntity
  8
Layer 1
370
    20
  0
POLYLINE
  5
2BD
330
299
100
AcDbEntity
  8
Layer 1
 62
     7
370
    20
100
AcDb2dPolyline
 66
     1
 10
0.0
 20
0.0
 30
0.0
  0
VERTEX
  5
2BE
330
2BD
100
AcDbEntity
  8
Layer 1
 62
     7
370
    20
100
AcDbVertex
100
AcDb2dVertex
 10
54.03701170524075
 20
184.915500170785
 30
0.0
  0
VERTEX
  5
2BF
330
2BD
100
AcDbEntity
  8
Layer 1
 62
     7
370
    20
100
AcDbVertex
100
AcDb2dVertex
 10
53.03724499542125
 20
184.1651583740976
 30
0.0
  0
SEQEND
  5
2C0
330
2BD
100
AcDbEntity
  8
Layer 1
370
    20
  0
POLYLINE
  5
2C1
330
299
100
AcDbEntity
  8
Layer 1
 62
     7
370
    20
100
AcDb2dPolyline
 66
     1
 10
0.0
 20
0.0
 30
0.0
  0
VERTEX
  5
2C2
330
2C1
100
AcDbEntity
  8
Layer 1
 62
     7
370
    20
100
AcDbVertex
100
AcDb2dVertex
 10
53.03724499542125
 20
184.1651583740976
 30
0.0
  0
VERTEX
  5
2C3
330
2C1
100
AcDbEntity
  8
Layer 1
 62
     7
370
    20
100
AcDbVertex
100
AcDb2dVertex
 10
53.78483071572046
 20
183.6048135934217
 30
0.0
  0
VERTEX
  5
2C4
330
2C1
100
AcDbEntity
  8
Layer 1
 62
     7
370
    20
100
AcDbVertex
100
AcDb2dVertex
 10
44.98020018406745
 20
183.6079141793585
 30
0.0
  0
VERTEX
  5
2C5
330
2C1
100
AcDbEntity
  8
Layer 1
 62
     7
370
    20
100
AcDbVertex
100
AcDb2dVertex
 10
44.23778210699611
 20
184.1651583740976
 30
0.0
  0
SEQEND
  5
2C6
330
2C1
100
AcDbEntity
  8
Layer 1
370
    20
  0
POLYLINE
  5
2C7
330
299
100
AcDbEntity
  8
Layer 1
 62
     7
370
    20
100
AcDb2dPolyline
 66
     1
 10
0.0
 20
0.0
 30
0.0
  0
VERTEX
  5
2C8
330
2C7
100
AcDbEntity
  8
Layer 1
 62
     7
370
    20
100
AcDbVertex
100
AcDb2dVertex
 10
54.03701170524075
 20
184.915500170785
 30
0.0
  0
VERTEX
  5
2C9
330
2C7
100
AcDbEntity
  8
Layer 1
 62
     7
370
    20
100
AcDbVertex
100
AcDb2dVertex
 10
53.03724499542125
 20
185.666186477021
 30
0.0
  0
SEQEND
  5
2CA
330
2C7
100
AcDbEntity
  8
Layer 1
370
    20
  0
POLYLINE
  5
2CB
330
299
100
AcDbEntity
  8
Layer 1
 62
     7
370
    20
100
AcDb2dPolyline
 66
     1
 10
0.0
 20
0.0
 30
0.0
  0
VERTEX
  5
2CC
330
2CB
100
AcDbEntity
  8
Layer 1
 62
     7
370
    20
100
AcDbVertex
100
AcDb2dVertex
 10
44.23778210699611
 20
184.1651583740976
 30
0.0
  0
VERTEX
  5
2CD
330
2CB
100
AcDbEntity
  8
Layer 1
 62
     7
370
    20
100
AcDbVertex
100
AcDb2dVertex
 10
45.23754881681562
 20
184.915500170785
 30
0.0
  0
SEQEND
  5
2CE
330
2CB
100
AcDbEntity
  8
Layer 1
370
    20
  0
POLYLINE
  5
2CF
330
299
100
AcDbEntity
  8
Layer 1
 62
     7
370
    20
100
AcDb2dPolyline
 66
     1
 10
0.0
 20
0.0
 30
0.0
  0
VERTEX
  5
2D0
330
2CF
100
AcDbEntity
  8
Layer 1
 62
     7
370
    20
100
AcDbVertex
100
AcDb2dVertex
 10
44.23778210699611
 20
185.6651529483754
 30
0.0
  0
VERTEX
  5
2D1
330
2CF
100
AcDbEntity
  8
Layer 1
 62
     7
370
    20
100
AcDbVertex
100
AcDb2dVertex
 10
45.23754881681562
 20
184.915500170785
 30
0.0
  0
SEQEND
  5
2D2
330
2CF
100
AcDbEntity
  8
Layer 1
370
    20
  0
POLYLINE
  5
2D3
330
299
100
AcDbEntity
  8
Layer 1
 62
     7
370
    20
100
AcDb2dPolyline
 66
     1
 10
0.0
 20
0.0
 30
0.0
  0
VERTEX
  5
2D4
330
2D3
100
AcDbEntity
  8
Layer 1
 62
     7
370
    20
100
AcDbVertex
100
AcDb2dVertex
 10
44.23778210699611
 20
185.666186477021
 30
0.0
  0
VERTEX
  5
2D5
330
2D3
100
AcDbEntity
  8
Layer 1
 62
     7
370
    20
100
AcDbVertex
100
AcDb2dVertex
 10
45.23754881681562
 20
186.4154947450628
 30
0.0
  0
SEQEND
  5
2D6
330
2D3
100
AcDbEntity
  8
Layer 1
370
    20
  0
POLYLINE
  5
2D7
330
299
100
AcDbEntity
  8
Layer 1
 62
     7
370
    20
100
AcDb2dPolyline
 66
     1
 10
0.0
 20
0.0
 30
0.0
  0
VERTEX
  5
2D8
330
2D7
100
AcDbEntity
  8
Layer 1
 62
     7
370
    20
100
AcDbVertex
100
AcDb2dVertex
 10
54.03701170524075
 20
193.9154676164517
 30
0.0
  0
VERTEX
  5
2D9
330
2D7
100
AcDbEntity
  8
Layer 1
 62
     7
370
    20
100
AcDbVertex
100
AcDb2dVertex
 10
53.03724499542125
 20
193.1651258197643
 30
0.0
  0
SEQEND
  5
2DA
330
2D7
100
AcDbEntity
  8
Layer 1
370
    20
  0
POLYLINE
  5
2DB
330
299
100
AcDbEntity
  8
Layer 1
 62
     7
370
    20
100
AcDb2dPolyline
 66
     1
 10
0.0
 20
0.0
 30
0.0
  0
VERTEX
  5
2DC
330
2DB
100
AcDbEntity
  8
Layer 1
 62
     7
370
    20
100
AcDbVertex
100
AcDb2dVertex
 10
54.03701170524075
 20
192.4154730421739
 30
0.0
  0
VERTEX
  5
2DD
330
2DB
100
AcDbEntity
  8
Layer 1
 62
     7
370
    20
100
AcDbVertex
100
AcDb2dVertex
 10
53.03724499542125
 20
193.1651258197643
 30
0.0
  0
SEQEND
  5
2DE
330
2DB
100
AcDbEntity
  8
Layer 1
370
    20
  0
POLYLINE
  5
2DF
330
299
100
AcDbEntity
  8
Layer 1
 62
     7
370
    20
100
AcDb2dPolyline
 66
     1
 10
0.0
 20
0.0
 30
0.0
  0
VERTEX
  5
2E0
330
2DF
100
AcDbEntity
  8
Layer 1
 62
     7
370
    20
100
AcDbVertex
100
AcDb2dVertex
 10
54.03701170524075
 20
192.4154730421739
 30
0.0
  0
VERTEX
  5
2E1
330
2DF
100
AcDbEntity
  8
Layer 1
 62
     7
370
    20
100
AcDbVertex
100
AcDb2dVertex
 10
53.03724499542125
 20
191.6651312454865
 30
0.0
  0
SEQEND
  5
2E2
330
2DF
100
AcDbEntity
  8
Layer 1
370
    20
  0
POLYLINE
  5
2E3
330
299
100
AcDbEntity
  8
Layer 1
 62
     7
370
    20
100
AcDb2dPolyline
 66
     1
 10
0.0
 20
0.0
 30
0.0
  0
VERTEX
  5
2E4
330
2E3
100
AcDbEntity
  8
Layer 1
 62
     7
370
    20
100
AcDbVertex
100
AcDb2dVertex
 10
54.03701170524075
 20
193.9154676164517
 30
0.0
  0
VERTEX
  5
2E5
330
2E3
100
AcDbEntity
  8
Layer 1
 62
     7
370
    20
100
AcDbVertex
100
AcDb2dVertex
 10
53.03724499542125
 20
194.6658094131391
 30
0.0
  0
SEQEND
  5
2E6
330
2E3
100
AcDbEntity
  8
Layer 1
370
    20
  0
POLYLINE
  5
2E7
330
299
100
AcDbEntity
  8
Layer 1
 62
     7
370
    20
100
AcDb2dPolyline
 66
     1
 10
0.0
 20
0.0
 30
0.0
  0
VERTEX
  5
2E8
330
2E7
100
AcDbEntity
  8
Layer 1
 62
     7
370
    20
100
AcDbVertex
100
AcDb2dVertex
 10
44.23778210699611
 20
193.1651258197643
 30
0.0
  0
VERTEX
  5
2E9
330
2E7
100
AcDbEntity
  8
Layer 1
 62
     7
370
    20
100
AcDbVertex
100
AcDb2dVertex
 10
45.23754881681562
 20
193.9154676164517
 30
0.0
  0
SEQEND
  5
2EA
330
2E7
100
AcDbEntity
  8
Layer 1
370
    20
  0
POLYLINE
  5
2EB
330
299
100
AcDbEntity
  8
Layer 1
 62
     7
370
    20
100
AcDb2dPolyline
 66
     1
 10
0.0
 20
0.0
 30
0.0
  0
VERTEX
  5
2EC
330
2EB
100
AcDbEntity
  8
Layer 1
 62
     7
370
    20
100
AcDbVertex
100
AcDb2dVertex
 10
44.23778210699611
 20
194.6658094131391
 30
0.0
  0
VERTEX
  5
2ED
330
2EB
100
AcDbEntity
  8
Layer 1
 62
     7
370
    20
100
AcDbVertex
100
AcDb2dVertex
 10
45.23754881681562
 20
193.9154676164517
 30
0.0
  0
SEQEND
  5
2EE
330
2EB
100
AcDbEntity
  8
Layer 1
370
    20
  0
POLYLINE
  5
2EF
330
299
100
AcDbEntity
  8
Layer 1
 62
     7
370
    20
100
AcDb2dPolyline
 66
     1
 10
0.0
 20
0.0
 30
0.0
  0
VERTEX
  5
2F0
330
2EF
100
AcDbEntity
  8
Layer 1
 62
     7
370
    20
100
AcDbVertex
100
AcDb2dVertex
 10
44.23778210699611
 20
193.1651258197643
 30
0.0
  0
VERTEX
  5
2F1
330
2EF
100
AcDbEntity
  8
Layer 1
 62
     7
370
    20
100
AcDbVertex
100
AcDb2dVertex
 10
45.23754881681562
 20
192.4154730421739
 30
0.0
  0
SEQEND
  5
2F2
330
2EF
100
AcDbEntity
  8
Layer 1
370
    20
  0
POLYLINE
  5
2F3
330
299
100
AcDbEntity
  8
Layer 1
 62
     7
370
    20
100
AcDb2dPolyline
 66
     1
 10
0.0
 20
0.0
 30
0.0
  0
VERTEX
  5
2F4
330
2F3
100
AcDbEntity
  8
Layer 1
 62
     7
370
    20
100
AcDbVertex
100
AcDb2dVertex
 10
44.23778210699611
 20
194.6658094131391
 30
0.0
  0
VERTEX
  5
2F5
330
2F3
100
AcDbEntity
  8
Layer 1
 62
     7
370
    20
100
AcDbVertex
100
AcDb2dVertex
 10
45.23754881681562
 20
195.415117681181
 30
0.0
  0
SEQEND
  5
2F6
330
2F3
100
AcDbEntity
  8
Layer 1
370
    20
  0
POLYLINE
  5
2F7
330
299
100
AcDbEntity
  8
Layer 1
 62
     7
370
    20
100
AcDb2dPolyline
 66
     1
 10
0.0
 20
0.0
 30
0.0
  0
VERTEX
  5
2F8
330
2F7
100
AcDbEntity
  8
Layer 1
 62
     7
370
    20
100
AcDbVertex
100
AcDb2dVertex
 10
54.03701170524075
 20
190.9158229774447
 30
0.0
  0
VERTEX
  5
2F9
330
2F7
100
AcDbEntity
  8
Layer 1
 62
     7
370
    20
100
AcDbVertex
100
AcDb2dVertex
 10
53.03724499542125
 20
190.1654811807572
 30
0.0
  0
SEQEND
  5
2FA
330
2F7
100
AcDbEntity
  8
Layer 1
370
    20
  0
POLYLINE
  5
2FB
330
299
100
AcDbEntity
  8
Layer 1
 62
     7
370
    20
100
AcDb2dPolyline
 66
     1
 10
0.0
 20
0.0
 30
0.0
  0
VERTEX
  5
2FC
330
2FB
100
AcDbEntity
  8
Layer 1
 62
     7
370
    20
100
AcDbVertex
100
AcDb2dVertex
 10
54.03701170524075
 20
189.4151393840698
 30
0.0
  0
VERTEX
  5
2FD
330
2FB
100
AcDbEntity
  8
Layer 1
 62
     7
370
    20
100
AcDbVertex
100
AcDb2dVertex
 10
53.03724499542125
 20
190.1654811807572
 30
0.0
  0
SEQEND
  5
2FE
330
2FB
100
AcDbEntity
  8
Layer 1
370
    20
  0
POLYLINE
  5
2FF
330
299
100
AcDbEntity
  8
Layer 1
 62
     7
370
    20
100
AcDb2dPolyline
 66
     1
 10
0.0
 20
0.0
 30
0.0
  0
VERTEX
  5
300
330
2FF
100
AcDbEntity
  8
Layer 1
 62
     7
370
    20
100
AcDbVertex
100
AcDb2dVertex
 10
54.03701170524075
 20
189.4158284031669
 30
0.0
  0
VERTEX
  5
301
330
2FF
100
AcDbEntity
  8
Layer 1
 62
     7
370
    20
100
AcDbVertex
100
AcDb2dVertex
 10
53.03724499542125
 20
188.6654866064795
 30
0.0
  0
SEQEND
  5
302
330
2FF
100
AcDbEntity
  8
Layer 1
370
    20
  0
POLYLINE
  5
303
330
299
100
AcDbEntity
  8
Layer 1
 62
     7
370
    20
100
AcDb2dPolyline
 66
     1
 10
0.0
 20
0.0
 30
0.0
  0
VERTEX
  5
304
330
303
100
AcDbEntity
  8
Layer 1
 62
     7
370
    20
100
AcDbVertex
100
AcDb2dVertex
 10
54.03701170524075
 20
190.9158229774447
 30
0.0
  0
VERTEX
  5
305
330
303
100
AcDbEntity
  8
Layer 1
 62
     7
370
    20
100
AcDbVertex
100
AcDb2dVertex
 10
53.03724499542125
 20
191.6651312454865
 30
0.0
  0
SEQEND
  5
306
330
303
100
AcDbEntity
  8
Layer 1
370
    20
  0
POLYLINE
  5
307
330
299
100
AcDbEntity
  8
Layer 1
 62
     7
370
    20
100
AcDb2dPolyline
 66
     1
 10
0.0
 20
0.0
 30
0.0
  0
VERTEX
  5
308
330
307
100
AcDbEntity
  8
Layer 1
 62
     7
370
    20
100
AcDbVertex
100
AcDb2dVertex
 10
44.23778210699611
 20
190.1654811807572
 30
0.0
  0
VERTEX
  5
309
330
307
100
AcDbEntity
  8
Layer 1
 62
     7
370
    20
100
AcDbVertex
100
AcDb2dVertex
 10
45.23754881681562
 20
190.9158229774447
 30
0.0
  0
SEQEND
  5
30A
330
307
100
AcDbEntity
  8
Layer 1
370
    20
  0
POLYLINE
  5
30B
330
299
100
AcDbEntity
  8
Layer 1
 62
     7
370
    20
100
AcDb2dPolyline
 66
     1
 10
0.0
 20
0.0
 30
0.0
  0
VERTEX
  5
30C
330
30B
100
AcDbEntity
  8
Layer 1
 62
     7
370
    20
100
AcDbVertex
100
AcDb2dVertex
 10
44.23778210699611
 20
191.6651312454865
 30
0.0
  0
VERTEX
  5
30D
330
30B
100
AcDbEntity
  8
Layer 1
 62
     7
370
    20
100
AcDbVertex
100
AcDb2dVertex
 10
45.23754881681562
 20
190.9158229774447
 30
0.0
  0
SEQEND
  5
30E
330
30B
100
AcDbEntity
  8
Layer 1
370
    20
  0
POLYLINE
  5
30F
330
299
100
AcDbEntity
  8
Layer 1
 62
     7
370
    20
100
AcDb2dPolyline
 66
     1
 10
0.0
 20
0.0
 30
0.0
  0
VERTEX
  5
310
330
30F
100
AcDbEntity
  8
Layer 1
 62
     7
370
    20
100
AcDbVertex
100
AcDb2dVertex
 10
44.23778210699611
 20
190.1654811807572
 30
0.0
  0
VERTEX
  5
311
330
30F
100
AcDbEntity
  8
Layer 1
 62
     7
370
    20
100
AcDbVertex
100
AcDb2dVertex
 10
45.23754881681562
 20
189.4151393840698
 30
0.0
  0
SEQEND
  5
312
330
30F
100
AcDbEntity
  8
Layer 1
370
    20
  0
POLYLINE
  5
313
330
299
100
AcDbEntity
  8
Layer 1
 62
     7
370
    20
100
AcDb2dPolyline
 66
     1
 10
0.0
 20
0.0
 30
0.0
  0
VERTEX
  5
314
330
313
100
AcDbEntity
  8
Layer 1
 62
     7
370
    20
100
AcDbVertex
100
AcDb2dVertex
 10
44.23778210699611
 20
191.6651312454865
 30
0.0
  0
VERTEX
  5
315
330
313
100
AcDbEntity
  8
Layer 1
 62
     7
370
    20
100
AcDbVertex
100
AcDb2dVertex
 10
45.23754881681562
 20
192.4154730421739
 30
0.0
  0
SEQEND
  5
316
330
313
100
AcDbEntity
  8
Layer 1
370
    20
  0
POLYLINE
  5
317
330
299
100
AcDbEntity
  8
Layer 1
 62
     7
370
    20
100
AcDb2dPolyline
 66
     1
 10
0.0
 20
0.0
 30
0.0
  0
VERTEX
  5
318
330
317
100
AcDbEntity
  8
Layer 1
 62
     7
370
    20
100
AcDbVertex
100
AcDb2dVertex
 10
54.03701170524075
 20
198.415451339285
 30
0.0
  0
VERTEX
  5
319
330
317
100
AcDbEntity
  8
Layer 1
 62
     7
370
    20
100
AcDbVertex
100
AcDb2dVertex
 10
53.03724499542125
 20
197.6651095425976
 30
0.0
  0
SEQEND
  5
31A
330
317
100
AcDbEntity
  8
Layer 1
370
    20
  0
POLYLINE
  5
31B
330
299
100
AcDbEntity
  8
Layer 1
 62
     7
370
    20
100
AcDb2dPolyline
 66
     1
 10
0.0
 20
0.0
 30
0.0
  0
VERTEX
  5
31C
330
31B
100
AcDbEntity
  8
Layer 1
 62
     7
370
    20
100
AcDbVertex
100
AcDb2dVertex
 10
54.03701170524075
 20
196.9147677459102
 30
0.0
  0
VERTEX
  5
31D
330
31B
100
AcDbEntity
  8
Layer 1
 62
     7
370
    20
100
AcDbVertex
100
AcDb2dVertex
 10
53.03724499542125
 20
196.1654594778684
 30
0.0
  0
SEQEND
  5
31E
330
31B
100
AcDbEntity
  8
Layer 1
370
    20
  0
POLYLINE
  5
31F
330
299
100
AcDbEntity
  8
Layer 1
 62
     7
370
    20
100
AcDb2dPolyline
 66
     1
 10
0.0
 20
0.0
 30
0.0
  0
VERTEX
  5
320
330
31F
100
AcDbEntity
  8
Layer 1
 62
     7
370
    20
100
AcDbVertex
100
AcDb2dVertex
 10
54.03701170524075
 20
195.415117681181
 30
0.0
  0
VERTEX
  5
321
330
31F
100
AcDbEntity
  8
Layer 1
 62
     7
370
    20
100
AcDbVertex
100
AcDb2dVertex
 10
53.03724499542125
 20
196.1654594778684
 30
0.0
  0
SEQEND
  5
322
330
31F
100
AcDbEntity
  8
Layer 1
370
    20
  0
POLYLINE
  5
323
330
299
100
AcDbEntity
  8
Layer 1
 62
     7
370
    20
100
AcDb2dPolyline
 66
     1
 10
0.0
 20
0.0
 30
0.0
  0
VERTEX
  5
324
330
323
100
AcDbEntity
  8
Layer 1
 62
     7
370
    20
100
AcDbVertex
100
AcDb2dVertex
 10
54.03701170524075
 20
195.415117681181
 30
0.0
  0
VERTEX
  5
325
330
323
100
AcDbEntity
  8
Layer 1
 62
     7
370
    20
100
AcDbVertex
100
AcDb2dVertex
 10
53.03724499542125
 20
194.6658094131391
 30
0.0
  0
SEQEND
  5
326
330
323
100
AcDbEntity
  8
Layer 1
370
    20
  0
POLYLINE
  5
327
330
299
100
AcDbEntity
  8
Layer 1
 62
     7
370
    20
100
AcDb2dPolyline
 66
     1
 10
0.0
 20
0.0
 30
0.0
  0
VERTEX
  5
328
330
327
100
AcDbEntity
  8
Layer 1
 62
     7
370
    20
100
AcDbVertex
100
AcDb2dVertex
 10
54.03701170524075
 20
196.9158012745558
 30
0.0
  0
VERTEX
  5
329
330
327
100
AcDbEntity
  8
Layer 1
 62
     7
370
    20
100
AcDbVertex
100
AcDb2dVertex
 10
53.03724499542125
 20
197.6651095425976
 30
0.0
  0
SEQEND
  5
32A
330
327
100
AcDbEntity
  8
Layer 1
370
    20
  0
POLYLINE
  5
32B
330
299
100
AcDbEntity
  8
Layer 1
 62
     7
370
    20
100
AcDb2dPolyline
 66
     1
 10
0.0
 20
0.0
 30
0.0
  0
VERTEX
  5
32C
330
32B
100
AcDbEntity
  8
Layer 1
 62
     7
370
    20
100
AcDbVertex
100
AcDb2dVertex
 10
44.23778210699611
 20
196.1654594778684
 30
0.0
  0
VERTEX
  5
32D
330
32B
100
AcDbEntity
  8
Layer 1
 62
     7
370
    20
100
AcDbVertex
100
AcDb2dVertex
 10
45.23754881681562
 20
196.9147677459102
 30
0.0
  0
SEQEND
  5
32E
330
32B
100
AcDbEntity
  8
Layer 1
370
    20
  0
POLYLINE
  5
32F
330
299
100
AcDbEntity
  8
Layer 1
 62
     7
370
    20
100
AcDb2dPolyline
 66
     1
 10
0.0
 20
0.0
 30
0.0
  0
VERTEX
  5
330
330
32F
100
AcDbEntity
  8
Layer 1
 62
     7
370
    20
100
AcDbVertex
100
AcDb2dVertex
 10
44.23778210699611
 20
197.6651095425976
 30
0.0
  0
VERTEX
  5
331
330
32F
100
AcDbEntity
  8
Layer 1
 62
     7
370
    20
100
AcDbVertex
100
AcDb2dVertex
 10
45.23754881681562
 20
196.9147677459102
 30
0.0
  0
SEQEND
  5
332
330
32F
100
AcDbEntity
  8
Layer 1
370
    20
  0
POLYLINE
  5
333
330
299
100
AcDbEntity
  8
Layer 1
 62
     7
370
    20
100
AcDb2dPolyline
 66
     1
 10
0.0
 20
0.0
 30
0.0
  0
VERTEX
  5
334
330
333
100
AcDbEntity
  8
Layer 1
 62
     7
370
    20
100
AcDbVertex
100
AcDb2dVertex
 10
44.23778210699611
 20
196.1654594778684
 30
0.0
  0
VERTEX
  5
335
330
333
100
AcDbEntity
  8
Layer 1
 62
     7
370
    20
100
AcDbVertex
100
AcDb2dVertex
 10
45.23754881681562
 20
195.415117681181
 30
0.0
  0
SEQEND
  5
336
330
333
100
AcDbEntity
  8
Layer 1
370
    20
  0
SPLINE
  5
337
330
299
100
AcDbEntity
  8
Layer 1
 62
     7
370
     9
100
AcDbSpline
210
0.0
220
0.0
230
1.0
 70
     8
 71
     3
 72
     8
 73
     4
 74
     0
 42
0.0000000001
 43
0.0000000001
 40
0.0
 40
0.0
 40
0.0
 40
0.0
 40
1.0
 40
1.0
 40
1.0
 40
1.0
 10
49.13808592521548
 20
187.5406629305454
 30
0.0
 10
45.87006834790748
 20
187.4631482821273
 30
0.0
 10
43.71619465052929
 20
187.2736680304385
 30
0.0
 10
44.30392794031291
 20
187.115193638117
 30
0.0
  0
SPLINE
  5
338
330
299
100
AcDbEntity
  8
Layer 1
 62
     7
370
     9
100
AcDbSpline
210
0.0
220
0.0
230
1.0
 70
     8
 71
     3
 72
     8
 73
     4
 74
     0
 42
0.0000000001
 43
0.0000000001
 40
0.0
 40
0.0
 40
0.0
 40
0.0
 40
1.0
 40
1.0
 40
1.0
 40
1.0
 10
49.13808592521548
 20
186.0406683562676
 30
0.0
 10
52.40748154071758
 20
186.1181830046857
 30
0.0
 10
54.55928818080462
 20
186.3076632563745
 30
0.0
 10
53.9701768528269
 20
186.4654486295989
 30
0.0
  0
SPLINE
  5
339
330
299
100
AcDbEntity
  8
Layer 1
 62
     7
370
     9
100
AcDbSpline
210
0.0
220
0.0
230
1.0
 70
     8
 71
     3
 72
     8
 73
     4
 74
     0
 42
0.0000000001
 43
0.0000000001
 40
0.0
 40
0.0
 40
0.0
 40
0.0
 40
1.0
 40
1.0
 40
1.0
 40
1.0
 10
49.13808592521548
 20
189.0403129952747
 30
0.0
 10
45.86800129061633
 20
188.9627983468565
 30
0.0
 10
43.71619465052929
 20
188.7733180951678
 30
0.0
 10
44.30392794031291
 20
188.6155327219433
 30
0.0
  0
SPLINE
  5
33A
330
299
100
AcDbEntity
  8
Layer 1
 62
     7
370
     9
100
AcDbSpline
210
0.0
220
0.0
230
1.0
 70
     8
 71
     3
 72
     8
 73
     4
 74
     0
 42
0.0000000001
 43
0.0000000001
 40
0.0
 40
0.0
 40
0.0
 40
0.0
 40
1.0
 40
1.0
 40
1.0
 40
1.0
 10
49.13808592521548
 20
187.5406629305454
 30
0.0
 10
52.40541448342643
 20
187.6181775789635
 30
0.0
 10
54.55791014261052
 20
187.8076578306523
 30
0.0
 10
53.97086587192396
 20
187.9654432038767
 30
0.0
  0
SPLINE
  5
33B
330
299
100
AcDbEntity
  8
Layer 1
 62
     7
370
     9
100
AcDbSpline
210
0.0
220
0.0
230
1.0
 70
     8
 71
     3
 72
     8
 73
     4
 74
     0
 42
0.0000000001
 43
0.0000000001
 40
0.0
 40
0.0
 40
0.0
 40
0.0
 40
1.0
 40
1.0
 40
1.0
 40
1.0
 10
49.13808592521548
 20
184.5410182915384
 30
0.0
 10
45.87006834790748
 20
184.4635036431202
 30
0.0
 10
43.71619465052929
 20
184.2740233914315
 30
0.0
 10
44.30392794031291
 20
184.1152044895615
 30
0.0
  0
SPLINE
  5
33C
330
299
100
AcDbEntity
  8
Layer 1
 62
     7
370
     9
100
AcDbSpline
210
0.0
220
0.0
230
1.0
 70
     8
 71
     3
 72
     8
 73
     4
 74
     0
 42
0.0000000001
 43
0.0000000001
 40
0.0
 40
0.0
 40
0.0
 40
0.0
 40
1.0
 40
1.0
 40
1.0
 40
1.0
 10
49.13808592521548
 20
186.0406683562676
 30
0.0
 10
45.86800129061633
 20
185.9631537078495
 30
0.0
 10
43.71619465052929
 20
185.7736734561608
 30
0.0
 10
44.30392794031291
 20
185.6151990638393
 30
0.0
  0
SPLINE
  5
33D
330
299
100
AcDbEntity
  8
Layer 1
 62
     7
370
     9
100
AcDbSpline
210
0.0
220
0.0
230
1.0
 70
     8
 71
     3
 72
     8
 73
     4
 74
     0
 42
0.0000000001
 43
0.0000000001
 40
0.0
 40
0.0
 40
0.0
 40
0.0
 40
1.0
 40
1.0
 40
1.0
 40
1.0
 10
49.13808592521548
 20
184.5410182915384
 30
0.0
 10
52.40541448342643
 20
184.6185329399565
 30
0.0
 10
54.55791014261052
 20
184.8069796629997
 30
0.0
 10
53.97086587192396
 20
184.9657985648697
 30
0.0
  0
SPLINE
  5
33E
330
299
100
AcDbEntity
  8
Layer 1
 62
     7
370
     9
100
AcDbSpline
210
0.0
220
0.0
230
1.0
 70
     8
 71
     3
 72
     8
 73
     4
 74
     0
 42
0.0000000001
 43
0.0000000001
 40
0.0
 40
0.0
 40
0.0
 40
0.0
 40
1.0
 40
1.0
 40
1.0
 40
1.0
 10
49.13808592521548
 20
193.5406412276565
 30
0.0
 10
45.87006834790748
 20
193.4631265792384
 30
0.0
 10
43.71619465052929
 20
193.2736463275496
 30
0.0
 10
44.30392794031291
 20
193.1151719352281
 30
0.0
  0
SPLINE
  5
33F
330
299
100
AcDbEntity
  8
Layer 1
 62
     7
370
     9
100
AcDbSpline
210
0.0
220
0.0
230
1.0
 70
     8
 71
     3
 72
     8
 73
     4
 74
     0
 42
0.0000000001
 43
0.0000000001
 40
0.0
 40
0.0
 40
0.0
 40
0.0
 40
1.0
 40
1.0
 40
1.0
 40
1.0
 10
49.13808592521548
 20
192.0406466533787
 30
0.0
 10
52.40748154071758
 20
192.1185058113454
 30
0.0
 10
54.55928818080462
 20
192.3069525343886
 30
0.0
 10
53.9701768528269
 20
192.4654269267101
 30
0.0
  0
SPLINE
  5
340
330
299
100
AcDbEntity
  8
Layer 1
 62
     7
370
     9
100
AcDbSpline
210
0.0
220
0.0
230
1.0
 70
     8
 71
     3
 72
     8
 73
     4
 74
     0
 42
0.0000000001
 43
0.0000000001
 40
0.0
 40
0.0
 40
0.0
 40
0.0
 40
1.0
 40
1.0
 40
1.0
 40
1.0
 10
49.13808592521548
 20
195.0406358019343
 30
0.0
 10
45.86800129061633
 20
194.9627766439677
 30
0.0
 10
43.71619465052929
 20
194.7732963922789
 30
0.0
 10
44.30392794031291
 20
194.615855528603
 30
0.0
  0
SPLINE
  5
341
330
299
100
AcDbEntity
  8
Layer 1
 62
     7
370
     9
100
AcDbSpline
210
0.0
220
0.0
230
1.0
 70
     8
 71
     3
 72
     8
 73
     4
 74
     0
 42
0.0000000001
 43
0.0000000001
 40
0.0
 40
0.0
 40
0.0
 40
0.0
 40
1.0
 40
1.0
 40
1.0
 40
1.0
 10
49.13808592521548
 20
193.5406412276565
 30
0.0
 10
52.40541448342643
 20
193.6181558760746
 30
0.0
 10
54.55791014261052
 20
193.8069471086663
 30
0.0
 10
53.97086587192396
 20
193.9654215009878
 30
0.0
  0
SPLINE
  5
342
330
299
100
AcDbEntity
  8
Layer 1
 62
     7
370
     9
100
AcDbSpline
210
0.0
220
0.0
230
1.0
 70
     8
 71
     3
 72
     8
 73
     4
 74
     0
 42
0.0000000001
 43
0.0000000001
 40
0.0
 40
0.0
 40
0.0
 40
0.0
 40
1.0
 40
1.0
 40
1.0
 40
1.0
 10
49.13808592521548
 20
190.5399630600039
 30
0.0
 10
45.87006834790748
 20
190.4624484115858
 30
0.0
 10
43.71619465052929
 20
190.2740016885426
 30
0.0
 10
44.30392794031291
 20
190.1155272962211
 30
0.0
  0
SPLINE
  5
343
330
299
100
AcDbEntity
  8
Layer 1
 62
     7
370
     9
100
AcDbSpline
210
0.0
220
0.0
230
1.0
 70
     8
 71
     3
 72
     8
 73
     4
 74
     0
 42
0.0000000001
 43
0.0000000001
 40
0.0
 40
0.0
 40
0.0
 40
0.0
 40
1.0
 40
1.0
 40
1.0
 40
1.0
 10
49.13808592521548
 20
189.0403129952747
 30
0.0
 10
52.40748154071758
 20
189.1178276436928
 30
0.0
 10
54.55928818080462
 20
189.3073078953815
 30
0.0
 10
53.9701768528269
 20
189.465782287703
 30
0.0
  0
SPLINE
  5
344
330
299
100
AcDbEntity
  8
Layer 1
 62
     7
370
     9
100
AcDbSpline
210
0.0
220
0.0
230
1.0
 70
     8
 71
     3
 72
     8
 73
     4
 74
     0
 42
0.0000000001
 43
0.0000000001
 40
0.0
 40
0.0
 40
0.0
 40
0.0
 40
1.0
 40
1.0
 40
1.0
 40
1.0
 10
49.13808592521548
 20
192.0406466533787
 30
0.0
 10
45.86800129061633
 20
191.9631320049606
 30
0.0
 10
43.71619465052929
 20
191.7736517532719
 30
0.0
 10
44.30392794031291
 20
191.6151773609504
 30
0.0
  0
SPLINE
  5
345
330
299
100
AcDbEntity
  8
Layer 1
 62
     7
370
     9
100
AcDbSpline
210
0.0
220
0.0
230
1.0
 70
     8
 71
     3
 72
     8
 73
     4
 74
     0
 42
0.0000000001
 43
0.0000000001
 40
0.0
 40
0.0
 40
0.0
 40
0.0
 40
1.0
 40
1.0
 40
1.0
 40
1.0
 10
49.13808592521548
 20
190.5399630600039
 30
0.0
 10
52.40541448342643
 20
190.617477708422
 30
0.0
 10
54.55791014261052
 20
190.8073024696593
 30
0.0
 10
53.97086587192396
 20
190.9657768619808
 30
0.0
  0
SPLINE
  5
346
330
299
100
AcDbEntity
  8
Layer 1
 62
     7
370
     9
100
AcDbSpline
210
0.0
220
0.0
230
1.0
 70
     8
 71
     3
 72
     8
 73
     4
 74
     0
 42
0.0000000001
 43
0.0000000001
 40
0.0
 40
0.0
 40
0.0
 40
0.0
 40
1.0
 40
1.0
 40
1.0
 40
1.0
 10
49.13808592521548
 20
196.5402858666635
 30
0.0
 10
45.87006834790748
 20
196.4627712182454
 30
0.0
 10
43.71619465052929
 20
196.2729464570082
 30
0.0
 10
44.30392794031291
 20
196.1155055933322
 30
0.0
  0
SPLINE
  5
347
330
299
100
AcDbEntity
  8
Layer 1
 62
     7
370
     9
100
AcDbSpline
210
0.0
220
0.0
230
1.0
 70
     8
 71
     3
 72
     8
 73
     4
 74
     0
 42
0.0000000001
 43
0.0000000001
 40
0.0
 40
0.0
 40
0.0
 40
0.0
 40
1.0
 40
1.0
 40
1.0
 40
1.0
 10
49.13808592521548
 20
195.0406358019343
 30
0.0
 10
52.40748154071758
 20
195.1178059408039
 30
0.0
 10
54.55928818080462
 20
195.3072861924926
 30
0.0
 10
53.9701768528269
 20
195.4657605848141
 30
0.0
  0
SPLINE
  5
348
330
299
100
AcDbEntity
  8
Layer 1
 62
     7
370
     9
100
AcDbSpline
210
0.0
220
0.0
230
1.0
 70
     8
 71
     3
 72
     8
 73
     4
 74
     0
 42
0.0000000001
 43
0.0000000001
 40
0.0
 40
0.0
 40
0.0
 40
0.0
 40
1.0
 40
1.0
 40
1.0
 40
1.0
 10
49.13808592521548
 20
198.0399359313928
 30
0.0
 10
45.86800129061633
 20
197.9624212829747
 30
0.0
 10
43.71619465052929
 20
197.773630050383
 30
0.0
 10
44.30392794031291
 20
197.6151556580615
 30
0.0
  0
SPLINE
  5
349
330
299
100
AcDbEntity
  8
Layer 1
 62
     7
370
     9
100
AcDbSpline
210
0.0
220
0.0
230
1.0
 70
     8
 71
     3
 72
     8
 73
     4
 74
     0
 42
0.0000000001
 43
0.0000000001
 40
0.0
 40
0.0
 40
0.0
 40
0.0
 40
1.0
 40
1.0
 40
1.0
 40
1.0
 10
49.13808592521548
 20
196.5402858666635
 30
0.0
 10
52.40541448342643
 20
196.6178005150817
 30
0.0
 10
54.55791014261052
 20
196.8072807667704
 30
0.0
 10
53.97086587192396
 20
196.9657551590919
 30
0.0
  0
POLYLINE
  5
34A
330
299
100
AcDbEntity
  8
Layer 1
 62
     7
370
    20
100
AcDb2dPolyline
 66
     1
 10
0.0
 20
0.0
 30
0.0
  0
VERTEX
  5
34B
330
34A
100
AcDbEntity
  8
Layer 1
 62
     7
370
    20
100
AcDbVertex
100
AcDb2dVertex
 10
54.03701170524075
 20
199.9147568944658
 30
0.0
  0
VERTEX
  5
34C
330
34A
100
AcDbEntity
  8
Layer 1
 62
     7
370
    20
100
AcDbVertex
100
AcDb2dVertex
 10
53.03724499542125
 20
199.1651041168754
 30
0.0
  0
SEQEND
  5
34D
330
34A
100
AcDbEntity
  8
Layer 1
370
    20
  0
POLYLINE
  5
34E
330
299
100
AcDbEntity
  8
Layer 1
 62
     7
370
    20
100
AcDb2dPolyline
 66
     1
 10
0.0
 20
0.0
 30
0.0
  0
VERTEX
  5
34F
330
34E
100
AcDbEntity
  8
Layer 1
 62
     7
370
    20
100
AcDbVertex
100
AcDb2dVertex
 10
54.03701170524075
 20
198.414762320188
 30
0.0
  0
VERTEX
  5
350
330
34E
100
AcDbEntity
  8
Layer 1
 62
     7
370
    20
100
AcDbVertex
100
AcDb2dVertex
 10
53.03724499542125
 20
199.1651041168754
 30
0.0
  0
SEQEND
  5
351
330
34E
100
AcDbEntity
  8
Layer 1
370
    20
  0
POLYLINE
  5
352
330
299
100
AcDbEntity
  8
Layer 1
 62
     7
370
    20
100
AcDb2dPolyline
 66
     1
 10
0.0
 20
0.0
 30
0.0
  0
VERTEX
  5
353
330
352
100
AcDbEntity
  8
Layer 1
 62
     7
370
    20
100
AcDbVertex
100
AcDb2dVertex
 10
54.03701170524075
 20
199.9147568944658
 30
0.0
  0
VERTEX
  5
354
330
352
100
AcDbEntity
  8
Layer 1
 62
     7
370
    20
100
AcDbVertex
100
AcDb2dVertex
 10
53.03724499542125
 20
200.6647541816046
 30
0.0
  0
SEQEND
  5
355
330
352
100
AcDbEntity
  8
Layer 1
370
    20
  0
POLYLINE
  5
356
330
299
100
AcDbEntity
  8
Layer 1
 62
     7
370
    20
100
AcDb2dPolyline
 66
     1
 10
0.0
 20
0.0
 30
0.0
  0
VERTEX
  5
357
330
356
100
AcDbEntity
  8
Layer 1
 62
     7
370
    20
100
AcDbVertex
100
AcDb2dVertex
 10
44.23778210699611
 20
199.1651041168754
 30
0.0
  0
VERTEX
  5
358
330
356
100
AcDbEntity
  8
Layer 1
 62
     7
370
    20
100
AcDbVertex
100
AcDb2dVertex
 10
45.23754881681562
 20
199.9147568944658
 30
0.0
  0
SEQEND
  5
359
330
356
100
AcDbEntity
  8
Layer 1
370
    20
  0
POLYLINE
  5
35A
330
299
100
AcDbEntity
  8
Layer 1
 62
     7
370
    20
100
AcDb2dPolyline
 66
     1
 10
0.0
 20
0.0
 30
0.0
  0
VERTEX
  5
35B
330
35A
100
AcDbEntity
  8
Layer 1
 62
     7
370
    20
100
AcDbVertex
100
AcDb2dVertex
 10
44.23778210699611
 20
200.6647541816046
 30
0.0
  0
VERTEX
  5
35C
330
35A
100
AcDbEntity
  8
Layer 1
 62
     7
370
    20
100
AcDbVertex
100
AcDb2dVertex
 10
45.23754881681562
 20
199.9147568944658
 30
0.0
  0
SEQEND
  5
35D
330
35A
100
AcDbEntity
  8
Layer 1
370
    20
  0
POLYLINE
  5
35E
330
299
100
AcDbEntity
  8
Layer 1
 62
     7
370
    20
100
AcDb2dPolyline
 66
     1
 10
0.0
 20
0.0
 30
0.0
  0
VERTEX
  5
35F
330
35E
100
AcDbEntity
  8
Layer 1
 62
     7
370
    20
100
AcDbVertex
100
AcDb2dVertex
 10
44.23778210699611
 20
199.1644150977783
 30
0.0
  0
VERTEX
  5
360
330
35E
100
AcDbEntity
  8
Layer 1
 62
     7
370
    20
100
AcDbVertex
100
AcDb2dVertex
 10
45.23754881681562
 20
198.414762320188
 30
0.0
  0
SEQEND
  5
361
330
35E
100
AcDbEntity
  8
Layer 1
370
    20
  0
POLYLINE
  5
362
330
299
100
AcDbEntity
  8
Layer 1
 62
     7
370
    20
100
AcDb2dPolyline
 66
     1
 10
0.0
 20
0.0
 30
0.0
  0
VERTEX
  5
363
330
362
100
AcDbEntity
  8
Layer 1
 62
     7
370
    20
100
AcDbVertex
100
AcDb2dVertex
 10
44.23778210699611
 20
200.6647541816046
 30
0.0
  0
VERTEX
  5
364
330
362
100
AcDbEntity
  8
Layer 1
 62
     7
370
    20
100
AcDbVertex
100
AcDb2dVertex
 10
45.23754881681562
 20
201.4150959782921
 30
0.0
  0
SEQEND
  5
365
330
362
100
AcDbEntity
  8
Layer 1
370
    20
  0
POLYLINE
  5
366
330
299
100
AcDbEntity
  8
Layer 1
 62
     7
370
    20
100
AcDb2dPolyline
 66
     1
 10
0.0
 20
0.0
 30
0.0
  0
VERTEX
  5
367
330
366
100
AcDbEntity
  8
Layer 1
 62
     7
370
    20
100
AcDbVertex
100
AcDb2dVertex
 10
44.23778210699611
 20
197.6654540521461
 30
0.0
  0
VERTEX
  5
368
330
366
100
AcDbEntity
  8
Layer 1
 62
     7
370
    20
100
AcDbVertex
100
AcDb2dVertex
 10
45.23754881681562
 20
198.414762320188
 30
0.0
  0
SEQEND
  5
369
330
366
100
AcDbEntity
  8
Layer 1
370
    20
  0
POLYLINE
  5
36A
330
299
100
AcDbEntity
  8
Layer 1
 62
     7
370
    20
100
AcDb2dPolyline
 66
     1
 10
0.0
 20
0.0
 30
0.0
  0
VERTEX
  5
36B
330
36A
100
AcDbEntity
  8
Layer 1
 62
     7
370
    20
100
AcDbVertex
100
AcDb2dVertex
 10
54.03701170524075
 20
205.9147351915769
 30
0.0
  0
VERTEX
  5
36C
330
36A
100
AcDbEntity
  8
Layer 1
 62
     7
370
    20
100
AcDbVertex
100
AcDb2dVertex
 10
53.03724499542125
 20
205.1643933948895
 30
0.0
  0
SEQEND
  5
36D
330
36A
100
AcDbEntity
  8
Layer 1
370
    20
  0
POLYLINE
  5
36E
330
299
100
AcDbEntity
  8
Layer 1
 62
     7
370
    20
100
AcDb2dPolyline
 66
     1
 10
0.0
 20
0.0
 30
0.0
  0
VERTEX
  5
36F
330
36E
100
AcDbEntity
  8
Layer 1
 62
     7
370
    20
100
AcDbVertex
100
AcDb2dVertex
 10
54.03701170524075
 20
204.4147406172991
 30
0.0
  0
VERTEX
  5
370
330
36E
100
AcDbEntity
  8
Layer 1
 62
     7
370
    20
100
AcDbVertex
100
AcDb2dVertex
 10
53.03724499542125
 20
205.1643933948895
 30
0.0
  0
SEQEND
  5
371
330
36E
100
AcDbEntity
  8
Layer 1
370
    20
  0
POLYLINE
  5
372
330
299
100
AcDbEntity
  8
Layer 1
 62
     7
370
    20
100
AcDb2dPolyline
 66
     1
 10
0.0
 20
0.0
 30
0.0
  0
VERTEX
  5
373
330
372
100
AcDbEntity
  8
Layer 1
 62
     7
370
    20
100
AcDbVertex
100
AcDb2dVertex
 10
54.03701170524075
 20
204.4147406172991
 30
0.0
  0
VERTEX
  5
374
330
372
100
AcDbEntity
  8
Layer 1
 62
     7
370
    20
100
AcDbVertex
100
AcDb2dVertex
 10
53.03724499542125
 20
203.6643988206117
 30
0.0
  0
SEQEND
  5
375
330
372
100
AcDbEntity
  8
Layer 1
370
    20
  0
POLYLINE
  5
376
330
299
100
AcDbEntity
  8
Layer 1
 62
     7
370
    20
100
AcDb2dPolyline
 66
     1
 10
0.0
 20
0.0
 30
0.0
  0
VERTEX
  5
377
330
376
100
AcDbEntity
  8
Layer 1
 62
     7
370
    20
100
AcDbVertex
100
AcDb2dVertex
 10
54.03701170524075
 20
205.9147351915769
 30
0.0
  0
VERTEX
  5
378
330
376
100
AcDbEntity
  8
Layer 1
 62
     7
370
    20
100
AcDbVertex
100
AcDb2dVertex
 10
53.03724499542125
 20
206.6650769882643
 30
0.0
  0
SEQEND
  5
379
330
376
100
AcDbEntity
  8
Layer 1
370
    20
  0
POLYLINE
  5
37A
330
299
100
AcDbEntity
  8
Layer 1
 62
     7
370
    20
100
AcDb2dPolyline
 66
     1
 10
0.0
 20
0.0
 30
0.0
  0
VERTEX
  5
37B
330
37A
100
AcDbEntity
  8
Layer 1
 62
     7
370
    20
100
AcDbVertex
100
AcDb2dVertex
 10
44.23778210699611
 20
205.1643933948895
 30
0.0
  0
VERTEX
  5
37C
330
37A
100
AcDbEntity
  8
Layer 1
 62
     7
370
    20
100
AcDbVertex
100
AcDb2dVertex
 10
45.23754881681562
 20
205.9147351915769
 30
0.0
  0
SEQEND
  5
37D
330
37A
100
AcDbEntity
  8
Layer 1
370
    20
  0
POLYLINE
  5
37E
330
299
100
AcDbEntity
  8
Layer 1
 62
     7
370
    20
100
AcDb2dPolyline
 66
     1
 10
0.0
 20
0.0
 30
0.0
  0
VERTEX
  5
37F
330
37E
100
AcDbEntity
  8
Layer 1
 62
     7
370
    20
100
AcDbVertex
100
AcDb2dVertex
 10
44.23778210699611
 20
206.6650769882643
 30
0.0
  0
VERTEX
  5
380
330
37E
100
AcDbEntity
  8
Layer 1
 62
     7
370
    20
100
AcDbVertex
100
AcDb2dVertex
 10
45.23754881681562
 20
205.9147351915769
 30
0.0
  0
SEQEND
  5
381
330
37E
100
AcDbEntity
  8
Layer 1
370
    20
  0
POLYLINE
  5
382
330
299
100
AcDbEntity
  8
Layer 1
 62
     7
370
    20
100
AcDb2dPolyline
 66
     1
 10
0.0
 20
0.0
 30
0.0
  0
VERTEX
  5
383
330
382
100
AcDbEntity
  8
Layer 1
 62
     7
370
    20
100
AcDbVertex
100
AcDb2dVertex
 10
44.23778210699611
 20
205.1643933948895
 30
0.0
  0
VERTEX
  5
384
330
382
100
AcDbEntity
  8
Layer 1
 62
     7
370
    20
100
AcDbVertex
100
AcDb2dVertex
 10
45.23754881681562
 20
204.4147406172991
 30
0.0
  0
SEQEND
  5
385
330
382
100
AcDbEntity
  8
Layer 1
370
    20
  0
POLYLINE
  5
386
330
299
100
AcDbEntity
  8
Layer 1
 62
     7
370
    20
100
AcDb2dPolyline
 66
     1
 10
0.0
 20
0.0
 30
0.0
  0
VERTEX
  5
387
330
386
100
AcDbEntity
  8
Layer 1
 62
     7
370
    20
100
AcDbVertex
100
AcDb2dVertex
 10
44.23778210699611
 20
206.6650769882643
 30
0.0
  0
VERTEX
  5
388
330
386
100
AcDbEntity
  8
Layer 1
 62
     7
370
    20
100
AcDbVertex
100
AcDb2dVertex
 10
45.23754881681562
 20
207.4143852563061
 30
0.0
  0
SEQEND
  5
389
330
386
100
AcDbEntity
  8
Layer 1
370
    20
  0
POLYLINE
  5
38A
330
299
100
AcDbEntity
  8
Layer 1
 62
     7
370
    20
100
AcDb2dPolyline
 66
     1
 10
0.0
 20
0.0
 30
0.0
  0
VERTEX
  5
38B
330
38A
100
AcDbEntity
  8
Layer 1
 62
     7
370
    20
100
AcDbVertex
100
AcDb2dVertex
 10
54.03701170524075
 20
202.9150905525698
 30
0.0
  0
VERTEX
  5
38C
330
38A
100
AcDbEntity
  8
Layer 1
 62
     7
370
    20
100
AcDbVertex
100
AcDb2dVertex
 10
53.03724499542125
 20
202.1647487558824
 30
0.0
  0
SEQEND
  5
38D
330
38A
100
AcDbEntity
  8
Layer 1
370
    20
  0
POLYLINE
  5
38E
330
299
100
AcDbEntity
  8
Layer 1
 62
     7
370
    20
100
AcDb2dPolyline
 66
     1
 10
0.0
 20
0.0
 30
0.0
  0
VERTEX
  5
38F
330
38E
100
AcDbEntity
  8
Layer 1
 62
     7
370
    20
100
AcDbVertex
100
AcDb2dVertex
 10
54.03701170524075
 20
201.414406959195
 30
0.0
  0
VERTEX
  5
390
330
38E
100
AcDbEntity
  8
Layer 1
 62
     7
370
    20
100
AcDbVertex
100
AcDb2dVertex
 10
53.03724499542125
 20
202.1647487558824
 30
0.0
  0
SEQEND
  5
391
330
38E
100
AcDbEntity
  8
Layer 1
370
    20
  0
POLYLINE
  5
392
330
299
100
AcDbEntity
  8
Layer 1
 62
     7
370
    20
100
AcDb2dPolyline
 66
     1
 10
0.0
 20
0.0
 30
0.0
  0
VERTEX
  5
393
330
392
100
AcDbEntity
  8
Layer 1
 62
     7
370
    20
100
AcDbVertex
100
AcDb2dVertex
 10
54.03701170524075
 20
201.4150959782921
 30
0.0
  0
VERTEX
  5
394
330
392
100
AcDbEntity
  8
Layer 1
 62
     7
370
    20
100
AcDbVertex
100
AcDb2dVertex
 10
53.03724499542125
 20
200.6647541816046
 30
0.0
  0
SEQEND
  5
395
330
392
100
AcDbEntity
  8
Layer 1
370
    20
  0
POLYLINE
  5
396
330
299
100
AcDbEntity
  8
Layer 1
 62
     7
370
    20
100
AcDb2dPolyline
 66
     1
 10
0.0
 20
0.0
 30
0.0
  0
VERTEX
  5
397
330
396
100
AcDbEntity
  8
Layer 1
 62
     7
370
    20
100
AcDbVertex
100
AcDb2dVertex
 10
54.03701170524075
 20
202.9150905525698
 30
0.0
  0
VERTEX
  5
398
330
396
100
AcDbEntity
  8
Layer 1
 62
     7
370
    20
100
AcDbVertex
100
AcDb2dVertex
 10
53.03724499542125
 20
203.6643988206117
 30
0.0
  0
SEQEND
  5
399
330
396
100
AcDbEntity
  8
Layer 1
370
    20
  0
POLYLINE
  5
39A
330
299
100
AcDbEntity
  8
Layer 1
 62
     7
370
    20
100
AcDb2dPolyline
 66
     1
 10
0.0
 20
0.0
 30
0.0
  0
VERTEX
  5
39B
330
39A
100
AcDbEntity
  8
Layer 1
 62
     7
370
    20
100
AcDbVertex
100
AcDb2dVertex
 10
44.23778210699611
 20
202.1647487558824
 30
0.0
  0
VERTEX
  5
39C
330
39A
100
AcDbEntity
  8
Layer 1
 62
     7
370
    20
100
AcDbVertex
100
AcDb2dVertex
 10
45.23754881681562
 20
202.9150905525698
 30
0.0
  0
SEQEND
  5
39D
330
39A
100
AcDbEntity
  8
Layer 1
370
    20
  0
POLYLINE
  5
39E
330
299
100
AcDbEntity
  8
Layer 1
 62
     7
370
    20
100
AcDb2dPolyline
 66
     1
 10
0.0
 20
0.0
 30
0.0
  0
VERTEX
  5
39F
330
39E
100
AcDbEntity
  8
Layer 1
 62
     7
370
    20
100
AcDbVertex
100
AcDb2dVertex
 10
44.23778210699611
 20
203.6643988206117
 30
0.0
  0
VERTEX
  5
3A0
330
39E
100
AcDbEntity
  8
Layer 1
 62
     7
370
    20
100
AcDbVertex
100
AcDb2dVertex
 10
45.23754881681562
 20
202.9150905525698
 30
0.0
  0
SEQEND
  5
3A1
330
39E
100
AcDbEntity
  8
Layer 1
370
    20
  0
POLYLINE
  5
3A2
330
299
100
AcDbEntity
  8
Layer 1
 62
     7
370
    20
100
AcDb2dPolyline
 66
     1
 10
0.0
 20
0.0
 30
0.0
  0
VERTEX
  5
3A3
330
3A2
100
AcDbEntity
  8
Layer 1
 62
     7
370
    20
100
AcDbVertex
100
AcDb2dVertex
 10
44.23778210699611
 20
202.1647487558824
 30
0.0
  0
VERTEX
  5
3A4
330
3A2
100
AcDbEntity
  8
Layer 1
 62
     7
370
    20
100
AcDbVertex
100
AcDb2dVertex
 10
45.23754881681562
 20
201.414406959195
 30
0.0
  0
SEQEND
  5
3A5
330
3A2
100
AcDbEntity
  8
Layer 1
370
    20
  0
POLYLINE
  5
3A6
330
299
100
AcDbEntity
  8
Layer 1
 62
     7
370
    20
100
AcDb2dPolyline
 66
     1
 10
0.0
 20
0.0
 30
0.0
  0
VERTEX
  5
3A7
330
3A6
100
AcDbEntity
  8
Layer 1
 62
     7
370
    20
100
AcDbVertex
100
AcDb2dVertex
 10
44.23778210699611
 20
203.6643988206117
 30
0.0
  0
VERTEX
  5
3A8
330
3A6
100
AcDbEntity
  8
Layer 1
 62
     7
370
    20
100
AcDbVertex
100
AcDb2dVertex
 10
45.23754881681562
 20
204.4147406172991
 30
0.0
  0
SEQEND
  5
3A9
330
3A6
100
AcDbEntity
  8
Layer 1
370
    20
  0
POLYLINE
  5
3AA
330
299
100
AcDbEntity
  8
Layer 1
 62
     7
370
    20
100
AcDb2dPolyline
 66
     1
 10
0.0
 20
0.0
 30
0.0
  0
VERTEX
  5
3AB
330
3AA
100
AcDbEntity
  8
Layer 1
 62
     7
370
    20
100
AcDbVertex
100
AcDb2dVertex
 10
54.03701170524075
 20
207.4143852563061
 30
0.0
  0
VERTEX
  5
3AC
330
3AA
100
AcDbEntity
  8
Layer 1
 62
     7
370
    20
100
AcDbVertex
100
AcDb2dVertex
 10
53.03724499542125
 20
208.1647270529936
 30
0.0
  0
SEQEND
  5
3AD
330
3AA
100
AcDbEntity
  8
Layer 1
370
    20
  0
POLYLINE
  5
3AE
330
299
100
AcDbEntity
  8
Layer 1
 62
     7
370
    20
100
AcDb2dPolyline
 66
     1
 10
0.0
 20
0.0
 30
0.0
  0
VERTEX
  5
3AF
330
3AE
100
AcDbEntity
  8
Layer 1
 62
     7
370
    20
100
AcDbVertex
100
AcDb2dVertex
 10
54.03701170524075
 20
207.4143852563061
 30
0.0
  0
VERTEX
  5
3B0
330
3AE
100
AcDbEntity
  8
Layer 1
 62
     7
370
    20
100
AcDbVertex
100
AcDb2dVertex
 10
53.03724499542125
 20
206.6650769882643
 30
0.0
  0
SEQEND
  5
3B1
330
3AE
100
AcDbEntity
  8
Layer 1
370
    20
  0
POLYLINE
  5
3B2
330
299
100
AcDbEntity
  8
Layer 1
 62
     7
370
    20
100
AcDb2dPolyline
 66
     1
 10
0.0
 20
0.0
 30
0.0
  0
VERTEX
  5
3B3
330
3B2
100
AcDbEntity
  8
Layer 1
 62
     7
370
    20
100
AcDbVertex
100
AcDb2dVertex
 10
44.23778210699611
 20
208.1647270529936
 30
0.0
  0
VERTEX
  5
3B4
330
3B2
100
AcDbEntity
  8
Layer 1
 62
     7
370
    20
100
AcDbVertex
100
AcDb2dVertex
 10
45.23754881681562
 20
207.4143852563061
 30
0.0
  0
SEQEND
  5
3B5
330
3B2
100
AcDbEntity
  8
Layer 1
370
    20
  0
SPLINE
  5
3B6
330
299
100
AcDbEntity
  8
Layer 1
 62
     7
370
     9
100
AcDbSpline
210
0.0
220
0.0
230
1.0
 70
     8
 71
     3
 72
     8
 73
     4
 74
     0
 42
0.0000000001
 43
0.0000000001
 40
0.0
 40
0.0
 40
0.0
 40
0.0
 40
1.0
 40
1.0
 40
1.0
 40
1.0
 10
49.13808592521548
 20
199.5399305056706
 30
0.0
 10
45.87006834790748
 20
199.4624158572525
 30
0.0
 10
43.71619465052929
 20
199.2729356055637
 30
0.0
 10
44.30392794031291
 20
199.1144612132422
 30
0.0
  0
SPLINE
  5
3B7
330
299
100
AcDbEntity
  8
Layer 1
 62
     7
370
     9
100
AcDbSpline
210
0.0
220
0.0
230
1.0
 70
     8
 71
     3
 72
     8
 73
     4
 74
     0
 42
0.0000000001
 43
0.0000000001
 40
0.0
 40
0.0
 40
0.0
 40
0.0
 40
1.0
 40
1.0
 40
1.0
 40
1.0
 10
49.13808592521548
 20
198.0399359313928
 30
0.0
 10
52.40748154071758
 20
198.1174505798109
 30
0.0
 10
54.55928818080462
 20
198.3069308314997
 30
0.0
 10
53.9701768528269
 20
198.4647162047241
 30
0.0
  0
SPLINE
  5
3B8
330
299
100
AcDbEntity
  8
Layer 1
 62
     7
370
     9
100
AcDbSpline
210
0.0
220
0.0
230
1.0
 70
     8
 71
     3
 72
     8
 73
     4
 74
     0
 42
0.0000000001
 43
0.0000000001
 40
0.0
 40
0.0
 40
0.0
 40
0.0
 40
1.0
 40
1.0
 40
1.0
 40
1.0
 10
49.13808592521548
 20
201.0395805703998
 30
0.0
 10
45.86800129061633
 20
200.9620659219817
 30
0.0
 10
43.71619465052929
 20
200.772585670293
 30
0.0
 10
44.30392794031291
 20
200.6148002970685
 30
0.0
  0
SPLINE
  5
3B9
330
299
100
AcDbEntity
  8
Layer 1
 62
     7
370
     9
100
AcDbSpline
210
0.0
220
0.0
230
1.0
 70
     8
 71
     3
 72
     8
 73
     4
 74
     0
 42
0.0000000001
 43
0.0000000001
 40
0.0
 40
0.0
 40
0.0
 40
0.0
 40
1.0
 40
1.0
 40
1.0
 40
1.0
 10
49.13808592521548
 20
199.5399305056706
 30
0.0
 10
52.40541448342643
 20
199.6174451540887
 30
0.0
 10
54.55791014261052
 20
199.8069254057774
 30
0.0
 10
53.97086587192396
 20
199.9647107790019
 30
0.0
  0
SPLINE
  5
3BA
330
299
100
AcDbEntity
  8
Layer 1
 62
     7
370
     9
100
AcDbSpline
210
0.0
220
0.0
230
1.0
 70
     8
 71
     3
 72
     8
 73
     4
 74
     0
 42
0.0000000001
 43
0.0000000001
 40
0.0
 40
0.0
 40
0.0
 40
0.0
 40
1.0
 40
1.0
 40
1.0
 40
1.0
 10
49.13808592521548
 20
205.5399088027817
 30
0.0
 10
45.87006834790748
 20
205.4623941543636
 30
0.0
 10
43.71619465052929
 20
205.2729139026748
 30
0.0
 10
44.30392794031291
 20
205.1144395103533
 30
0.0
  0
SPLINE
  5
3BB
330
299
100
AcDbEntity
  8
Layer 1
 62
     7
370
     9
100
AcDbSpline
210
0.0
220
0.0
230
1.0
 70
     8
 71
     3
 72
     8
 73
     4
 74
     0
 42
0.0000000001
 43
0.0000000001
 40
0.0
 40
0.0
 40
0.0
 40
0.0
 40
1.0
 40
1.0
 40
1.0
 40
1.0
 10
49.13808592521548
 20
204.0399142285039
 30
0.0
 10
52.40748154071758
 20
204.1177733864706
 30
0.0
 10
54.55928818080462
 20
204.3062201095137
 30
0.0
 10
53.9701768528269
 20
204.4646945018352
 30
0.0
  0
SPLINE
  5
3BC
330
299
100
AcDbEntity
  8
Layer 1
 62
     7
370
     9
100
AcDbSpline
210
0.0
220
0.0
230
1.0
 70
     8
 71
     3
 72
     8
 73
     4
 74
     0
 42
0.0000000001
 43
0.0000000001
 40
0.0
 40
0.0
 40
0.0
 40
0.0
 40
1.0
 40
1.0
 40
1.0
 40
1.0
 10
49.13808592521548
 20
207.0399033770595
 30
0.0
 10
45.86800129061633
 20
206.9620442190928
 30
0.0
 10
43.71619465052929
 20
206.7725639674041
 30
0.0
 10
44.30392794031291
 20
206.6151231037282
 30
0.0
  0
SPLINE
  5
3BD
330
299
100
AcDbEntity
  8
Layer 1
 62
     7
370
     9
100
AcDbSpline
210
0.0
220
0.0
230
1.0
 70
     8
 71
     3
 72
     8
 73
     4
 74
     0
 42
0.0000000001
 43
0.0000000001
 40
0.0
 40
0.0
 40
0.0
 40
0.0
 40
1.0
 40
1.0
 40
1.0
 40
1.0
 10
49.13808592521548
 20
205.5399088027817
 30
0.0
 10
52.40541448342643
 20
205.6174234511998
 30
0.0
 10
54.55791014261052
 20
205.8062146837915
 30
0.0
 10
53.97086587192396
 20
205.964689076113
 30
0.0
  0
SPLINE
  5
3BE
330
299
100
AcDbEntity
  8
Layer 1
 62
     7
370
     9
100
AcDbSpline
210
0.0
220
0.0
230
1.0
 70
     8
 71
     3
 72
     8
 73
     4
 74
     0
 42
0.0000000001
 43
0.0000000001
 40
0.0
 40
0.0
 40
0.0
 40
0.0
 40
1.0
 40
1.0
 40
1.0
 40
1.0
 10
49.13808592521548
 20
202.5392306351291
 30
0.0
 10
45.87006834790748
 20
202.461715986711
 30
0.0
 10
43.71619465052929
 20
202.2732692636678
 30
0.0
 10
44.30392794031291
 20
202.1147948713463
 30
0.0
  0
SPLINE
  5
3BF
330
299
100
AcDbEntity
  8
Layer 1
 62
     7
370
     9
100
AcDbSpline
210
0.0
220
0.0
230
1.0
 70
     8
 71
     3
 72
     8
 73
     4
 74
     0
 42
0.0000000001
 43
0.0000000001
 40
0.0
 40
0.0
 40
0.0
 40
0.0
 40
1.0
 40
1.0
 40
1.0
 40
1.0
 10
49.13808592521548
 20
201.0395805703998
 30
0.0
 10
52.40748154071758
 20
201.117095218818
 30
0.0
 10
54.55928818080462
 20
201.3065754705067
 30
0.0
 10
53.9701768528269
 20
201.4650498628282
 30
0.0
  0
SPLINE
  5
3C0
330
299
100
AcDbEntity
  8
Layer 1
 62
     7
370
     9
100
AcDbSpline
210
0.0
220
0.0
230
1.0
 70
     8
 71
     3
 72
     8
 73
     4
 74
     0
 42
0.0000000001
 43
0.0000000001
 40
0.0
 40
0.0
 40
0.0
 40
0.0
 40
1.0
 40
1.0
 40
1.0
 40
1.0
 10
49.13808592521548
 20
204.0399142285039
 30
0.0
 10
45.86800129061633
 20
203.9623995800858
 30
0.0
 10
43.71619465052929
 20
203.7729193283971
 30
0.0
 10
44.30392794031291
 20
203.6144449360756
 30
0.0
  0
SPLINE
  5
3C1
330
299
100
AcDbEntity
  8
Layer 1
 62
     7
370
     9
100
AcDbSpline
210
0.0
220
0.0
230
1.0
 70
     8
 71
     3
 72
     8
 73
     4
 74
     0
 42
0.0000000001
 43
0.0000000001
 40
0.0
 40
0.0
 40
0.0
 40
0.0
 40
1.0
 40
1.0
 40
1.0
 40
1.0
 10
49.13808592521548
 20
202.5392306351291
 30
0.0
 10
52.40541448342643
 20
202.6167452835472
 30
0.0
 10
54.55791014261052
 20
202.8065700447845
 30
0.0
 10
53.97086587192396
 20
202.965044437106
 30
0.0
  0
SPLINE
  5
3C2
330
299
100
AcDbEntity
  8
Layer 1
 62
     7
370
     9
100
AcDbSpline
210
0.0
220
0.0
230
1.0
 70
     8
 71
     3
 72
     8
 73
     4
 74
     0
 42
0.0000000001
 43
0.0000000001
 40
0.0
 40
0.0
 40
0.0
 40
0.0
 40
1.0
 40
1.0
 40
1.0
 40
1.0
 10
49.13808592521548
 20
208.5395534417887
 30
0.0
 10
45.87006834790748
 20
208.4620387933706
 30
0.0
 10
43.71619465052929
 20
208.2722140321333
 30
0.0
 10
44.30392794031291
 20
208.1147731684574
 30
0.0
  0
SPLINE
  5
3C3
330
299
100
AcDbEntity
  8
Layer 1
 62
     7
370
     9
100
AcDbSpline
210
0.0
220
0.0
230
1.0
 70
     8
 71
     3
 72
     8
 73
     4
 74
     0
 42
0.0000000001
 43
0.0000000001
 40
0.0
 40
0.0
 40
0.0
 40
0.0
 40
1.0
 40
1.0
 40
1.0
 40
1.0
 10
49.13808592521548
 20
207.0399033770595
 30
0.0
 10
52.40748154071758
 20
207.1170735159291
 30
0.0
 10
54.55928818080462
 20
207.3065537676178
 30
0.0
 10
53.9701768528269
 20
207.4650281599393
 30
0.0
  0
POLYLINE
  5
3C4
330
299
100
AcDbEntity
  8
Layer 1
 62
     7
370
    20
100
AcDb2dPolyline
 66
     1
 10
0.0
 20
0.0
 30
0.0
  0
VERTEX
  5
3C5
330
3C4
100
AcDbEntity
  8
Layer 1
 62
     7
370
    20
100
AcDbVertex
100
AcDb2dVertex
 10
44.23778210699611
 20
208.1647270529936
 30
0.0
  0
VERTEX
  5
3C6
330
3C4
100
AcDbEntity
  8
Layer 1
 62
     7
370
    20
100
AcDbVertex
100
AcDb2dVertex
 10
45.23754881681562
 20
208.9140353210354
 30
0.0
  0
SEQEND
  5
3C7
330
3C4
100
AcDbEntity
  8
Layer 1
370
    20
  0
POLYLINE
  5
3C8
330
299
100
AcDbEntity
  8
Layer 1
 62
     7
370
    20
100
AcDb2dPolyline
 66
     1
 10
0.0
 20
0.0
 30
0.0
  0
VERTEX
  5
3C9
330
3C8
100
AcDbEntity
  8
Layer 1
 62
     7
370
    20
100
AcDbVertex
100
AcDb2dVertex
 10
54.03701170524075
 20
211.9143689791395
 30
0.0
  0
VERTEX
  5
3CA
330
3C8
100
AcDbEntity
  8
Layer 1
 62
     7
370
    20
100
AcDbVertex
100
AcDb2dVertex
 10
53.03724499542125
 20
211.1640271824521
 30
0.0
  0
SEQEND
  5
3CB
330
3C8
100
AcDbEntity
  8
Layer 1
370
    20
  0
POLYLINE
  5
3CC
330
299
100
AcDbEntity
  8
Layer 1
 62
     7
370
    20
100
AcDb2dPolyline
 66
     1
 10
0.0
 20
0.0
 30
0.0
  0
VERTEX
  5
3CD
330
3CC
100
AcDbEntity
  8
Layer 1
 62
     7
370
    20
100
AcDbVertex
100
AcDb2dVertex
 10
54.03701170524075
 20
210.4136853857646
 30
0.0
  0
VERTEX
  5
3CE
330
3CC
100
AcDbEntity
  8
Layer 1
 62
     7
370
    20
100
AcDbVertex
100
AcDb2dVertex
 10
53.03724499542125
 20
209.6643771177228
 30
0.0
  0
SEQEND
  5
3CF
330
3CC
100
AcDbEntity
  8
Layer 1
370
    20
  0
POLYLINE
  5
3D0
330
299
100
AcDbEntity
  8
Layer 1
 62
     7
370
    20
100
AcDb2dPolyline
 66
     1
 10
0.0
 20
0.0
 30
0.0
  0
VERTEX
  5
3D1
330
3D0
100
AcDbEntity
  8
Layer 1
 62
     7
370
    20
100
AcDbVertex
100
AcDb2dVertex
 10
54.03701170524075
 20
208.9140353210354
 30
0.0
  0
VERTEX
  5
3D2
330
3D0
100
AcDbEntity
  8
Layer 1
 62
     7
370
    20
100
AcDbVertex
100
AcDb2dVertex
 10
53.03724499542125
 20
209.6643771177228
 30
0.0
  0
SEQEND
  5
3D3
330
3D0
100
AcDbEntity
  8
Layer 1
370
    20
  0
POLYLINE
  5
3D4
330
299
100
AcDbEntity
  8
Layer 1
 62
     7
370
    20
100
AcDb2dPolyline
 66
     1
 10
0.0
 20
0.0
 30
0.0
  0
VERTEX
  5
3D5
330
3D4
100
AcDbEntity
  8
Layer 1
 62
     7
370
    20
100
AcDbVertex
100
AcDb2dVertex
 10
54.03701170524075
 20
208.9140353210354
 30
0.0
  0
VERTEX
  5
3D6
330
3D4
100
AcDbEntity
  8
Layer 1
 62
     7
370
    20
100
AcDbVertex
100
AcDb2dVertex
 10
53.03724499542125
 20
208.1647270529936
 30
0.0
  0
SEQEND
  5
3D7
330
3D4
100
AcDbEntity
  8
Layer 1
370
    20
  0
POLYLINE
  5
3D8
330
299
100
AcDbEntity
  8
Layer 1
 62
     7
370
    20
100
AcDb2dPolyline
 66
     1
 10
0.0
 20
0.0
 30
0.0
  0
VERTEX
  5
3D9
330
3D8
100
AcDbEntity
  8
Layer 1
 62
     7
370
    20
100
AcDbVertex
100
AcDb2dVertex
 10
54.03701170524075
 20
210.4147189144102
 30
0.0
  0
VERTEX
  5
3DA
330
3D8
100
AcDbEntity
  8
Layer 1
 62
     7
370
    20
100
AcDbVertex
100
AcDb2dVertex
 10
53.03724499542125
 20
211.1640271824521
 30
0.0
  0
SEQEND
  5
3DB
330
3D8
100
AcDbEntity
  8
Layer 1
370
    20
  0
POLYLINE
  5
3DC
330
299
100
AcDbEntity
  8
Layer 1
 62
     7
370
    20
100
AcDb2dPolyline
 66
     1
 10
0.0
 20
0.0
 30
0.0
  0
VERTEX
  5
3DD
330
3DC
100
AcDbEntity
  8
Layer 1
 62
     7
370
    20
100
AcDbVertex
100
AcDb2dVertex
 10
44.23778210699611
 20
209.6643771177228
 30
0.0
  0
VERTEX
  5
3DE
330
3DC
100
AcDbEntity
  8
Layer 1
 62
     7
370
    20
100
AcDbVertex
100
AcDb2dVertex
 10
45.23754881681562
 20
210.4136853857646
 30
0.0
  0
SEQEND
  5
3DF
330
3DC
100
AcDbEntity
  8
Layer 1
370
    20
  0
POLYLINE
  5
3E0
330
299
100
AcDbEntity
  8
Layer 1
 62
     7
370
    20
100
AcDb2dPolyline
 66
     1
 10
0.0
 20
0.0
 30
0.0
  0
VERTEX
  5
3E1
330
3E0
100
AcDbEntity
  8
Layer 1
 62
     7
370
    20
100
AcDbVertex
100
AcDb2dVertex
 10
44.23778210699611
 20
211.1640271824521
 30
0.0
  0
VERTEX
  5
3E2
330
3E0
100
AcDbEntity
  8
Layer 1
 62
     7
370
    20
100
AcDbVertex
100
AcDb2dVertex
 10
45.23754881681562
 20
210.4136853857646
 30
0.0
  0
SEQEND
  5
3E3
330
3E0
100
AcDbEntity
  8
Layer 1
370
    20
  0
POLYLINE
  5
3E4
330
299
100
AcDbEntity
  8
Layer 1
 62
     7
370
    20
100
AcDb2dPolyline
 66
     1
 10
0.0
 20
0.0
 30
0.0
  0
VERTEX
  5
3E5
330
3E4
100
AcDbEntity
  8
Layer 1
 62
     7
370
    20
100
AcDbVertex
100
AcDb2dVertex
 10
44.23778210699611
 20
209.6643771177228
 30
0.0
  0
VERTEX
  5
3E6
330
3E4
100
AcDbEntity
  8
Layer 1
 62
     7
370
    20
100
AcDbVertex
100
AcDb2dVertex
 10
45.23754881681562
 20
208.9140353210354
 30
0.0
  0
SEQEND
  5
3E7
330
3E4
100
AcDbEntity
  8
Layer 1
370
    20
  0
SPLINE
  5
3E8
330
299
100
AcDbEntity
  8
Layer 1
 62
     7
370
     9
100
AcDbSpline
210
0.0
220
0.0
230
1.0
 70
     8
 71
     3
 72
     8
 73
     4
 74
     0
 42
0.0000000001
 43
0.0000000001
 40
0.0
 40
0.0
 40
0.0
 40
0.0
 40
1.0
 40
1.0
 40
1.0
 40
1.0
 10
49.13808592521548
 20
210.039203506518
 30
0.0
 10
45.87006834790748
 20
209.9616888580999
 30
0.0
 10
43.71619465052929
 20
209.7718640968626
 30
0.0
 10
44.30392794031291
 20
209.6144232331867
 30
0.0
  0
SPLINE
  5
3E9
330
299
100
AcDbEntity
  8
Layer 1
 62
     7
370
     9
100
AcDbSpline
210
0.0
220
0.0
230
1.0
 70
     8
 71
     3
 72
     8
 73
     4
 74
     0
 42
0.0000000001
 43
0.0000000001
 40
0.0
 40
0.0
 40
0.0
 40
0.0
 40
1.0
 40
1.0
 40
1.0
 40
1.0
 10
49.13808592521548
 20
208.5395534417887
 30
0.0
 10
52.40748154071758
 20
208.6167235806583
 30
0.0
 10
54.55928818080462
 20
208.8062038323471
 30
0.0
 10
53.9701768528269
 20
208.9646782246686
 30
0.0
  0
SPLINE
  5
3EA
330
299
100
AcDbEntity
  8
Layer 1
 62
     7
370
     9
100
AcDbSpline
210
0.0
220
0.0
230
1.0
 70
     8
 71
     3
 72
     8
 73
     4
 74
     0
 42
0.0000000001
 43
0.0000000001
 40
0.0
 40
0.0
 40
0.0
 40
0.0
 40
1.0
 40
1.0
 40
1.0
 40
1.0
 10
49.13808592521548
 20
211.5388535712472
 30
0.0
 10
45.86800129061633
 20
211.4613389228291
 30
0.0
 10
43.71619465052929
 20
211.2725476902374
 30
0.0
 10
44.30392794031291
 20
211.1140732979159
 30
0.0
  0
SPLINE
  5
3EB
330
299
100
AcDbEntity
  8
Layer 1
 62
     7
370
     9
100
AcDbSpline
210
0.0
220
0.0
230
1.0
 70
     8
 71
     3
 72
     8
 73
     4
 74
     0
 42
0.0000000001
 43
0.0000000001
 40
0.0
 40
0.0
 40
0.0
 40
0.0
 40
1.0
 40
1.0
 40
1.0
 40
1.0
 10
49.13808592521548
 20
210.039203506518
 30
0.0
 10
52.40541448342643
 20
210.1167181549361
 30
0.0
 10
54.55791014261052
 20
210.3061984066248
 30
0.0
 10
53.97086587192396
 20
210.4646727989463
 30
0.0
  0
POLYLINE
  5
3EC
330
299
100
AcDbEntity
  8
Layer 1
 62
     7
370
    20
100
AcDb2dPolyline
 66
     1
 10
0.0
 20
0.0
 30
0.0
  0
VERTEX
  5
3ED
330
3EC
100
AcDbEntity
  8
Layer 1
 62
     7
370
    20
100
AcDbVertex
100
AcDb2dVertex
 10
54.03701170524075
 20
213.4136745343202
 30
0.0
  0
VERTEX
  5
3EE
330
3EC
100
AcDbEntity
  8
Layer 1
 62
     7
370
    20
100
AcDbVertex
100
AcDb2dVertex
 10
53.03724499542125
 20
212.6640217567298
 30
0.0
  0
SEQEND
  5
3EF
330
3EC
100
AcDbEntity
  8
Layer 1
370
    20
  0
POLYLINE
  5
3F0
330
299
100
AcDbEntity
  8
Layer 1
 62
     7
370
    20
100
AcDb2dPolyline
 66
     1
 10
0.0
 20
0.0
 30
0.0
  0
VERTEX
  5
3F1
330
3F0
100
AcDbEntity
  8
Layer 1
 62
     7
370
    20
100
AcDbVertex
100
AcDb2dVertex
 10
54.03701170524075
 20
211.9136799600424
 30
0.0
  0
VERTEX
  5
3F2
330
3F0
100
AcDbEntity
  8
Layer 1
 62
     7
370
    20
100
AcDbVertex
100
AcDb2dVertex
 10
53.03724499542125
 20
212.6640217567298
 30
0.0
  0
SEQEND
  5
3F3
330
3F0
100
AcDbEntity
  8
Layer 1
370
    20
  0
POLYLINE
  5
3F4
330
299
100
AcDbEntity
  8
Layer 1
 62
     7
370
    20
100
AcDb2dPolyline
 66
     1
 10
0.0
 20
0.0
 30
0.0
  0
VERTEX
  5
3F5
330
3F4
100
AcDbEntity
  8
Layer 1
 62
     7
370
    20
100
AcDbVertex
100
AcDb2dVertex
 10
54.03701170524075
 20
213.4136745343202
 30
0.0
  0
VERTEX
  5
3F6
330
3F4
100
AcDbEntity
  8
Layer 1
 62
     7
370
    20
100
AcDbVertex
100
AcDb2dVertex
 10
53.03724499542125
 20
214.1636718214591
 30
0.0
  0
SEQEND
  5
3F7
330
3F4
100
AcDbEntity
  8
Layer 1
370
    20
  0
POLYLINE
  5
3F8
330
299
100
AcDbEntity
  8
Layer 1
 62
     7
370
    20
100
AcDb2dPolyline
 66
     1
 10
0.0
 20
0.0
 30
0.0
  0
VERTEX
  5
3F9
330
3F8
100
AcDbEntity
  8
Layer 1
 62
     7
370
    20
100
AcDbVertex
100
AcDb2dVertex
 10
44.23778210699611
 20
212.6640217567298
 30
0.0
  0
VERTEX
  5
3FA
330
3F8
100
AcDbEntity
  8
Layer 1
 62
     7
370
    20
100
AcDbVertex
100
AcDb2dVertex
 10
45.23754881681562
 20
213.4136745343202
 30
0.0
  0
SEQEND
  5
3FB
330
3F8
100
AcDbEntity
  8
Layer 1
370
    20
  0
POLYLINE
  5
3FC
330
299
100
AcDbEntity
  8
Layer 1
 62
     7
370
    20
100
AcDb2dPolyline
 66
     1
 10
0.0
 20
0.0
 30
0.0
  0
VERTEX
  5
3FD
330
3FC
100
AcDbEntity
  8
Layer 1
 62
     7
370
    20
100
AcDbVertex
100
AcDb2dVertex
 10
44.23778210699611
 20
214.1636718214591
 30
0.0
  0
VERTEX
  5
3FE
330
3FC
100
AcDbEntity
  8
Layer 1
 62
     7
370
    20
100
AcDbVertex
100
AcDb2dVertex
 10
45.23754881681562
 20
213.4136745343202
 30
0.0
  0
SEQEND
  5
3FF
330
3FC
100
AcDbEntity
  8
Layer 1
370
    20
  0
POLYLINE
  5
400
330
299
100
AcDbEntity
  8
Layer 1
 62
     7
370
    20
100
AcDb2dPolyline
 66
     1
 10
0.0
 20
0.0
 30
0.0
  0
VERTEX
  5
401
330
400
100
AcDbEntity
  8
Layer 1
 62
     7
370
    20
100
AcDbVertex
100
AcDb2dVertex
 10
44.23778210699611
 20
212.6633327376328
 30
0.0
  0
VERTEX
  5
402
330
400
100
AcDbEntity
  8
Layer 1
 62
     7
370
    20
100
AcDbVertex
100
AcDb2dVertex
 10
45.23754881681562
 20
211.9136799600424
 30
0.0
  0
SEQEND
  5
403
330
400
100
AcDbEntity
  8
Layer 1
370
    20
  0
POLYLINE
  5
404
330
299
100
AcDbEntity
  8
Layer 1
 62
     7
370
    20
100
AcDb2dPolyline
 66
     1
 10
0.0
 20
0.0
 30
0.0
  0
VERTEX
  5
405
330
404
100
AcDbEntity
  8
Layer 1
 62
     7
370
    20
100
AcDbVertex
100
AcDb2dVertex
 10
44.23778210699611
 20
214.1636718214591
 30
0.0
  0
VERTEX
  5
406
330
404
100
AcDbEntity
  8
Layer 1
 62
     7
370
    20
100
AcDbVertex
100
AcDb2dVertex
 10
45.23754881681562
 20
214.9140136181465
 30
0.0
  0
SEQEND
  5
407
330
404
100
AcDbEntity
  8
Layer 1
370
    20
  0
POLYLINE
  5
408
330
299
100
AcDbEntity
  8
Layer 1
 62
     7
370
    20
100
AcDb2dPolyline
 66
     1
 10
0.0
 20
0.0
 30
0.0
  0
VERTEX
  5
409
330
408
100
AcDbEntity
  8
Layer 1
 62
     7
370
    20
100
AcDbVertex
100
AcDb2dVertex
 10
44.23778210699611
 20
211.1643716920006
 30
0.0
  0
VERTEX
  5
40A
330
408
100
AcDbEntity
  8
Layer 1
 62
     7
370
    20
100
AcDbVertex
100
AcDb2dVertex
 10
45.23754881681562
 20
211.9136799600424
 30
0.0
  0
SEQEND
  5
40B
330
408
100
AcDbEntity
  8
Layer 1
370
    20
  0
POLYLINE
  5
40C
330
299
100
AcDbEntity
  8
Layer 1
 62
     7
370
    20
100
AcDb2dPolyline
 66
     1
 10
0.0
 20
0.0
 30
0.0
  0
VERTEX
  5
40D
330
40C
100
AcDbEntity
  8
Layer 1
 62
     7
370
    20
100
AcDbVertex
100
AcDb2dVertex
 10
54.03701170524075
 20
217.9136582571535
 30
0.0
  0
VERTEX
  5
40E
330
40C
100
AcDbEntity
  8
Layer 1
 62
     7
370
    20
100
AcDbVertex
100
AcDb2dVertex
 10
53.20054252142209
 20
218.540665635469
 30
0.0
  0
SEQEND
  5
40F
330
40C
100
AcDbEntity
  8
Layer 1
370
    20
  0
POLYLINE
  5
410
330
299
100
AcDbEntity
  8
Layer 1
 62
     7
370
    20
100
AcDb2dPolyline
 66
     1
 10
0.0
 20
0.0
 30
0.0
  0
VERTEX
  5
411
330
410
100
AcDbEntity
  8
Layer 1
 62
     7
370
    20
100
AcDbVertex
100
AcDb2dVertex
 10
54.03701170524075
 20
217.9136582571535
 30
0.0
  0
VERTEX
  5
412
330
410
100
AcDbEntity
  8
Layer 1
 62
     7
370
    20
100
AcDbVertex
100
AcDb2dVertex
 10
53.03724499542125
 20
217.1633164604661
 30
0.0
  0
SEQEND
  5
413
330
410
100
AcDbEntity
  8
Layer 1
370
    20
  0
POLYLINE
  5
414
330
299
100
AcDbEntity
  8
Layer 1
 62
     7
370
    20
100
AcDb2dPolyline
 66
     1
 10
0.0
 20
0.0
 30
0.0
  0
VERTEX
  5
415
330
414
100
AcDbEntity
  8
Layer 1
 62
     7
370
    20
100
AcDbVertex
100
AcDb2dVertex
 10
44.39970159480286
 20
218.5420436736631
 30
0.0
  0
VERTEX
  5
416
330
414
100
AcDbEntity
  8
Layer 1
 62
     7
370
    20
100
AcDbVertex
100
AcDb2dVertex
 10
45.23754881681562
 20
217.9136582571535
 30
0.0
  0
SEQEND
  5
417
330
414
100
AcDbEntity
  8
Layer 1
370
    20
  0
POLYLINE
  5
418
330
299
100
AcDbEntity
  8
Layer 1
 62
     7
370
    20
100
AcDb2dPolyline
 66
     1
 10
0.0
 20
0.0
 30
0.0
  0
VERTEX
  5
419
330
418
100
AcDbEntity
  8
Layer 1
 62
     7
370
    20
100
AcDbVertex
100
AcDb2dVertex
 10
54.03701170524075
 20
216.4140081924243
 30
0.0
  0
VERTEX
  5
41A
330
418
100
AcDbEntity
  8
Layer 1
 62
     7
370
    20
100
AcDbVertex
100
AcDb2dVertex
 10
53.03724499542125
 20
215.6636663957369
 30
0.0
  0
SEQEND
  5
41B
330
418
100
AcDbEntity
  8
Layer 1
370
    20
  0
POLYLINE
  5
41C
330
299
100
AcDbEntity
  8
Layer 1
 62
     7
370
    20
100
AcDb2dPolyline
 66
     1
 10
0.0
 20
0.0
 30
0.0
  0
VERTEX
  5
41D
330
41C
100
AcDbEntity
  8
Layer 1
 62
     7
370
    20
100
AcDbVertex
100
AcDb2dVertex
 10
54.03701170524075
 20
214.9133245990494
 30
0.0
  0
VERTEX
  5
41E
330
41C
100
AcDbEntity
  8
Layer 1
 62
     7
370
    20
100
AcDbVertex
100
AcDb2dVertex
 10
53.03724499542125
 20
215.6636663957369
 30
0.0
  0
SEQEND
  5
41F
330
41C
100
AcDbEntity
  8
Layer 1
370
    20
  0
POLYLINE
  5
420
330
299
100
AcDbEntity
  8
Layer 1
 62
     7
370
    20
100
AcDb2dPolyline
 66
     1
 10
0.0
 20
0.0
 30
0.0
  0
VERTEX
  5
421
330
420
100
AcDbEntity
  8
Layer 1
 62
     7
370
    20
100
AcDbVertex
100
AcDb2dVertex
 10
54.03701170524075
 20
214.9140136181465
 30
0.0
  0
VERTEX
  5
422
330
420
100
AcDbEntity
  8
Layer 1
 62
     7
370
    20
100
AcDbVertex
100
AcDb2dVertex
 10
53.03724499542125
 20
214.1636718214591
 30
0.0
  0
SEQEND
  5
423
330
420
100
AcDbEntity
  8
Layer 1
370
    20
  0
POLYLINE
  5
424
330
299
100
AcDbEntity
  8
Layer 1
 62
     7
370
    20
100
AcDb2dPolyline
 66
     1
 10
0.0
 20
0.0
 30
0.0
  0
VERTEX
  5
425
330
424
100
AcDbEntity
  8
Layer 1
 62
     7
370
    20
100
AcDbVertex
100
AcDb2dVertex
 10
54.03701170524075
 20
216.4140081924243
 30
0.0
  0
VERTEX
  5
426
330
424
100
AcDbEntity
  8
Layer 1
 62
     7
370
    20
100
AcDbVertex
100
AcDb2dVertex
 10
53.03724499542125
 20
217.1633164604661
 30
0.0
  0
SEQEND
  5
427
330
424
100
AcDbEntity
  8
Layer 1
370
    20
  0
POLYLINE
  5
428
330
299
100
AcDbEntity
  8
Layer 1
 62
     7
370
    20
100
AcDb2dPolyline
 66
     1
 10
0.0
 20
0.0
 30
0.0
  0
VERTEX
  5
429
330
428
100
AcDbEntity
  8
Layer 1
 62
     7
370
    20
100
AcDbVertex
100
AcDb2dVertex
 10
44.23778210699611
 20
215.6636663957369
 30
0.0
  0
VERTEX
  5
42A
330
428
100
AcDbEntity
  8
Layer 1
 62
     7
370
    20
100
AcDbVertex
100
AcDb2dVertex
 10
45.23754881681562
 20
216.4140081924243
 30
0.0
  0
SEQEND
  5
42B
330
428
100
AcDbEntity
  8
Layer 1
370
    20
  0
POLYLINE
  5
42C
330
299
100
AcDbEntity
  8
Layer 1
 62
     7
370
    20
100
AcDb2dPolyline
 66
     1
 10
0.0
 20
0.0
 30
0.0
  0
VERTEX
  5
42D
330
42C
100
AcDbEntity
  8
Layer 1
 62
     7
370
    20
100
AcDbVertex
100
AcDb2dVertex
 10
44.23778210699611
 20
217.1633164604661
 30
0.0
  0
VERTEX
  5
42E
330
42C
100
AcDbEntity
  8
Layer 1
 62
     7
370
    20
100
AcDbVertex
100
AcDb2dVertex
 10
45.23754881681562
 20
216.4140081924243
 30
0.0
  0
SEQEND
  5
42F
330
42C
100
AcDbEntity
  8
Layer 1
370
    20
  0
POLYLINE
  5
430
330
299
100
AcDbEntity
  8
Layer 1
 62
     7
370
    20
100
AcDb2dPolyline
 66
     1
 10
0.0
 20
0.0
 30
0.0
  0
VERTEX
  5
431
330
430
100
AcDbEntity
  8
Layer 1
 62
     7
370
    20
100
AcDbVertex
100
AcDb2dVertex
 10
44.23778210699611
 20
215.6636663957369
 30
0.0
  0
VERTEX
  5
432
330
430
100
AcDbEntity
  8
Layer 1
 62
     7
370
    20
100
AcDbVertex
100
AcDb2dVertex
 10
45.23754881681562
 20
214.9133245990494
 30
0.0
  0
SEQEND
  5
433
330
430
100
AcDbEntity
  8
Layer 1
370
    20
  0
POLYLINE
  5
434
330
299
100
AcDbEntity
  8
Layer 1
 62
     7
370
    20
100
AcDb2dPolyline
 66
     1
 10
0.0
 20
0.0
 30
0.0
  0
VERTEX
  5
435
330
434
100
AcDbEntity
  8
Layer 1
 62
     7
370
    20
100
AcDbVertex
100
AcDb2dVertex
 10
44.23778210699611
 20
217.1633164604661
 30
0.0
  0
VERTEX
  5
436
330
434
100
AcDbEntity
  8
Layer 1
 62
     7
370
    20
100
AcDbVertex
100
AcDb2dVertex
 10
45.23754881681562
 20
217.9136582571535
 30
0.0
  0
SEQEND
  5
437
330
434
100
AcDbEntity
  8
Layer 1
370
    20
  0
SPLINE
  5
438
330
299
100
AcDbEntity
  8
Layer 1
 62
     7
370
     9
100
AcDbSpline
210
0.0
220
0.0
230
1.0
 70
     8
 71
     3
 72
     8
 73
     4
 74
     0
 42
0.0000000001
 43
0.0000000001
 40
0.0
 40
0.0
 40
0.0
 40
0.0
 40
1.0
 40
1.0
 40
1.0
 40
1.0
 10
49.13808592521548
 20
213.038848145525
 30
0.0
 10
45.87006834790748
 20
212.9613334971069
 30
0.0
 10
43.71619465052929
 20
212.7718532454182
 30
0.0
 10
44.30392794031291
 20
212.6133788530967
 30
0.0
  0
SPLINE
  5
439
330
299
100
AcDbEntity
  8
Layer 1
 62
     7
370
     9
100
AcDbSpline
210
0.0
220
0.0
230
1.0
 70
     8
 71
     3
 72
     8
 73
     4
 74
     0
 42
0.0000000001
 43
0.0000000001
 40
0.0
 40
0.0
 40
0.0
 40
0.0
 40
1.0
 40
1.0
 40
1.0
 40
1.0
 10
49.13808592521548
 20
211.5388535712472
 30
0.0
 10
52.40748154071758
 20
211.6163682196654
 30
0.0
 10
54.55928818080462
 20
211.8058484713541
 30
0.0
 10
53.9701768528269
 20
211.9636338445785
 30
0.0
  0
SPLINE
  5
43A
330
299
100
AcDbEntity
  8
Layer 1
 62
     7
370
     9
100
AcDbSpline
210
0.0
220
0.0
230
1.0
 70
     8
 71
     3
 72
     8
 73
     4
 74
     0
 42
0.0000000001
 43
0.0000000001
 40
0.0
 40
0.0
 40
0.0
 40
0.0
 40
1.0
 40
1.0
 40
1.0
 40
1.0
 10
49.13808592521548
 20
214.5384982102543
 30
0.0
 10
45.86800129061633
 20
214.4609835618361
 30
0.0
 10
43.71619465052929
 20
214.2715033101474
 30
0.0
 10
44.30392794031291
 20
214.113717936923
 30
0.0
  0
SPLINE
  5
43B
330
299
100
AcDbEntity
  8
Layer 1
 62
     7
370
     9
100
AcDbSpline
210
0.0
220
0.0
230
1.0
 70
     8
 71
     3
 72
     8
 73
     4
 74
     0
 42
0.0000000001
 43
0.0000000001
 40
0.0
 40
0.0
 40
0.0
 40
0.0
 40
1.0
 40
1.0
 40
1.0
 40
1.0
 10
49.13808592521548
 20
213.038848145525
 30
0.0
 10
52.40541448342643
 20
213.1163627939432
 30
0.0
 10
54.55791014261052
 20
213.3058430456319
 30
0.0
 10
53.97086587192396
 20
213.4636284188563
 30
0.0
  0
SPLINE
  5
43C
330
299
100
AcDbEntity
  8
Layer 1
 62
     7
370
     9
100
AcDbSpline
210
0.0
220
0.0
230
1.0
 70
     8
 71
     3
 72
     8
 73
     4
 74
     0
 42
0.0000000001
 43
0.0000000001
 40
0.0
 40
0.0
 40
0.0
 40
0.0
 40
1.0
 40
1.0
 40
1.0
 40
1.0
 10
49.13808592521548
 20
217.5388318683584
 30
0.0
 10
52.40748154071758
 20
217.616691026325
 30
0.0
 10
54.55928818080462
 20
217.8051377493682
 30
0.0
 10
53.9701768528269
 20
217.9636121416897
 30
0.0
  0
SPLINE
  5
43D
330
299
100
AcDbEntity
  8
Layer 1
 62
     7
370
     9
100
AcDbSpline
210
0.0
220
0.0
230
1.0
 70
     8
 71
     3
 72
     8
 73
     4
 74
     0
 42
0.0000000001
 43
0.0000000001
 40
0.0
 40
0.0
 40
0.0
 40
0.0
 40
1.0
 40
1.0
 40
1.0
 40
1.0
 10
49.13808592521548
 20
216.0381482749835
 30
0.0
 10
45.87006834790748
 20
215.9606336265654
 30
0.0
 10
43.71619465052929
 20
215.7721869035223
 30
0.0
 10
44.30392794031291
 20
215.6137125112008
 30
0.0
  0
SPLINE
  5
43E
330
299
100
AcDbEntity
  8
Layer 1
 62
     7
370
     9
100
AcDbSpline
210
0.0
220
0.0
230
1.0
 70
     8
 71
     3
 72
     8
 73
     4
 74
     0
 42
0.0000000001
 43
0.0000000001
 40
0.0
 40
0.0
 40
0.0
 40
0.0
 40
1.0
 40
1.0
 40
1.0
 40
1.0
 10
49.13808592521548
 20
214.5384982102543
 30
0.0
 10
52.40748154071758
 20
214.6160128586724
 30
0.0
 10
54.55928818080462
 20
214.8054931103611
 30
0.0
 10
53.9701768528269
 20
214.9639675026826
 30
0.0
  0
SPLINE
  5
43F
330
299
100
AcDbEntity
  8
Layer 1
 62
     7
370
     9
100
AcDbSpline
210
0.0
220
0.0
230
1.0
 70
     8
 71
     3
 72
     8
 73
     4
 74
     0
 42
0.0000000001
 43
0.0000000001
 40
0.0
 40
0.0
 40
0.0
 40
0.0
 40
1.0
 40
1.0
 40
1.0
 40
1.0
 10
49.13808592521548
 20
217.5388318683584
 30
0.0
 10
45.86800129061633
 20
217.4613172199402
 30
0.0
 10
43.71619465052929
 20
217.2718369682515
 30
0.0
 10
44.30392794031291
 20
217.11336257593
 30
0.0
  0
SPLINE
  5
440
330
299
100
AcDbEntity
  8
Layer 1
 62
     7
370
     9
100
AcDbSpline
210
0.0
220
0.0
230
1.0
 70
     8
 71
     3
 72
     8
 73
     4
 74
     0
 42
0.0000000001
 43
0.0000000001
 40
0.0
 40
0.0
 40
0.0
 40
0.0
 40
1.0
 40
1.0
 40
1.0
 40
1.0
 10
49.13808592521548
 20
216.0381482749835
 30
0.0
 10
52.40541448342643
 20
216.1156629234017
 30
0.0
 10
54.55791014261052
 20
216.3054876846389
 30
0.0
 10
53.97086587192396
 20
216.4639620769604
 30
0.0
  0
ENDBLK
  5
29C
330
299
100
AcDbEntity
  8
0
100
AcDbBlockEnd
  0
BLOCK
  5
44E
330
44C
100
AcDbEntity
  8
0
100
AcDbBlockBegin
  2
block 14
 70
     0
 71
     0
 10
0.0
 20
0.0
 30
0.0
  3
block 14
  1

  0
POLYLINE
  5
450
330
44C
100
AcDbEntity
  8
Layer 1
 62
     7
370
    20
100
AcDb2dPolyline
 66
     1
 10
0.0
 20
0.0
 30
0.0
  0
VERTEX
  5
451
330
450
100
AcDbEntity
  8
Layer 1
 62
     7
370
    20
100
AcDbVertex
100
AcDb2dVertex
 10
40.86434460783947
 20
229.3145127464908
 30
0.0
  0
VERTEX
  5
452
330
450
100
AcDbEntity
  8
Layer 1
 62
     7
370
    20
100
AcDbVertex
100
AcDb2dVertex
 10
57.40976018530034
 20
229.3145127464908
 30
0.0
  0
SEQEND
  5
453
330
450
100
AcDbEntity
  8
Layer 1
370
    20
  0
POLYLINE
  5
454
330
44C
100
AcDbEntity
  8
Layer 1
 62
     7
370
    20
100
AcDb2dPolyline
 66
     1
 10
0.0
 20
0.0
 30
0.0
  0
VERTEX
  5
455
330
454
100
AcDbEntity
  8
Layer 1
 62
     7
370
    20
100
AcDbVertex
100
AcDb2dVertex
 10
40.86434460783947
 20
221.0411159386634
 30
0.0
  0
VERTEX
  5
456
330
454
100
AcDbEntity
  8
Layer 1
 62
     7
370
    20
100
AcDbVertex
100
AcDb2dVertex
 10
57.40976018530034
 20
221.0411159386634
 30
0.0
  0
SEQEND
  5
457
330
454
100
AcDbEntity
  8
Layer 1
370
    20
  0
SPLINE
  5
458
330
44C
100
AcDbEntity
  8
Layer 1
 62
     7
370
    20
100
AcDbSpline
210
0.0
220
0.0
230
1.0
 70
     8
 71
     3
 72
     8
 73
     4
 74
     0
 42
0.0000000001
 43
0.0000000001
 40
0.0
 40
0.0
 40
0.0
 40
0.0
 40
1.0
 40
1.0
 40
1.0
 40
1.0
 10
53.88680554208386
 20
227.9681694308552
 30
0.0
 10
51.25406357225593
 20
229.7627196691218
 30
0.0
 10
47.01935220178683
 20
229.7627196691218
 30
0.0
 10
44.3866102319589
 20
227.9681694308552
 30
0.0
  0
SPLINE
  5
459
330
44C
100
AcDbEntity
  8
Layer 1
 62
     7
370
    20
100
AcDbSpline
210
0.0
220
0.0
230
1.0
 70
     8
 71
     3
 72
     8
 73
     4
 74
     0
 42
0.0000000001
 43
0.0000000001
 40
0.0
 40
0.0
 40
0.0
 40
0.0
 40
1.0
 40
1.0
 40
1.0
 40
1.0
 10
44.3866102319589
 20
222.3864257256534
 30
0.0
 10
47.01935220178683
 20
220.5925645064838
 30
0.0
 10
51.25406357225593
 20
220.5925645064838
 30
0.0
 10
53.88680554208386
 20
222.3864257256534
 30
0.0
  0
SPLINE
  5
45A
330
44C
100
AcDbEntity
  8
Layer 1
 62
     7
370
    20
100
AcDbSpline
210
0.0
220
0.0
230
1.0
 70
     8
 71
     3
 72
    11
 73
     7
 74
     0
 42
0.0000000001
 43
0.0000000001
 40
0.0
 40
0.0
 40
0.0
 40
0.0
 40
1.0
 40
1.0
 40
1.0
 40
2.0
 40
2.0
 40
2.0
 40
2.0
 10
44.3866102319589
 20
227.9681694308552
 30
0.0
 10
43.59837238493374
 20
229.2828178680265
 30
0.0
 10
41.89442815792917
 20
229.7079426509063
 30
0.0
 10
40.58322481624308
 20
228.916948727493
 30
0.0
 10
40.25456270695025
 20
228.7419378768423
 30
0.0
 10
39.81221244664417
 20
228.2988985974392
 30
0.0
 10
39.63720159599348
 20
227.9681694308552
 30
0.0
  0
SPLINE
  5
45B
330
44C
100
AcDbEntity
  8
Layer 1
 62
     7
370
    20
100
AcDbSpline
210
0.0
220
0.0
230
1.0
 70
     8
 71
     3
 72
    11
 73
     7
 74
     0
 42
0.0000000001
 43
0.0000000001
 40
0.0
 40
0.0
 40
0.0
 40
0.0
 40
1.0
 40
1.0
 40
1.0
 40
2.0
 40
2.0
 40
2.0
 40
2.0
 10
39.63720159599348
 20
222.3864257256534
 30
0.0
 10
40.42543944301864
 20
221.0721217980306
 30
0.0
 10
42.12938367002321
 20
220.6476860342478
 30
0.0
 10
43.4405870117093
 20
221.4386799576612
 30
0.0
 10
43.76924912100213
 20
221.6136908083119
 30
0.0
 10
44.21159938130821
 20
222.056041068618
 30
0.0
 10
44.3866102319589
 20
222.3864257256534
 30
0.0
  0
SPLINE
  5
45C
330
44C
100
AcDbEntity
  8
Layer 1
 62
     7
370
    20
100
AcDbSpline
210
0.0
220
0.0
230
1.0
 70
     8
 71
     3
 72
    11
 73
     7
 74
     0
 42
0.0000000001
 43
0.0000000001
 40
0.0
 40
0.0
 40
0.0
 40
0.0
 40
1.0
 40
1.0
 40
1.0
 40
2.0
 40
2.0
 40
2.0
 40
2.0
 10
53.88680554208386
 20
222.3864257256534
 30
0.0
 10
54.67642142730312
 20
221.0721217980306
 30
0.0
 10
56.37898761611359
 20
220.6476860342478
 30
0.0
 10
57.69087997689672
 20
221.4386799576612
 30
0.0
 10
58.02023110528661
 20
221.6136908083119
 30
0.0
 10
58.46258136559269
 20
222.056041068618
 30
0.0
 10
58.63690319714633
 20
222.3864257256534
 30
0.0
  0
SPLINE
  5
45D
330
44C
100
AcDbEntity
  8
Layer 1
 62
     7
370
    20
100
AcDbSpline
210
0.0
220
0.0
230
1.0
 70
     8
 71
     3
 72
    11
 73
     7
 74
     0
 42
0.0000000001
 43
0.0000000001
 40
0.0
 40
0.0
 40
0.0
 40
0.0
 40
1.0
 40
1.0
 40
1.0
 40
2.0
 40
2.0
 40
2.0
 40
2.0
 10
58.63690319714633
 20
227.9681694308552
 30
0.0
 10
57.84797633102412
 20
229.2828178680265
 30
0.0
 10
56.1447211231166
 20
229.7079426509063
 30
0.0
 10
54.83282876233346
 20
228.916948727493
 30
0.0
 10
54.50416665304063
 20
228.7419378768423
 30
0.0
 10
54.06181639273455
 20
228.2988985974392
 30
0.0
 10
53.88680554208386
 20
227.9681694308552
 30
0.0
  0
POLYLINE
  5
45E
330
44C
100
AcDbEntity
  8
Layer 1
 62
     7
370
    20
100
AcDb2dPolyline
 66
     1
 10
0.0
 20
0.0
 30
0.0
  0
VERTEX
  5
45F
330
45E
100
AcDbEntity
  8
Layer 1
 62
     7
370
    20
100
AcDbVertex
100
AcDb2dVertex
 10
39.63720159599348
 20
227.9681694308552
 30
0.0
  0
VERTEX
  5
460
330
45E
100
AcDbEntity
  8
Layer 1
 62
     7
370
    20
100
AcDbVertex
100
AcDb2dVertex
 10
39.63720159599348
 20
222.3864257256534
 30
0.0
  0
SEQEND
  5
461
330
45E
100
AcDbEntity
  8
Layer 1
370
    20
  0
POLYLINE
  5
462
330
44C
100
AcDbEntity
  8
Layer 1
 62
     7
370
    20
100
AcDb2dPolyline
 66
     1
 10
0.0
 20
0.0
 30
0.0
  0
VERTEX
  5
463
330
462
100
AcDbEntity
  8
Layer 1
 62
     7
370
    20
100
AcDbVertex
100
AcDb2dVertex
 10
44.3866102319589
 20
227.9681694308552
 30
0.0
  0
VERTEX
  5
464
330
462
100
AcDbEntity
  8
Layer 1
 62
     7
370
    20
100
AcDbVertex
100
AcDb2dVertex
 10
44.3866102319589
 20
222.3864257256534
 30
0.0
  0
SEQEND
  5
465
330
462
100
AcDbEntity
  8
Layer 1
370
    20
  0
POLYLINE
  5
466
330
44C
100
AcDbEntity
  8
Layer 1
 62
     7
370
    20
100
AcDb2dPolyline
 66
     1
 10
0.0
 20
0.0
 30
0.0
  0
VERTEX
  5
467
330
466
100
AcDbEntity
  8
Layer 1
 62
     7
370
    20
100
AcDbVertex
100
AcDb2dVertex
 10
53.88680554208386
 20
227.9681694308552
 30
0.0
  0
VERTEX
  5
468
330
466
100
AcDbEntity
  8
Layer 1
 62
     7
370
    20
100
AcDbVertex
100
AcDb2dVertex
 10
53.88680554208386
 20
222.3864257256534
 30
0.0
  0
SEQEND
  5
469
330
466
100
AcDbEntity
  8
Layer 1
370
    20
  0
POLYLINE
  5
46A
330
44C
100
AcDbEntity
  8
Layer 1
 62
     7
370
    20
100
AcDb2dPolyline
 66
     1
 10
0.0
 20
0.0
 30
0.0
  0
VERTEX
  5
46B
330
46A
100
AcDbEntity
  8
Layer 1
 62
     7
370
    20
100
AcDbVertex
100
AcDb2dVertex
 10
58.63690319714633
 20
227.9681694308552
 30
0.0
  0
VERTEX
  5
46C
330
46A
100
AcDbEntity
  8
Layer 1
 62
     7
370
    20
100
AcDbVertex
100
AcDb2dVertex
 10
58.63690319714633
 20
222.3864257256534
 30
0.0
  0
SEQEND
  5
46D
330
46A
100
AcDbEntity
  8
Layer 1
370
    20
  0
POLYLINE
  5
46E
330
44C
100
AcDbEntity
  8
Layer 1
 62
     7
370
    20
100
AcDb2dPolyline
 66
     1
 10
0.0
 20
0.0
 30
0.0
  0
VERTEX
  5
46F
330
46E
100
AcDbEntity
  8
Layer 1
 62
     7
370
    20
100
AcDbVertex
100
AcDb2dVertex
 10
40.05199109241756
 20
228.5004366833263
 30
0.0
  0
VERTEX
  5
470
330
46E
100
AcDbEntity
  8
Layer 1
 62
     7
370
    20
100
AcDbVertex
100
AcDb2dVertex
 10
40.86985676061587
 20
229.3196803897187
 30
0.0
  0
SEQEND
  5
471
330
46E
100
AcDbEntity
  8
Layer 1
370
    20
  0
POLYLINE
  5
472
330
44C
100
AcDbEntity
  8
Layer 1
 62
     7
370
    20
100
AcDb2dPolyline
 66
     1
 10
0.0
 20
0.0
 30
0.0
  0
VERTEX
  5
473
330
472
100
AcDbEntity
  8
Layer 1
 62
     7
370
    20
100
AcDbVertex
100
AcDb2dVertex
 10
57.40976018530034
 20
221.0411159386634
 30
0.0
  0
VERTEX
  5
474
330
472
100
AcDbEntity
  8
Layer 1
 62
     7
370
    20
100
AcDbVertex
100
AcDb2dVertex
 10
58.2214246816252
 20
221.8541584731823
 30
0.0
  0
SEQEND
  5
475
330
472
100
AcDbEntity
  8
Layer 1
370
    20
  0
POLYLINE
  5
476
330
44C
100
AcDbEntity
  8
Layer 1
 62
     7
370
    20
100
AcDb2dPolyline
 66
     1
 10
0.0
 20
0.0
 30
0.0
  0
VERTEX
  5
477
330
476
100
AcDbEntity
  8
Layer 1
 62
     7
370
    20
100
AcDbVertex
100
AcDb2dVertex
 10
58.2214246816252
 20
228.5004366833263
 30
0.0
  0
VERTEX
  5
478
330
476
100
AcDbEntity
  8
Layer 1
 62
     7
370
    20
100
AcDbVertex
100
AcDb2dVertex
 10
57.40976018530034
 20
229.3145127464908
 30
0.0
  0
SEQEND
  5
479
330
476
100
AcDbEntity
  8
Layer 1
370
    20
  0
POLYLINE
  5
47A
330
44C
100
AcDbEntity
  8
Layer 1
 62
     7
370
    20
100
AcDb2dPolyline
 66
     1
 10
0.0
 20
0.0
 30
0.0
  0
VERTEX
  5
47B
330
47A
100
AcDbEntity
  8
Layer 1
 62
     7
370
    20
100
AcDbVertex
100
AcDb2dVertex
 10
40.86434460783947
 20
221.0411159386634
 30
0.0
  0
VERTEX
  5
47C
330
47A
100
AcDbEntity
  8
Layer 1
 62
     7
370
    20
100
AcDbVertex
100
AcDb2dVertex
 10
40.05199109241756
 20
221.8541584731823
 30
0.0
  0
SEQEND
  5
47D
330
47A
100
AcDbEntity
  8
Layer 1
370
    20
  0
ENDBLK
  5
44F
330
44C
100
AcDbEntity
  8
0
100
AcDbBlockEnd
  0
BLOCK
  5
48F
330
48D
100
AcDbEntity
  8
0
100
AcDbBlockBegin
  2
block 15
 70
     0
 71
     0
 10
0.0
 20
0.0
 30
0.0
  3
block 15
  1

  0
SPLINE
  5
491
330
48D
100
AcDbEntity
  8
Layer 1
 62
     7
370
    20
100
AcDbSpline
210
0.0
220
0.0
230
1.0
 70
    11
 71
     3
 72
    50
 73
    46
 74
     0
 42
0.0000000001
 43
0.0000000001
 40
0.0
 40
0.0
 40
0.0
 40
0.0
 40
1.0
 40
1.0
 40
1.0
 40
2.0
 40
2.0
 40
2.0
 40
3.0
 40
3.0
 40
3.0
 40
4.0
 40
4.0
 40
4.0
 40
5.0
 40
5.0
 40
5.0
 40
6.0
 40
6.0
 40
6.0
 40
7.0
 40
7.0
 40
7.0
 40
8.0
 40
8.0
 40
8.0
 40
9.0
 40
9.0
 40
9.0
 40
10.0
 40
10.0
 40
10.0
 40
11.0
 40
11.0
 40
11.0
 40
12.0
 40
12.0
 40
12.0
 40
13.0
 40
13.0
 40
13.0
 40
14.0
 40
14.0
 40
14.0
 40
15.0
 40
15.0
 40
15.0
 40
15.0
 10
58.63690319714633
 20
193.6894693526193
 30
0.0
 10
58.50633407825536
 20
193.9070271325128
 30
0.0
 10
58.35061576232207
 20
194.1002969892353
 30
0.0
 10
58.1759494212199
 20
194.2677286298185
 30
0.0
 10
58.1759494212199
 20
194.2677286298185
 30
0.0
 10
58.17663844031696
 20
194.2666951011729
 30
0.0
 10
58.17663844031696
 20
194.2666951011729
 30
0.0
 10
58.17663844031696
 20
194.2666951011729
 30
0.0
 10
57.40976018530034
 20
195.0358126682549
 30
0.0
 10
57.40976018530034
 20
195.0358126682549
 30
0.0
 10
57.40976018530034
 20
195.0358126682549
 30
0.0
 10
40.86434460783947
 20
195.0358126682549
 30
0.0
 10
40.86434460783947
 20
195.0358126682549
 30
0.0
 10
40.86434460783947
 20
195.0358126682549
 30
0.0
 10
40.05233560196609
 20
194.2222533694132
 30
0.0
 10
40.05233560196609
 20
194.2222533694132
 30
0.0
 10
39.87904729905802
 20
194.0482760474081
 30
0.0
 10
39.72470702131883
 20
193.8548339359113
 30
0.0
 10
39.63720159599348
 20
193.6894693526193
 30
0.0
 10
39.63720159599348
 20
193.6894693526193
 30
0.0
 10
39.63720159599348
 20
188.1077256474175
 30
0.0
 10
39.63720159599348
 20
188.1077256474175
 30
0.0
 10
39.76535914804477
 20
187.8939574725578
 30
0.0
 10
39.91763236849282
 20
187.703788201772
 30
0.0
 10
40.08850910456121
 20
187.5385958732543
 30
0.0
 10
40.08850910456121
 20
187.5385958732543
 30
0.0
 10
40.08954263320678
 20
187.5379068541572
 30
0.0
 10
40.08954263320678
 20
187.5379068541572
 30
0.0
 10
40.08954263320678
 20
187.5379068541572
 30
0.0
 10
40.86434460783947
 20
186.7624158604275
 30
0.0
 10
40.86434460783947
 20
186.7624158604275
 30
0.0
 10
40.86434460783947
 20
186.7624158604275
 30
0.0
 10
57.40976018530034
 20
186.7624158604275
 30
0.0
 10
57.40976018530034
 20
186.7624158604275
 30
0.0
 10
57.40976018530034
 20
186.7624158604275
 30
0.0
 10
58.2214246816252
 20
187.5754583949464
 30
0.0
 10
58.2214246816252
 20
187.5754583949464
 30
0.0
 10
58.2214246816252
 20
187.5754583949464
 30
0.0
 10
58.2214246816252
 20
187.5752861401722
 30
0.0
 10
58.2214246816252
 20
187.5752861401722
 30
0.0
 10
58.3950574940818
 20
187.749091207403
 30
0.0
 10
58.54939777182098
 20
187.9425333188998
 30
0.0
 10
58.63690319714633
 20
188.1077256474175
 30
0.0
 10
58.63690319714633
 20
188.1077256474175
 30
0.0
 10
58.63690319714633
 20
193.6894693526193
 30
0.0
 10
58.63690319714633
 20
193.6894693526193
 30
0.0
  0
SPLINE
  5
492
330
48D
100
AcDbEntity
  8
Layer 1
 62
     7
370
    20
100
AcDbSpline
210
0.0
220
0.0
230
1.0
 70
     8
 71
     3
 72
     8
 73
     4
 74
     0
 42
0.0000000001
 43
0.0000000001
 40
0.0
 40
0.0
 40
0.0
 40
0.0
 40
1.0
 40
1.0
 40
1.0
 40
1.0
 10
53.88680554208386
 20
193.6894693526193
 30
0.0
 10
51.25406357225593
 20
195.4840195908859
 30
0.0
 10
47.0190076922383
 20
195.4840195908859
 30
0.0
 10
44.38626572241038
 20
193.6894693526193
 30
0.0
  0
SPLINE
  5
493
330
48D
100
AcDbEntity
  8
Layer 1
 62
     7
370
    20
100
AcDbSpline
210
0.0
220
0.0
230
1.0
 70
     8
 71
     3
 72
     8
 73
     4
 74
     0
 42
0.0000000001
 43
0.0000000001
 40
0.0
 40
0.0
 40
0.0
 40
0.0
 40
1.0
 40
1.0
 40
1.0
 40
1.0
 10
44.38626572241038
 20
188.1077256474175
 30
0.0
 10
47.0190076922383
 20
186.3138644282479
 30
0.0
 10
51.25406357225593
 20
186.3138644282479
 30
0.0
 10
53.88680554208386
 20
188.1077256474175
 30
0.0
  0
SPLINE
  5
494
330
48D
100
AcDbEntity
  8
Layer 1
 62
     7
370
    20
100
AcDbSpline
210
0.0
220
0.0
230
1.0
 70
     8
 71
     3
 72
    11
 73
     7
 74
     0
 42
0.0000000001
 43
0.0000000001
 40
0.0
 40
0.0
 40
0.0
 40
0.0
 40
1.0
 40
1.0
 40
1.0
 40
2.0
 40
2.0
 40
2.0
 40
2.0
 10
44.38626572241038
 20
193.6894693526193
 30
0.0
 10
43.59802787538522
 20
195.0041177897907
 30
0.0
 10
41.89408364838065
 20
195.4292425726705
 30
0.0
 10
40.58288030669456
 20
194.6382486492571
 30
0.0
 10
40.41854925204814
 20
194.5507432239318
 30
0.0
 10
40.22562390487415
 20
194.3962306914183
 30
0.0
 10
40.05233560196609
 20
194.2222533694132
 30
0.0
  0
SPLINE
  5
495
330
48D
100
AcDbEntity
  8
Layer 1
 62
     7
370
    20
100
AcDbSpline
210
0.0
220
0.0
230
1.0
 70
     8
 71
     3
 72
    11
 73
     7
 74
     0
 42
0.0000000001
 43
0.0000000001
 40
0.0
 40
0.0
 40
0.0
 40
0.0
 40
1.0
 40
1.0
 40
1.0
 40
2.0
 40
2.0
 40
2.0
 40
2.0
 10
40.08850910456121
 20
187.5385958732543
 30
0.0
 10
40.96907551059107
 20
186.6874850336233
 30
0.0
 10
42.34229057101165
 20
186.497660272386
 30
0.0
 10
43.44024250216077
 20
187.1599798794253
 30
0.0
 10
43.76924912100213
 20
187.334990730076
 30
0.0
 10
44.21159938130821
 20
187.7773409903821
 30
0.0
 10
44.38626572241038
 20
188.1077256474175
 30
0.0
  0
SPLINE
  5
496
330
48D
100
AcDbEntity
  8
Layer 1
 62
     7
370
    20
100
AcDbSpline
210
0.0
220
0.0
230
1.0
 70
     8
 71
     3
 72
    11
 73
     7
 74
     0
 42
0.0000000001
 43
0.0000000001
 40
0.0
 40
0.0
 40
0.0
 40
0.0
 40
1.0
 40
1.0
 40
1.0
 40
2.0
 40
2.0
 40
2.0
 40
2.0
 10
53.88680554208386
 20
188.1077256474175
 30
0.0
 10
54.67607691775459
 20
186.7934217197947
 30
0.0
 10
56.37898761611359
 20
186.3689859560119
 30
0.0
 10
57.69087997689672
 20
187.1599798794253
 30
0.0
 10
57.85555554109167
 20
187.2474853047506
 30
0.0
 10
58.04779186916861
 20
187.4016533277156
 30
0.0
 10
58.2214246816252
 20
187.5752861401722
 30
0.0
  0
SPLINE
  5
497
330
48D
100
AcDbEntity
  8
Layer 1
 62
     7
370
    20
100
AcDbSpline
210
0.0
220
0.0
230
1.0
 70
     8
 71
     3
 72
    11
 73
     7
 74
     0
 42
0.0000000001
 43
0.0000000001
 40
0.0
 40
0.0
 40
0.0
 40
0.0
 40
1.0
 40
1.0
 40
1.0
 40
2.0
 40
2.0
 40
2.0
 40
2.0
 10
58.1759494212199
 20
194.2677286298185
 30
0.0
 10
57.294693996093
 20
195.1116047689304
 30
0.0
 10
55.92768010754586
 20
195.298328944231
 30
0.0
 10
54.83282876233346
 20
194.6382486492571
 30
0.0
 10
54.5038221434921
 20
194.4632377986064
 30
0.0
 10
54.06147188318602
 20
194.0201985192033
 30
0.0
 10
53.88680554208386
 20
193.6894693526193
 30
0.0
  0
POLYLINE
  5
498
330
48D
100
AcDbEntity
  8
Layer 1
 62
     7
370
    20
100
AcDb2dPolyline
 66
     1
 10
0.0
 20
0.0
 30
0.0
  0
VERTEX
  5
499
330
498
100
AcDbEntity
  8
Layer 1
 62
     7
370
    20
100
AcDbVertex
100
AcDb2dVertex
 10
44.38626572241038
 20
193.6894693526193
 30
0.0
  0
VERTEX
  5
49A
330
498
100
AcDbEntity
  8
Layer 1
 62
     7
370
    20
100
AcDbVertex
100
AcDb2dVertex
 10
44.38626572241038
 20
188.1077256474175
 30
0.0
  0
SEQEND
  5
49B
330
498
100
AcDbEntity
  8
Layer 1
370
    20
  0
POLYLINE
  5
49C
330
48D
100
AcDbEntity
  8
Layer 1
 62
     7
370
    20
100
AcDb2dPolyline
 66
     1
 10
0.0
 20
0.0
 30
0.0
  0
VERTEX
  5
49D
330
49C
100
AcDbEntity
  8
Layer 1
 62
     7
370
    20
100
AcDbVertex
100
AcDb2dVertex
 10
53.88680554208386
 20
193.6894693526193
 30
0.0
  0
VERTEX
  5
49E
330
49C
100
AcDbEntity
  8
Layer 1
 62
     7
370
    20
100
AcDbVertex
100
AcDb2dVertex
 10
53.88680554208386
 20
188.1077256474175
 30
0.0
  0
SEQEND
  5
49F
330
49C
100
AcDbEntity
  8
Layer 1
370
    20
  0
ENDBLK
  5
490
330
48D
100
AcDbEntity
  8
0
100
AcDbBlockEnd
  0
ENDSEC
  0
SECTION
  2
ENTITIES
  0
INSERT
  5
3D
330
1F
100
AcDbEntity
  8
Layer 1
100
AcDbBlockReference
  2
block 2
 10
0.0
 20
0.0
 30
0.0
  0
ENDSEC
  0
SECTION
  2
OBJECTS
  0
DICTIONARY
  5
C
330
0
100
AcDbDictionary
281
     1
  3
ACAD_GROUP
350
D
  3
ACAD_LAYOUT
350
1A
  3
ACAD_MLINESTYLE
350
17
  3
ACAD_PLOTSETTINGS
350
19
  3
ACAD_PLOTSTYLENAME
350
E
  3
ACAD_TABLESTYLE
350
4EC
  3
ACAD_VISUALSTYLE
350
2A
  0
DICTIONARY
  5
D
102
{ACAD_REACTORS
330
C
102
}
330
C
100
AcDbDictionary
281
     1
  0
DICTIONARY
  5
1A
102
{ACAD_REACTORS
330
C
102
}
330
C
100
AcDbDictionary
281
     1
  3
Layout1
350
1E
  3
Layout2
350
26
  3
Model
350
22
  0
DICTIONARY
  5
17
102
{ACAD_REACTORS
330
C
102
}
330
C
100
AcDbDictionary
281
     1
  3
Standard
350
18
  0
DICTIONARY
  5
19
102
{ACAD_REACTORS
330
C
102
}
330
C
100
AcDbDictionary
281
     1
  0
ACDBDICTIONARYWDFLT
  5
E
102
{ACAD_REACTORS
330
C
102
}
330
C
100
AcDbDictionary
281
     1
  3
Normal
350
F
100
AcDbDictionaryWithDefault
340
F
  0
DICTIONARY
  5
4EC
102
{ACAD_REACTORS
330
C
102
}
330
C
100
AcDbDictionary
281
     1
  0
DICTIONARY
  5
2A
102
{ACAD_REACTORS
330
C
102
}
330
C
100
AcDbDictionary
281
     1
  3
2dWireframe
350
2F
  3
3D Hidden
350
31
  3
3dWireframe
350
30
  3
Basic
350
32
  3
Brighten
350
36
  3
ColorChange
350
3A
  3
Conceptual
350
34
  3
Dim
350
35
  3
Facepattern
350
39
  3
Flat
350
2B
  3
FlatWithEdges
350
2C
  3
Gouraud
350
2D
  3
GouraudWithEdges
350
2E
  3
Linepattern
350
38
  3
Realistic
350
33
  3
Thicken
350
37
  0
LAYOUT
  5
1E
102
{ACAD_REACTORS
330
1A
102
}
330
1A
100
AcDbPlotSettings
  1

  2
none_device
  4

  6

 40
0.0
 41
0.0
 42
0.0
 43
0.0
 44
0.0
 45
0.0
 46
0.0
 47
0.0
 48
0.0
 49
0.0
140
0.0
141
0.0
142
1.0
143
1.0
 70
   688
 72
     0
 73
     0
 74
     5
  7

 75
    16
147
1.0
148
0.0
149
0.0
100
AcDbLayout
  1
Layout1
 70
     1
 71
     1
 10
0.0
 20
0.0
 11
12.0
 21
9.0
 12
0.0
 22
0.0
 32
0.0
 14
1.000000000000000E+20
 24
1.000000000000000E+20
 34
1.000000000000000E+20
 15
-1.000000000000000E+20
 25
-1.000000000000000E+20
 35
-1.000000000000000E+20
146
0.0
 13
0.0
 23
0.0
 33
0.0
 16
1.0
 26
0.0
 36
0.0
 17
0.0
 27
1.0
 37
0.0
 76
     0
330
1B
  0
LAYOUT
  5
26
102
{ACAD_REACTORS
330
1A
102
}
330
1A
100
AcDbPlotSettings
  1

  2
none_device
  4

  6

 40
0.0
 41
0.0
 42
0.0
 43
0.0
 44
0.0
 45
0.0
 46
0.0
 47
0.0
 48
0.0
 49
0.0
140
0.0
141
0.0
142
1.0
143
1.0
 70
   688
 72
     0
 73
     0
 74
     5
  7

 75
    16
147
1.0
148
0.0
149
0.0
100
AcDbLayout
  1
Layout2
 70
     1
 71
     2
 10
0.0
 20
0.0
 11
0.0
 21
0.0
 12
0.0
 22
0.0
 32
0.0
 14
0.0
 24
0.0
 34
0.0
 15
0.0
 25
0.0
 35
0.0
146
0.0
 13
0.0
 23
0.0
 33
0.0
 16
1.0
 26
0.0
 36
0.0
 17
0.0
 27
1.0
 37
0.0
 76
     0
330
23
  0
LAYOUT
  5
22
102
{ACAD_REACTORS
330
1A
102
}
330
1A
100
AcDbPlotSettings
  1

  2
none_device
  4

  6

 40
0.0
 41
0.0
 42
0.0
 43
0.0
 44
0.0
 45
0.0
 46
0.0
 47
0.0
 48
0.0
 49
0.0
140
0.0
141
0.0
142
1.0
143
1.0
 70
  1712
 72
     0
 73
     0
 74
     0
  7

 75
     0
147
1.0
148
0.0
149
0.0
100
AcDbLayout
  1
Model
 70
     1
 71
     0
 10
0.0
 20
0.0
 11
12.0
 21
9.0
 12
0.0
 22
0.0
 32
0.0
 14
1.000000000000000E+20
 24
1.000000000000000E+20
 34
1.000000000000000E+20
 15
-1.000000000000000E+20
 25
-1.000000000000000E+20
 35
-1.000000000000000E+20
146
0.0
 13
0.0
 23
0.0
 33
0.0
 16
1.0
 26
0.0
 36
0.0
 17
0.0
 27
1.0
 37
0.0
 76
     0
330
1F
331
29
  0
MLINESTYLE
  5
18
102
{ACAD_REACTORS
330
17
102
}
330
17
100
AcDbMlineStyle
  2
Standard
 70
     0
  3

 62
   256
 51
90.0
 52
90.0
 71
     2
 49
0.5
 62
   256
  6
BYLAYER
 49
-0.5
 62
   256
  6
BYLAYER
  0
ACDBPLACEHOLDER
  5
F
102
{ACAD_REACTORS
330
E
102
}
330
E
  0
VISUALSTYLE
  5
2F
102
{ACAD_REACTORS
330
2A
102
}
330
2A
100
AcDbVisualStyle
  2
2dWireframe
 70
     4
 71
     0
 72
     2
 73
     0
 90
        0
 40
-0.6
 41
-30.0
 62
     5
 63
     7
 74
     1
 91
        4
 64
     7
 65
   257
 75
     1
175
     1
 42
1.0
 92
        0
 66
   257
 43
1.0
 76
     1
 77
     6
 78
     2
 67
     7
 79
     5
170
     0
171
     0
290
     0
174
     0
 93
        1
 44
0.0
173
     0
291
     0
 45
0.0
1001
ACAD
1000
AcDbSavedByObjectVersion
1070
     0
  0
VISUALSTYLE
  5
31
102
{ACAD_REACTORS
330
2A
102
}
330
2A
100
AcDbVisualStyle
  2
3D Hidden
 70
     6
 71
     1
 72
     2
 73
     2
 90
        0
 40
-0.6
 41
-30.0
 62
     5
 63
     7
 74
     2
 91
        2
 64
     7
 65
   257
 75
     2
175
     1
 42
40.0
 92
        0
 66
   257
 43
1.0
 76
     1
 77
     6
 78
     2
 67
     7
 79
     3
170
     0
171
     0
290
     0
174
     0
 93
        1
 44
0.0
173
     0
291
     0
 45
0.0
1001
ACAD
1000
AcDbSavedByObjectVersion
1070
     0
  0
VISUALSTYLE
  5
30
102
{ACAD_REACTORS
330
2A
102
}
330
2A
100
AcDbVisualStyle
  2
3dWireframe
 70
     5
 71
     0
 72
     2
 73
     0
 90
        0
 40
-0.6
 41
-30.0
 62
     5
 63
     7
 74
     1
 91
        4
 64
     7
 65
   257
 75
     1
175
     1
 42
1.0
 92
        0
 66
   257
 43
1.0
 76
     1
 77
     6
 78
     2
 67
     7
 79
     5
170
     0
171
     0
290
     0
174
     0
 93
        1
 44
0.0
173
     0
291
     0
 45
0.0
1001
ACAD
1000
AcDbSavedByObjectVersion
1070
     0
  0
VISUALSTYLE
  5
32
102
{ACAD_REACTORS
330
2A
102
}
330
2A
100
AcDbVisualStyle
  2
Basic
 70
     7
 71
     1
 72
     0
 73
     1
 90
        0
 40
-0.6
 41
-30.0
 62
     5
 63
     7
 74
     0
 91
        4
 64
     7
 65
   257
 75
     1
175
     1
 42
1.0
 92
        8
 66
     7
 43
1.0
 76
     1
 77
     6
 78
     2
 67
     7
 79
     5
170
     0
171
     0
290
     0
174
     0
 93
        1
 44
0.0
173
     0
291
     1
 45
0.0
1001
ACAD
1000
AcDbSavedByObjectVersion
1070
     0
  0
VISUALSTYLE
  5
36
102
{ACAD_REACTORS
330
2A
102
}
330
2A
100
AcDbVisualStyle
  2
Brighten
 70
    12
 71
     2
 72
     2
 73
     0
 90
        0
 40
-0.6
 41
-30.0
 62
     5
 63
     7
 74
     1
 91
        4
 64
     7
 65
   257
 75
     1
175
     1
 42
1.0
 92
        8
 66
     7
 43
1.0
 76
     1
 77
     6
 78
     2
 67
     7
 79
     5
170
     0
171
     0
290
     0
174
     0
 93
        1
 44
50.0
173
     0
291
     1
 45
0.0
1001
ACAD
1000
AcDbSavedByObjectVersion
1070
     0
  0
VISUALSTYLE
  5
3A
102
{ACAD_REACTORS
330
2A
102
}
330
2A
100
AcDbVisualStyle
  2
ColorChange
 70
    16
 71
     2
 72
     2
 73
     3
 90
        0
 40
-0.6
 41
-30.0
 62
     5
 63
     8
 74
     1
 91
        4
 64
     7
 65
   257
 75
     1
175
     1
 42
1.0
 92
        8
 66
     8
 43
1.0
 76
     1
 77
     6
 78
     2
 67
     7
 79
     5
170
     0
171
     0
290
     0
174
     0
 93
        1
 44
0.0
173
     0
291
     1
 45
0.0
1001
ACAD
1000
AcDbSavedByObjectVersion
1070
     0
  0
VISUALSTYLE
  5
34
102
{ACAD_REACTORS
330
2A
102
}
330
2A
100
AcDbVisualStyle
  2
Conceptual
 70
     9
 71
     3
 72
     2
 73
     0
 90
        0
 40
-0.6
 41
-30.0
 62
     5
 63
     7
 74
     2
 91
        2
 64
     7
 65
   257
 75
     1
175
     1
 42
40.0
 92
        8
 66
     7
 43
1.0
 76
     1
 77
     6
 78
     2
 67
     7
 79
     3
170
     0
171
     0
290
     0
174
     0
 93
        1
 44
0.0
173
     0
291
     0
 45
0.0
1001
ACAD
1000
AcDbSavedByObjectVersion
1070
     0
  0
VISUALSTYLE
  5
35
102
{ACAD_REACTORS
330
2A
102
}
330
2A
100
AcDbVisualStyle
  2
Dim
 70
    11
 71
     2
 72
     2
 73
     0
 90
        0
 40
-0.6
 41
-30.0
 62
     5
 63
     7
 74
     1
 91
        4
 64
     7
 65
   257
 75
     1
175
     1
 42
1.0
 92
        8
 66
     7
 43
1.0
 76
     1
 77
     6
 78
     2
 67
     7
 79
     5
170
     0
171
     0
290
     0
174
     0
 93
        1
 44
-50.0
173
     0
291
     1
 45
0.0
1001
ACAD
1000
AcDbSavedByObjectVersion
1070
     0
  0
VISUALSTYLE
  5
39
102
{ACAD_REACTORS
330
2A
102
}
330
2A
100
AcDbVisualStyle
  2
Facepattern
 70
    15
 71
     2
 72
     2
 73
     0
 90
        0
 40
-0.6
 41
-30.0
 62
     5
 63
     7
 74
     1
 91
        4
 64
     7
 65
   257
 75
     1
175
     1
 42
1.0
 92
        8
 66
     7
 43
1.0
 76
     1
 77
     6
 78
     2
 67
     7
 79
     5
170
     0
171
     0
290
     0
174
     0
 93
        1
 44
0.0
173
     0
291
     1
 45
0.0
1001
ACAD
1000
AcDbSavedByObjectVersion
1070
     0
  0
VISUALSTYLE
  5
2B
102
{ACAD_REACTORS
330
2A
102
}
330
2A
100
AcDbVisualStyle
  2
Flat
 70
     0
 71
     2
 72
     1
 73
     1
 90
        2
 40
-0.6
 41
30.0
 62
     5
 63
     7
 74
     0
 91
        4
 64
     7
 65
   257
 75
     1
175
     1
 42
1.0
 92
        8
 66
     7
 43
1.0
 76
     1
 77
     6
 78
     2
 67
     7
 79
     5
170
     0
171
     0
290
     0
174
     0
 93
       13
 44
0.0
173
     0
291
     1
 45
0.0
1001
ACAD
1000
AcDbSavedByObjectVersion
1070
     0
  0
VISUALSTYLE
  5
2C
102
{ACAD_REACTORS
330
2A
102
}
330
2A
100
AcDbVisualStyle
  2
FlatWithEdges
 70
     1
 71
     2
 72
     1
 73
     1
 90
        2
 40
-0.6
 41
30.0
 62
     5
 63
     7
 74
     1
 91
        4
 64
     7
 65
   257
 75
     1
175
     1
 42
1.0
 92
        0
 66
   257
 43
1.0
 76
     1
 77
     6
 78
     2
 67
     7
 79
     5
170
     0
171
     0
290
     0
174
     0
 93
       13
 44
0.0
173
     0
291
     1
 45
0.0
1001
ACAD
1000
AcDbSavedByObjectVersion
1070
     0
  0
VISUALSTYLE
  5
2D
102
{ACAD_REACTORS
330
2A
102
}
330
2A
100
AcDbVisualStyle
  2
Gouraud
 70
     2
 71
     2
 72
     2
 73
     1
 90
        2
 40
-0.6
 41
30.0
 62
     5
 63
     7
 74
     0
 91
        4
 64
     7
 65
   257
 75
     1
175
     1
 42
1.0
 92
        0
 66
     7
 43
1.0
 76
     1
 77
     6
 78
     2
 67
     7
 79
     5
170
     0
171
     0
290
     0
174
     0
 93
       13
 44
0.0
173
     0
291
     1
 45
0.0
1001
ACAD
1000
AcDbSavedByObjectVersion
1070
     0
  0
VISUALSTYLE
  5
2E
102
{ACAD_REACTORS
330
2A
102
}
330
2A
100
AcDbVisualStyle
  2
GouraudWithEdges
 70
     3
 71
     2
 72
     2
 73
     1
 90
        2
 40
-0.6
 41
30.0
 62
     5
 63
     7
 74
     1
 91
        4
 64
     7
 65
   257
 75
     1
175
     1
 42
1.0
 92
        0
 66
   257
 43
1.0
 76
     1
 77
     6
 78
     2
 67
     7
 79
     5
170
     0
171
     0
290
     0
174
     0
 93
       13
 44
0.0
173
     0
291
     1
 45
0.0
1001
ACAD
1000
AcDbSavedByObjectVersion
1070
     0
  0
VISUALSTYLE
  5
38
102
{ACAD_REACTORS
330
2A
102
}
330
2A
100
AcDbVisualStyle
  2
Linepattern
 70
    14
 71
     2
 72
     2
 73
     0
 90
        0
 40
-0.6
 41
-30.0
 62
     5
 63
     7
 74
     1
 91
        4
 64
     7
 65
   257
 75
     7
175
     7
 42
1.0
 92
        8
 66
     7
 43
1.0
 76
     1
 77
     6
 78
     2
 67
     7
 79
     5
170
     0
171
     0
290
     0
174
     0
 93
        1
 44
0.0
173
     0
291
     1
 45
0.0
1001
ACAD
1000
AcDbSavedByObjectVersion
1070
     0
  0
VISUALSTYLE
  5
33
102
{ACAD_REACTORS
330
2A
102
}
330
2A
100
AcDbVisualStyle
  2
Realistic
 70
     8
 71
     2
 72
     2
 73
     0
 90
        0
 40
-0.6
 41
-30.0
 62
     5
 63
     7
 74
     1
 91
        0
 64
     7
 65
   257
 75
     1
175
     1
 42
1.0
 92
        8
 66
     8
 43
1.0
 76
     1
 77
     6
 78
     2
 67
     7
 79
     5
170
     0
171
     0
290
     0
174
     0
 93
       13
 44
0.0
173
     0
291
     0
 45
0.0
1001
ACAD
1000
AcDbSavedByObjectVersion
1070
     0
  0
VISUALSTYLE
  5
37
102
{ACAD_REACTORS
330
2A
102
}
330
2A
100
AcDbVisualStyle
  2
Thicken
 70
    13
 71
     2
 72
     2
 73
     0
 90
        0
 40
-0.6
 41
-30.0
 62
     5
 63
     7
 74
     1
 91
        4
 64
     7
 65
   257
 75
     1
175
     1
 42
1.0
 92
       12
 66
     7
 43
1.0
 76
     1
 77
     6
 78
     2
 67
     7
 79
     5
170
     0
171
     0
290
     0
174
     0
 93
        1
 44
0.0
173
     0
291
     1
 45
0.0
1001
ACAD
1000
AcDbSavedByObjectVersion
1070
     0
  0
ENDSEC
  0
EOF
