  0
SECTION
  2
HEADER
  9
$ACADVER
  1
AC1018
  9
$ACADMAINTVER
 70
     0
  9
$DWGCODEPAGE
  3
ANSI_1252
  9
$INSBASE
 10
0.0
 20
0.0
 30
0.0
  9
$EXTMIN
 10
1.000000000000000E+20
 20
1.000000000000000E+20
 30
1.000000000000000E+20
  9
$EXTMAX
 10
-1.000000000000000E+20
 20
-1.000000000000000E+20
 30
-1.000000000000000E+20
  9
$LIMMIN
 10
0.0
 20
0.0
  9
$LIMMAX
 10
12.0
 20
9.0
  9
$ORTHOMODE
 70
     0
  9
$REGENMODE
 70
     1
  9
$FILLMODE
 70
     1
  9
$QTEXTMODE
 70
     0
  9
$MIRRTEXT
 70
     1
  9
$LTSCALE
 40
1.0
  9
$ATTMODE
 70
     1
  9
$TEXTSIZE
 40
0.2
  9
$TRACEWID
 40
0.05
  9
$TEXTSTYLE
  7
Standard
  9
$CLAYER
  8
0
  9
$CELTYPE
  6
ByLayer
  9
$CECOLOR
 62
   256
  9
$CELTSCALE
 40
1.0
  9
$DISPSILH
 70
     0
  9
$DIMSCALE
 40
1.0
  9
$DIMASZ
 40
0.18
  9
$DIMEXO
 40
0.0625
  9
$DIMDLI
 40
0.38
  9
$DIMRND
 40
0.0
  9
$DIMDLE
 40
0.0
  9
$DIMEXE
 40
0.18
  9
$DIMTP
 40
0.0
  9
$DIMTM
 40
0.0
  9
$DIMTXT
 40
0.18
  9
$DIMCEN
 40
0.09
  9
$DIMTSZ
 40
0.0
  9
$DIMTOL
 70
     0
  9
$DIMLIM
 70
     0
  9
$DIMTIH
 70
     1
  9
$DIMTOH
 70
     1
  9
$DIMSE1
 70
     0
  9
$DIMSE2
 70
     0
  9
$DIMTAD
 70
     0
  9
$DIMZIN
 70
     0
  9
$DIMBLK
  1

  9
$DIMASO
 70
     1
  9
$DIMSHO
 70
     1
  9
$DIMPOST
  1

  9
$DIMAPOST
  1

  9
$DIMALT
 70
     0
  9
$DIMALTD
 70
     2
  9
$DIMALTF
 40
25.4
  9
$DIMLFAC
 40
1.0
  9
$DIMTOFL
 70
     0
  9
$DIMTVP
 40
0.0
  9
$DIMTIX
 70
     0
  9
$DIMSOXD
 70
     0
  9
$DIMSAH
 70
     0
  9
$DIMBLK1
  1

  9
$DIMBLK2
  1

  9
$DIMSTYLE
  2
Standard
  9
$DIMCLRD
 70
     0
  9
$DIMCLRE
 70
     0
  9
$DIMCLRT
 70
     0
  9
$DIMTFAC
 40
1.0
  9
$DIMGAP
 40
0.09
  9
$DIMJUST
 70
     0
  9
$DIMSD1
 70
     0
  9
$DIMSD2
 70
     0
  9
$DIMTOLJ
 70
     1
  9
$DIMTZIN
 70
     0
  9
$DIMALTZ
 70
     0
  9
$DIMALTTZ
 70
     0
  9
$DIMUPT
 70
     0
  9
$DIMDEC
 70
     4
  9
$DIMTDEC
 70
     4
  9
$DIMALTU
 70
     2
  9
$DIMALTTD
 70
     2
  9
$DIMTXSTY
  7
Standard
  9
$DIMAUNIT
 70
     0
  9
$DIMADEC
 70
     0
  9
$DIMALTRND
 40
0.0
  9
$DIMAZIN
 70
     0
  9
$DIMDSEP
 70
    46
  9
$DIMATFIT
 70
     3
  9
$DIMFRAC
 70
     0
  9
$DIMLDRBLK
  1

  9
$DIMLUNIT
 70
     2
  9
$DIMLWD
 70
    -2
  9
$DIMLWE
 70
    -2
  9
$DIMTMOVE
 70
     0
  9
$LUNITS
 70
     2
  9
$LUPREC
 70
     4
  9
$SKETCHINC
 40
0.1
  9
$FILLETRAD
 40
0.5
  9
$AUNITS
 70
     0
  9
$AUPREC
 70
     0
  9
$MENU
  1
.
  9
$ELEVATION
 40
0.0
  9
$PELEVATION
 40
0.0
  9
$THICKNESS
 40
0.0
  9
$LIMCHECK
 70
     0
  9
$CHAMFERA
 40
0.5
  9
$CHAMFERB
 40
0.5
  9
$CHAMFERC
 40
1.0
  9
$CHAMFERD
 40
0.0
  9
$SKPOLY
 70
     0
  9
$TDCREATE
 40
2457878.387092245
  9
$TDUCREATE
 40
2457877.887092245
  9
$TDUPDATE
 40
2457878.38709338
  9
$TDUUPDATE
 40
2457877.88709338
  9
$TDINDWG
 40
0.0000000116
  9
$TDUSRTIMER
 40
0.0000000116
  9
$USRTIMER
 70
     1
  9
$ANGBASE
 50
0.0
  9
$ANGDIR
 70
     0
  9
$PDMODE
 70
     0
  9
$PDSIZE
 40
0.0
  9
$PLINEWID
 40
0.0
  9
$SPLFRAME
 70
     0
  9
$SPLINETYPE
 70
     6
  9
$SPLINESEGS
 70
     8
  9
$HANDSEED
  5
122
  9
$SURFTAB1
 70
     6
  9
$SURFTAB2
 70
     6
  9
$SURFTYPE
 70
     6
  9
$SURFU
 70
     6
  9
$SURFV
 70
     6
  9
$UCSBASE
  2

  9
$UCSNAME
  2

  9
$UCSORG
 10
0.0
 20
0.0
 30
0.0
  9
$UCSXDIR
 10
1.0
 20
0.0
 30
0.0
  9
$UCSYDIR
 10
0.0
 20
1.0
 30
0.0
  9
$UCSORTHOREF
  2

  9
$UCSORTHOVIEW
 70
     0
  9
$UCSORGTOP
 10
0.0
 20
0.0
 30
0.0
  9
$UCSORGBOTTOM
 10
0.0
 20
0.0
 30
0.0
  9
$UCSORGLEFT
 10
0.0
 20
0.0
 30
0.0
  9
$UCSORGRIGHT
 10
0.0
 20
0.0
 30
0.0
  9
$UCSORGFRONT
 10
0.0
 20
0.0
 30
0.0
  9
$UCSORGBACK
 10
0.0
 20
0.0
 30
0.0
  9
$PUCSBASE
  2

  9
$PUCSNAME
  2

  9
$PUCSORG
 10
0.0
 20
0.0
 30
0.0
  9
$PUCSXDIR
 10
1.0
 20
0.0
 30
0.0
  9
$PUCSYDIR
 10
0.0
 20
1.0
 30
0.0
  9
$PUCSORTHOREF
  2

  9
$PUCSORTHOVIEW
 70
     0
  9
$PUCSORGTOP
 10
0.0
 20
0.0
 30
0.0
  9
$PUCSORGBOTTOM
 10
0.0
 20
0.0
 30
0.0
  9
$PUCSORGLEFT
 10
0.0
 20
0.0
 30
0.0
  9
$PUCSORGRIGHT
 10
0.0
 20
0.0
 30
0.0
  9
$PUCSORGFRONT
 10
0.0
 20
0.0
 30
0.0
  9
$PUCSORGBACK
 10
0.0
 20
0.0
 30
0.0
  9
$USERI1
 70
     0
  9
$USERI2
 70
     0
  9
$USERI3
 70
     0
  9
$USERI4
 70
     0
  9
$USERI5
 70
     0
  9
$USERR1
 40
0.0
  9
$USERR2
 40
0.0
  9
$USERR3
 40
0.0
  9
$USERR4
 40
0.0
  9
$USERR5
 40
0.0
  9
$WORLDVIEW
 70
     1
  9
$SHADEDGE
 70
     3
  9
$SHADEDIF
 70
    70
  9
$TILEMODE
 70
     1
  9
$MAXACTVP
 70
    64
  9
$PINSBASE
 10
0.0
 20
0.0
 30
0.0
  9
$PLIMCHECK
 70
     0
  9
$PEXTMIN
 10
1.000000000000000E+20
 20
1.000000000000000E+20
 30
1.000000000000000E+20
  9
$PEXTMAX
 10
-1.000000000000000E+20
 20
-1.000000000000000E+20
 30
-1.000000000000000E+20
  9
$PLIMMIN
 10
0.0
 20
0.0
  9
$PLIMMAX
 10
12.0
 20
9.0
  9
$UNITMODE
 70
     0
  9
$VISRETAIN
 70
     1
  9
$PLINEGEN
 70
     0
  9
$PSLTSCALE
 70
     1
  9
$TREEDEPTH
 70
  3020
  9
$CMLSTYLE
  2
Standard
  9
$CMLJUST
 70
     0
  9
$CMLSCALE
 40
1.0
  9
$PROXYGRAPHICS
 70
     1
  9
$MEASUREMENT
 70
     0
  9
$CELWEIGHT
370
    -1
  9
$ENDCAPS
280
     0
  9
$JOINSTYLE
280
     0
  9
$LWDISPLAY
290
     1
  9
$INSUNITS
 70
     4
  9
$HYPERLINKBASE
  1

  9
$STYLESHEET
  1

  9
$XEDIT
290
     1
  9
$CEPSNTYPE
380
     0
  9
$PSTYLEMODE
290
     1
  9
$FINGERPRINTGUID
  2
{27128EA0-1B55-4873-8828-045A2BD7AC01}
  9
$VERSIONGUID
  2
{FAEB1C32-E019-11D5-929B-00C0DF256EC4}
  9
$EXTNAMES
290
     1
  9
$PSVPSCALE
 40
0.0
  9
$OLESTARTUP
290
     0
  9
$SORTENTS
280
   127
  9
$INDEXCTL
280
     0
  9
$HIDETEXT
280
     1
  9
$XCLIPFRAME
290
     0
  9
$HALOGAP
280
     0
  9
$OBSCOLOR
 70
   257
  9
$OBSLTYPE
280
     0
  9
$INTERSECTIONDISPLAY
280
     0
  9
$INTERSECTIONCOLOR
 70
   257
  9
$DIMASSOC
280
     2
  9
$PROJECTNAME
  1

  0
ENDSEC
  0
SECTION
  2
CLASSES
  0
CLASS
  1
ACDBDICTIONARYWDFLT
  2
AcDbDictionaryWithDefault
  3
ObjectDBX Classes
 90
        0
 91
        4
280
     0
281
     0
  0
CLASS
  1
VISUALSTYLE
  2
AcDbVisualStyle
  3
ObjectDBX Classes
 90
     4095
 91
        4
280
     0
281
     0
  0
CLASS
  1
MATERIAL
  2
AcDbMaterial
  3
ObjectDBX Classes
 90
     1153
 91
        4
280
     0
281
     0
  0
CLASS
  1
WIPEOUT
  2
AcDbWipeout
  3
WipeOut|AutoCAD Express Tool|expresstools@autodesk.com
 90
      127
 91
        4
280
     0
281
     1
  0
CLASS
  1
SCALE
  2
AcDbScale
  3
ObjectDBX Classes
 90
     1153
 91
        4
280
     0
281
     0
  0
CLASS
  1
DICTIONARYVAR
  2
AcDbDictionaryVar
  3
ObjectDBX Classes
 90
        0
 91
        4
280
     0
281
     0
  0
ENDSEC
  0
SECTION
  2
TABLES
  0
TABLE
  2
VPORT
  5
8
330
0
100
AcDbSymbolTable
 70
     1
  0
VPORT
  5
29
330
8
100
AcDbSymbolTableRecord
100
AcDbViewportTableRecord
  2
*Active
 70
     0
 10
0.0
 20
0.0
 11
1.0
 21
1.0
 12
32226.1747629549
 22
40652.05294022214
 13
0.0
 23
0.0
 14
0.5
 24
0.5
 15
0.5
 25
0.5
 16
0.0
 26
0.0
 36
1.0
 17
0.0
 27
0.0
 37
0.0
 40
1152.776961621454
 41
1.471993494435705
 42
50.0
 43
0.0
 44
0.0
 50
0.0
 51
0.0
 71
     0
 72
   100
 73
     1
 74
     3
 75
     0
 76
     0
 77
     0
 78
     0
281
     0
 65
     1
110
0.0
120
0.0
130
0.0
111
1.0
121
0.0
131
0.0
112
0.0
122
1.0
132
0.0
 79
     0
146
0.0
  0
ENDTAB
  0
TABLE
  2
LTYPE
  5
5
330
0
100
AcDbSymbolTable
 70
     4
  0
LTYPE
  5
14
330
5
100
AcDbSymbolTableRecord
100
AcDbLinetypeTableRecord
  2
ByBlock
 70
     0
  3

 72
    65
 73
     0
 40
0.0
  0
LTYPE
  5
15
330
5
100
AcDbSymbolTableRecord
100
AcDbLinetypeTableRecord
  2
ByLayer
 70
     0
  3

 72
    65
 73
     0
 40
0.0
  0
LTYPE
  5
16
330
5
100
AcDbSymbolTableRecord
100
AcDbLinetypeTableRecord
  2
Continuous
 70
     0
  3
Solid line
 72
    65
 73
     0
 40
0.0
  0
LTYPE
  5
7C
330
5
100
AcDbSymbolTableRecord
100
AcDbLinetypeTableRecord
  2
Hidden Line XS
 70
     0
  3
- - - - - 
 72
    65
 73
     2
 40
5.5
 49
3.75
 74
     0
 49
-1.75
 74
     0
  0
LTYPE
  5
89
330
5
100
AcDbSymbolTableRecord
100
AcDbLinetypeTableRecord
  2
Break
 70
     0
  3
??????????
 72
    65
 73
     3
 40
98.77786070108415
 49
0.0
 74
     4
 75
     1
340
8A
 46
0.7839512754054297
 50
0.0
 44
0.0
 45
0.0
 49
-98.77786070108415
 74
     0
 49
0.0
 74
     0
  0
LTYPE
  5
B5
330
5
100
AcDbSymbolTableRecord
100
AcDbLinetypeTableRecord
  2
Wipeout_Contour
 70
     0
  3
- - - - - 
 72
    65
 73
     2
 40
1000.0
 49
0.0
 74
     0
 49
-1000.0
 74
     0
  0
ENDTAB
  0
TABLE
  2
LAYER
  5
2
330
0
100
AcDbSymbolTable
 70
     8
  0
LAYER
  5
10
330
2
100
AcDbSymbolTableRecord
100
AcDbLayerTableRecord
  2
0
 70
     0
 62
     7
  6
Continuous
370
    -3
390
F
  0
LAYER
  5
40
330
2
100
AcDbSymbolTableRecord
100
AcDbLayerTableRecord
  2
VENT DETAILS_Pen_No__182
 70
     0
 62
   135
  6
Continuous
370
    13
390
F
  0
LAYER
  5
42
330
2
100
AcDbSymbolTableRecord
100
AcDbLayerTableRecord
  2
VENT DETAILS_Pen_No__7
 70
     0
 62
     7
  6
Continuous
370
    25
390
F
  0
LAYER
  5
6D
330
2
100
AcDbSymbolTableRecord
100
AcDbLayerTableRecord
  2
VENT DETAILS_Pen_No__28
 70
     0
 62
    14
420
 11013890
  6
Continuous
370
    35
390
F
  0
LAYER
  5
79
330
2
100
AcDbSymbolTableRecord
100
AcDbLayerTableRecord
  2
VENT DETAILS_Pen_No__8
 70
     0
 62
    14
420
 11013890
  6
Continuous
370
    35
390
F
  0
LAYER
  5
A2
330
2
100
AcDbSymbolTableRecord
100
AcDbLayerTableRecord
  2
VENT DETAILS_Pen_No__68
 70
     0
 62
    20
420
 16598069
  6
Continuous
370
    20
390
F
  0
LAYER
  5
A5
330
2
100
AcDbSymbolTableRecord
100
AcDbLayerTableRecord
  2
VENT DETAILS_Pen_No__19
 70
     0
 62
   255
  6
Continuous
370
     0
390
F
  0
LAYER
  5
B6
330
2
100
AcDbSymbolTableRecord
100
AcDbLayerTableRecord
  2
VENT DETAILS_Pen_No__1
 70
     0
 62
     7
  6
Continuous
370
    13
390
F
  0
ENDTAB
  0
TABLE
  2
STYLE
  5
3
330
0
100
AcDbSymbolTable
 70
     4
  0
STYLE
  5
11
330
3
100
AcDbSymbolTableRecord
100
AcDbTextStyleTableRecord
  2
Standard
 70
     0
 40
0.0
 41
1.0
 50
0.0
 71
     0
 42
0.2
  3
txt
  4

  0
STYLE
  5
8A
330
3
100
AcDbSymbolTableRecord
100
AcDbTextStyleTableRecord
  2

 70
     1
 40
0.2
 41
1.0
 50
0.0
 71
     0
 42
0.2
  3
VENT Roll Panel Vent - G5021.Shx
  4

  0
STYLE
  5
B3
330
3
100
AcDbSymbolTableRecord
100
AcDbTextStyleTableRecord
  2
GENERATED_STYLE_1
 70
     0
 40
0.0
 41
1.0
 50
0.0
 71
     0
 42
0.2
  3

  4

1001
ACAD
1000
Arial
1071
       34
  0
STYLE
  5
C2
330
3
100
AcDbSymbolTableRecord
100
AcDbTextStyleTableRecord
  2
GENERATED_STYLE_2
 70
     0
 40
0.0
 41
1.0
 50
0.0
 71
     0
 42
0.2
  3

  4

1001
ACAD
1000
Arial
1071
 33554466
  0
ENDTAB
  0
TABLE
  2
VIEW
  5
6
330
0
100
AcDbSymbolTable
 70
     0
  0
ENDTAB
  0
TABLE
  2
UCS
  5
7
330
0
100
AcDbSymbolTable
 70
     0
  0
ENDTAB
  0
TABLE
  2
APPID
  5
9
330
0
100
AcDbSymbolTable
 70
     1
  0
APPID
  5
12
330
9
100
AcDbSymbolTableRecord
100
AcDbRegAppTableRecord
  2
ACAD
 70
     0
  0
ENDTAB
  0
TABLE
  2
DIMSTYLE
  5
A
330
0
100
AcDbSymbolTable
 70
     2
100
AcDbDimStyleTable
  0
DIMSTYLE
105
27
330
A
100
AcDbSymbolTableRecord
100
AcDbDimStyleTableRecord
  2
Standard
 70
     0
178
     0
340
11
  0
DIMSTYLE
105
B9
330
A
100
AcDbSymbolTableRecord
100
AcDbDimStyleTableRecord
  2
GENERATED_STYLE__1
 70
     0
 41
18.24
172
     1
178
     0
340
0
341
BA
  0
ENDTAB
  0
TABLE
  2
BLOCK_RECORD
  5
1
330
0
100
AcDbSymbolTable
 70
     3
  0
BLOCK_RECORD
  5
1F
330
1
100
AcDbSymbolTableRecord
100
AcDbBlockTableRecord
  2
*Model_Space
340
22
  0
BLOCK_RECORD
  5
1B
330
1
100
AcDbSymbolTableRecord
100
AcDbBlockTableRecord
  2
*Paper_Space
340
1E
  0
BLOCK_RECORD
  5
23
330
1
100
AcDbSymbolTableRecord
100
AcDbBlockTableRecord
  2
*Paper_Space0
340
26
  0
BLOCK_RECORD
  5
BA
330
1
100
AcDbSymbolTableRecord
100
AcDbBlockTableRecord
  2
ARROWHEAD_4
340
0
  0
BLOCK_RECORD
  5
D0
330
1
100
AcDbSymbolTableRecord
100
AcDbBlockTableRecord
  2
Untitled _STORY_MARKER
340
0
  0
ENDTAB
  0
ENDSEC
  0
SECTION
  2
BLOCKS
  0
BLOCK
  5
20
330
1F
100
AcDbEntity
  8
0
100
AcDbBlockBegin
  2
*Model_Space
 70
     0
 10
0.0
 20
0.0
 30
0.0
  3
*Model_Space
  1

  0
ENDBLK
  5
21
330
1F
100
AcDbEntity
  8
0
100
AcDbBlockEnd
  0
BLOCK
  5
1C
330
1B
100
AcDbEntity
 67
     1
  8
0
100
AcDbBlockBegin
  2
*Paper_Space
 70
     0
 10
0.0
 20
0.0
 30
0.0
  3
*Paper_Space
  1

  0
ENDBLK
  5
1D
330
1B
100
AcDbEntity
 67
     1
  8
0
100
AcDbBlockEnd
  0
BLOCK
  5
24
330
23
100
AcDbEntity
  8
0
100
AcDbBlockBegin
  2
*Paper_Space0
 70
     0
 10
0.0
 20
0.0
 30
0.0
  3
*Paper_Space0
  1

  0
ENDBLK
  5
25
330
23
100
AcDbEntity
  8
0
100
AcDbBlockEnd
  0
BLOCK
  5
BB
330
BA
100
AcDbEntity
  8
0
100
AcDbBlockBegin
  2
ARROWHEAD_4
 70
     0
 10
0.0
 20
0.0
 30
0.0
  3
ARROWHEAD_4
  1

  0
LWPOLYLINE
  5
BD
330
BA
100
AcDbEntity
  8
0
  6
Continuous
 62
     0
370
     0
100
AcDbPolyline
 90
        3
 70
   129
 43
0.0
 10
-1.0
 20
0.2679
 10
0.0
 20
0.0
 10
-1.0
 20
-0.2679
  0
LINE
  5
BE
330
BA
100
AcDbEntity
  8
0
  6
Continuous
 62
     0
370
     0
100
AcDbLine
 10
0.0
 20
0.0
 30
0.0
 11
-1.0
 21
0.0
 31
0.0
  0
ENDBLK
  5
BC
330
BA
100
AcDbEntity
  8
0
100
AcDbBlockEnd
  0
BLOCK
  5
D1
330
D0
100
AcDbEntity
  8
0
100
AcDbBlockBegin
  2
Untitled _STORY_MARKER
 70
     0
 10
0.0
 20
0.0
 30
0.0
  3
Untitled _STORY_MARKER
  1

  0
ENDBLK
  5
D2
330
D0
100
AcDbEntity
  8
0
100
AcDbBlockEnd
  0
ENDSEC
  0
SECTION
  2
ENTITIES
  0
HATCH
  5
3F
330
1F
100
AcDbEntity
  8
VENT DETAILS_Pen_No__182
  6
Continuous
 62
   250
420
  1056800
370
     0
100
AcDbHatch
 10
0.0
 20
0.0
 30
0.0
210
0.0
220
0.0
230
1.0
  2
SOLID
 70
     1
 71
     0
 91
        1
 92
        3
 72
     0
 73
     1
 93
        4
 10
31753.28920894831
 20
40922.6912371718
 10
32025.1943031294
 20
40795.89981028075
 10
32042.16054016264
 20
40832.28402111306
 10
31770.188182448
 20
40958.93120278205
 97
        0
 75
     0
 76
     1
 98
        0
  0
LWPOLYLINE
  5
41
330
1F
100
AcDbEntity
  8
VENT DETAILS_Pen_No__7
  6
Continuous
100
AcDbPolyline
 90
        4
 70
   129
 43
0.0
 10
31753.28920894831
 20
40922.6912371718
 10
32025.1943031294
 20
40795.89981028075
 10
32042.16054016264
 20
40832.28402111306
 10
31770.188182448
 20
40958.93120278205
  0
LWPOLYLINE
  5
43
330
1F
100
AcDbEntity
  8
VENT DETAILS_Pen_No__7
  6
Continuous
100
AcDbPolyline
 90
       18
 70
   128
 43
0.0
 10
31481.7919680485
 20
40774.2946464194
 10
31485.53499247447
 20
40774.92050368951
 10
31493.16295162692
 20
40777.79341059737
 10
31498.0552694497
 20
40781.62257420563
 10
31501.90986207187
 20
40786.54032104231
 10
31504.55314027073
 20
40791.99900732088
 10
31505.40862624985
 20
40797.91130462074
 10
31503.36023715272
 20
40805.1039705385
 10
31499.28578893839
 20
40811.62303646463
 10
31487.91480535996
 20
40826.96625637415
 10
31483.84035714563
 20
40833.48532230028
 10
31481.7919680485
 20
40840.67798821804
 10
31482.64745402762
 20
40846.59028551791
 10
31485.29073222648
 20
40852.04897179647
 10
31489.14532484865
 20
40856.96671863314
 10
31494.03764267142
 20
40860.79588224141
 10
31501.66560182388
 20
40863.66878914926
 10
31505.40862624985
 20
40864.29464641939
  0
LWPOLYLINE
  5
44
330
1F
100
AcDbEntity
  8
VENT DETAILS_Pen_No__7
  6
Continuous
100
AcDbPolyline
 90
       18
 70
   128
 43
0.0
 10
31529.0252844512
 20
40774.2946464194
 10
31525.28226002523
 20
40774.92050368951
 10
31517.65430087277
 20
40777.79341059737
 10
31512.76198305
 20
40781.62257420563
 10
31508.90739042783
 20
40786.54032104231
 10
31506.26411222897
 20
40791.99900732088
 10
31505.40862624985
 20
40797.91130462074
 10
31507.45701534698
 20
40805.1039705385
 10
31511.53146356131
 20
40811.62303646463
 10
31522.90244713974
 20
40826.96625637415
 10
31526.97689535407
 20
40833.48532230028
 10
31529.0252844512
 20
40840.67798821804
 10
31528.16979847207
 20
40846.59028551791
 10
31525.52652027322
 20
40852.04897179647
 10
31521.67192765104
 20
40856.96671863314
 10
31516.77960982827
 20
40860.79588224141
 10
31509.15165067582
 20
40863.66878914926
 10
31505.40862624985
 20
40864.29464641939
  0
LWPOLYLINE
  5
45
330
1F
100
AcDbEntity
  8
VENT DETAILS_Pen_No__7
  6
Continuous
100
AcDbPolyline
 90
       18
 70
   128
 43
0.0
 10
31529.0252844512
 20
40774.2946464194
 10
31532.76830887717
 20
40774.92050368951
 10
31540.39626802962
 20
40777.79341059737
 10
31545.2885858524
 20
40781.62257420563
 10
31549.14317847457
 20
40786.54032104231
 10
31551.78645667342
 20
40791.99900732088
 10
31552.64194265255
 20
40797.91130462074
 10
31550.59355355542
 20
40805.1039705385
 10
31546.51910534108
 20
40811.62303646463
 10
31535.14812176266
 20
40826.96625637415
 10
31531.07367354832
 20
40833.48532230028
 10
31529.0252844512
 20
40840.67798821804
 10
31529.88077043032
 20
40846.59028551791
 10
31532.52404862917
 20
40852.04897179647
 10
31536.37864125135
 20
40856.96671863314
 10
31541.27095907411
 20
40860.79588224141
 10
31548.89891822657
 20
40863.66878914926
 10
31552.64194265255
 20
40864.29464641939
  0
LWPOLYLINE
  5
46
330
1F
100
AcDbEntity
  8
VENT DETAILS_Pen_No__7
  6
Continuous
100
AcDbPolyline
 90
       18
 70
   128
 43
0.0
 10
31576.25860085389
 20
40774.2946464194
 10
31572.51557642792
 20
40774.92050368951
 10
31564.88761727546
 20
40777.79341059737
 10
31559.9952994527
 20
40781.62257420563
 10
31556.14070683052
 20
40786.54032104231
 10
31553.49742863167
 20
40791.99900732088
 10
31552.64194265255
 20
40797.91130462074
 10
31554.69033174967
 20
40805.1039705385
 10
31558.764779964
 20
40811.62303646463
 10
31570.13576354243
 20
40826.96625637415
 10
31574.21021175677
 20
40833.48532230028
 10
31576.25860085389
 20
40840.67798821804
 10
31575.40311487476
 20
40846.59028551791
 10
31572.75983667591
 20
40852.04897179647
 10
31568.90524405374
 20
40856.96671863314
 10
31564.01292623097
 20
40860.79588224141
 10
31556.38496707852
 20
40863.66878914926
 10
31552.64194265255
 20
40864.29464641939
  0
LWPOLYLINE
  5
47
330
1F
100
AcDbEntity
  8
VENT DETAILS_Pen_No__7
  6
Continuous
100
AcDbPolyline
 90
       18
 70
   128
 43
0.0
 10
31576.25860085389
 20
40774.2946464194
 10
31580.00162527987
 20
40774.92050368951
 10
31587.62958443232
 20
40777.79341059737
 10
31592.52190225509
 20
40781.62257420563
 10
31596.37649487726
 20
40786.54032104231
 10
31599.01977307611
 20
40791.99900732088
 10
31599.87525905524
 20
40797.91130462074
 10
31597.82686995811
 20
40805.1039705385
 10
31593.75242174377
 20
40811.62303646463
 10
31582.38143816535
 20
40826.96625637415
 10
31578.30698995102
 20
40833.48532230028
 10
31576.25860085389
 20
40840.67798821804
 10
31577.11408683302
 20
40846.59028551791
 10
31579.75736503187
 20
40852.04897179647
 10
31583.61195765404
 20
40856.96671863314
 10
31588.50427547681
 20
40860.79588224141
 10
31596.13223462926
 20
40863.66878914926
 10
31599.87525905524
 20
40864.29464641939
  0
LWPOLYLINE
  5
48
330
1F
100
AcDbEntity
  8
VENT DETAILS_Pen_No__7
  6
Continuous
100
AcDbPolyline
 90
       18
 70
   128
 43
0.0
 10
31623.49191725658
 20
40774.2946464194
 10
31619.74889283061
 20
40774.92050368951
 10
31612.12093367816
 20
40777.79341059737
 10
31607.22861585539
 20
40781.62257420563
 10
31603.37402323322
 20
40786.54032104231
 10
31600.73074503437
 20
40791.99900732088
 10
31599.87525905524
 20
40797.91130462074
 10
31601.92364815237
 20
40805.1039705385
 10
31605.9980963667
 20
40811.62303646463
 10
31617.36907994513
 20
40826.96625637415
 10
31621.44352815946
 20
40833.48532230028
 10
31623.49191725658
 20
40840.67798821804
 10
31622.63643127746
 20
40846.59028551791
 10
31619.99315307861
 20
40852.04897179647
 10
31616.13856045644
 20
40856.96671863314
 10
31611.24624263366
 20
40860.79588224141
 10
31603.61828348121
 20
40863.66878914926
 10
31599.87525905524
 20
40864.29464641939
  0
LWPOLYLINE
  5
49
330
1F
100
AcDbEntity
  8
VENT DETAILS_Pen_No__7
  6
Continuous
100
AcDbPolyline
 90
       18
 70
   128
 43
0.0
 10
31623.49191725658
 20
40774.2946464194
 10
31627.23494168256
 20
40774.92050368951
 10
31634.86290083501
 20
40777.79341059737
 10
31639.75521865778
 20
40781.62257420563
 10
31643.60981127996
 20
40786.54032104231
 10
31646.25308947881
 20
40791.99900732088
 10
31647.10857545793
 20
40797.91130462074
 10
31645.06018636081
 20
40805.1039705385
 10
31640.98573814647
 20
40811.62303646463
 10
31629.61475456805
 20
40826.96625637415
 10
31625.54030635371
 20
40833.48532230028
 10
31623.49191725658
 20
40840.67798821804
 10
31624.34740323571
 20
40846.59028551791
 10
31626.99068143457
 20
40852.04897179647
 10
31630.84527405673
 20
40856.96671863314
 10
31635.73759187951
 20
40860.79588224141
 10
31643.36555103196
 20
40863.66878914926
 10
31647.10857545793
 20
40864.29464641939
  0
LWPOLYLINE
  5
4A
330
1F
100
AcDbEntity
  8
VENT DETAILS_Pen_No__7
  6
Continuous
100
AcDbPolyline
 90
       18
 70
   128
 43
0.0
 10
31670.72523365928
 20
40774.2946464194
 10
31666.98220923331
 20
40774.92050368951
 10
31659.35425008085
 20
40777.79341059737
 10
31654.46193225808
 20
40781.62257420563
 10
31650.60733963591
 20
40786.54032104231
 10
31647.96406143705
 20
40791.99900732088
 10
31647.10857545793
 20
40797.91130462074
 10
31649.15696455506
 20
40805.1039705385
 10
31653.2314127694
 20
40811.62303646463
 10
31664.60239634782
 20
40826.96625637415
 10
31668.67684456215
 20
40833.48532230028
 10
31670.72523365928
 20
40840.67798821804
 10
31669.86974768016
 20
40846.59028551791
 10
31667.2264694813
 20
40852.04897179647
 10
31663.37187685913
 20
40856.96671863314
 10
31658.47955903636
 20
40860.79588224141
 10
31650.8515998839
 20
40863.66878914926
 10
31647.10857545793
 20
40864.29464641939
  0
LWPOLYLINE
  5
4B
330
1F
100
AcDbEntity
  8
VENT DETAILS_Pen_No__7
  6
Continuous
100
AcDbPolyline
 90
       18
 70
   128
 43
0.0
 10
31670.72523365928
 20
40774.2946464194
 10
31674.46825808525
 20
40774.92050368951
 10
31682.09621723771
 20
40777.79341059737
 10
31686.98853506047
 20
40781.62257420563
 10
31690.84312768265
 20
40786.54032104231
 10
31693.4864058815
 20
40791.99900732088
 10
31694.34189186063
 20
40797.91130462074
 10
31692.2935027635
 20
40805.1039705385
 10
31688.21905454917
 20
40811.62303646463
 10
31676.84807097074
 20
40826.96625637415
 10
31672.77362275641
 20
40833.48532230028
 10
31670.72523365928
 20
40840.67798821804
 10
31671.5807196384
 20
40846.59028551791
 10
31674.22399783726
 20
40852.04897179647
 10
31678.07859045943
 20
40856.96671863314
 10
31682.9709082822
 20
40860.79588224141
 10
31690.59886743466
 20
40863.66878914926
 10
31694.34189186063
 20
40864.29464641939
  0
LWPOLYLINE
  5
4C
330
1F
100
AcDbEntity
  8
VENT DETAILS_Pen_No__7
  6
Continuous
100
AcDbPolyline
 90
       18
 70
   128
 43
0.0
 10
31717.95855006198
 20
40774.2946464194
 10
31714.215525636
 20
40774.92050368951
 10
31706.58756648355
 20
40777.79341059737
 10
31701.69524866078
 20
40781.62257420563
 10
31697.8406560386
 20
40786.54032104231
 10
31695.19737783975
 20
40791.99900732088
 10
31694.34189186063
 20
40797.91130462074
 10
31696.39028095776
 20
40805.1039705385
 10
31700.46472917209
 20
40811.62303646463
 10
31711.83571275052
 20
40826.96625637415
 10
31715.91016096485
 20
40833.48532230028
 10
31717.95855006198
 20
40840.67798821804
 10
31717.10306408285
 20
40846.59028551791
 10
31714.459785884
 20
40852.04897179647
 10
31710.60519326182
 20
40856.96671863314
 10
31705.71287543906
 20
40860.79588224141
 10
31698.0849162866
 20
40863.66878914926
 10
31694.34189186063
 20
40864.29464641939
  0
LWPOLYLINE
  5
4D
330
1F
100
AcDbEntity
  8
VENT DETAILS_Pen_No__7
  6
Continuous
100
AcDbPolyline
 90
       18
 70
   128
 43
0.0
 10
31717.95855006198
 20
40774.2946464194
 10
31721.70157448795
 20
40774.92050368951
 10
31729.3295336404
 20
40777.79341059737
 10
31734.22185146317
 20
40781.62257420563
 10
31738.07644408535
 20
40786.54032104231
 10
31740.7197222842
 20
40791.99900732088
 10
31741.57520826332
 20
40797.91130462074
 10
31739.5268191662
 20
40805.1039705385
 10
31735.45237095187
 20
40811.62303646463
 10
31724.08138737343
 20
40826.96625637415
 10
31720.0069391591
 20
40833.48532230028
 10
31717.95855006198
 20
40840.67798821804
 10
31718.8140360411
 20
40846.59028551791
 10
31721.45731423995
 20
40852.04897179647
 10
31725.31190686213
 20
40856.96671863314
 10
31730.20422468489
 20
40860.79588224141
 10
31737.83218383735
 20
40863.66878914926
 10
31741.57520826332
 20
40864.29464641939
  0
LWPOLYLINE
  5
4E
330
1F
100
AcDbEntity
  8
VENT DETAILS_Pen_No__7
  6
Continuous
100
AcDbPolyline
 90
       18
 70
   128
 43
0.0
 10
31765.19186646467
 20
40774.2946464194
 10
31761.4488420387
 20
40774.92050368951
 10
31753.82088288624
 20
40777.79341059737
 10
31748.92856506348
 20
40781.62257420563
 10
31745.0739724413
 20
40786.54032104231
 10
31742.43069424245
 20
40791.99900732088
 10
31741.57520826332
 20
40797.91130462074
 10
31743.62359736045
 20
40805.1039705385
 10
31747.69804557478
 20
40811.62303646463
 10
31759.06902915321
 20
40826.96625637415
 10
31763.14347736755
 20
40833.48532230028
 10
31765.19186646467
 20
40840.67798821804
 10
31764.33638048555
 20
40846.59028551791
 10
31761.6931022867
 20
40852.04897179647
 10
31757.83850966452
 20
40856.96671863314
 10
31752.94619184175
 20
40860.79588224141
 10
31745.3182326893
 20
40863.66878914926
 10
31741.57520826332
 20
40864.29464641939
  0
LWPOLYLINE
  5
4F
330
1F
100
AcDbEntity
  8
VENT DETAILS_Pen_No__7
  6
Continuous
100
AcDbPolyline
 90
       18
 70
   128
 43
0.0
 10
31765.19186646467
 20
40774.2946464194
 10
31768.93489089064
 20
40774.92050368951
 10
31776.56285004309
 20
40777.79341059737
 10
31781.45516786587
 20
40781.62257420563
 10
31785.30976048804
 20
40786.54032104231
 10
31787.9530386869
 20
40791.99900732088
 10
31788.80852466602
 20
40797.91130462074
 10
31786.76013556889
 20
40805.1039705385
 10
31782.68568735455
 20
40811.62303646463
 10
31771.31470377613
 20
40826.96625637415
 10
31767.2402555618
 20
40833.48532230028
 10
31765.19186646467
 20
40840.67798821804
 10
31766.04735244379
 20
40846.59028551791
 10
31768.69063064265
 20
40852.04897179647
 10
31772.54522326482
 20
40856.96671863314
 10
31777.43754108759
 20
40860.79588224141
 10
31785.06550024005
 20
40863.66878914926
 10
31788.80852466602
 20
40864.29464641939
  0
LWPOLYLINE
  5
50
330
1F
100
AcDbEntity
  8
VENT DETAILS_Pen_No__7
  6
Continuous
100
AcDbPolyline
 90
       18
 70
   128
 43
0.0
 10
31812.42518286737
 20
40774.2946464194
 10
31808.6821584414
 20
40774.92050368951
 10
31801.05419928894
 20
40777.79341059737
 10
31796.16188146617
 20
40781.62257420563
 10
31792.307288844
 20
40786.54032104231
 10
31789.66401064515
 20
40791.99900732088
 10
31788.80852466602
 20
40797.91130462074
 10
31790.85691376315
 20
40805.1039705385
 10
31794.93136197748
 20
40811.62303646463
 10
31806.3023455559
 20
40826.96625637415
 10
31810.37679377024
 20
40833.48532230028
 10
31812.42518286737
 20
40840.67798821804
 10
31811.56969688824
 20
40846.59028551791
 10
31808.92641868939
 20
40852.04897179647
 10
31805.07182606721
 20
40856.96671863314
 10
31800.17950824444
 20
40860.79588224141
 10
31792.55154909199
 20
40863.66878914926
 10
31788.80852466602
 20
40864.29464641939
  0
LWPOLYLINE
  5
51
330
1F
100
AcDbEntity
  8
VENT DETAILS_Pen_No__7
  6
Continuous
100
AcDbPolyline
 90
       18
 70
   128
 43
0.0
 10
31812.42518286737
 20
40774.2946464194
 10
31816.16820729334
 20
40774.92050368951
 10
31823.79616644579
 20
40777.79341059737
 10
31828.68848426856
 20
40781.62257420563
 10
31832.54307689073
 20
40786.54032104231
 10
31835.18635508959
 20
40791.99900732088
 10
31836.04184106871
 20
40797.91130462074
 10
31833.99345197158
 20
40805.1039705385
 10
31829.91900375725
 20
40811.62303646463
 10
31818.54802017883
 20
40826.96625637415
 10
31814.4735719645
 20
40833.48532230028
 10
31812.42518286737
 20
40840.67798821804
 10
31813.28066884649
 20
40846.59028551791
 10
31815.92394704535
 20
40852.04897179647
 10
31819.77853966751
 20
40856.96671863314
 10
31824.67085749029
 20
40860.79588224141
 10
31832.29881664274
 20
40863.66878914926
 10
31836.04184106871
 20
40864.29464641939
  0
LWPOLYLINE
  5
52
330
1F
100
AcDbEntity
  8
VENT DETAILS_Pen_No__7
  6
Continuous
100
AcDbPolyline
 90
       18
 70
   128
 43
0.0
 10
31859.65849927006
 20
40774.2946464194
 10
31855.91547484409
 20
40774.92050368951
 10
31848.28751569163
 20
40777.79341059737
 10
31843.39519786886
 20
40781.62257420563
 10
31839.54060524669
 20
40786.54032104231
 10
31836.89732704784
 20
40791.99900732088
 10
31836.04184106871
 20
40797.91130462074
 10
31838.09023016584
 20
40805.1039705385
 10
31842.16467838018
 20
40811.62303646463
 10
31853.5356619586
 20
40826.96625637415
 10
31857.61011017293
 20
40833.48532230028
 10
31859.65849927006
 20
40840.67798821804
 10
31858.80301329093
 20
40846.59028551791
 10
31856.15973509208
 20
40852.04897179647
 10
31852.30514246991
 20
40856.96671863314
 10
31847.41282464714
 20
40860.79588224141
 10
31839.78486549469
 20
40863.66878914926
 10
31836.04184106871
 20
40864.29464641939
  0
LWPOLYLINE
  5
53
330
1F
100
AcDbEntity
  8
VENT DETAILS_Pen_No__7
  6
Continuous
100
AcDbPolyline
 90
       18
 70
   128
 43
0.0
 10
31859.65849927006
 20
40774.2946464194
 10
31863.40152369603
 20
40774.92050368951
 10
31871.02948284849
 20
40777.79341059737
 10
31875.92180067125
 20
40781.62257420563
 10
31879.77639329343
 20
40786.54032104231
 10
31882.41967149228
 20
40791.99900732088
 10
31883.27515747141
 20
40797.91130462074
 10
31881.22676837428
 20
40805.1039705385
 10
31877.15232015995
 20
40811.62303646463
 10
31865.78133658152
 20
40826.96625637415
 10
31861.70688836719
 20
40833.48532230028
 10
31859.65849927006
 20
40840.67798821804
 10
31860.51398524919
 20
40846.59028551791
 10
31863.15726344804
 20
40852.04897179647
 10
31867.01185607021
 20
40856.96671863314
 10
31871.90417389298
 20
40860.79588224141
 10
31879.53213304544
 20
40863.66878914926
 10
31883.27515747141
 20
40864.29464641939
  0
LWPOLYLINE
  5
54
330
1F
100
AcDbEntity
  8
VENT DETAILS_Pen_No__7
  6
Continuous
100
AcDbPolyline
 90
       18
 70
   128
 43
0.0
 10
31906.89181567276
 20
40774.2946464194
 10
31903.14879124678
 20
40774.92050368951
 10
31895.52083209433
 20
40777.79341059737
 10
31890.62851427156
 20
40781.62257420563
 10
31886.77392164938
 20
40786.54032104231
 10
31884.13064345053
 20
40791.99900732088
 10
31883.27515747141
 20
40797.91130462074
 10
31885.32354656853
 20
40805.1039705385
 10
31889.39799478287
 20
40811.62303646463
 10
31900.7689783613
 20
40826.96625637415
 10
31904.84342657563
 20
40833.48532230028
 10
31906.89181567276
 20
40840.67798821804
 10
31906.03632969363
 20
40846.59028551791
 10
31903.39305149478
 20
40852.04897179647
 10
31899.5384588726
 20
40856.96671863314
 10
31894.64614104984
 20
40860.79588224141
 10
31887.01818189738
 20
40863.66878914926
 10
31883.27515747141
 20
40864.29464641939
  0
LWPOLYLINE
  5
55
330
1F
100
AcDbEntity
  8
VENT DETAILS_Pen_No__7
  6
Continuous
100
AcDbPolyline
 90
       18
 70
   128
 43
0.0
 10
31906.89181567276
 20
40774.2946464194
 10
31910.63484009873
 20
40774.92050368951
 10
31918.26279925118
 20
40777.79341059737
 10
31923.15511707395
 20
40781.62257420563
 10
31927.00970969613
 20
40786.54032104231
 10
31929.65298789498
 20
40791.99900732088
 10
31930.5084738741
 20
40797.91130462074
 10
31928.46008477698
 20
40805.1039705385
 10
31924.38563656265
 20
40811.62303646463
 10
31913.01465298421
 20
40826.96625637415
 10
31908.94020476988
 20
40833.48532230028
 10
31906.89181567276
 20
40840.67798821804
 10
31907.74730165188
 20
40846.59028551791
 10
31910.39057985073
 20
40852.04897179647
 10
31914.24517247291
 20
40856.96671863314
 10
31919.13749029568
 20
40860.79588224141
 10
31926.76544944813
 20
40863.66878914926
 10
31930.5084738741
 20
40864.29464641939
  0
LWPOLYLINE
  5
56
330
1F
100
AcDbEntity
  8
VENT DETAILS_Pen_No__7
  6
Continuous
100
AcDbPolyline
 90
       18
 70
   128
 43
0.0
 10
31954.12513207545
 20
40774.2946464194
 10
31950.38210764948
 20
40774.92050368951
 10
31942.75414849703
 20
40777.79341059737
 10
31937.86183067425
 20
40781.62257420563
 10
31934.00723805208
 20
40786.54032104231
 10
31931.36395985322
 20
40791.99900732088
 10
31930.5084738741
 20
40797.91130462074
 10
31932.55686297123
 20
40805.1039705385
 10
31936.63131118556
 20
40811.62303646463
 10
31948.00229476399
 20
40826.96625637415
 10
31952.07674297832
 20
40833.48532230028
 10
31954.12513207545
 20
40840.67798821804
 10
31953.26964609633
 20
40846.59028551791
 10
31950.62636789748
 20
40852.04897179647
 10
31946.7717752753
 20
40856.96671863314
 10
31941.87945745253
 20
40860.79588224141
 10
31934.25149830008
 20
40863.66878914926
 10
31930.5084738741
 20
40864.29464641939
  0
LWPOLYLINE
  5
57
330
1F
100
AcDbEntity
  8
VENT DETAILS_Pen_No__7
  6
Continuous
100
AcDbPolyline
 90
       18
 70
   128
 43
0.0
 10
31954.12513207545
 20
40249.08714122743
 10
31953.5040788654
 20
40252.80084272238
 10
31950.65372852619
 20
40260.36920276251
 10
31946.85512028979
 20
40265.22418150948
 10
31941.97521965306
 20
40269.04771163564
 10
31936.55906324942
 20
40271.66512693796
 10
31930.69315811798
 20
40272.5191151849
 10
31923.47084437361
 20
40270.48964799391
 10
31916.9061845451
 20
40266.4441589737
 10
31901.3440796058
 20
40255.16209743863
 10
31894.77941977729
 20
40251.11660841842
 10
31887.55710603292
 20
40249.08714122743
 10
31881.69120090148
 20
40249.94112947436
 10
31876.27504449784
 20
40252.55854477669
 10
31871.39514386111
 20
40256.38207490285
 10
31867.5965356247
 20
40261.23705364982
 10
31864.74618528549
 20
40268.80541368995
 10
31864.12513207545
 20
40272.5191151849
  0
LWPOLYLINE
  5
58
330
1F
100
AcDbEntity
  8
VENT DETAILS_Pen_No__7
  6
Continuous
100
AcDbPolyline
 90
       18
 70
   128
 43
0.0
 10
31954.12513207545
 20
40295.95108914237
 10
31953.5040788654
 20
40292.23738764742
 10
31950.65372852619
 20
40284.66902760729
 10
31946.85512028979
 20
40279.81404886032
 10
31941.97521965306
 20
40275.99051873416
 10
31936.55906324942
 20
40273.37310343183
 10
31930.69315811798
 20
40272.5191151849
 10
31923.47084437361
 20
40274.54858237589
 10
31916.9061845451
 20
40278.5940713961
 10
31901.3440796058
 20
40289.87613293117
 10
31894.77941977729
 20
40293.92162195138
 10
31887.55710603292
 20
40295.95108914237
 10
31881.69120090148
 20
40295.09710089543
 10
31876.27504449784
 20
40292.47968559311
 10
31871.39514386111
 20
40288.65615546695
 10
31867.5965356247
 20
40283.80117671998
 10
31864.74618528549
 20
40276.23281667985
 10
31864.12513207545
 20
40272.5191151849
  0
LWPOLYLINE
  5
59
330
1F
100
AcDbEntity
  8
VENT DETAILS_Pen_No__7
  6
Continuous
100
AcDbPolyline
 90
       18
 70
   128
 43
0.0
 10
31954.12513207545
 20
40295.95108914237
 10
31953.5040788654
 20
40299.66479063733
 10
31950.65372852619
 20
40307.23315067745
 10
31946.85512028979
 20
40312.08812942442
 10
31941.97521965306
 20
40315.91165955058
 10
31936.55906324942
 20
40318.52907485291
 10
31930.69315811798
 20
40319.38306309984
 10
31923.47084437361
 20
40317.35359590885
 10
31916.9061845451
 20
40313.30810688865
 10
31901.3440796058
 20
40302.02604535357
 10
31894.77941977729
 20
40297.98055633336
 10
31887.55710603292
 20
40295.95108914237
 10
31881.69120090148
 20
40296.8050773893
 10
31876.27504449784
 20
40299.42249269163
 10
31871.39514386111
 20
40303.2460228178
 10
31867.5965356247
 20
40308.10100156476
 10
31864.74618528549
 20
40315.66936160489
 10
31864.12513207545
 20
40319.38306309984
  0
LWPOLYLINE
  5
5A
330
1F
100
AcDbEntity
  8
VENT DETAILS_Pen_No__7
  6
Continuous
100
AcDbPolyline
 90
       18
 70
   128
 43
0.0
 10
31954.12513207545
 20
40342.81503705731
 10
31953.5040788654
 20
40339.10133556237
 10
31950.65372852619
 20
40331.53297552223
 10
31946.85512028979
 20
40326.67799677527
 10
31941.97521965306
 20
40322.8544666491
 10
31936.55906324942
 20
40320.23705134678
 10
31930.69315811798
 20
40319.38306309984
 10
31923.47084437361
 20
40321.41253029084
 10
31916.9061845451
 20
40325.45801931105
 10
31901.3440796058
 20
40336.74008084612
 10
31894.77941977729
 20
40340.78556986632
 10
31887.55710603292
 20
40342.81503705731
 10
31881.69120090148
 20
40341.96104881038
 10
31876.27504449784
 20
40339.34363350806
 10
31871.39514386111
 20
40335.5201033819
 10
31867.5965356247
 20
40330.66512463492
 10
31864.74618528549
 20
40323.0967645948
 10
31864.12513207545
 20
40319.38306309984
  0
LWPOLYLINE
  5
5B
330
1F
100
AcDbEntity
  8
VENT DETAILS_Pen_No__7
  6
Continuous
100
AcDbPolyline
 90
       18
 70
   128
 43
0.0
 10
31954.12513207545
 20
40342.81503705731
 10
31953.5040788654
 20
40346.52873855227
 10
31950.65372852619
 20
40354.09709859239
 10
31946.85512028979
 20
40358.95207733937
 10
31941.97521965306
 20
40362.77560746553
 10
31936.55906324942
 20
40365.39302276785
 10
31930.69315811798
 20
40366.24701101478
 10
31923.47084437361
 20
40364.21754382379
 10
31916.9061845451
 20
40360.17205480359
 10
31901.3440796058
 20
40348.88999326852
 10
31894.77941977729
 20
40344.84450424831
 10
31887.55710603292
 20
40342.81503705731
 10
31881.69120090148
 20
40343.66902530425
 10
31876.27504449784
 20
40346.28644060657
 10
31871.39514386111
 20
40350.10997073274
 10
31867.5965356247
 20
40354.9649494797
 10
31864.74618528549
 20
40362.53330951984
 10
31864.12513207545
 20
40366.24701101478
  0
LWPOLYLINE
  5
5C
330
1F
100
AcDbEntity
  8
VENT DETAILS_Pen_No__7
  6
Continuous
100
AcDbPolyline
 90
       18
 70
   128
 43
0.0
 10
31954.12513207545
 20
40389.67898497226
 10
31953.5040788654
 20
40385.96528347732
 10
31950.65372852619
 20
40378.39692343718
 10
31946.85512028979
 20
40373.54194469021
 10
31941.97521965306
 20
40369.71841456404
 10
31936.55906324942
 20
40367.10099926173
 10
31930.69315811798
 20
40366.24701101478
 10
31923.47084437361
 20
40368.27647820578
 10
31916.9061845451
 20
40372.32196722599
 10
31901.3440796058
 20
40383.60402876106
 10
31894.77941977729
 20
40387.64951778126
 10
31887.55710603292
 20
40389.67898497226
 10
31881.69120090148
 20
40388.82499672532
 10
31876.27504449784
 20
40386.207581423
 10
31871.39514386111
 20
40382.38405129684
 10
31867.5965356247
 20
40377.52907254986
 10
31864.74618528549
 20
40369.96071250974
 10
31864.12513207545
 20
40366.24701101478
  0
LWPOLYLINE
  5
5D
330
1F
100
AcDbEntity
  8
VENT DETAILS_Pen_No__7
  6
Continuous
100
AcDbPolyline
 90
       18
 70
   128
 43
0.0
 10
31954.12513207545
 20
40389.67898497226
 10
31953.5040788654
 20
40393.39268646721
 10
31950.65372852619
 20
40400.96104650733
 10
31946.85512028979
 20
40405.81602525431
 10
31941.97521965306
 20
40409.63955538048
 10
31936.55906324942
 20
40412.25697068279
 10
31930.69315811798
 20
40413.11095892973
 10
31923.47084437361
 20
40411.08149173873
 10
31916.9061845451
 20
40407.03600271854
 10
31901.3440796058
 20
40395.75394118346
 10
31894.77941977729
 20
40391.70845216325
 10
31887.55710603292
 20
40389.67898497226
 10
31881.69120090148
 20
40390.5329732192
 10
31876.27504449784
 20
40393.15038852151
 10
31871.39514386111
 20
40396.97391864768
 10
31867.5965356247
 20
40401.82889739465
 10
31864.74618528549
 20
40409.39725743479
 10
31864.12513207545
 20
40413.11095892973
  0
LWPOLYLINE
  5
5E
330
1F
100
AcDbEntity
  8
VENT DETAILS_Pen_No__7
  6
Continuous
100
AcDbPolyline
 90
       18
 70
   128
 43
0.0
 10
31954.12513207545
 20
40436.5429328872
 10
31953.5040788654
 20
40432.82923139226
 10
31950.65372852619
 20
40425.26087135213
 10
31946.85512028979
 20
40420.40589260515
 10
31941.97521965306
 20
40416.58236247898
 10
31936.55906324942
 20
40413.96494717667
 10
31930.69315811798
 20
40413.11095892973
 10
31923.47084437361
 20
40415.14042612072
 10
31916.9061845451
 20
40419.18591514093
 10
31901.3440796058
 20
40430.46797667601
 10
31894.77941977729
 20
40434.5134656962
 10
31887.55710603292
 20
40436.5429328872
 10
31881.69120090148
 20
40435.68894464026
 10
31876.27504449784
 20
40433.07152933795
 10
31871.39514386111
 20
40429.24799921178
 10
31867.5965356247
 20
40424.39302046481
 10
31864.74618528549
 20
40416.82466042468
 10
31864.12513207545
 20
40413.11095892973
  0
LWPOLYLINE
  5
5F
330
1F
100
AcDbEntity
  8
VENT DETAILS_Pen_No__7
  6
Continuous
100
AcDbPolyline
 90
       18
 70
   128
 43
0.0
 10
31954.12513207545
 20
40436.5429328872
 10
31953.5040788654
 20
40440.25663438215
 10
31950.65372852619
 20
40447.82499442228
 10
31946.85512028979
 20
40452.67997316925
 10
31941.97521965306
 20
40456.50350329542
 10
31936.55906324942
 20
40459.12091859773
 10
31930.69315811798
 20
40459.97490684467
 10
31923.47084437361
 20
40457.94543965367
 10
31916.9061845451
 20
40453.89995063348
 10
31901.3440796058
 20
40442.6178890984
 10
31894.77941977729
 20
40438.57240007819
 10
31887.55710603292
 20
40436.5429328872
 10
31881.69120090148
 20
40437.39692113414
 10
31876.27504449784
 20
40440.01433643646
 10
31871.39514386111
 20
40443.83786656262
 10
31867.5965356247
 20
40448.6928453096
 10
31864.74618528549
 20
40456.26120534973
 10
31864.12513207545
 20
40459.97490684467
  0
LWPOLYLINE
  5
60
330
1F
100
AcDbEntity
  8
VENT DETAILS_Pen_No__7
  6
Continuous
100
AcDbPolyline
 90
       18
 70
   128
 43
0.0
 10
31954.12513207545
 20
40483.40688080214
 10
31953.5040788654
 20
40479.6931793072
 10
31950.65372852619
 20
40472.12481926707
 10
31946.85512028979
 20
40467.26984052009
 10
31941.97521965306
 20
40463.44631039393
 10
31936.55906324942
 20
40460.82889509161
 10
31930.69315811798
 20
40459.97490684467
 10
31923.47084437361
 20
40462.00437403566
 10
31916.9061845451
 20
40466.04986305587
 10
31901.3440796058
 20
40477.33192459095
 10
31894.77941977729
 20
40481.37741361115
 10
31887.55710603292
 20
40483.40688080214
 10
31881.69120090148
 20
40482.55289255521
 10
31876.27504449784
 20
40479.93547725289
 10
31871.39514386111
 20
40476.11194712672
 10
31867.5965356247
 20
40471.25696837975
 10
31864.74618528549
 20
40463.68860833962
 10
31864.12513207545
 20
40459.97490684467
  0
LWPOLYLINE
  5
61
330
1F
100
AcDbEntity
  8
VENT DETAILS_Pen_No__7
  6
Continuous
100
AcDbPolyline
 90
       18
 70
   128
 43
0.0
 10
31954.12513207545
 20
40483.40688080214
 10
31953.5040788654
 20
40487.1205822971
 10
31950.65372852619
 20
40494.68894233722
 10
31946.85512028979
 20
40499.54392108419
 10
31941.97521965306
 20
40503.36745121036
 10
31936.55906324942
 20
40505.98486651268
 10
31930.69315811798
 20
40506.83885475961
 10
31923.47084437361
 20
40504.80938756862
 10
31916.9061845451
 20
40500.76389854842
 10
31901.3440796058
 20
40489.48183701334
 10
31894.77941977729
 20
40485.43634799313
 10
31887.55710603292
 20
40483.40688080214
 10
31881.69120090148
 20
40484.26086904908
 10
31876.27504449784
 20
40486.8782843514
 10
31871.39514386111
 20
40490.70181447756
 10
31867.5965356247
 20
40495.55679322454
 10
31864.74618528549
 20
40503.12515326467
 10
31864.12513207545
 20
40506.83885475961
  0
LWPOLYLINE
  5
62
330
1F
100
AcDbEntity
  8
VENT DETAILS_Pen_No__7
  6
Continuous
100
AcDbPolyline
 90
       18
 70
   128
 43
0.0
 10
31954.12513207545
 20
40530.27082871708
 10
31953.5040788654
 20
40526.55712722214
 10
31950.65372852619
 20
40518.98876718201
 10
31946.85512028979
 20
40514.13378843504
 10
31941.97521965306
 20
40510.31025830887
 10
31936.55906324942
 20
40507.69284300655
 10
31930.69315811798
 20
40506.83885475961
 10
31923.47084437361
 20
40508.86832195061
 10
31916.9061845451
 20
40512.91381097081
 10
31901.3440796058
 20
40524.19587250589
 10
31894.77941977729
 20
40528.2413615261
 10
31887.55710603292
 20
40530.27082871708
 10
31881.69120090148
 20
40529.41684047015
 10
31876.27504449784
 20
40526.79942516783
 10
31871.39514386111
 20
40522.97589504167
 10
31867.5965356247
 20
40518.12091629469
 10
31864.74618528549
 20
40510.55255625457
 10
31864.12513207545
 20
40506.83885475961
  0
LWPOLYLINE
  5
63
330
1F
100
AcDbEntity
  8
VENT DETAILS_Pen_No__7
  6
Continuous
100
AcDbPolyline
 90
       18
 70
   128
 43
0.0
 10
31954.12513207545
 20
40530.27082871708
 10
31953.5040788654
 20
40533.98453021204
 10
31950.65372852619
 20
40541.55289025216
 10
31946.85512028979
 20
40546.40786899914
 10
31941.97521965306
 20
40550.2313991253
 10
31936.55906324942
 20
40552.84881442762
 10
31930.69315811798
 20
40553.70280267455
 10
31923.47084437361
 20
40551.67333548357
 10
31916.9061845451
 20
40547.62784646337
 10
31901.3440796058
 20
40536.34578492829
 10
31894.77941977729
 20
40532.30029590808
 10
31887.55710603292
 20
40530.27082871708
 10
31881.69120090148
 20
40531.12481696402
 10
31876.27504449784
 20
40533.74223226634
 10
31871.39514386111
 20
40537.56576239251
 10
31867.5965356247
 20
40542.42074113948
 10
31864.74618528549
 20
40549.98910117961
 10
31864.12513207545
 20
40553.70280267455
  0
LWPOLYLINE
  5
64
330
1F
100
AcDbEntity
  8
VENT DETAILS_Pen_No__7
  6
Continuous
100
AcDbPolyline
 90
       18
 70
   128
 43
0.0
 10
31954.12513207545
 20
40577.13477663203
 10
31953.5040788654
 20
40573.42107513708
 10
31950.65372852619
 20
40565.85271509695
 10
31946.85512028979
 20
40560.99773634999
 10
31941.97521965306
 20
40557.17420622381
 10
31936.55906324942
 20
40554.5567909215
 10
31930.69315811798
 20
40553.70280267455
 10
31923.47084437361
 20
40555.73226986555
 10
31916.9061845451
 20
40559.77775888576
 10
31901.3440796058
 20
40571.05982042084
 10
31894.77941977729
 20
40575.10530944104
 10
31887.55710603292
 20
40577.13477663203
 10
31881.69120090148
 20
40576.28078838509
 10
31876.27504449784
 20
40573.66337308277
 10
31871.39514386111
 20
40569.83984295661
 10
31867.5965356247
 20
40564.98486420963
 10
31864.74618528549
 20
40557.41650416951
 10
31864.12513207545
 20
40553.70280267455
  0
LWPOLYLINE
  5
65
330
1F
100
AcDbEntity
  8
VENT DETAILS_Pen_No__7
  6
Continuous
100
AcDbPolyline
 90
       18
 70
   128
 43
0.0
 10
31954.12513207545
 20
40577.13477663203
 10
31953.5040788654
 20
40580.84847812698
 10
31950.65372852619
 20
40588.4168381671
 10
31946.85512028979
 20
40593.27181691409
 10
31941.97521965306
 20
40597.09534704025
 10
31936.55906324942
 20
40599.71276234256
 10
31930.69315811798
 20
40600.5667505895
 10
31923.47084437361
 20
40598.53728339851
 10
31916.9061845451
 20
40594.49179437831
 10
31901.3440796058
 20
40583.20973284323
 10
31894.77941977729
 20
40579.16424382302
 10
31887.55710603292
 20
40577.13477663203
 10
31881.69120090148
 20
40577.98876487897
 10
31876.27504449784
 20
40580.60618018128
 10
31871.39514386111
 20
40584.42971030746
 10
31867.5965356247
 20
40589.28468905442
 10
31864.74618528549
 20
40596.85304909456
 10
31864.12513207545
 20
40600.5667505895
  0
LWPOLYLINE
  5
66
330
1F
100
AcDbEntity
  8
VENT DETAILS_Pen_No__7
  6
Continuous
100
AcDbPolyline
 90
       18
 70
   128
 43
0.0
 10
31954.12513207545
 20
40623.99872454697
 10
31953.5040788654
 20
40620.28502305203
 10
31950.65372852619
 20
40612.7166630119
 10
31946.85512028979
 20
40607.86168426493
 10
31941.97521965306
 20
40604.03815413875
 10
31936.55906324942
 20
40601.42073883644
 10
31930.69315811798
 20
40600.5667505895
 10
31923.47084437361
 20
40602.5962177805
 10
31916.9061845451
 20
40606.6417068007
 10
31901.3440796058
 20
40617.92376833578
 10
31894.77941977729
 20
40621.96925735598
 10
31887.55710603292
 20
40623.99872454697
 10
31881.69120090148
 20
40623.14473630003
 10
31876.27504449784
 20
40620.52732099772
 10
31871.39514386111
 20
40616.70379087156
 10
31867.5965356247
 20
40611.84881212458
 10
31864.74618528549
 20
40604.28045208445
 10
31864.12513207545
 20
40600.5667505895
  0
LWPOLYLINE
  5
67
330
1F
100
AcDbEntity
  8
VENT DETAILS_Pen_No__7
  6
Continuous
100
AcDbPolyline
 90
       18
 70
   128
 43
0.0
 10
31954.12513207545
 20
40623.99872454697
 10
31953.5040788654
 20
40627.71242604192
 10
31950.65372852619
 20
40635.28078608205
 10
31946.85512028979
 20
40640.13576482903
 10
31941.97521965306
 20
40643.95929495519
 10
31936.55906324942
 20
40646.5767102575
 10
31930.69315811798
 20
40647.43069850445
 10
31923.47084437361
 20
40645.40123131345
 10
31916.9061845451
 20
40641.35574229325
 10
31901.3440796058
 20
40630.07368075817
 10
31894.77941977729
 20
40626.02819173797
 10
31887.55710603292
 20
40623.99872454697
 10
31881.69120090148
 20
40624.85271279391
 10
31876.27504449784
 20
40627.47012809623
 10
31871.39514386111
 20
40631.2936582224
 10
31867.5965356247
 20
40636.14863696937
 10
31864.74618528549
 20
40643.7169970095
 10
31864.12513207545
 20
40647.43069850445
  0
LWPOLYLINE
  5
68
330
1F
100
AcDbEntity
  8
VENT DETAILS_Pen_No__7
  6
Continuous
100
AcDbPolyline
 90
       18
 70
   128
 43
0.0
 10
31954.12513207545
 20
40670.86267246192
 10
31953.5040788654
 20
40667.14897096697
 10
31950.65372852619
 20
40659.58061092684
 10
31946.85512028979
 20
40654.72563217987
 10
31941.97521965306
 20
40650.9021020537
 10
31936.55906324942
 20
40648.28468675138
 10
31930.69315811798
 20
40647.43069850445
 10
31923.47084437361
 20
40649.46016569544
 10
31916.9061845451
 20
40653.50565471564
 10
31901.3440796058
 20
40664.78771625072
 10
31894.77941977729
 20
40668.83320527092
 10
31887.55710603292
 20
40670.86267246192
 10
31881.69120090148
 20
40670.00868421498
 10
31876.27504449784
 20
40667.39126891266
 10
31871.39514386111
 20
40663.5677387865
 10
31867.5965356247
 20
40658.71276003952
 10
31864.74618528549
 20
40651.14439999939
 10
31864.12513207545
 20
40647.43069850445
  0
LWPOLYLINE
  5
69
330
1F
100
AcDbEntity
  8
VENT DETAILS_Pen_No__7
  6
Continuous
100
AcDbPolyline
 90
       18
 70
   128
 43
0.0
 10
31954.12513207545
 20
40670.86267246192
 10
31953.5040788654
 20
40674.57637395686
 10
31950.65372852619
 20
40682.14473399699
 10
31946.85512028979
 20
40686.99971274397
 10
31941.97521965306
 20
40690.82324287013
 10
31936.55906324942
 20
40693.44065817245
 10
31930.69315811798
 20
40694.29464641939
 10
31923.47084437361
 20
40692.26517922839
 10
31916.9061845451
 20
40688.21969020819
 10
31901.3440796058
 20
40676.93762867311
 10
31894.77941977729
 20
40672.89213965291
 10
31887.55710603292
 20
40670.86267246192
 10
31881.69120090148
 20
40671.71666070885
 10
31876.27504449784
 20
40674.33407601117
 10
31871.39514386111
 20
40678.15760613734
 10
31867.5965356247
 20
40683.01258488431
 10
31864.74618528549
 20
40690.58094492444
 10
31864.12513207545
 20
40694.29464641939
  0
LINE
  5
6A
330
1F
100
AcDbEntity
  8
VENT DETAILS_Pen_No__7
  6
Continuous
100
AcDbLine
 10
32437.86993145294
 20
40648.02475705695
 30
0.0
 11
32505.14987697724
 21
40662.16594243557
 31
0.0
  0
LINE
  5
6B
330
1F
100
AcDbEntity
  8
VENT DETAILS_Pen_No__7
  6
Continuous
100
AcDbLine
 10
32487.71687326653
 20
40624.78074294707
 30
0.0
 11
32455.30293516364
 21
40685.40995654545
 31
0.0
  0
LINE
  5
6C
330
1F
100
AcDbEntity
  8
VENT DETAILS_Pen_No__28
  6
Continuous
100
AcDbLine
 10
32487.71687326653
 20
40624.78074294707
 30
0.0
 11
32437.86993145294
 21
40648.02475705695
 31
0.0
  0
LINE
  5
6E
330
1F
100
AcDbEntity
  8
VENT DETAILS_Pen_No__28
  6
Continuous
100
AcDbLine
 10
32437.86993145294
 20
40648.02475705695
 30
0.0
 11
32455.30293516364
 21
40685.40995654545
 31
0.0
  0
LINE
  5
6F
330
1F
100
AcDbEntity
  8
VENT DETAILS_Pen_No__28
  6
Continuous
100
AcDbLine
 10
32455.30293516364
 20
40685.40995654545
 30
0.0
 11
32505.14987697724
 21
40662.16594243557
 31
0.0
  0
LINE
  5
70
330
1F
100
AcDbEntity
  8
VENT DETAILS_Pen_No__28
  6
Continuous
100
AcDbLine
 10
32505.14987697724
 20
40662.16594243557
 30
0.0
 11
32487.71687326653
 21
40624.78074294707
 31
0.0
  0
LINE
  5
71
330
1F
100
AcDbEntity
  8
VENT DETAILS_Pen_No__7
  6
Continuous
100
AcDbLine
 10
31650.297447879
 20
41015.46900326633
 30
0.0
 11
31717.57736591652
 21
41029.61018864495
 31
0.0
  0
LINE
  5
72
330
1F
100
AcDbEntity
  8
VENT DETAILS_Pen_No__7
  6
Continuous
100
AcDbLine
 10
31700.14436220581
 20
40992.22498915645
 30
0.0
 11
31667.73045158971
 21
41052.85420275482
 31
0.0
  0
LINE
  5
73
330
1F
100
AcDbEntity
  8
VENT DETAILS_Pen_No__28
  6
Continuous
100
AcDbLine
 10
31700.14436220581
 20
40992.22498915645
 30
0.0
 11
31650.297447879
 21
41015.46900326633
 31
0.0
  0
LINE
  5
74
330
1F
100
AcDbEntity
  8
VENT DETAILS_Pen_No__28
  6
Continuous
100
AcDbLine
 10
31650.297447879
 20
41015.46900326633
 30
0.0
 11
31667.73045158971
 21
41052.85420275482
 31
0.0
  0
LINE
  5
75
330
1F
100
AcDbEntity
  8
VENT DETAILS_Pen_No__28
  6
Continuous
100
AcDbLine
 10
31667.73045158971
 20
41052.85420275482
 30
0.0
 11
31717.57736591652
 21
41029.61018864495
 31
0.0
  0
LINE
  5
76
330
1F
100
AcDbEntity
  8
VENT DETAILS_Pen_No__28
  6
Continuous
100
AcDbLine
 10
31717.57736591652
 20
41029.61018864495
 30
0.0
 11
31700.14436220581
 21
40992.22498915645
 31
0.0
  0
LINE
  5
77
330
1F
100
AcDbEntity
  8
VENT DETAILS_Pen_No__7
  6
Continuous
100
AcDbLine
 10
31864.12512697857
 20
40774.2946588175
 30
0.0
 11
31954.12513336421
 21
40774.2946588175
 31
0.0
  0
LINE
  5
78
330
1F
100
AcDbEntity
  8
VENT DETAILS_Pen_No__8
  6
Continuous
100
AcDbLine
 10
31480.9832557358
 20
40774.2946588175
 30
0.0
 11
31864.12512697857
 21
40774.2946588175
 31
0.0
  0
LINE
  5
7A
330
1F
100
AcDbEntity
  8
VENT DETAILS_Pen_No__7
  6
Continuous
100
AcDbLine
 10
31954.12513336421
 20
40249.0871329297
 30
0.0
 11
31954.12513336421
 21
40774.2946588175
 31
0.0
  0
LINE
  5
7B
330
1F
100
AcDbEntity
  8
VENT DETAILS_Pen_No__7
  6
Continuous
100
AcDbLine
 10
32369.25495239164
 20
40680.02042863044
 30
0.0
 11
32319.40803806484
 21
40703.26444274032
 31
0.0
  0
LINE
  5
7D
330
1F
100
AcDbEntity
  8
VENT DETAILS_Pen_No__7
  6
Hidden Line XS
100
AcDbLine
 10
32600.85190333563
 20
40617.57969198679
 30
0.0
 11
32581.83230800562
 21
40630.16975175234
 31
0.0
  0
LINE
  5
7E
330
1F
100
AcDbEntity
  8
VENT DETAILS_Pen_No__7
  6
Continuous
100
AcDbLine
 10
32617.0058545365
 20
40612.06575439287
 30
0.0
 11
32626.8042058271
 21
40633.62052525609
 31
0.0
  0
LINE
  5
7F
330
1F
100
AcDbEntity
  8
VENT DETAILS_Pen_No__7
  6
Continuous
100
AcDbLine
 10
32617.0058545365
 20
40612.06575439287
 30
0.0
 11
32574.12513207612
 21
40638.55253658574
 31
0.0
  0
LINE
  5
80
330
1F
100
AcDbEntity
  8
VENT DETAILS_Pen_No__7
  6
Continuous
100
AcDbLine
 10
32626.8042058271
 20
40633.62052525609
 30
0.0
 11
31480.9832557358
 21
41167.92560022391
 31
0.0
  0
LINE
  5
81
330
1F
100
AcDbEntity
  8
VENT DETAILS_Pen_No__7
  6
Continuous
100
AcDbLine
 10
31717.57736591652
 20
41029.61018864495
 30
0.0
 11
31667.73045158971
 21
41052.85420275482
 31
0.0
  0
LINE
  5
82
330
1F
100
AcDbEntity
  8
VENT DETAILS_Pen_No__7
  6
Continuous
100
AcDbLine
 10
31553.5779376113
 20
41060.37687072893
 30
0.0
 11
31503.73102328449
 21
41083.62088483881
 31
0.0
  0
LINE
  5
83
330
1F
100
AcDbEntity
  8
VENT DETAILS_Pen_No__7
  6
Continuous
100
AcDbLine
 10
31700.14436220581
 20
40992.22498915645
 30
0.0
 11
31717.57736591652
 21
41029.61018864495
 31
0.0
  0
LINE
  5
84
330
1F
100
AcDbEntity
  8
VENT DETAILS_Pen_No__7
  6
Continuous
100
AcDbLine
 10
31650.297447879
 20
41015.46900326633
 30
0.0
 11
31667.73045158971
 21
41052.85420275482
 31
0.0
  0
LINE
  5
85
330
1F
100
AcDbEntity
  8
VENT DETAILS_Pen_No__7
  6
Continuous
100
AcDbLine
 10
31814.12513870143
 20
40739.29465328011
 30
0.0
 11
31954.12513336421
 21
40774.2946588175
 31
0.0
  0
LINE
  5
86
330
1F
100
AcDbEntity
  8
VENT DETAILS_Pen_No__7
  6
Continuous
100
AcDbLine
 10
31814.12513870143
 20
40774.2946588175
 30
0.0
 11
31954.12513336421
 21
40739.29465328011
 31
0.0
  0
LINE
  5
87
330
1F
100
AcDbEntity
  8
VENT DETAILS_Pen_No__7
  6
Continuous
100
AcDbLine
 10
31954.12513336421
 20
40739.29465328011
 30
0.0
 11
31864.12512697857
 21
40694.29465008729
 31
0.0
  0
LINE
  5
88
330
1F
100
AcDbEntity
  8
VENT DETAILS_Pen_No__7
  6
Continuous
100
AcDbLine
 10
31864.12512697857
 20
40739.29465328011
 30
0.0
 11
31954.12513336421
 21
40694.29465008729
 31
0.0
  0
LINE
  5
8B
330
1F
100
AcDbEntity
  8
VENT DETAILS_Pen_No__7
  6
Break
100
AcDbLine
 10
31480.9832557358
 20
40686.91290690099
 30
0.0
 11
31480.9832557358
 21
41192.84078386261
 31
0.0
  0
LINE
  5
8C
330
1F
100
AcDbEntity
  8
VENT DETAILS_Pen_No__7
  6
Continuous
100
AcDbLine
 10
32575.63698151114
 20
40593.59469486197
 30
0.0
 11
32575.63698151114
 21
40513.59468613176
 31
0.0
  0
LINE
  5
8D
330
1F
100
AcDbEntity
  8
VENT DETAILS_Pen_No__7
  6
Continuous
100
AcDbLine
 10
32575.63698151114
 20
40513.59468613176
 30
0.0
 11
32655.63696275456
 21
40513.59468613176
 31
0.0
  0
LINE
  5
8E
330
1F
100
AcDbEntity
  8
VENT DETAILS_Pen_No__7
  6
Continuous
100
AcDbLine
 10
32695.63698086306
 20
40553.59470424026
 30
0.0
 11
32695.63698086306
 21
40583.59469720654
 31
0.0
  0
LINE
  5
8F
330
1F
100
AcDbEntity
  8
VENT DETAILS_Pen_No__7
  6
Continuous
100
AcDbLine
 10
32695.63698086306
 20
40583.59469720654
 30
0.0
 11
32689.37898023579
 21
40583.59469720654
 31
0.0
  0
LINE
  5
90
330
1F
100
AcDbEntity
  8
VENT DETAILS_Pen_No__7
  6
Continuous
100
AcDbLine
 10
32689.37898023579
 20
40583.59469720654
 30
0.0
 11
32689.37898023579
 21
40577.31443227694
 31
0.0
  0
LINE
  5
91
330
1F
100
AcDbEntity
  8
VENT DETAILS_Pen_No__7
  6
Break
100
AcDbLine
 10
31817.5757482368
 20
40249.0871329297
 30
0.0
 11
32024.71905157577
 21
40249.0871329297
 31
0.0
  0
LINE
  5
92
330
1F
100
AcDbEntity
  8
VENT DETAILS_Pen_No__7
  6
Hidden Line XS
100
AcDbLine
 10
31961.65599240264
 20
40770.78294614125
 30
0.0
 11
31961.65599240264
 21
40249.0871329297
 31
0.0
  0
LINE
  5
93
330
1F
100
AcDbEntity
  8
VENT DETAILS_Pen_No__7
  6
Continuous
100
AcDbLine
 10
32013.83359437
 20
40503.81406057142
 30
0.0
 11
32013.83359437
 21
40593.81406695706
 31
0.0
  0
LINE
  5
94
330
1F
100
AcDbEntity
  8
VENT DETAILS_Pen_No__7
  6
Continuous
100
AcDbLine
 10
32013.83359437
 20
40503.81406057142
 30
0.0
 11
31968.83359117718
 21
40593.81406695706
 31
0.0
  0
LINE
  5
95
330
1F
100
AcDbEntity
  8
VENT DETAILS_Pen_No__7
  6
Continuous
100
AcDbLine
 10
32013.83359437
 20
40593.81406695706
 30
0.0
 11
31968.83359117718
 21
40503.81406057142
 31
0.0
  0
LINE
  5
96
330
1F
100
AcDbEntity
  8
VENT DETAILS_Pen_No__7
  6
Continuous
100
AcDbLine
 10
32505.14987697724
 20
40662.16594243557
 30
0.0
 11
32455.30293516364
 21
40685.40995654545
 31
0.0
  0
LWPOLYLINE
  5
97
330
1F
100
AcDbEntity
  8
VENT DETAILS_Pen_No__7
  6
Continuous
100
AcDbPolyline
 90
        9
 70
   129
 43
0.0
 10
31480.98324951205
 20
40774.2946464194
 10
31480.98324951205
 20
40864.67459457344
 10
31760.30470813647
 20
40864.67459457344
 10
31480.98324951205
 20
40994.92432980651
 10
31480.98324951205
 20
41094.22834235923
 10
32554.12513207553
 20
40593.81406423302
 10
32554.1251320761
 20
40503.81406423289
 10
32534.17261243791
 20
40503.81406423289
 10
31954.12513207545
 20
40774.2946464194
  0
LWPOLYLINE
  5
98
330
1F
100
AcDbEntity
  8
VENT DETAILS_Pen_No__7
  6
Continuous
100
AcDbPolyline
 90
        4
 70
   129
 43
0.0
 10
32554.1251320761
 20
40503.81406423289
 10
31968.83359764129
 20
40503.81406423289
 10
31968.83359764129
 20
40499.31406423289
 10
32554.1251320761
 20
40499.31406423289
  0
LWPOLYLINE
  5
99
330
1F
100
AcDbEntity
  8
VENT DETAILS_Pen_No__7
  6
Continuous
100
AcDbPolyline
 90
        5
 70
   128
 43
0.0
 10
31864.12513207545
 20
40729.29464641939
 10
31864.12513207545
 20
40739.29464641939
 10
31480.98324951205
 20
40739.29464641939
 10
31480.98324951205
 20
40729.29464641939
 10
31854.12513207545
 20
40729.29464641939
  0
LWPOLYLINE
  5
9A
330
1F
100
AcDbEntity
  8
VENT DETAILS_Pen_No__7
  6
Continuous
100
AcDbPolyline
 90
        4
 70
   129
 43
0.0
 10
31814.12513207545
 20
40739.29464641939
 10
31954.12513207545
 20
40739.29464641939
 10
31954.12513207545
 20
40774.2946464194
 10
31814.12513207545
 20
40774.2946464194
  0
LWPOLYLINE
  5
9B
330
1F
100
AcDbEntity
  8
VENT DETAILS_Pen_No__7
  6
Continuous
100
AcDbPolyline
 90
        4
 70
   129
 43
0.0
 10
31864.12513207545
 20
40694.29464641939
 10
31954.12513207545
 20
40694.29464641939
 10
31954.12513207545
 20
40739.29464641939
 10
31864.12513207545
 20
40739.29464641939
  0
LWPOLYLINE
  5
9C
330
1F
100
AcDbEntity
  8
VENT DETAILS_Pen_No__7
  6
Continuous
100
AcDbPolyline
 90
        5
 70
   128
 43
0.0
 10
31854.12513207545
 20
40729.29464641939
 10
31854.12513207545
 20
40249.08714122743
 10
31864.12513207545
 20
40249.08714122743
 10
31864.12513207545
 20
40739.29464641939
 10
31854.12513207545
 20
40739.29464641939
  0
LWPOLYLINE
  5
9D
330
1F
100
AcDbEntity
  8
VENT DETAILS_Pen_No__7
  6
Continuous
100
AcDbPolyline
 90
        4
 70
   129
 43
0.0
 10
32554.1251320761
 20
40483.81406423289
 10
32574.12513207612
 20
40483.81406423289
 10
32574.12513207612
 20
40619.95349922635
 10
32554.1251320761
 20
40619.95349922635
  0
LWPOLYLINE
  5
9E
330
1F
100
AcDbEntity
  8
VENT DETAILS_Pen_No__7
  6
Continuous
100
AcDbPolyline
 90
        4
 70
   129
 43
0.0
 10
31968.83359764129
 20
40249.08714122743
 10
31968.83359764129
 20
40499.31406423289
 10
32013.47242474665
 20
40499.31406423289
 10
32013.47242474665
 20
40249.08714122743
  0
LWPOLYLINE
  5
9F
330
1F
100
AcDbEntity
  8
VENT DETAILS_Pen_No__7
  6
Continuous
100
AcDbPolyline
 90
        4
 70
   129
 43
0.0
 10
31968.83359764129
 20
40503.81406423289
 10
32554.1251320761
 20
40503.81406423289
 10
32554.1251320761
 20
40593.81406423289
 10
31968.83359764129
 20
40593.81406423289
  0
LWPOLYLINE
  5
A0
330
1F
100
AcDbEntity
  8
VENT DETAILS_Pen_No__7
  6
Continuous
100
AcDbPolyline
 90
        4
 70
   129
 43
0.0
 10
31770.35620047646
 20
40959.29151885206
 10
32042.53857691555
 20
40832.37079312155
 10
32025.47158538739
 20
40795.7705114413
 10
31753.28920894831
 20
40922.6912371718
  0
LWPOLYLINE
  5
A1
330
1F
100
AcDbEntity
  8
VENT DETAILS_Pen_No__68
  6
Continuous
100
AcDbPolyline
 90
       13
 70
   128
 43
0.0
 10
31770.35620047646
 20
40959.29151885206
 10
31776.42248156112
 20
40911.90401506377
 10
31815.94769534607
 20
40938.03185578462
 10
31821.7378709651
 20
40890.77310208858
 10
31861.69699780202
 20
40916.69860583163
 10
31867.05326036909
 20
40869.64218911339
 10
31906.65709659291
 20
40895.73336758913
 10
31912.36864977307
 20
40848.51127613821
 10
31951.76307753689
 20
40874.7001033819
 10
31957.68403917706
 20
40827.38036316301
 10
31997.07846694087
 20
40853.56919040671
 10
32002.99942858104
 20
40806.24945018783
 10
32042.53857691555
 20
40832.37079312155
  0
ARC
  5
A3
330
1F
100
AcDbEntity
  8
VENT DETAILS_Pen_No__7
  6
Continuous
100
AcDbCircle
 10
32655.6369722436
 20
40553.59469107552
 30
0.0
 40
39.99999999999915
100
AcDbArc
 50
270.0
 51
0.0
  0
HATCH
  5
A4
330
1F
100
AcDbEntity
  8
VENT DETAILS_Pen_No__19
  6
Continuous
100
AcDbHatch
 10
0.0
 20
0.0
 30
0.0
210
0.0
220
0.0
230
1.0
  2
SOLID
 70
     1
 71
     0
 91
        1
 92
        3
 72
     0
 73
     1
 93
        8
 10
31394.37074920875
 20
41217.13968611501
 10
31394.37074920875
 20
40609.74673155756
 10
31515.76237740448
 20
40609.74673155756
 10
31515.76237740448
 20
40903.44319743746
 10
31545.76237037076
 20
40910.10987170334
 10
31485.7623844382
 20
40916.77654596923
 10
31515.76237740448
 20
40923.44319274832
 10
31515.76237740448
 20
41217.13968611501
 97
        0
 75
     0
 76
     1
 98
        0
  0
LINE
  5
A6
330
1F
100
AcDbEntity
  8
VENT DETAILS_Pen_No__7
  6
Continuous
100
AcDbLine
 10
31515.76237740448
 20
41217.13968611501
 30
0.0
 11
31515.76237740448
 21
40923.44319274832
 31
0.0
  0
LINE
  5
A7
330
1F
100
AcDbEntity
  8
VENT DETAILS_Pen_No__7
  6
Continuous
100
AcDbLine
 10
31515.76237740448
 20
40903.44319743746
 30
0.0
 11
31515.76237740448
 21
40609.74673155756
 31
0.0
  0
LINE
  5
A8
330
1F
100
AcDbEntity
  8
VENT DETAILS_Pen_No__7
  6
Continuous
100
AcDbLine
 10
31515.76237740448
 20
40903.44319743746
 30
0.0
 11
31545.76237037076
 21
40910.10987170334
 31
0.0
  0
LINE
  5
A9
330
1F
100
AcDbEntity
  8
VENT DETAILS_Pen_No__7
  6
Continuous
100
AcDbLine
 10
31545.76237037076
 20
40910.10987170334
 30
0.0
 11
31485.7623844382
 21
40916.77654596923
 31
0.0
  0
LINE
  5
AA
330
1F
100
AcDbEntity
  8
VENT DETAILS_Pen_No__7
  6
Continuous
100
AcDbLine
 10
31485.7623844382
 20
40916.77654596923
 30
0.0
 11
31515.76237740448
 21
40923.44319274832
 31
0.0
  0
HATCH
  5
AB
330
1F
100
AcDbEntity
  8
VENT DETAILS_Pen_No__19
  6
Continuous
100
AcDbHatch
 10
0.0
 20
0.0
 30
0.0
210
0.0
220
0.0
230
1.0
  2
SOLID
 70
     1
 71
     0
 91
        1
 92
        3
 72
     0
 73
     1
 93
        8
 10
31665.4352456
 20
40202.10893695297
 10
32272.82820282501
 20
40202.10893695297
 10
32272.82820282501
 20
40278.52291093356
 10
31979.13172421251
 20
40278.52291093356
 10
31972.46505754584
 20
40248.52291093356
 10
31965.79839087918
 20
40308.52291093356
 10
31959.13172421251
 20
40278.52291093356
 10
31665.4352456
 20
40278.52291093356
 97
        0
 75
     0
 76
     1
 98
        0
  0
LINE
  5
AC
330
1F
100
AcDbEntity
  8
VENT DETAILS_Pen_No__7
  6
Continuous
100
AcDbLine
 10
31665.43524939895
 20
40278.52290449566
 30
0.0
 11
31959.13171527885
 21
40278.52290449566
 31
0.0
  0
LINE
  5
AD
330
1F
100
AcDbEntity
  8
VENT DETAILS_Pen_No__7
  6
Continuous
100
AcDbLine
 10
31979.1317105897
 20
40278.52290449566
 30
0.0
 11
32272.82820395639
 21
40278.52290449566
 31
0.0
  0
LINE
  5
AE
330
1F
100
AcDbEntity
  8
VENT DETAILS_Pen_No__7
  6
Continuous
100
AcDbLine
 10
31979.1317105897
 20
40278.52290449566
 30
0.0
 11
31972.46506381061
 21
40248.52291152938
 31
0.0
  0
LINE
  5
AF
330
1F
100
AcDbEntity
  8
VENT DETAILS_Pen_No__7
  6
Continuous
100
AcDbLine
 10
31972.46506381061
 20
40248.52291152938
 30
0.0
 11
31965.79838954473
 21
40308.52289746194
 31
0.0
  0
LINE
  5
B0
330
1F
100
AcDbEntity
  8
VENT DETAILS_Pen_No__7
  6
Continuous
100
AcDbLine
 10
31965.79838954473
 20
40308.52289746194
 30
0.0
 11
31959.13171527885
 21
40278.52290449566
 31
0.0
  0
LINE
  5
B1
330
1F
100
AcDbEntity
  8
VENT DETAILS_Pen_No__7
  6
Continuous
100
AcDbLine
 10
32574.12513207612
 20
40638.55253658574
 30
0.0
 11
31515.76237740448
 21
41132.07519509421
 31
0.0
  0
LINE
  5
B2
330
1F
100
AcDbEntity
  8
VENT DETAILS_Pen_No__7
  6
Hidden Line XS
100
AcDbLine
 10
32581.83230800562
 20
40630.16975175234
 30
0.0
 11
31515.76237740448
 21
41125.98738866097
 31
0.0
  0
WIPEOUT
  5
B4
330
1F
100
AcDbEntity
  8
VENT DETAILS_Pen_No__1
  6
Wipeout_Contour
 48
209018.5517302416
 92
      296
310
28010000060000000C0000000E000000120000000C00000016000000000000C20C00000014000000010000006C00000007000000040000006954EDC736FDDF40C6FA8C16D5DAE34000000000000000005BC4D1EECF18E040C6FA8C16D5DAE34000000000000000005BC4D1EECF18E040BB55705D37D2E34000000000000000
310
006954EDC736FDDF40BB55705D37D2E34000000000000000000C0000000E000000070000008400000006000000050000006954EDC736FDDF40C6FA8C16D5DAE34000000000000000005BC4D1EECF18E040C6FA8C16D5DAE34000000000000000005BC4D1EECF18E040BB55705D37D2E34000000000000000006954EDC736FD
310
DF40BB55705D37D2E34000000000000000006954EDC736FDDF40C6FA8C16D5DAE3400000000000000000
100
AcDbWipeout
 90
        0
 10
32756.85595257991
 20
40593.73015610451
 30
0.0
 11
209.6419501791715
 21
0.0
 31
0.0
 12
0.0
 22
68.92884666666941
 32
0.0
 13
1.0
 23
1.0
340
0
 70
    15
280
     1
281
    50
282
    50
283
     0
360
0
 71
     2
 91
        5
 14
-0.5000000000000087
 24
-0.5000000000000527
 14
0.4999999999999913
 24
-0.5000000000000527
 14
0.4999999999999913
 24
0.4999999999999472
 14
-0.5000000000000087
 24
0.4999999999999472
 14
-0.5000000000000087
 24
-0.5000000000000527
  0
MTEXT
  5
B7
102
{ACAD_REACTORS
330
B8
102
}
330
1F
100
AcDbEntity
  8
VENT DETAILS_Pen_No__1
  6
Continuous
100
AcDbMText
 10
32761.85595257991
 20
40627.20757419975
 30
0.0
 40
12.49999999999999
 41
199.6419501791707
 71
     4
 72
     1
  1
\A1;{\fArial|b0|i0|c0|p34;Selected fascia and gutter installed in according with specifications}
  7
GENERATED_STYLE_1
 73
     1
 44
0.6237348106397815
  0
LEADER
  5
B8
330
1F
100
AcDbEntity
  8
VENT DETAILS_Pen_No__182
  6
Continuous
100
AcDbLeader
  3
GENERATED_STYLE__1
 73
     0
 74
     0
 40
55.29096931224728
 41
150.1999999999999
 76
     3
 10
32574.12513207612
 20
40536.7144557233
 30
0.0
 10
32732.92300845296
 20
40627.20757419975
 30
0.0
 10
32761.76595257991
 20
40627.20757419975
 30
0.0
340
B7
  0
WIPEOUT
  5
BF
330
1F
100
AcDbEntity
  8
VENT DETAILS_Pen_No__1
  6
Wipeout_Contour
 48
209333.4813954816
 92
      296
310
28010000060000000C0000000E000000120000000C00000016000000000000C20C00000014000000010000006C00000007000000040000006954EDC736FDDF4024885685BEE9E340000000000000000015F2F7E1200DE04024885685BEE9E340000000000000000015F2F7E1200DE040B716E9F209E6E34000000000000000
310
006954EDC736FDDF40B716E9F209E6E34000000000000000000C0000000E000000070000008400000006000000050000006954EDC736FDDF4024885685BEE9E340000000000000000015F2F7E1200DE04024885685BEE9E340000000000000000015F2F7E1200DE040B716E9F209E6E34000000000000000006954EDC736FD
310
DF40B716E9F209E6E34000000000000000006954EDC736FDDF4024885685BEE9E3400000000000000000
100
AcDbWipeout
 90
        0
 10
32756.85595257991
 20
40752.31090216099
 30
0.0
 11
116.1716314700934
 21
0.0
 31
0.0
 12
0.0
 22
29.64287445214723
 32
0.0
 13
1.0
 23
1.0
340
0
 70
    15
280
     1
281
    50
282
    50
283
     0
360
0
 71
     2
 91
        5
 14
-0.5000000000000157
 24
-0.4999999999998773
 14
0.4999999999999843
 24
-0.4999999999998773
 14
0.4999999999999843
 24
0.5000000000001227
 14
-0.5000000000000157
 24
0.5000000000001227
 14
-0.5000000000000157
 24
-0.4999999999998773
  0
MTEXT
  5
C0
102
{ACAD_REACTORS
330
C1
102
}
330
1F
100
AcDbEntity
  8
VENT DETAILS_Pen_No__1
  6
Continuous
100
AcDbMText
 10
32761.85595257991
 20
40766.046633756
 30
0.0
 40
12.49999999999999
 41
106.1716314700928
 71
     4
 72
     1
  1
\A1;{\fArial|b0|i0|c0|p34;Roof underlay}
  7
GENERATED_STYLE_1
 73
     1
 44
1.0
  0
LEADER
  5
C1
330
1F
100
AcDbEntity
  8
VENT DETAILS_Pen_No__182
  6
Continuous
100
AcDbLeader
  3
GENERATED_STYLE__1
 73
     0
 74
     0
 40
37.20833333333332
 41
65.64999999999998
 76
     3
 10
32502.09283832936
 20
40667.25571983788
 30
0.0
 10
32601.96945787855
 20
40766.046633756
 30
0.0
 10
32761.76595257991
 20
40766.046633756
 30
0.0
340
C0
  0
WIPEOUT
  5
C3
330
1F
100
AcDbEntity
  8
VENT DETAILS_Pen_No__1
  6
Wipeout_Contour
 48
210373.7662473952
 92
      296
310
28010000060000000C0000000E000000120000000C00000016000000000000C20C00000014000000010000006C00000007000000040000006954EDC736FDDF4030564B093E0DE440000000000000000065D90747871CE04030564B093E0DE440000000000000000065D90747871CE040C2E4DD768909E44000000000000000
310
006954EDC736FDDF40C2E4DD768909E44000000000000000000C0000000E000000070000008400000006000000050000006954EDC736FDDF4030564B093E0DE440000000000000000065D90747871CE04030564B093E0DE440000000000000000065D90747871CE040C2E4DD768909E44000000000000000006954EDC736FD
310
DF40C2E4DD768909E44000000000000000006954EDC736FDDF4030564B093E0DE4400000000000000000
100
AcDbWipeout
 90
        0
 10
32756.85595257991
 20
41036.29576010398
 30
0.0
 11
239.3714681550664
 21
0.0
 31
0.0
 12
0.0
 22
29.6428744521545
 32
0.0
 13
1.0
 23
1.0
340
0
 70
    15
280
     1
281
    50
282
    50
283
     0
360
0
 71
     2
 91
        5
 14
-0.5000000000000075
 24
-0.5
 14
0.4999999999999924
 24
-0.5
 14
0.4999999999999924
 24
0.5
 14
-0.5000000000000075
 24
0.5
 14
-0.5000000000000075
 24
-0.5
  0
MTEXT
  5
C4
102
{ACAD_REACTORS
330
C5
102
}
330
1F
100
AcDbEntity
  8
VENT DETAILS_Pen_No__1
  6
Continuous
100
AcDbMText
 10
32761.85595257991
 20
41051.72863455613
 30
0.0
 40
12.49999999999999
 41
229.3714681550611
 71
     4
 72
     1
  1
\A1;{\fArial|b1|i0|c0|p34; VENT \fArial|b0|i0|c0|p34;Roll Panel Vent - \fArial|b1|i0|c0|p34;G502}
  7
GENERATED_STYLE_2
 73
     1
 44
1.0
  0
LEADER
  5
C5
330
1F
100
AcDbEntity
  8
VENT DETAILS_Pen_No__182
  6
Continuous
100
AcDbLeader
  3
GENERATED_STYLE__1
 73
     0
 74
     0
 40
33.74583333333332
 41
186.5999999999999
 76
     3
 10
32022.52821743213
 20
40841.70177693098
 30
0.0
 10
32231.94363779486
 20
41051.72863455613
 30
0.0
 10
32761.76595257991
 20
41051.72863455613
 30
0.0
340
C4
  0
WIPEOUT
  5
C6
330
1F
100
AcDbEntity
  8
VENT DETAILS_Pen_No__1
  6
Wipeout_Contour
 48
208527.085234658
 92
      296
310
28010000060000000C0000000E000000120000000C00000016000000000000C20C00000014000000010000006C00000007000000040000006954EDC736FDDF4094EBDE732DC1E3400000000000000000228423523F24E04094EBDE732DC1E3400000000000000000228423523F24E040BA08044F04BBE34000000000000000
310
006954EDC736FDDF40BA08044F04BBE34000000000000000000C0000000E000000070000008400000006000000050000006954EDC736FDDF4094EBDE732DC1E3400000000000000000228423523F24E04094EBDE732DC1E3400000000000000000228423523F24E040BA08044F04BBE34000000000000000006954EDC736FD
310
DF40BA08044F04BBE34000000000000000006954EDC736FDDF4094EBDE732DC1E3400000000000000000
100
AcDbWipeout
 90
        0
 10
32756.85595257991
 20
40408.13464547829
 30
0.0
 11
301.122824121132
 21
0.0
 31
0.0
 12
0.0
 22
49.28574890429445
 32
0.0
 13
1.0
 23
1.0
340
0
 70
    15
280
     1
281
    50
282
    50
283
     0
360
0
 71
     2
 91
        5
 14
-0.4999999999999939
 24
-0.5
 14
0.500000000000006
 24
-0.5
 14
0.500000000000006
 24
0.5
 14
-0.4999999999999939
 24
0.5
 14
-0.4999999999999939
 24
-0.5
  0
MTEXT
  5
C7
102
{ACAD_REACTORS
330
C8
102
}
330
1F
100
AcDbEntity
  8
VENT DETAILS_Pen_No__1
  6
Continuous
100
AcDbMText
 10
32761.85595257991
 20
40431.79039438259
 30
0.0
 40
12.49999999999999
 41
291.1228241211267
 71
     4
 72
     1
  1
\A1;{\fArial|b0|i0|c0|p34;Selected exterior cladding installed to manufacturers specifications.}
  7
GENERATED_STYLE_1
 73
     1
 44
0.9214222291716688
  0
LEADER
  5
C8
330
1F
100
AcDbEntity
  8
VENT DETAILS_Pen_No__182
  6
Continuous
100
AcDbLeader
  3
GENERATED_STYLE__1
 73
     0
 74
     0
 40
35.5670986647754
 41
287.5374999999999
 76
     2
 10
32013.47242474665
 20
40432.77751993044
 30
0.0
 10
32761.76595257991
 20
40431.79039438259
 30
0.0
340
C7
  0
WIPEOUT
  5
C9
330
1F
100
AcDbEntity
  8
VENT DETAILS_Pen_No__1
  6
Wipeout_Contour
 48
206280.9011709785
 92
      296
310
28010000060000000C0000000E000000120000000C00000016000000000000C20C00000014000000010000006C0000000700000004000000DE5BB420B05FDF4077DADB37F19DE34000000000000000003F37D790E5E1DF4077DADB37F19DE34000000000000000003F37D790E5E1DF40BA5E10EBDE92E34000000000000000
310
00DE5BB420B05FDF40BA5E10EBDE92E34000000000000000000C0000000E00000007000000840000000600000005000000DE5BB420B05FDF4077DADB37F19DE34000000000000000003F37D790E5E1DF4077DADB37F19DE34000000000000000003F37D790E5E1DF40BA5E10EBDE92E3400000000000000000DE5BB420B05F
310
DF40BA5E10EBDE92E3400000000000000000DE5BB420B05FDF4077DADB37F19DE3400000000000000000
100
AcDbWipeout
 90
        0
 10
32126.7519961259
 20
40086.96619432927
 30
0.0
 11
520.8349692480442
 21
0.0
 31
0.0
 12
0.0
 22
88.57187437217362
 32
0.0
 13
1.0
 23
1.0
340
0
 70
    15
280
     1
281
    50
282
    50
283
     0
360
0
 71
     2
 91
        5
 14
-0.4999999999999965
 24
-0.5000000000000411
 14
0.5000000000000034
 24
-0.5000000000000411
 14
0.5000000000000034
 24
0.4999999999999589
 14
-0.4999999999999965
 24
0.4999999999999589
 14
-0.4999999999999965
 24
-0.5000000000000411
  0
MTEXT
  5
CA
330
1F
100
AcDbEntity
  8
VENT DETAILS_Pen_No__1
  6
Continuous
100
AcDbMText
 10
32131.75199612591
 20
40131.86378298716
 30
0.0
 40
12.49999999999999
 41
510.8349692480409
 71
     4
 72
     1
  1
\A1;{\fArial|b0|i0|c0|p34;THIS IS A SUGGESTED METHOD OF VENTILATION BUT THE OVERALL DESIGN AND DIMENSIONS ARE THE RESPONSABILITY OF THE DESIGNER IN COMPLIANCE WITH THE NZ BUILDING CODE.}
  7
GENERATED_STYLE_1
 73
     1
 44
0.9301067086060235
  0
WIPEOUT
  5
CB
330
1F
100
AcDbEntity
  8
VENT DETAILS_Pen_No__1
  6
Wipeout_Contour
 48
206147.5659816542
 92
      296
310
28010000060000000C0000000E000000120000000C00000016000000000000C20C00000014000000010000006C0000000700000004000000DE5BB420B05FDF40C48393C51DA3E3400000000000000000DE367FEA879BDF40C48393C51DA3E3400000000000000000DE367FEA879BDF40D02E3F33699FE34000000000000000
310
00DE5BB420B05FDF40D02E3F33699FE34000000000000000000C0000000E00000007000000840000000600000005000000DE5BB420B05FDF40C48393C51DA3E3400000000000000000DE367FEA879BDF40C48393C51DA3E3400000000000000000DE367FEA879BDF40D02E3F33699FE3400000000000000000DE5BB420B05F
310
DF40D02E3F33699FE3400000000000000000DE5BB420B05FDF40C48393C51DA3E3400000000000000000
100
AcDbWipeout
 90
        0
 10
32126.7519961259
 20
40187.28750571387
 30
0.0
 11
239.3716914309189
 21
0.0
 31
0.0
 12
0.0
 22
29.64286247818382
 32
0.0
 13
1.0
 23
1.0
340
0
 70
    15
280
     1
281
    50
282
    50
283
     0
360
0
 71
     2
 91
        5
 14
-0.5
 24
-0.5
 14
0.5
 24
-0.5
 14
0.5
 24
0.5
 14
-0.5
 24
0.5
 14
-0.5
 24
-0.5
  0
MTEXT
  5
CC
330
1F
100
AcDbEntity
  8
VENT DETAILS_Pen_No__1
  6
Continuous
100
AcDbMText
 10
32131.75199612591
 20
40202.72036819206
 30
0.0
 40
12.49999999999999
 41
229.3716914309178
 71
     4
 72
     1
  1
\A1;{\fArial|b1|i0|c0|p34; VENT \fArial|b0|i0|c0|p34;Roll Panel Vent - \fArial|b1|i0|c0|p34;G502}
  7
GENERATED_STYLE_2
 73
     1
 44
1.0
  0
WIPEOUT
  5
CD
330
1F
100
AcDbEntity
  8
VENT DETAILS_Pen_No__1
  6
Wipeout_Contour
 48
209967.9600385341
 92
      296
310
28010000060000000C0000000E000000120000000C00000016000000000000C20C00000014000000010000006C00000007000000040000006954EDC736FDDF4073052E3531FDE340000000000000000081667EA1031CE04073052E3531FDE340000000000000000081667EA1031CE0400594C0A27CF9E34000000000000000
310
006954EDC736FDDF400594C0A27CF9E34000000000000000000C0000000E000000070000008400000006000000050000006954EDC736FDDF4073052E3531FDE340000000000000000081667EA1031CE04073052E3531FDE340000000000000000081667EA1031CE0400594C0A27CF9E34000000000000000006954EDC736FD
310
DF400594C0A27CF9E34000000000000000006954EDC736FDDF4073052E3531FDE3400000000000000000
100
AcDbWipeout
 90
        0
 10
32756.85595257991
 20
40907.89486721907
 30
0.0
 11
235.2575110128128
 21
0.0
 31
0.0
 12
0.0
 22
29.6428744521545
 32
0.0
 13
1.0
 23
1.0
340
0
 70
    15
280
     1
281
    50
282
    50
283
     0
360
0
 71
     2
 91
        5
 14
-0.5000000000000078
 24
-0.5
 14
0.4999999999999923
 24
-0.5
 14
0.4999999999999923
 24
0.5
 14
-0.5000000000000078
 24
0.5
 14
-0.5000000000000078
 24
-0.5
  0
MTEXT
  5
CE
102
{ACAD_REACTORS
330
CF
102
}
330
1F
100
AcDbEntity
  8
VENT DETAILS_Pen_No__1
  6
Continuous
100
AcDbMText
 10
32761.85595257991
 20
40921.63059881407
 30
0.0
 40
12.49999999999999
 41
225.2575110128117
 71
     4
 72
     1
  1
\A1;{\fArial|b0|i0|c0|p34;Selected steel profiled roofing}
  7
GENERATED_STYLE_1
 73
     1
 44
1.0
  0
LEADER
  5
CF
330
1F
100
AcDbEntity
  8
VENT DETAILS_Pen_No__182
  6
Continuous
100
AcDbLeader
  3
GENERATED_STYLE__1
 73
     0
 74
     0
 40
37.42083333333331
 41
169.5874999999999
 76
     3
 10
32261.05138070722
 20
40795.99838605677
 30
0.0
 10
32387.76929909559
 20
40921.63059881407
 30
0.0
 10
32761.76595257991
 20
40921.63059881407
 30
0.0
340
CE
  0
ENDSEC
  0
SECTION
  2
OBJECTS
  0
DICTIONARY
  5
C
330
0
100
AcDbDictionary
281
     1
  3
ACAD_GROUP
350
D
  3
ACAD_LAYOUT
350
1A
  3
ACAD_MATERIAL
350
3B
  3
ACAD_MLEADERSTYLE
350
120
  3
ACAD_MLINESTYLE
350
17
  3
ACAD_PLOTSETTINGS
350
19
  3
ACAD_PLOTSTYLENAME
350
E
  3
ACAD_SCALELIST
350
D3
  3
ACAD_TABLESTYLE
350
11F
  3
ACAD_VISUALSTYLE
350
2A
  3
AcDbVariableDictionary
350
F7
  3
WATERMARKS
350
F5
  0
DICTIONARY
  5
D
102
{ACAD_REACTORS
330
C
102
}
330
C
100
AcDbDictionary
281
     1
  0
DICTIONARY
  5
1A
102
{ACAD_REACTORS
330
C
102
}
330
C
100
AcDbDictionary
281
     1
  3
Layout1
350
1E
  3
Layout2
350
26
  3
Model
350
22
  0
DICTIONARY
  5
3B
102
{ACAD_REACTORS
330
C
102
}
330
C
100
AcDbDictionary
281
     1
  3
ByBlock
350
3D
  3
ByLayer
350
3C
  3
Global
350
3E
  0
DICTIONARY
  5
120
102
{ACAD_REACTORS
330
C
102
}
330
C
100
AcDbDictionary
281
     1
  0
DICTIONARY
  5
17
102
{ACAD_REACTORS
330
C
102
}
330
C
100
AcDbDictionary
281
     1
  3
Standard
350
18
  0
DICTIONARY
  5
19
102
{ACAD_REACTORS
330
C
102
}
330
C
100
AcDbDictionary
281
     1
  0
ACDBDICTIONARYWDFLT
  5
E
102
{ACAD_REACTORS
330
C
102
}
330
C
100
AcDbDictionary
281
     1
  3
Normal
350
F
100
AcDbDictionaryWithDefault
340
F
  0
DICTIONARY
  5
D3
102
{ACAD_REACTORS
330
C
102
}
330
C
100
AcDbDictionary
281
     1
  3
A0
350
D4
  3
A1
350
D5
  3
A2
350
D6
  3
A3
350
D7
  3
A4
350
D8
  3
A5
350
D9
  3
A6
350
DA
  3
A7
350
DB
  3
A8
350
DC
  3
A9
350
DD
  3
B0
350
DE
  3
B1
350
DF
  3
B2
350
E0
  3
B3
350
E1
  3
B4
350
E2
  3
B5
350
E3
  3
B6
350
E4
  3
B7
350
E5
  3
B8
350
E6
  3
B9
350
E7
  3
C0
350
E8
  3
C1
350
E9
  3
C2
350
EA
  3
C3
350
EB
  3
C4
350
EC
  3
C5
350
ED
  3
C6
350
EE
  3
C7
350
EF
  3
C8
350
F0
  3
C9
350
F1
  3
D0
350
F2
  3
D1
350
F3
  3
D2
350
F4
  0
DICTIONARY
  5
11F
102
{ACAD_REACTORS
330
C
102
}
330
C
100
AcDbDictionary
281
     1
  0
DICTIONARY
  5
2A
102
{ACAD_REACTORS
330
C
102
}
330
C
100
AcDbDictionary
281
     1
  3
2dWireframe
350
2F
  3
3D Hidden
350
31
  3
3dWireframe
350
30
  3
Basic
350
32
  3
Brighten
350
36
  3
ColorChange
350
3A
  3
Conceptual
350
34
  3
Dim
350
35
  3
Facepattern
350
39
  3
Flat
350
2B
  3
FlatWithEdges
350
2C
  3
Gouraud
350
2D
  3
GouraudWithEdges
350
2E
  3
Linepattern
350
38
  3
Realistic
350
33
  3
Thicken
350
37
  0
DICTIONARY
  5
F7
102
{ACAD_REACTORS
330
C
102
}
330
C
100
AcDbDictionary
281
     1
  3
CANNOSCALE
350
F8
  3
XCLIPFRAME
350
121
  0
DICTIONARY
  5
F5
102
{ACAD_REACTORS
330
C
102
}
330
C
100
AcDbDictionary
281
     1
  3
AC_WATERMARK
350
F6
  0
LAYOUT
  5
1E
102
{ACAD_REACTORS
330
1A
102
}
330
1A
100
AcDbPlotSettings
  1

  2
none_device
  4

  6

 40
0.0
 41
0.0
 42
0.0
 43
0.0
 44
0.0
 45
0.0
 46
0.0
 47
0.0
 48
0.0
 49
0.0
140
0.0
141
0.0
142
1.0
143
1.0
 70
   688
 72
     0
 73
     0
 74
     5
  7

 75
    16
 76
     0
 77
     2
 78
   300
147
1.0
148
0.0
149
0.0
100
AcDbLayout
  1
Layout1
 70
     1
 71
     1
 10
0.0
 20
0.0
 11
12.0
 21
9.0
 12
0.0
 22
0.0
 32
0.0
 14
1.000000000000000E+20
 24
1.000000000000000E+20
 34
1.000000000000000E+20
 15
-1.000000000000000E+20
 25
-1.000000000000000E+20
 35
-1.000000000000000E+20
146
0.0
 13
0.0
 23
0.0
 33
0.0
 16
1.0
 26
0.0
 36
0.0
 17
0.0
 27
1.0
 37
0.0
 76
     0
330
1B
  0
LAYOUT
  5
26
102
{ACAD_REACTORS
330
1A
102
}
330
1A
100
AcDbPlotSettings
  1

  2
none_device
  4

  6

 40
0.0
 41
0.0
 42
0.0
 43
0.0
 44
0.0
 45
0.0
 46
0.0
 47
0.0
 48
0.0
 49
0.0
140
0.0
141
0.0
142
1.0
143
1.0
 70
   688
 72
     0
 73
     0
 74
     5
  7

 75
    16
 76
     0
 77
     2
 78
   300
147
1.0
148
0.0
149
0.0
100
AcDbLayout
  1
Layout2
 70
     1
 71
     2
 10
0.0
 20
0.0
 11
0.0
 21
0.0
 12
0.0
 22
0.0
 32
0.0
 14
0.0
 24
0.0
 34
0.0
 15
0.0
 25
0.0
 35
0.0
146
0.0
 13
0.0
 23
0.0
 33
0.0
 16
1.0
 26
0.0
 36
0.0
 17
0.0
 27
1.0
 37
0.0
 76
     0
330
23
  0
LAYOUT
  5
22
102
{ACAD_REACTORS
330
1A
102
}
330
1A
100
AcDbPlotSettings
  1

  2
none_device
  4

  6

 40
0.0
 41
0.0
 42
0.0
 43
0.0
 44
0.0
 45
0.0
 46
0.0
 47
0.0
 48
0.0
 49
0.0
140
0.0
141
0.0
142
1.0
143
1.0
 70
  1712
 72
     0
 73
     0
 74
     0
  7

 75
     0
 76
     0
 77
     2
 78
   300
147
1.0
148
0.0
149
0.0
100
AcDbLayout
  1
Model
 70
     1
 71
     0
 10
0.0
 20
0.0
 11
12.0
 21
9.0
 12
0.0
 22
0.0
 32
0.0
 14
1.000000000000000E+20
 24
1.000000000000000E+20
 34
1.000000000000000E+20
 15
-1.000000000000000E+20
 25
-1.000000000000000E+20
 35
-1.000000000000000E+20
146
0.0
 13
0.0
 23
0.0
 33
0.0
 16
1.0
 26
0.0
 36
0.0
 17
0.0
 27
1.0
 37
0.0
 76
     0
330
1F
331
29
  0
MATERIAL
  5
3D
102
{ACAD_REACTORS
330
3B
102
}
102
{ACAD_XDICTIONARY
360
11B
102
}
330
3B
100
AcDbMaterial
  1
ByBlock
  0
MATERIAL
  5
3C
102
{ACAD_REACTORS
330
3B
102
}
102
{ACAD_XDICTIONARY
360
119
102
}
330
3B
100
AcDbMaterial
  1
ByLayer
  0
MATERIAL
  5
3E
102
{ACAD_REACTORS
330
3B
102
}
102
{ACAD_XDICTIONARY
360
11D
102
}
330
3B
100
AcDbMaterial
  1
Global
  0
MLINESTYLE
  5
18
102
{ACAD_REACTORS
330
17
102
}
330
17
100
AcDbMlineStyle
  2
Standard
 70
     0
  3

 62
   256
 51
90.0
 52
90.0
 71
     2
 49
0.5
 62
   256
  6
BYLAYER
 49
-0.5
 62
   256
  6
BYLAYER
  0
ACDBPLACEHOLDER
  5
F
102
{ACAD_REACTORS
330
E
102
}
330
E
  0
SCALE
  5
D4
102
{ACAD_REACTORS
330
D3
102
}
330
D3
100
AcDbScale
 70
     0
300
1:1
140
1.0
141
1.0
290
     1
  0
SCALE
  5
D5
102
{ACAD_REACTORS
330
D3
102
}
330
D3
100
AcDbScale
 70
     0
300
1:2
140
1.0
141
2.0
290
     0
  0
SCALE
  5
D6
102
{ACAD_REACTORS
330
D3
102
}
330
D3
100
AcDbScale
 70
     0
300
1:4
140
1.0
141
4.0
290
     0
  0
SCALE
  5
D7
102
{ACAD_REACTORS
330
D3
102
}
330
D3
100
AcDbScale
 70
     0
300
1:5
140
1.0
141
5.0
290
     0
  0
SCALE
  5
D8
102
{ACAD_REACTORS
330
D3
102
}
330
D3
100
AcDbScale
 70
     0
300
1:8
140
1.0
141
8.0
290
     0
  0
SCALE
  5
D9
102
{ACAD_REACTORS
330
D3
102
}
330
D3
100
AcDbScale
 70
     0
300
1:10
140
1.0
141
10.0
290
     0
  0
SCALE
  5
DA
102
{ACAD_REACTORS
330
D3
102
}
330
D3
100
AcDbScale
 70
     0
300
1:16
140
1.0
141
16.0
290
     0
  0
SCALE
  5
DB
102
{ACAD_REACTORS
330
D3
102
}
330
D3
100
AcDbScale
 70
     0
300
1:20
140
1.0
141
20.0
290
     0
  0
SCALE
  5
DC
102
{ACAD_REACTORS
330
D3
102
}
330
D3
100
AcDbScale
 70
     0
300
1:30
140
1.0
141
30.0
290
     0
  0
SCALE
  5
DD
102
{ACAD_REACTORS
330
D3
102
}
330
D3
100
AcDbScale
 70
     0
300
1:40
140
1.0
141
40.0
290
     0
  0
SCALE
  5
DE
102
{ACAD_REACTORS
330
D3
102
}
330
D3
100
AcDbScale
 70
     0
300
1:50
140
1.0
141
50.0
290
     0
  0
SCALE
  5
DF
102
{ACAD_REACTORS
330
D3
102
}
330
D3
100
AcDbScale
 70
     0
300
1:100
140
1.0
141
100.0
290
     0
  0
SCALE
  5
E0
102
{ACAD_REACTORS
330
D3
102
}
330
D3
100
AcDbScale
 70
     0
300
2:1
140
2.0
141
1.0
290
     0
  0
SCALE
  5
E1
102
{ACAD_REACTORS
330
D3
102
}
330
D3
100
AcDbScale
 70
     0
300
4:1
140
4.0
141
1.0
290
     0
  0
SCALE
  5
E2
102
{ACAD_REACTORS
330
D3
102
}
330
D3
100
AcDbScale
 70
     0
300
8:1
140
8.0
141
1.0
290
     0
  0
SCALE
  5
E3
102
{ACAD_REACTORS
330
D3
102
}
330
D3
100
AcDbScale
 70
     0
300
10:1
140
10.0
141
1.0
290
     0
  0
SCALE
  5
E4
102
{ACAD_REACTORS
330
D3
102
}
330
D3
100
AcDbScale
 70
     0
300
100:1
140
100.0
141
1.0
290
     0
  0
SCALE
  5
E5
102
{ACAD_REACTORS
330
D3
102
}
330
D3
100
AcDbScale
 70
     0
300
1/128" = 1'-0"
140
0.0078125
141
12.0
290
     0
  0
SCALE
  5
E6
102
{ACAD_REACTORS
330
D3
102
}
330
D3
100
AcDbScale
 70
     0
300
1/64" = 1'-0"
140
0.015625
141
12.0
290
     0
  0
SCALE
  5
E7
102
{ACAD_REACTORS
330
D3
102
}
330
D3
100
AcDbScale
 70
     0
300
1/32" = 1'-0"
140
0.03125
141
12.0
290
     0
  0
SCALE
  5
E8
102
{ACAD_REACTORS
330
D3
102
}
330
D3
100
AcDbScale
 70
     0
300
1/16" = 1'-0"
140
0.0625
141
12.0
290
     0
  0
SCALE
  5
E9
102
{ACAD_REACTORS
330
D3
102
}
330
D3
100
AcDbScale
 70
     0
300
3/32" = 1'-0"
140
0.09375
141
12.0
290
     0
  0
SCALE
  5
EA
102
{ACAD_REACTORS
330
D3
102
}
330
D3
100
AcDbScale
 70
     0
300
1/8" = 1'-0"
140
0.125
141
12.0
290
     0
  0
SCALE
  5
EB
102
{ACAD_REACTORS
330
D3
102
}
330
D3
100
AcDbScale
 70
     0
300
3/16" = 1'-0"
140
0.1875
141
12.0
290
     0
  0
SCALE
  5
EC
102
{ACAD_REACTORS
330
D3
102
}
330
D3
100
AcDbScale
 70
     0
300
1/4" = 1'-0"
140
0.25
141
12.0
290
     0
  0
SCALE
  5
ED
102
{ACAD_REACTORS
330
D3
102
}
330
D3
100
AcDbScale
 70
     0
300
3/8" = 1'-0"
140
0.375
141
12.0
290
     0
  0
SCALE
  5
EE
102
{ACAD_REACTORS
330
D3
102
}
330
D3
100
AcDbScale
 70
     0
300
1/2" = 1'-0"
140
0.5
141
12.0
290
     0
  0
SCALE
  5
EF
102
{ACAD_REACTORS
330
D3
102
}
330
D3
100
AcDbScale
 70
     0
300
3/4" = 1'-0"
140
0.75
141
12.0
290
     0
  0
SCALE
  5
F0
102
{ACAD_REACTORS
330
D3
102
}
330
D3
100
AcDbScale
 70
     0
300
1" = 1'-0"
140
1.0
141
12.0
290
     0
  0
SCALE
  5
F1
102
{ACAD_REACTORS
330
D3
102
}
330
D3
100
AcDbScale
 70
     0
300
1-1/2" = 1'-0"
140
1.5
141
12.0
290
     0
  0
SCALE
  5
F2
102
{ACAD_REACTORS
330
D3
102
}
330
D3
100
AcDbScale
 70
     0
300
3" = 1'-0"
140
3.0
141
12.0
290
     0
  0
SCALE
  5
F3
102
{ACAD_REACTORS
330
D3
102
}
330
D3
100
AcDbScale
 70
     0
300
6" = 1'-0"
140
6.0
141
12.0
290
     0
  0
SCALE
  5
F4
102
{ACAD_REACTORS
330
D3
102
}
330
D3
100
AcDbScale
 70
     0
300
1'-0" = 1'-0"
140
12.0
141
12.0
290
     0
  0
VISUALSTYLE
  5
2F
102
{ACAD_REACTORS
330
2A
102
}
102
{ACAD_XDICTIONARY
360
101
102
}
330
2A
100
AcDbVisualStyle
  2
2dWireframe
 70
     4
 71
     0
 72
     2
 73
     0
 90
        0
 40
-0.6
 41
-30.0
 62
     5
 63
     7
421
 16777215
 74
     1
 91
        4
 64
     7
 65
   257
 75
     1
175
     1
 42
1.0
 92
        0
 66
   257
 43
1.0
 76
     1
 77
     6
 78
     2
 67
     7
 79
     5
170
     0
171
     0
290
     0
174
     0
 93
        1
 44
0.0
173
     0
291
     0
 45
0.0
1001
ACAD
1000
AcDbSavedByObjectVersion
1070
     0
  0
VISUALSTYLE
  5
31
102
{ACAD_REACTORS
330
2A
102
}
102
{ACAD_XDICTIONARY
360
105
102
}
330
2A
100
AcDbVisualStyle
  2
3D Hidden
 70
     6
 71
     1
 72
     2
 73
     2
 90
        0
 40
-0.6
 41
-30.0
 62
     5
 63
     7
421
 16777215
 74
     2
 91
        2
 64
     7
 65
   257
 75
     2
175
     1
 42
40.0
 92
        0
 66
   257
 43
1.0
 76
     1
 77
     6
 78
     2
 67
     7
 79
     3
170
     0
171
     0
290
     0
174
     0
 93
        1
 44
0.0
173
     0
291
     0
 45
0.0
1001
ACAD
1000
AcDbSavedByObjectVersion
1070
     0
  0
VISUALSTYLE
  5
30
102
{ACAD_REACTORS
330
2A
102
}
102
{ACAD_XDICTIONARY
360
103
102
}
330
2A
100
AcDbVisualStyle
  2
3dWireframe
 70
     5
 71
     0
 72
     2
 73
     0
 90
        0
 40
-0.6
 41
-30.0
 62
     5
 63
     7
421
 16777215
 74
     1
 91
        4
 64
     7
 65
   257
 75
     1
175
     1
 42
1.0
 92
        0
 66
   257
 43
1.0
 76
     1
 77
     6
 78
     2
 67
     7
 79
     5
170
     0
171
     0
290
     0
174
     0
 93
        1
 44
0.0
173
     0
291
     0
 45
0.0
1001
ACAD
1000
AcDbSavedByObjectVersion
1070
     0
  0
VISUALSTYLE
  5
32
102
{ACAD_REACTORS
330
2A
102
}
102
{ACAD_XDICTIONARY
360
107
102
}
330
2A
100
AcDbVisualStyle
  2
Basic
 70
     7
 71
     1
 72
     0
 73
     1
 90
        0
 40
-0.6
 41
-30.0
 62
     5
 63
     7
421
 16777215
 74
     0
 91
        4
 64
     7
 65
   257
 75
     1
175
     1
 42
1.0
 92
        8
 66
     7
 43
1.0
 76
     1
 77
     6
 78
     2
 67
     7
 79
     5
170
     0
171
     0
290
     0
174
     0
 93
        1
 44
0.0
173
     0
291
     1
 45
0.0
1001
ACAD
1000
AcDbSavedByObjectVersion
1070
     0
  0
VISUALSTYLE
  5
36
102
{ACAD_REACTORS
330
2A
102
}
102
{ACAD_XDICTIONARY
360
10F
102
}
330
2A
100
AcDbVisualStyle
  2
Brighten
 70
    12
 71
     2
 72
     2
 73
     0
 90
        0
 40
-0.6
 41
-30.0
 62
     5
 63
     7
421
 16777215
 74
     1
 91
        4
 64
     7
 65
   257
 75
     1
175
     1
 42
1.0
 92
        8
 66
     7
 43
1.0
 76
     1
 77
     6
 78
     2
 67
     7
 79
     5
170
     0
171
     0
290
     0
174
     0
 93
        1
 44
50.0
173
     0
291
     1
 45
0.0
1001
ACAD
1000
AcDbSavedByObjectVersion
1070
     0
  0
VISUALSTYLE
  5
3A
102
{ACAD_REACTORS
330
2A
102
}
102
{ACAD_XDICTIONARY
360
117
102
}
330
2A
100
AcDbVisualStyle
  2
ColorChange
 70
    16
 71
     2
 72
     2
 73
     3
 90
        0
 40
-0.6
 41
-30.0
 62
     5
 63
     8
421
  8421504
 74
     1
 91
        4
 64
     7
 65
   257
 75
     1
175
     1
 42
1.0
 92
        8
 66
     8
424
  8421504
 43
1.0
 76
     1
 77
     6
 78
     2
 67
     7
 79
     5
170
     0
171
     0
290
     0
174
     0
 93
        1
 44
0.0
173
     0
291
     1
 45
0.0
1001
ACAD
1000
AcDbSavedByObjectVersion
1070
     0
  0
VISUALSTYLE
  5
34
102
{ACAD_REACTORS
330
2A
102
}
102
{ACAD_XDICTIONARY
360
10B
102
}
330
2A
100
AcDbVisualStyle
  2
Conceptual
 70
     9
 71
     3
 72
     2
 73
     0
 90
        0
 40
-0.6
 41
-30.0
 62
     5
 63
     7
421
 16777215
 74
     2
 91
        2
 64
     7
 65
   257
 75
     1
175
     1
 42
40.0
 92
        8
 66
     7
 43
1.0
 76
     1
 77
     6
 78
     2
 67
     7
 79
     3
170
     0
171
     0
290
     0
174
     0
 93
        1
 44
0.0
173
     0
291
     0
 45
0.0
1001
ACAD
1000
AcDbSavedByObjectVersion
1070
     0
  0
VISUALSTYLE
  5
35
102
{ACAD_REACTORS
330
2A
102
}
102
{ACAD_XDICTIONARY
360
10D
102
}
330
2A
100
AcDbVisualStyle
  2
Dim
 70
    11
 71
     2
 72
     2
 73
     0
 90
        0
 40
-0.6
 41
-30.0
 62
     5
 63
     7
421
 16777215
 74
     1
 91
        4
 64
     7
 65
   257
 75
     1
175
     1
 42
1.0
 92
        8
 66
     7
 43
1.0
 76
     1
 77
     6
 78
     2
 67
     7
 79
     5
170
     0
171
     0
290
     0
174
     0
 93
        1
 44
-50.0
173
     0
291
     1
 45
0.0
1001
ACAD
1000
AcDbSavedByObjectVersion
1070
     0
  0
VISUALSTYLE
  5
39
102
{ACAD_REACTORS
330
2A
102
}
102
{ACAD_XDICTIONARY
360
115
102
}
330
2A
100
AcDbVisualStyle
  2
Facepattern
 70
    15
 71
     2
 72
     2
 73
     0
 90
        0
 40
-0.6
 41
-30.0
 62
     5
 63
     7
421
 16777215
 74
     1
 91
        4
 64
     7
 65
   257
 75
     1
175
     1
 42
1.0
 92
        8
 66
     7
 43
1.0
 76
     1
 77
     6
 78
     2
 67
     7
 79
     5
170
     0
171
     0
290
     0
174
     0
 93
        1
 44
0.0
173
     0
291
     1
 45
0.0
1001
ACAD
1000
AcDbSavedByObjectVersion
1070
     0
  0
VISUALSTYLE
  5
2B
102
{ACAD_REACTORS
330
2A
102
}
102
{ACAD_XDICTIONARY
360
F9
102
}
330
2A
100
AcDbVisualStyle
  2
Flat
 70
     0
 71
     2
 72
     1
 73
     1
 90
        2
 40
-0.6
 41
30.0
 62
     5
 63
     7
421
 16777215
 74
     0
 91
        4
 64
     7
 65
   257
 75
     1
175
     1
 42
1.0
 92
        8
 66
     7
 43
1.0
 76
     1
 77
     6
 78
     2
 67
     7
 79
     5
170
     0
171
     0
290
     0
174
     0
 93
       13
 44
0.0
173
     0
291
     1
 45
0.0
1001
ACAD
1000
AcDbSavedByObjectVersion
1070
     0
  0
VISUALSTYLE
  5
2C
102
{ACAD_REACTORS
330
2A
102
}
102
{ACAD_XDICTIONARY
360
FB
102
}
330
2A
100
AcDbVisualStyle
  2
FlatWithEdges
 70
     1
 71
     2
 72
     1
 73
     1
 90
        2
 40
-0.6
 41
30.0
 62
     5
 63
     7
421
 16777215
 74
     1
 91
        4
 64
     7
 65
   257
 75
     1
175
     1
 42
1.0
 92
        0
 66
   257
 43
1.0
 76
     1
 77
     6
 78
     2
 67
     7
 79
     5
170
     0
171
     0
290
     0
174
     0
 93
       13
 44
0.0
173
     0
291
     1
 45
0.0
1001
ACAD
1000
AcDbSavedByObjectVersion
1070
     0
  0
VISUALSTYLE
  5
2D
102
{ACAD_REACTORS
330
2A
102
}
102
{ACAD_XDICTIONARY
360
FD
102
}
330
2A
100
AcDbVisualStyle
  2
Gouraud
 70
     2
 71
     2
 72
     2
 73
     1
 90
        2
 40
-0.6
 41
30.0
 62
     5
 63
     7
421
 16777215
 74
     0
 91
        4
 64
     7
 65
   257
 75
     1
175
     1
 42
1.0
 92
        0
 66
     7
 43
1.0
 76
     1
 77
     6
 78
     2
 67
     7
 79
     5
170
     0
171
     0
290
     0
174
     0
 93
       13
 44
0.0
173
     0
291
     1
 45
0.0
1001
ACAD
1000
AcDbSavedByObjectVersion
1070
     0
  0
VISUALSTYLE
  5
2E
102
{ACAD_REACTORS
330
2A
102
}
102
{ACAD_XDICTIONARY
360
FF
102
}
330
2A
100
AcDbVisualStyle
  2
GouraudWithEdges
 70
     3
 71
     2
 72
     2
 73
     1
 90
        2
 40
-0.6
 41
30.0
 62
     5
 63
     7
421
 16777215
 74
     1
 91
        4
 64
     7
 65
   257
 75
     1
175
     1
 42
1.0
 92
        0
 66
   257
 43
1.0
 76
     1
 77
     6
 78
     2
 67
     7
 79
     5
170
     0
171
     0
290
     0
174
     0
 93
       13
 44
0.0
173
     0
291
     1
 45
0.0
1001
ACAD
1000
AcDbSavedByObjectVersion
1070
     0
  0
VISUALSTYLE
  5
38
102
{ACAD_REACTORS
330
2A
102
}
102
{ACAD_XDICTIONARY
360
113
102
}
330
2A
100
AcDbVisualStyle
  2
Linepattern
 70
    14
 71
     2
 72
     2
 73
     0
 90
        0
 40
-0.6
 41
-30.0
 62
     5
 63
     7
421
 16777215
 74
     1
 91
        4
 64
     7
 65
   257
 75
     7
175
     7
 42
1.0
 92
        8
 66
     7
 43
1.0
 76
     1
 77
     6
 78
     2
 67
     7
 79
     5
170
     0
171
     0
290
     0
174
     0
 93
        1
 44
0.0
173
     0
291
     1
 45
0.0
1001
ACAD
1000
AcDbSavedByObjectVersion
1070
     0
  0
VISUALSTYLE
  5
33
102
{ACAD_REACTORS
330
2A
102
}
102
{ACAD_XDICTIONARY
360
109
102
}
330
2A
100
AcDbVisualStyle
  2
Realistic
 70
     8
 71
     2
 72
     2
 73
     0
 90
        0
 40
-0.6
 41
-30.0
 62
     5
 63
     7
421
 16777215
 74
     1
 91
        0
 64
     7
 65
   257
 75
     1
175
     1
 42
1.0
 92
        8
 66
     8
424
  7895160
 43
1.0
 76
     1
 77
     6
 78
     2
 67
     7
 79
     5
170
     0
171
     0
290
     0
174
     0
 93
       13
 44
0.0
173
     0
291
     0
 45
0.0
1001
ACAD
1000
AcDbSavedByObjectVersion
1070
     0
  0
VISUALSTYLE
  5
37
102
{ACAD_REACTORS
330
2A
102
}
102
{ACAD_XDICTIONARY
360
111
102
}
330
2A
100
AcDbVisualStyle
  2
Thicken
 70
    13
 71
     2
 72
     2
 73
     0
 90
        0
 40
-0.6
 41
-30.0
 62
     5
 63
     7
421
 16777215
 74
     1
 91
        4
 64
     7
 65
   257
 75
     1
175
     1
 42
1.0
 92
       12
 66
     7
 43
1.0
 76
     1
 77
     6
 78
     2
 67
     7
 79
     5
170
     0
171
     0
290
     0
174
     0
 93
        1
 44
0.0
173
     0
291
     1
 45
0.0
1001
ACAD
1000
AcDbSavedByObjectVersion
1070
     0
  0
DICTIONARYVAR
  5
F8
102
{ACAD_REACTORS
330
F7
102
}
330
F7
100
DictionaryVariables
280
     0
  1
1:1
  0
DICTIONARYVAR
  5
121
102
{ACAD_REACTORS
330
F7
102
}
330
F7
100
DictionaryVariables
280
     0
  1
0
  0
XRECORD
  5
F6
102
{ACAD_REACTORS
330
F5
102
}
330
F5
100
AcDbXrecord
280
     1
1000
This DWG file was created in ArchiCAD(TM)®
  0
DICTIONARY
  5
11B
330
3D
100
AcDbDictionary
280
     1
281
     1
  3
ACAD_XREC_ROUNDTRIP
360
11C
  0
DICTIONARY
  5
119
330
3C
100
AcDbDictionary
280
     1
281
     1
  3
ACAD_XREC_ROUNDTRIP
360
11A
  0
DICTIONARY
  5
11D
330
3E
100
AcDbDictionary
280
     1
281
     1
  3
ACAD_XREC_ROUNDTRIP
360
11E
  0
DICTIONARY
  5
101
330
2F
100
AcDbDictionary
280
     1
281
     1
  3
ACAD_XREC_ROUNDTRIP
360
102
  0
DICTIONARY
  5
105
330
31
100
AcDbDictionary
280
     1
281
     1
  3
ACAD_XREC_ROUNDTRIP
360
106
  0
DICTIONARY
  5
103
330
30
100
AcDbDictionary
280
     1
281
     1
  3
ACAD_XREC_ROUNDTRIP
360
104
  0
DICTIONARY
  5
107
330
32
100
AcDbDictionary
280
     1
281
     1
  3
ACAD_XREC_ROUNDTRIP
360
108
  0
DICTIONARY
  5
10F
330
36
100
AcDbDictionary
280
     1
281
     1
  3
ACAD_XREC_ROUNDTRIP
360
110
  0
DICTIONARY
  5
117
330
3A
100
AcDbDictionary
280
     1
281
     1
  3
ACAD_XREC_ROUNDTRIP
360
118
  0
DICTIONARY
  5
10B
330
34
100
AcDbDictionary
280
     1
281
     1
  3
ACAD_XREC_ROUNDTRIP
360
10C
  0
DICTIONARY
  5
10D
330
35
100
AcDbDictionary
280
     1
281
     1
  3
ACAD_XREC_ROUNDTRIP
360
10E
  0
DICTIONARY
  5
115
330
39
100
AcDbDictionary
280
     1
281
     1
  3
ACAD_XREC_ROUNDTRIP
360
116
  0
DICTIONARY
  5
F9
330
2B
100
AcDbDictionary
280
     1
281
     1
  3
ACAD_XREC_ROUNDTRIP
360
FA
  0
DICTIONARY
  5
FB
330
2C
100
AcDbDictionary
280
     1
281
     1
  3
ACAD_XREC_ROUNDTRIP
360
FC
  0
DICTIONARY
  5
FD
330
2D
100
AcDbDictionary
280
     1
281
     1
  3
ACAD_XREC_ROUNDTRIP
360
FE
  0
DICTIONARY
  5
FF
330
2E
100
AcDbDictionary
280
     1
281
     1
  3
ACAD_XREC_ROUNDTRIP
360
100
  0
DICTIONARY
  5
113
330
38
100
AcDbDictionary
280
     1
281
     1
  3
ACAD_XREC_ROUNDTRIP
360
114
  0
DICTIONARY
  5
109
330
33
100
AcDbDictionary
280
     1
281
     1
  3
ACAD_XREC_ROUNDTRIP
360
10A
  0
DICTIONARY
  5
111
330
37
100
AcDbDictionary
280
     1
281
     1
  3
ACAD_XREC_ROUNDTRIP
360
112
  0
XRECORD
  5
11C
102
{ACAD_REACTORS
330
11B
102
}
330
11B
100
AcDbXrecord
280
     1
102
MATERIAL
148
0.0
149
0.0
149
0.0
 93
        0
 94
      127
282
     0
 72
     1
 77
     1
171
     1
175
     1
179
     1
273
     0
  0
XRECORD
  5
11A
102
{ACAD_REACTORS
330
119
102
}
330
119
100
AcDbXrecord
280
     1
102
MATERIAL
148
0.0
149
0.0
149
0.0
 93
        0
 94
      127
282
     0
 72
     1
 77
     1
171
     1
175
     1
179
     1
273
     0
  0
XRECORD
  5
11E
102
{ACAD_REACTORS
330
11D
102
}
330
11D
100
AcDbXrecord
280
     1
102
MATERIAL
148
0.0
149
0.0
149
0.0
 93
        0
 94
      127
282
     0
 72
     1
 77
     1
171
     1
175
     1
179
     1
273
     0
  0
XRECORD
  5
102
102
{ACAD_REACTORS
330
101
102
}
330
101
100
AcDbXrecord
280
     1
102
RTVSPropertyOp0
 70
     1
102
RTVSPropertyOp1
 70
     1
102
RTVSPropertyOp2
 70
     1
102
RTVSPropertyOp3
 70
     1
102
RTVSPropertyOp4
 70
     1
102
RTVSPropertyOp5
 70
     1
102
RTVSPropertyOp6
 70
     1
102
RTVSPropertyOp7
 70
     1
102
RTVSPropertyOp8
 70
     1
102
RTVSPropertyOp9
 70
     1
102
RTVSPropertyOp10
 70
     1
102
RTVSPropertyOp11
 70
     1
102
RTVSPropertyOp12
 70
     1
102
RTVSPropertyOp13
 70
     1
102
RTVSPropertyOp14
 70
     1
102
RTVSPropertyOp15
 70
     1
102
RTVSPropertyOp16
 70
     1
102
RTVSPropertyOp17
 70
     1
102
RTVSPropertyOp18
 70
     1
102
RTVSPropertyOp19
 70
     1
102
RTVSPropertyOp20
 70
     1
102
RTVSPropertyOp21
 70
     1
102
RTVSPropertyOp22
 70
     1
102
RTVSPropertyOp23
 70
     1
102
RTVSPropertyOp24
 70
     1
102
RTVSPropertyOp25
 70
     1
102
RTVSPropertyOp26
 70
     1
102
RTVSPropertyOp27
 70
     1
102
RTVSPropertyOp28
 70
     1
102
RTVSPropertyOp29
 70
     1
102
RTVSPropertyOp30
 70
     1
102
RTVSPropertyOp31
 70
     1
102
RTVSPropertyOp32
 70
     1
  0
XRECORD
  5
106
102
{ACAD_REACTORS
330
105
102
}
330
105
100
AcDbXrecord
280
     1
102
RTVSPropertyOp0
 70
     1
102
RTVSPropertyOp1
 70
     1
102
RTVSPropertyOp2
 70
     1
102
RTVSPropertyOp3
 70
     1
102
RTVSPropertyOp4
 70
     1
102
RTVSPropertyOp5
 70
     1
102
RTVSPropertyOp6
 70
     1
102
RTVSPropertyOp7
 70
     1
102
RTVSPropertyOp8
 70
     1
102
RTVSPropertyOp9
 70
     1
102
RTVSPropertyOp10
 70
     1
102
RTVSPropertyOp11
 70
     1
102
RTVSPropertyOp12
 70
     1
102
RTVSPropertyOp13
 70
     1
102
RTVSPropertyOp14
 70
     1
102
RTVSPropertyOp15
 70
     1
102
RTVSPropertyOp16
 70
     1
102
RTVSPropertyOp17
 70
     1
102
RTVSPropertyOp18
 70
     1
102
RTVSPropertyOp19
 70
     1
102
RTVSPropertyOp20
 70
     1
102
RTVSPropertyOp21
 70
     1
102
RTVSPropertyOp22
 70
     1
102
RTVSPropertyOp23
 70
     1
102
RTVSPropertyOp24
 70
     1
102
RTVSPropertyOp25
 70
     1
102
RTVSPropertyOp26
 70
     1
102
RTVSPropertyOp27
 70
     1
102
RTVSPropertyOp28
 70
     1
102
RTVSPropertyOp29
 70
     1
102
RTVSPropertyOp30
 70
     1
102
RTVSPropertyOp31
 70
     1
102
RTVSPropertyOp32
 70
     1
  0
XRECORD
  5
104
102
{ACAD_REACTORS
330
103
102
}
330
103
100
AcDbXrecord
280
     1
102
RTVSPropertyOp0
 70
     1
102
RTVSPropertyOp1
 70
     1
102
RTVSPropertyOp2
 70
     1
102
RTVSPropertyOp3
 70
     1
102
RTVSPropertyOp4
 70
     1
102
RTVSPropertyOp5
 70
     1
102
RTVSPropertyOp6
 70
     1
102
RTVSPropertyOp7
 70
     1
102
RTVSPropertyOp8
 70
     1
102
RTVSPropertyOp9
 70
     1
102
RTVSPropertyOp10
 70
     1
102
RTVSPropertyOp11
 70
     1
102
RTVSPropertyOp12
 70
     1
102
RTVSPropertyOp13
 70
     1
102
RTVSPropertyOp14
 70
     1
102
RTVSPropertyOp15
 70
     1
102
RTVSPropertyOp16
 70
     1
102
RTVSPropertyOp17
 70
     1
102
RTVSPropertyOp18
 70
     1
102
RTVSPropertyOp19
 70
     1
102
RTVSPropertyOp20
 70
     1
102
RTVSPropertyOp21
 70
     1
102
RTVSPropertyOp22
 70
     1
102
RTVSPropertyOp23
 70
     1
102
RTVSPropertyOp24
 70
     1
102
RTVSPropertyOp25
 70
     1
102
RTVSPropertyOp26
 70
     1
102
RTVSPropertyOp27
 70
     1
102
RTVSPropertyOp28
 70
     1
102
RTVSPropertyOp29
 70
     1
102
RTVSPropertyOp30
 70
     1
102
RTVSPropertyOp31
 70
     1
102
RTVSPropertyOp32
 70
     1
  0
XRECORD
  5
108
102
{ACAD_REACTORS
330
107
102
}
330
107
100
AcDbXrecord
280
     1
102
RTVSPropertyOp0
 70
     1
102
RTVSPropertyOp1
 70
     1
102
RTVSPropertyOp2
 70
     1
102
RTVSPropertyOp3
 70
     1
102
RTVSPropertyOp4
 70
     1
102
RTVSPropertyOp5
 70
     1
102
RTVSPropertyOp6
 70
     1
102
RTVSPropertyOp7
 70
     1
102
RTVSPropertyOp8
 70
     1
102
RTVSPropertyOp9
 70
     1
102
RTVSPropertyOp10
 70
     1
102
RTVSPropertyOp11
 70
     1
102
RTVSPropertyOp12
 70
     1
102
RTVSPropertyOp13
 70
     1
102
RTVSPropertyOp14
 70
     1
102
RTVSPropertyOp15
 70
     1
102
RTVSPropertyOp16
 70
     1
102
RTVSPropertyOp17
 70
     1
102
RTVSPropertyOp18
 70
     1
102
RTVSPropertyOp19
 70
     1
102
RTVSPropertyOp20
 70
     1
102
RTVSPropertyOp21
 70
     1
102
RTVSPropertyOp22
 70
     1
102
RTVSPropertyOp23
 70
     1
102
RTVSPropertyOp24
 70
     1
102
RTVSPropertyOp25
 70
     1
102
RTVSPropertyOp26
 70
     1
102
RTVSPropertyOp27
 70
     1
102
RTVSPropertyOp28
 70
     1
102
RTVSPropertyOp29
 70
     1
102
RTVSPropertyOp30
 70
     1
102
RTVSPropertyOp31
 70
     1
102
RTVSPropertyOp32
 70
     1
  0
XRECORD
  5
110
102
{ACAD_REACTORS
330
10F
102
}
330
10F
100
AcDbXrecord
280
     1
102
RTVSPropertyOp0
 70
     1
102
RTVSPropertyOp1
 70
     1
102
RTVSPropertyOp2
 70
     1
102
RTVSPropertyOp3
 70
     1
102
RTVSPropertyOp4
 70
     1
102
RTVSPropertyOp5
 70
     1
102
RTVSPropertyOp6
 70
     1
102
RTVSPropertyOp7
 70
     1
102
RTVSPropertyOp8
 70
     1
102
RTVSPropertyOp9
 70
     1
102
RTVSPropertyOp10
 70
     1
102
RTVSPropertyOp11
 70
     1
102
RTVSPropertyOp12
 70
     1
102
RTVSPropertyOp13
 70
     1
102
RTVSPropertyOp14
 70
     1
102
RTVSPropertyOp15
 70
     1
102
RTVSPropertyOp16
 70
     1
102
RTVSPropertyOp17
 70
     1
102
RTVSPropertyOp18
 70
     1
102
RTVSPropertyOp19
 70
     1
102
RTVSPropertyOp20
 70
     1
102
RTVSPropertyOp21
 70
     1
102
RTVSPropertyOp22
 70
     1
102
RTVSPropertyOp23
 70
     1
102
RTVSPropertyOp24
 70
     1
102
RTVSPropertyOp25
 70
     1
102
RTVSPropertyOp26
 70
     1
102
RTVSPropertyOp27
 70
     1
102
RTVSPropertyOp28
 70
     1
102
RTVSPropertyOp29
 70
     1
102
RTVSPropertyOp30
 70
     1
102
RTVSPropertyOp31
 70
     1
102
RTVSPropertyOp32
 70
     1
  0
XRECORD
  5
118
102
{ACAD_REACTORS
330
117
102
}
330
117
100
AcDbXrecord
280
     1
102
RTVSPropertyOp0
 70
     1
102
RTVSPropertyOp1
 70
     1
102
RTVSPropertyOp2
 70
     1
102
RTVSPropertyOp3
 70
     1
102
RTVSPropertyOp4
 70
     1
102
RTVSPropertyOp5
 70
     1
102
RTVSPropertyOp6
 70
     1
102
RTVSPropertyOp7
 70
     1
102
RTVSPropertyOp8
 70
     1
102
RTVSPropertyOp9
 70
     1
102
RTVSPropertyOp10
 70
     1
102
RTVSPropertyOp11
 70
     1
102
RTVSPropertyOp12
 70
     1
102
RTVSPropertyOp13
 70
     1
102
RTVSPropertyOp14
 70
     1
102
RTVSPropertyOp15
 70
     1
102
RTVSPropertyOp16
 70
     1
102
RTVSPropertyOp17
 70
     1
102
RTVSPropertyOp18
 70
     1
102
RTVSPropertyOp19
 70
     1
102
RTVSPropertyOp20
 70
     1
102
RTVSPropertyOp21
 70
     1
102
RTVSPropertyOp22
 70
     1
102
RTVSPropertyOp23
 70
     1
102
RTVSPropertyOp24
 70
     1
102
RTVSPropertyOp25
 70
     1
102
RTVSPropertyOp26
 70
     1
102
RTVSPropertyOp27
 70
     1
102
RTVSPropertyOp28
 70
     1
102
RTVSPropertyOp29
 70
     1
102
RTVSPropertyOp30
 70
     1
102
RTVSPropertyOp31
 70
     1
102
RTVSPropertyOp32
 70
     1
  0
XRECORD
  5
10C
102
{ACAD_REACTORS
330
10B
102
}
330
10B
100
AcDbXrecord
280
     1
102
RTVSPropertyOp0
 70
     1
102
RTVSPropertyOp1
 70
     1
102
RTVSPropertyOp2
 70
     1
102
RTVSPropertyOp3
 70
     1
102
RTVSPropertyOp4
 70
     1
102
RTVSPropertyOp5
 70
     1
102
RTVSPropertyOp6
 70
     1
102
RTVSPropertyOp7
 70
     1
102
RTVSPropertyOp8
 70
     1
102
RTVSPropertyOp9
 70
     1
102
RTVSPropertyOp10
 70
     1
102
RTVSPropertyOp11
 70
     1
102
RTVSPropertyOp12
 70
     1
102
RTVSPropertyOp13
 70
     1
102
RTVSPropertyOp14
 70
     1
102
RTVSPropertyOp15
 70
     1
102
RTVSPropertyOp16
 70
     1
102
RTVSPropertyOp17
 70
     1
102
RTVSPropertyOp18
 70
     1
102
RTVSPropertyOp19
 70
     1
102
RTVSPropertyOp20
 70
     1
102
RTVSPropertyOp21
 70
     1
102
RTVSPropertyOp22
 70
     1
102
RTVSPropertyOp23
 70
     1
102
RTVSPropertyOp24
 70
     1
102
RTVSPropertyOp25
 70
     1
102
RTVSPropertyOp26
 70
     1
102
RTVSPropertyOp27
 70
     1
102
RTVSPropertyOp28
 70
     1
102
RTVSPropertyOp29
 70
     1
102
RTVSPropertyOp30
 70
     1
102
RTVSPropertyOp31
 70
     1
102
RTVSPropertyOp32
 70
     1
  0
XRECORD
  5
10E
102
{ACAD_REACTORS
330
10D
102
}
330
10D
100
AcDbXrecord
280
     1
102
RTVSPropertyOp0
 70
     1
102
RTVSPropertyOp1
 70
     1
102
RTVSPropertyOp2
 70
     1
102
RTVSPropertyOp3
 70
     1
102
RTVSPropertyOp4
 70
     1
102
RTVSPropertyOp5
 70
     1
102
RTVSPropertyOp6
 70
     1
102
RTVSPropertyOp7
 70
     1
102
RTVSPropertyOp8
 70
     1
102
RTVSPropertyOp9
 70
     1
102
RTVSPropertyOp10
 70
     1
102
RTVSPropertyOp11
 70
     1
102
RTVSPropertyOp12
 70
     1
102
RTVSPropertyOp13
 70
     1
102
RTVSPropertyOp14
 70
     1
102
RTVSPropertyOp15
 70
     1
102
RTVSPropertyOp16
 70
     1
102
RTVSPropertyOp17
 70
     1
102
RTVSPropertyOp18
 70
     1
102
RTVSPropertyOp19
 70
     1
102
RTVSPropertyOp20
 70
     1
102
RTVSPropertyOp21
 70
     1
102
RTVSPropertyOp22
 70
     1
102
RTVSPropertyOp23
 70
     1
102
RTVSPropertyOp24
 70
     1
102
RTVSPropertyOp25
 70
     1
102
RTVSPropertyOp26
 70
     1
102
RTVSPropertyOp27
 70
     1
102
RTVSPropertyOp28
 70
     1
102
RTVSPropertyOp29
 70
     1
102
RTVSPropertyOp30
 70
     1
102
RTVSPropertyOp31
 70
     1
102
RTVSPropertyOp32
 70
     1
  0
XRECORD
  5
116
102
{ACAD_REACTORS
330
115
102
}
330
115
100
AcDbXrecord
280
     1
102
RTVSPropertyOp0
 70
     1
102
RTVSPropertyOp1
 70
     1
102
RTVSPropertyOp2
 70
     1
102
RTVSPropertyOp3
 70
     1
102
RTVSPropertyOp4
 70
     1
102
RTVSPropertyOp5
 70
     1
102
RTVSPropertyOp6
 70
     1
102
RTVSPropertyOp7
 70
     1
102
RTVSPropertyOp8
 70
     1
102
RTVSPropertyOp9
 70
     1
102
RTVSPropertyOp10
 70
     1
102
RTVSPropertyOp11
 70
     1
102
RTVSPropertyOp12
 70
     1
102
RTVSPropertyOp13
 70
     1
102
RTVSPropertyOp14
 70
     1
102
RTVSPropertyOp15
 70
     1
102
RTVSPropertyOp16
 70
     1
102
RTVSPropertyOp17
 70
     1
102
RTVSPropertyOp18
 70
     1
102
RTVSPropertyOp19
 70
     1
102
RTVSPropertyOp20
 70
     1
102
RTVSPropertyOp21
 70
     1
102
RTVSPropertyOp22
 70
     1
102
RTVSPropertyOp23
 70
     1
102
RTVSPropertyOp24
 70
     1
102
RTVSPropertyOp25
 70
     1
102
RTVSPropertyOp26
 70
     1
102
RTVSPropertyOp27
 70
     1
102
RTVSPropertyOp28
 70
     1
102
RTVSPropertyOp29
 70
     1
102
RTVSPropertyOp30
 70
     1
102
RTVSPropertyOp31
 70
     1
102
RTVSPropertyOp32
 70
     1
  0
XRECORD
  5
FA
102
{ACAD_REACTORS
330
F9
102
}
330
F9
100
AcDbXrecord
280
     1
102
RTVSPropertyOp0
 70
     1
102
RTVSPropertyOp1
 70
     1
102
RTVSPropertyOp2
 70
     1
102
RTVSPropertyOp3
 70
     1
102
RTVSPropertyOp4
 70
     1
102
RTVSPropertyOp5
 70
     1
102
RTVSPropertyOp6
 70
     1
102
RTVSPropertyOp7
 70
     1
102
RTVSPropertyOp8
 70
     1
102
RTVSPropertyOp9
 70
     1
102
RTVSPropertyOp10
 70
     1
102
RTVSPropertyOp11
 70
     1
102
RTVSPropertyOp12
 70
     1
102
RTVSPropertyOp13
 70
     1
102
RTVSPropertyOp14
 70
     1
102
RTVSPropertyOp15
 70
     1
102
RTVSPropertyOp16
 70
     1
102
RTVSPropertyOp17
 70
     1
102
RTVSPropertyOp18
 70
     1
102
RTVSPropertyOp19
 70
     1
102
RTVSPropertyOp20
 70
     1
102
RTVSPropertyOp21
 70
     1
102
RTVSPropertyOp22
 70
     1
102
RTVSPropertyOp23
 70
     1
102
RTVSPropertyOp24
 70
     1
102
RTVSPropertyOp25
 70
     1
102
RTVSPropertyOp26
 70
     1
102
RTVSPropertyOp27
 70
     1
102
RTVSPropertyOp28
 70
     1
102
RTVSPropertyOp29
 70
     1
102
RTVSPropertyOp30
 70
     1
102
RTVSPropertyOp31
 70
     1
102
RTVSPropertyOp32
 70
     1
  0
XRECORD
  5
FC
102
{ACAD_REACTORS
330
FB
102
}
330
FB
100
AcDbXrecord
280
     1
102
RTVSPropertyOp0
 70
     1
102
RTVSPropertyOp1
 70
     1
102
RTVSPropertyOp2
 70
     1
102
RTVSPropertyOp3
 70
     1
102
RTVSPropertyOp4
 70
     1
102
RTVSPropertyOp5
 70
     1
102
RTVSPropertyOp6
 70
     1
102
RTVSPropertyOp7
 70
     1
102
RTVSPropertyOp8
 70
     1
102
RTVSPropertyOp9
 70
     1
102
RTVSPropertyOp10
 70
     1
102
RTVSPropertyOp11
 70
     1
102
RTVSPropertyOp12
 70
     1
102
RTVSPropertyOp13
 70
     1
102
RTVSPropertyOp14
 70
     1
102
RTVSPropertyOp15
 70
     1
102
RTVSPropertyOp16
 70
     1
102
RTVSPropertyOp17
 70
     1
102
RTVSPropertyOp18
 70
     1
102
RTVSPropertyOp19
 70
     1
102
RTVSPropertyOp20
 70
     1
102
RTVSPropertyOp21
 70
     1
102
RTVSPropertyOp22
 70
     1
102
RTVSPropertyOp23
 70
     1
102
RTVSPropertyOp24
 70
     1
102
RTVSPropertyOp25
 70
     1
102
RTVSPropertyOp26
 70
     1
102
RTVSPropertyOp27
 70
     1
102
RTVSPropertyOp28
 70
     1
102
RTVSPropertyOp29
 70
     1
102
RTVSPropertyOp30
 70
     1
102
RTVSPropertyOp31
 70
     1
102
RTVSPropertyOp32
 70
     1
  0
XRECORD
  5
FE
102
{ACAD_REACTORS
330
FD
102
}
330
FD
100
AcDbXrecord
280
     1
102
RTVSPropertyOp0
 70
     1
102
RTVSPropertyOp1
 70
     1
102
RTVSPropertyOp2
 70
     1
102
RTVSPropertyOp3
 70
     1
102
RTVSPropertyOp4
 70
     1
102
RTVSPropertyOp5
 70
     1
102
RTVSPropertyOp6
 70
     1
102
RTVSPropertyOp7
 70
     1
102
RTVSPropertyOp8
 70
     1
102
RTVSPropertyOp9
 70
     1
102
RTVSPropertyOp10
 70
     1
102
RTVSPropertyOp11
 70
     1
102
RTVSPropertyOp12
 70
     1
102
RTVSPropertyOp13
 70
     1
102
RTVSPropertyOp14
 70
     1
102
RTVSPropertyOp15
 70
     1
102
RTVSPropertyOp16
 70
     1
102
RTVSPropertyOp17
 70
     1
102
RTVSPropertyOp18
 70
     1
102
RTVSPropertyOp19
 70
     1
102
RTVSPropertyOp20
 70
     1
102
RTVSPropertyOp21
 70
     1
102
RTVSPropertyOp22
 70
     1
102
RTVSPropertyOp23
 70
     1
102
RTVSPropertyOp24
 70
     1
102
RTVSPropertyOp25
 70
     1
102
RTVSPropertyOp26
 70
     1
102
RTVSPropertyOp27
 70
     1
102
RTVSPropertyOp28
 70
     1
102
RTVSPropertyOp29
 70
     1
102
RTVSPropertyOp30
 70
     1
102
RTVSPropertyOp31
 70
     1
102
RTVSPropertyOp32
 70
     1
  0
XRECORD
  5
100
102
{ACAD_REACTORS
330
FF
102
}
330
FF
100
AcDbXrecord
280
     1
102
RTVSPropertyOp0
 70
     1
102
RTVSPropertyOp1
 70
     1
102
RTVSPropertyOp2
 70
     1
102
RTVSPropertyOp3
 70
     1
102
RTVSPropertyOp4
 70
     1
102
RTVSPropertyOp5
 70
     1
102
RTVSPropertyOp6
 70
     1
102
RTVSPropertyOp7
 70
     1
102
RTVSPropertyOp8
 70
     1
102
RTVSPropertyOp9
 70
     1
102
RTVSPropertyOp10
 70
     1
102
RTVSPropertyOp11
 70
     1
102
RTVSPropertyOp12
 70
     1
102
RTVSPropertyOp13
 70
     1
102
RTVSPropertyOp14
 70
     1
102
RTVSPropertyOp15
 70
     1
102
RTVSPropertyOp16
 70
     1
102
RTVSPropertyOp17
 70
     1
102
RTVSPropertyOp18
 70
     1
102
RTVSPropertyOp19
 70
     1
102
RTVSPropertyOp20
 70
     1
102
RTVSPropertyOp21
 70
     1
102
RTVSPropertyOp22
 70
     1
102
RTVSPropertyOp23
 70
     1
102
RTVSPropertyOp24
 70
     1
102
RTVSPropertyOp25
 70
     1
102
RTVSPropertyOp26
 70
     1
102
RTVSPropertyOp27
 70
     1
102
RTVSPropertyOp28
 70
     1
102
RTVSPropertyOp29
 70
     1
102
RTVSPropertyOp30
 70
     1
102
RTVSPropertyOp31
 70
     1
102
RTVSPropertyOp32
 70
     1
  0
XRECORD
  5
114
102
{ACAD_REACTORS
330
113
102
}
330
113
100
AcDbXrecord
280
     1
102
RTVSPropertyOp0
 70
     1
102
RTVSPropertyOp1
 70
     1
102
RTVSPropertyOp2
 70
     1
102
RTVSPropertyOp3
 70
     1
102
RTVSPropertyOp4
 70
     1
102
RTVSPropertyOp5
 70
     1
102
RTVSPropertyOp6
 70
     1
102
RTVSPropertyOp7
 70
     1
102
RTVSPropertyOp8
 70
     1
102
RTVSPropertyOp9
 70
     1
102
RTVSPropertyOp10
 70
     1
102
RTVSPropertyOp11
 70
     1
102
RTVSPropertyOp12
 70
     1
102
RTVSPropertyOp13
 70
     1
102
RTVSPropertyOp14
 70
     1
102
RTVSPropertyOp15
 70
     1
102
RTVSPropertyOp16
 70
     1
102
RTVSPropertyOp17
 70
     1
102
RTVSPropertyOp18
 70
     1
102
RTVSPropertyOp19
 70
     1
102
RTVSPropertyOp20
 70
     1
102
RTVSPropertyOp21
 70
     1
102
RTVSPropertyOp22
 70
     1
102
RTVSPropertyOp23
 70
     1
102
RTVSPropertyOp24
 70
     1
102
RTVSPropertyOp25
 70
     1
102
RTVSPropertyOp26
 70
     1
102
RTVSPropertyOp27
 70
     1
102
RTVSPropertyOp28
 70
     1
102
RTVSPropertyOp29
 70
     1
102
RTVSPropertyOp30
 70
     1
102
RTVSPropertyOp31
 70
     1
102
RTVSPropertyOp32
 70
     1
  0
XRECORD
  5
10A
102
{ACAD_REACTORS
330
109
102
}
330
109
100
AcDbXrecord
280
     1
102
RTVSPropertyOp0
 70
     1
102
RTVSPropertyOp1
 70
     1
102
RTVSPropertyOp2
 70
     1
102
RTVSPropertyOp3
 70
     1
102
RTVSPropertyOp4
 70
     1
102
RTVSPropertyOp5
 70
     1
102
RTVSPropertyOp6
 70
     1
102
RTVSPropertyOp7
 70
     1
102
RTVSPropertyOp8
 70
     1
102
RTVSPropertyOp9
 70
     1
102
RTVSPropertyOp10
 70
     1
102
RTVSPropertyOp11
 70
     1
102
RTVSPropertyOp12
 70
     1
102
RTVSPropertyOp13
 70
     1
102
RTVSPropertyOp14
 70
     1
102
RTVSPropertyOp15
 70
     1
102
RTVSPropertyOp16
 70
     1
102
RTVSPropertyOp17
 70
     1
102
RTVSPropertyOp18
 70
     1
102
RTVSPropertyOp19
 70
     1
102
RTVSPropertyOp20
 70
     1
102
RTVSPropertyOp21
 70
     1
102
RTVSPropertyOp22
 70
     1
102
RTVSPropertyOp23
 70
     1
102
RTVSPropertyOp24
 70
     1
102
RTVSPropertyOp25
 70
     1
102
RTVSPropertyOp26
 70
     1
102
RTVSPropertyOp27
 70
     1
102
RTVSPropertyOp28
 70
     1
102
RTVSPropertyOp29
 70
     1
102
RTVSPropertyOp30
 70
     1
102
RTVSPropertyOp31
 70
     1
102
RTVSPropertyOp32
 70
     1
  0
XRECORD
  5
112
102
{ACAD_REACTORS
330
111
102
}
330
111
100
AcDbXrecord
280
     1
102
RTVSPropertyOp0
 70
     1
102
RTVSPropertyOp1
 70
     1
102
RTVSPropertyOp2
 70
     1
102
RTVSPropertyOp3
 70
     1
102
RTVSPropertyOp4
 70
     1
102
RTVSPropertyOp5
 70
     1
102
RTVSPropertyOp6
 70
     1
102
RTVSPropertyOp7
 70
     1
102
RTVSPropertyOp8
 70
     1
102
RTVSPropertyOp9
 70
     1
102
RTVSPropertyOp10
 70
     1
102
RTVSPropertyOp11
 70
     1
102
RTVSPropertyOp12
 70
     1
102
RTVSPropertyOp13
 70
     1
102
RTVSPropertyOp14
 70
     1
102
RTVSPropertyOp15
 70
     1
102
RTVSPropertyOp16
 70
     1
102
RTVSPropertyOp17
 70
     1
102
RTVSPropertyOp18
 70
     1
102
RTVSPropertyOp19
 70
     1
102
RTVSPropertyOp20
 70
     1
102
RTVSPropertyOp21
 70
     1
102
RTVSPropertyOp22
 70
     1
102
RTVSPropertyOp23
 70
     1
102
RTVSPropertyOp24
 70
     1
102
RTVSPropertyOp25
 70
     1
102
RTVSPropertyOp26
 70
     1
102
RTVSPropertyOp27
 70
     1
102
RTVSPropertyOp28
 70
     1
102
RTVSPropertyOp29
 70
     1
102
RTVSPropertyOp30
 70
     1
102
RTVSPropertyOp31
 70
     1
102
RTVSPropertyOp32
 70
     1
  0
ENDSEC
  0
EOF
