  0
SECTION
  2
HEADER
  9
$ACADVER
  1
AC1018
  9
$ACADMAINTVER
 70
     0
  9
$DWGCODEPAGE
  3
ANSI_1252
  9
$INSBASE
 10
0.0
 20
0.0
 30
0.0
  9
$EXTMIN
 10
1.000000000000000E+20
 20
1.000000000000000E+20
 30
1.000000000000000E+20
  9
$EXTMAX
 10
-1.000000000000000E+20
 20
-1.000000000000000E+20
 30
-1.000000000000000E+20
  9
$LIMMIN
 10
0.0
 20
0.0
  9
$LIMMAX
 10
12.0
 20
9.0
  9
$ORTHOMODE
 70
     0
  9
$REGENMODE
 70
     1
  9
$FILLMODE
 70
     1
  9
$QTEXTMODE
 70
     0
  9
$MIRRTEXT
 70
     1
  9
$LTSCALE
 40
1.0
  9
$ATTMODE
 70
     1
  9
$TEXTSIZE
 40
0.2
  9
$TRACEWID
 40
0.05
  9
$TEXTSTYLE
  7
Standard
  9
$CLAYER
  8
0
  9
$CELTYPE
  6
ByLayer
  9
$CECOLOR
 62
   256
  9
$CELTSCALE
 40
1.0
  9
$DISPSILH
 70
     0
  9
$DIMSCALE
 40
1.0
  9
$DIMASZ
 40
0.18
  9
$DIMEXO
 40
0.0625
  9
$DIMDLI
 40
0.38
  9
$DIMRND
 40
0.0
  9
$DIMDLE
 40
0.0
  9
$DIMEXE
 40
0.18
  9
$DIMTP
 40
0.0
  9
$DIMTM
 40
0.0
  9
$DIMTXT
 40
0.18
  9
$DIMCEN
 40
0.09
  9
$DIMTSZ
 40
0.0
  9
$DIMTOL
 70
     0
  9
$DIMLIM
 70
     0
  9
$DIMTIH
 70
     1
  9
$DIMTOH
 70
     1
  9
$DIMSE1
 70
     0
  9
$DIMSE2
 70
     0
  9
$DIMTAD
 70
     0
  9
$DIMZIN
 70
     0
  9
$DIMBLK
  1

  9
$DIMASO
 70
     1
  9
$DIMSHO
 70
     1
  9
$DIMPOST
  1

  9
$DIMAPOST
  1

  9
$DIMALT
 70
     0
  9
$DIMALTD
 70
     2
  9
$DIMALTF
 40
25.4
  9
$DIMLFAC
 40
1.0
  9
$DIMTOFL
 70
     0
  9
$DIMTVP
 40
0.0
  9
$DIMTIX
 70
     0
  9
$DIMSOXD
 70
     0
  9
$DIMSAH
 70
     0
  9
$DIMBLK1
  1

  9
$DIMBLK2
  1

  9
$DIMSTYLE
  2
Standard
  9
$DIMCLRD
 70
     0
  9
$DIMCLRE
 70
     0
  9
$DIMCLRT
 70
     0
  9
$DIMTFAC
 40
1.0
  9
$DIMGAP
 40
0.09
  9
$DIMJUST
 70
     0
  9
$DIMSD1
 70
     0
  9
$DIMSD2
 70
     0
  9
$DIMTOLJ
 70
     1
  9
$DIMTZIN
 70
     0
  9
$DIMALTZ
 70
     0
  9
$DIMALTTZ
 70
     0
  9
$DIMUPT
 70
     0
  9
$DIMDEC
 70
     4
  9
$DIMTDEC
 70
     4
  9
$DIMALTU
 70
     2
  9
$DIMALTTD
 70
     2
  9
$DIMTXSTY
  7
Standard
  9
$DIMAUNIT
 70
     0
  9
$DIMADEC
 70
     0
  9
$DIMALTRND
 40
0.0
  9
$DIMAZIN
 70
     0
  9
$DIMDSEP
 70
    46
  9
$DIMATFIT
 70
     3
  9
$DIMFRAC
 70
     0
  9
$DIMLDRBLK
  1

  9
$DIMLUNIT
 70
     2
  9
$DIMLWD
 70
    -2
  9
$DIMLWE
 70
    -2
  9
$DIMTMOVE
 70
     0
  9
$LUNITS
 70
     2
  9
$LUPREC
 70
     4
  9
$SKETCHINC
 40
0.1
  9
$FILLETRAD
 40
0.5
  9
$AUNITS
 70
     0
  9
$AUPREC
 70
     0
  9
$MENU
  1
.
  9
$ELEVATION
 40
0.0
  9
$PELEVATION
 40
0.0
  9
$THICKNESS
 40
0.0
  9
$LIMCHECK
 70
     0
  9
$CHAMFERA
 40
0.5
  9
$CHAMFERB
 40
0.5
  9
$CHAMFERC
 40
1.0
  9
$CHAMFERD
 40
0.0
  9
$SKPOLY
 70
     0
  9
$TDCREATE
 40
2457878.709566481
  9
$TDUCREATE
 40
2457878.209566481
  9
$TDUPDATE
 40
2457878.709574711
  9
$TDUUPDATE
 40
2457878.209574711
  9
$TDINDWG
 40
0.0000000116
  9
$TDUSRTIMER
 40
0.0000000116
  9
$USRTIMER
 70
     1
  9
$ANGBASE
 50
0.0
  9
$ANGDIR
 70
     0
  9
$PDMODE
 70
     0
  9
$PDSIZE
 40
0.0
  9
$PLINEWID
 40
0.0
  9
$SPLFRAME
 70
     0
  9
$SPLINETYPE
 70
     6
  9
$SPLINESEGS
 70
     8
  9
$HANDSEED
  5
2FD
  9
$SURFTAB1
 70
     6
  9
$SURFTAB2
 70
     6
  9
$SURFTYPE
 70
     6
  9
$SURFU
 70
     6
  9
$SURFV
 70
     6
  9
$UCSBASE
  2

  9
$UCSNAME
  2

  9
$UCSORG
 10
0.0
 20
0.0
 30
0.0
  9
$UCSXDIR
 10
1.0
 20
0.0
 30
0.0
  9
$UCSYDIR
 10
0.0
 20
1.0
 30
0.0
  9
$UCSORTHOREF
  2

  9
$UCSORTHOVIEW
 70
     0
  9
$UCSORGTOP
 10
0.0
 20
0.0
 30
0.0
  9
$UCSORGBOTTOM
 10
0.0
 20
0.0
 30
0.0
  9
$UCSORGLEFT
 10
0.0
 20
0.0
 30
0.0
  9
$UCSORGRIGHT
 10
0.0
 20
0.0
 30
0.0
  9
$UCSORGFRONT
 10
0.0
 20
0.0
 30
0.0
  9
$UCSORGBACK
 10
0.0
 20
0.0
 30
0.0
  9
$PUCSBASE
  2

  9
$PUCSNAME
  2

  9
$PUCSORG
 10
0.0
 20
0.0
 30
0.0
  9
$PUCSXDIR
 10
1.0
 20
0.0
 30
0.0
  9
$PUCSYDIR
 10
0.0
 20
1.0
 30
0.0
  9
$PUCSORTHOREF
  2

  9
$PUCSORTHOVIEW
 70
     0
  9
$PUCSORGTOP
 10
0.0
 20
0.0
 30
0.0
  9
$PUCSORGBOTTOM
 10
0.0
 20
0.0
 30
0.0
  9
$PUCSORGLEFT
 10
0.0
 20
0.0
 30
0.0
  9
$PUCSORGRIGHT
 10
0.0
 20
0.0
 30
0.0
  9
$PUCSORGFRONT
 10
0.0
 20
0.0
 30
0.0
  9
$PUCSORGBACK
 10
0.0
 20
0.0
 30
0.0
  9
$USERI1
 70
     0
  9
$USERI2
 70
     0
  9
$USERI3
 70
     0
  9
$USERI4
 70
     0
  9
$USERI5
 70
     0
  9
$USERR1
 40
0.0
  9
$USERR2
 40
0.0
  9
$USERR3
 40
0.0
  9
$USERR4
 40
0.0
  9
$USERR5
 40
0.0
  9
$WORLDVIEW
 70
     1
  9
$SHADEDGE
 70
     3
  9
$SHADEDIF
 70
    70
  9
$TILEMODE
 70
     1
  9
$MAXACTVP
 70
    64
  9
$PINSBASE
 10
0.0
 20
0.0
 30
0.0
  9
$PLIMCHECK
 70
     0
  9
$PEXTMIN
 10
1.000000000000000E+20
 20
1.000000000000000E+20
 30
1.000000000000000E+20
  9
$PEXTMAX
 10
-1.000000000000000E+20
 20
-1.000000000000000E+20
 30
-1.000000000000000E+20
  9
$PLIMMIN
 10
0.0
 20
0.0
  9
$PLIMMAX
 10
12.0
 20
9.0
  9
$UNITMODE
 70
     0
  9
$VISRETAIN
 70
     1
  9
$PLINEGEN
 70
     0
  9
$PSLTSCALE
 70
     1
  9
$TREEDEPTH
 70
  3020
  9
$CMLSTYLE
  2
Standard
  9
$CMLJUST
 70
     0
  9
$CMLSCALE
 40
1.0
  9
$PROXYGRAPHICS
 70
     1
  9
$MEASUREMENT
 70
     0
  9
$CELWEIGHT
370
    -1
  9
$ENDCAPS
280
     0
  9
$JOINSTYLE
280
     0
  9
$LWDISPLAY
290
     1
  9
$INSUNITS
 70
     4
  9
$HYPERLINKBASE
  1

  9
$STYLESHEET
  1

  9
$XEDIT
290
     1
  9
$CEPSNTYPE
380
     0
  9
$PSTYLEMODE
290
     1
  9
$FINGERPRINTGUID
  2
{5F186880-C9C1-43AD-B4B7-9C03983A0E36}
  9
$VERSIONGUID
  2
{FAEB1C32-E019-11D5-929B-00C0DF256EC4}
  9
$EXTNAMES
290
     1
  9
$PSVPSCALE
 40
0.0
  9
$OLESTARTUP
290
     0
  9
$SORTENTS
280
   127
  9
$INDEXCTL
280
     0
  9
$HIDETEXT
280
     1
  9
$XCLIPFRAME
290
     0
  9
$HALOGAP
280
     0
  9
$OBSCOLOR
 70
   257
  9
$OBSLTYPE
280
     0
  9
$INTERSECTIONDISPLAY
280
     0
  9
$INTERSECTIONCOLOR
 70
   257
  9
$DIMASSOC
280
     2
  9
$PROJECTNAME
  1

  0
ENDSEC
  0
SECTION
  2
CLASSES
  0
CLASS
  1
ACDBDICTIONARYWDFLT
  2
AcDbDictionaryWithDefault
  3
ObjectDBX Classes
 90
        0
 91
        4
280
     0
281
     0
  0
CLASS
  1
VISUALSTYLE
  2
AcDbVisualStyle
  3
ObjectDBX Classes
 90
     4095
 91
        4
280
     0
281
     0
  0
CLASS
  1
MATERIAL
  2
AcDbMaterial
  3
ObjectDBX Classes
 90
     1153
 91
        4
280
     0
281
     0
  0
CLASS
  1
WIPEOUT
  2
AcDbWipeout
  3
WipeOut|AutoCAD Express Tool|expresstools@autodesk.com
 90
      127
 91
        4
280
     0
281
     1
  0
CLASS
  1
SCALE
  2
AcDbScale
  3
ObjectDBX Classes
 90
     1153
 91
        4
280
     0
281
     0
  0
CLASS
  1
DICTIONARYVAR
  2
AcDbDictionaryVar
  3
ObjectDBX Classes
 90
        0
 91
        4
280
     0
281
     0
  0
ENDSEC
  0
SECTION
  2
TABLES
  0
TABLE
  2
VPORT
  5
8
330
0
100
AcDbSymbolTable
 70
     1
  0
VPORT
  5
29
330
8
100
AcDbSymbolTableRecord
100
AcDbViewportTableRecord
  2
*Active
 70
     0
 10
0.0
 20
0.0
 11
1.0
 21
1.0
 12
32024.62372403104
 22
31279.6945689424
 13
0.0
 23
0.0
 14
0.5
 24
0.5
 15
0.5
 25
0.5
 16
0.0
 26
0.0
 36
1.0
 17
0.0
 27
0.0
 37
0.0
 40
1073.334224247192
 41
1.191430471635098
 42
50.0
 43
0.0
 44
0.0
 50
0.0
 51
0.0
 71
     0
 72
   100
 73
     1
 74
     3
 75
     0
 76
     0
 77
     0
 78
     0
281
     0
 65
     1
110
0.0
120
0.0
130
0.0
111
1.0
121
0.0
131
0.0
112
0.0
122
1.0
132
0.0
 79
     0
146
0.0
  0
ENDTAB
  0
TABLE
  2
LTYPE
  5
5
330
0
100
AcDbSymbolTable
 70
     4
  0
LTYPE
  5
14
330
5
100
AcDbSymbolTableRecord
100
AcDbLinetypeTableRecord
  2
ByBlock
 70
     0
  3

 72
    65
 73
     0
 40
0.0
  0
LTYPE
  5
15
330
5
100
AcDbSymbolTableRecord
100
AcDbLinetypeTableRecord
  2
ByLayer
 70
     0
  3

 72
    65
 73
     0
 40
0.0
  0
LTYPE
  5
16
330
5
100
AcDbSymbolTableRecord
100
AcDbLinetypeTableRecord
  2
Continuous
 70
     0
  3
Solid line
 72
    65
 73
     0
 40
0.0
  0
LTYPE
  5
F9
330
5
100
AcDbSymbolTableRecord
100
AcDbLinetypeTableRecord
  2
Hidden Line XS
 70
     0
  3
- - - - - 
 72
    65
 73
     2
 40
5.5
 49
3.75
 74
     0
 49
-1.75
 74
     0
  0
LTYPE
  5
108
330
5
100
AcDbSymbolTableRecord
100
AcDbLinetypeTableRecord
  2
Break
 70
     0
  3
??????????
 72
    65
 73
     3
 40
98.77786070108415
 49
0.0
 74
     4
 75
     1
340
109
 46
0.7839512754054297
 50
0.0
 44
0.0
 45
0.0
 49
-98.77786070108415
 74
     0
 49
0.0
 74
     0
  0
LTYPE
  5
28A
330
5
100
AcDbSymbolTableRecord
100
AcDbLinetypeTableRecord
  2
Wipeout_Contour
 70
     0
  3
- - - - - 
 72
    65
 73
     2
 40
1000.0
 49
0.0
 74
     0
 49
-1000.0
 74
     0
  0
ENDTAB
  0
TABLE
  2
LAYER
  5
2
330
0
100
AcDbSymbolTable
 70
    10
  0
LAYER
  5
10
330
2
100
AcDbSymbolTableRecord
100
AcDbLayerTableRecord
  2
0
 70
     0
 62
     7
  6
Continuous
370
    -3
390
F
  0
LAYER
  5
43
330
2
100
AcDbSymbolTableRecord
100
AcDbLayerTableRecord
  2
ArchiCAD Window Markers_Pen_No__86
 70
     0
 62
   173
420
  5592575
  6
Continuous
370
    20
390
F
  0
LAYER
  5
8D
330
2
100
AcDbSymbolTableRecord
100
AcDbLayerTableRecord
  2
ArchiCAD Door Markers_Pen_No__86
 70
     0
 62
   173
420
  5592575
  6
Continuous
370
    20
390
F
  0
LAYER
  5
A6
330
2
100
AcDbSymbolTableRecord
100
AcDbLayerTableRecord
  2
ArchiCAD Door Markers_Pen_No__66
 70
     0
 62
   173
420
  5592575
  6
Continuous
370
    20
390
F
  0
LAYER
  5
E4
330
2
100
AcDbSymbolTableRecord
100
AcDbLayerTableRecord
  2
VENT DETAILS_Pen_No__7
 70
     0
 62
     7
  6
Continuous
370
    25
390
F
  0
LAYER
  5
F1
330
2
100
AcDbSymbolTableRecord
100
AcDbLayerTableRecord
  2
VENT DETAILS_Pen_No__8
 70
     0
 62
    14
420
 11013890
  6
Continuous
370
    35
390
F
  0
LAYER
  5
124
330
2
100
AcDbSymbolTableRecord
100
AcDbLayerTableRecord
  2
VENT DETAILS_Pen_No__102
 70
     0
 62
   254
420
 13421772
  6
Continuous
370
    13
390
F
  0
LAYER
  5
1D9
330
2
100
AcDbSymbolTableRecord
100
AcDbLayerTableRecord
  2
VENT DETAILS
 70
     0
 62
     7
  6
Continuous
370
    -3
390
F
  0
LAYER
  5
28B
330
2
100
AcDbSymbolTableRecord
100
AcDbLayerTableRecord
  2
VENT DETAILS_Pen_No__1
 70
     0
 62
     7
  6
Continuous
370
    13
390
F
  0
LAYER
  5
290
330
2
100
AcDbSymbolTableRecord
100
AcDbLayerTableRecord
  2
VENT DETAILS_Pen_No__182
 70
     0
 62
   135
  6
Continuous
370
    13
390
F
  0
ENDTAB
  0
TABLE
  2
STYLE
  5
3
330
0
100
AcDbSymbolTable
 70
     4
  0
STYLE
  5
11
330
3
100
AcDbSymbolTableRecord
100
AcDbTextStyleTableRecord
  2
Standard
 70
     0
 40
0.0
 41
1.0
 50
0.0
 71
     0
 42
0.2
  3
txt
  4

  0
STYLE
  5
44
330
3
100
AcDbSymbolTableRecord
100
AcDbTextStyleTableRecord
  2
GENERATED_STYLE_1
 70
     0
 40
0.0
 41
1.0
 50
0.0
 71
     0
 42
0.2
  3

  4

1001
ACAD
1000
Arial
1071
       34
  0
STYLE
  5
109
330
3
100
AcDbSymbolTableRecord
100
AcDbTextStyleTableRecord
  2

 70
     1
 40
0.2
 41
1.0
 50
0.0
 71
     0
 42
0.2
  3
VENT  Circular Soffit Vent - G700 any roof pitch1.Shx
  4

  0
STYLE
  5
11C
330
3
100
AcDbSymbolTableRecord
100
AcDbTextStyleTableRecord
  2
GENERATED_STYLE_2
 70
     0
 40
0.0
 41
1.0
 50
0.0
 71
     0
 42
0.2
  3

  4

1001
ACAD
1000
Arial
1071
 33554466
  0
ENDTAB
  0
TABLE
  2
VIEW
  5
6
330
0
100
AcDbSymbolTable
 70
     0
  0
ENDTAB
  0
TABLE
  2
UCS
  5
7
330
0
100
AcDbSymbolTable
 70
     0
  0
ENDTAB
  0
TABLE
  2
APPID
  5
9
330
0
100
AcDbSymbolTable
 70
     1
  0
APPID
  5
12
330
9
100
AcDbSymbolTableRecord
100
AcDbRegAppTableRecord
  2
ACAD
 70
     0
  0
ENDTAB
  0
TABLE
  2
DIMSTYLE
  5
A
330
0
100
AcDbSymbolTable
 70
     2
100
AcDbDimStyleTable
  0
DIMSTYLE
105
27
330
A
100
AcDbSymbolTableRecord
100
AcDbDimStyleTableRecord
  2
Standard
 70
     0
178
     0
340
11
  0
DIMSTYLE
105
291
330
A
100
AcDbSymbolTableRecord
100
AcDbDimStyleTableRecord
  2
GENERATED_STYLE__1
 70
     0
 41
18.24
172
     1
178
     0
340
0
341
292
  0
ENDTAB
  0
TABLE
  2
BLOCK_RECORD
  5
1
330
0
100
AcDbSymbolTable
 70
    35
  0
BLOCK_RECORD
  5
1F
330
1
100
AcDbSymbolTableRecord
100
AcDbBlockTableRecord
  2
*Model_Space
340
22
  0
BLOCK_RECORD
  5
1B
330
1
100
AcDbSymbolTableRecord
100
AcDbBlockTableRecord
  2
*Paper_Space
340
1E
  0
BLOCK_RECORD
  5
23
330
1
100
AcDbSymbolTableRecord
100
AcDbBlockTableRecord
  2
*Paper_Space0
340
26
  0
BLOCK_RECORD
  5
3F
330
1
100
AcDbSymbolTableRecord
100
AcDbBlockTableRecord
  2
CT Door and Window Basic Size Marker
340
0
  0
BLOCK_RECORD
  5
53
330
1
100
AcDbSymbolTableRecord
100
AcDbBlockTableRecord
  2
CT Door and Window Basic Size Marker_2
340
0
  0
BLOCK_RECORD
  5
89
330
1
100
AcDbSymbolTableRecord
100
AcDbBlockTableRecord
  2
CT Door and Window Basic Size Marker_3
340
0
  0
BLOCK_RECORD
  5
A2
330
1
100
AcDbSymbolTableRecord
100
AcDbBlockTableRecord
  2
Cadimage DW Marker
340
0
  0
BLOCK_RECORD
  5
C6
330
1
100
AcDbSymbolTableRecord
100
AcDbBlockTableRecord
  2
D Marker 17
340
0
  0
BLOCK_RECORD
  5
CA
330
1
100
AcDbSymbolTableRecord
100
AcDbBlockTableRecord
  2
CT Door and Window Basic Size Marker_4
340
0
  0
BLOCK_RECORD
  5
120
330
1
100
AcDbSymbolTableRecord
100
AcDbBlockTableRecord
  2
Cadimage Insulation
340
0
102
{BLKREFS
331
1D8
102
}
  0
BLOCK_RECORD
  5
1DA
330
1
100
AcDbSymbolTableRecord
100
AcDbBlockTableRecord
  2
Cadimage Insulation_2
340
0
102
{BLKREFS
331
288
102
}
  0
BLOCK_RECORD
  5
292
330
1
100
AcDbSymbolTableRecord
100
AcDbBlockTableRecord
  2
ARROWHEAD_4
340
0
  0
BLOCK_RECORD
  5
297
330
1
100
AcDbSymbolTableRecord
100
AcDbBlockTableRecord
  2
Untitled _STORY_MARKER
340
0
  0
ENDTAB
  0
ENDSEC
  0
SECTION
  2
BLOCKS
  0
BLOCK
  5
20
330
1F
100
AcDbEntity
  8
0
100
AcDbBlockBegin
  2
*Model_Space
 70
     0
 10
0.0
 20
0.0
 30
0.0
  3
*Model_Space
  1

  0
ENDBLK
  5
21
330
1F
100
AcDbEntity
  8
0
100
AcDbBlockEnd
  0
BLOCK
  5
1C
330
1B
100
AcDbEntity
 67
     1
  8
0
100
AcDbBlockBegin
  2
*Paper_Space
 70
     0
 10
0.0
 20
0.0
 30
0.0
  3
*Paper_Space
  1

  0
ENDBLK
  5
1D
330
1B
100
AcDbEntity
 67
     1
  8
0
100
AcDbBlockEnd
  0
BLOCK
  5
24
330
23
100
AcDbEntity
  8
0
100
AcDbBlockBegin
  2
*Paper_Space0
 70
     0
 10
0.0
 20
0.0
 30
0.0
  3
*Paper_Space0
  1

  0
ENDBLK
  5
25
330
23
100
AcDbEntity
  8
0
100
AcDbBlockEnd
  0
BLOCK
  5
40
330
3F
100
AcDbEntity
  8
0
100
AcDbBlockBegin
  2
CT Door and Window Basic Size Marker
 70
     2
 10
0.0
 20
0.0
 30
0.0
  3
CT Door and Window Basic Size Marker
  1

  0
LINE
  5
42
330
3F
100
AcDbEntity
  8
ArchiCAD Window Markers_Pen_No__86
  6
Continuous
100
AcDbLine
 10
0.0
 20
0.0
 30
0.0
 11
0.0000000000000337
 21
550.0000000000007
 31
0.0
  0
ATTDEF
  5
45
102
{ACAD_XDICTIONARY
360
2BE
102
}
330
3F
100
AcDbEntity
  8
ArchiCAD Window Markers_Pen_No__86
100
AcDbText
 10
-4.347500023809459
 20
506.5195916666674
 30
0.0
 40
1.0
  1
3,000
100
AcDbAttributeDefinition
  3
Marker Text 1
  2
AC_MarkerText_1_001
 70
     0
  0
ATTDEF
  5
46
102
{ACAD_XDICTIONARY
360
2C0
102
}
330
3F
100
AcDbEntity
  8
ArchiCAD Window Markers_Pen_No__86
100
AcDbText
 10
15.38214285714292
 20
506.7445916666674
 30
0.0
 40
1.0
  1
2,200
100
AcDbAttributeDefinition
  3
Marker Text 1
  2
AC_MarkerText_1_001
 70
     0
  0
ENDBLK
  5
41
330
3F
100
AcDbEntity
  8
0
100
AcDbBlockEnd
  0
BLOCK
  5
54
330
53
100
AcDbEntity
  8
0
100
AcDbBlockBegin
  2
CT Door and Window Basic Size Marker_2
 70
     2
 10
0.0
 20
0.0
 30
0.0
  3
CT Door and Window Basic Size Marker_2
  1

  0
LINE
  5
56
330
53
100
AcDbEntity
  8
ArchiCAD Window Markers_Pen_No__86
  6
Continuous
100
AcDbLine
 10
0.0
 20
0.0
 30
0.0
 11
-0.0000000000000398
 21
-649.9999999999986
 31
0.0
  0
ATTDEF
  5
57
102
{ACAD_XDICTIONARY
360
2C2
102
}
330
53
100
AcDbEntity
  8
ArchiCAD Window Markers_Pen_No__86
100
AcDbText
 10
4.347596601732903
 20
-606.7445493603625
 30
0.0
 40
1.0
  1
2,500
100
AcDbAttributeDefinition
  3
Marker Text 1
  2
AC_MarkerText_1_001
 70
     0
  0
ATTDEF
  5
58
102
{ACAD_XDICTIONARY
360
2C4
102
}
330
53
100
AcDbEntity
  8
ArchiCAD Window Markers_Pen_No__86
100
AcDbText
 10
-15.38214285714287
 20
-606.7445493603624
 30
0.0
 40
1.0
  1
2,200
100
AcDbAttributeDefinition
  3
Marker Text 1
  2
AC_MarkerText_1_001
 70
     0
  0
ENDBLK
  5
55
330
53
100
AcDbEntity
  8
0
100
AcDbBlockEnd
  0
BLOCK
  5
8A
330
89
100
AcDbEntity
  8
0
100
AcDbBlockBegin
  2
CT Door and Window Basic Size Marker_3
 70
     2
 10
0.0
 20
0.0
 30
0.0
  3
CT Door and Window Basic Size Marker_3
  1

  0
LINE
  5
8C
330
89
100
AcDbEntity
  8
ArchiCAD Door Markers_Pen_No__86
  6
Continuous
100
AcDbLine
 10
0.0
 20
0.0
 30
0.0
 11
0.0000000000000337
 21
549.9999999999998
 31
0.0
  0
ATTDEF
  5
8E
102
{ACAD_XDICTIONARY
360
2C6
102
}
330
89
100
AcDbEntity
  8
ArchiCAD Door Markers_Pen_No__86
100
AcDbText
 10
-4.347596601732903
 20
505.3570493603635
 30
0.0
 40
1.0
  1
1,800
100
AcDbAttributeDefinition
  3
Marker Text 1
  2
AC_MarkerText_1_001
 70
     0
  0
ATTDEF
  5
8F
102
{ACAD_XDICTIONARY
360
2C8
102
}
330
89
100
AcDbEntity
  8
ArchiCAD Door Markers_Pen_No__86
100
AcDbText
 10
15.38214285714292
 20
506.7445493603636
 30
0.0
 40
1.0
  1
2,200
100
AcDbAttributeDefinition
  3
Marker Text 1
  2
AC_MarkerText_1_001
 70
     0
  0
ENDBLK
  5
8B
330
89
100
AcDbEntity
  8
0
100
AcDbBlockEnd
  0
BLOCK
  5
A3
330
A2
100
AcDbEntity
  8
0
100
AcDbBlockBegin
  2
Cadimage DW Marker
 70
     2
 10
0.0
 20
0.0
 30
0.0
  3
Cadimage DW Marker
  1

  0
ATTDEF
  5
A5
102
{ACAD_XDICTIONARY
360
2CA
102
}
330
A2
100
AcDbEntity
  8
ArchiCAD Door Markers_Pen_No__66
100
AcDbText
 10
-305.532273127705
 20
-249.9464271527419
 30
0.0
 40
1.0
  1
710
100
AcDbAttributeDefinition
  3
Marker Text 1
  2
AC_MarkerText_1_001
 70
     0
  0
ENDBLK
  5
A4
330
A2
100
AcDbEntity
  8
0
100
AcDbBlockEnd
  0
BLOCK
  5
C7
330
C6
100
AcDbEntity
  8
0
100
AcDbBlockBegin
  2
D Marker 17
 70
     2
 10
0.0
 20
0.0
 30
0.0
  3
D Marker 17
  1

  0
ATTDEF
  5
C9
102
{ACAD_XDICTIONARY
360
2CC
102
}
330
C6
100
AcDbEntity
  8
ArchiCAD Door Markers_Pen_No__66
100
AcDbText
 10
-19.88930310881414
 20
0.9862332358892196
 30
0.0
 40
1.0
  1
Exist
100
AcDbAttributeDefinition
  3
ID Value
  2
AC_MarkerText_1_001
 70
     0
  0
ENDBLK
  5
C8
330
C6
100
AcDbEntity
  8
0
100
AcDbBlockEnd
  0
BLOCK
  5
CB
330
CA
100
AcDbEntity
  8
0
100
AcDbBlockBegin
  2
CT Door and Window Basic Size Marker_4
 70
     2
 10
0.0
 20
0.0
 30
0.0
  3
CT Door and Window Basic Size Marker_4
  1

  0
LINE
  5
CD
330
CA
100
AcDbEntity
  8
ArchiCAD Door Markers_Pen_No__86
  6
Continuous
100
AcDbLine
 10
0.0
 20
0.0
 30
0.0
 11
-0.0000000000000398
 21
-650.0000000000003
 31
0.0
  0
ATTDEF
  5
CE
102
{ACAD_XDICTIONARY
360
2CE
102
}
330
CA
100
AcDbEntity
  8
ArchiCAD Door Markers_Pen_No__86
100
AcDbText
 10
4.347596601732903
 20
-605.3570493603642
 30
0.0
 40
1.0
  1
1,200
100
AcDbAttributeDefinition
  3
Marker Text 1
  2
AC_MarkerText_1_001
 70
     0
  0
ATTDEF
  5
CF
102
{ACAD_XDICTIONARY
360
2D0
102
}
330
CA
100
AcDbEntity
  8
ArchiCAD Door Markers_Pen_No__86
100
AcDbText
 10
-15.38214285714287
 20
-606.7445493603641
 30
0.0
 40
1.0
  1
2,200
100
AcDbAttributeDefinition
  3
Marker Text 1
  2
AC_MarkerText_1_001
 70
     0
  0
ENDBLK
  5
CC
330
CA
100
AcDbEntity
  8
0
100
AcDbBlockEnd
  0
BLOCK
  5
121
330
120
100
AcDbEntity
  8
0
100
AcDbBlockBegin
  2
Cadimage Insulation
 70
     0
 10
0.0
 20
0.0
 30
0.0
  3
Cadimage Insulation
  1

  0
LINE
  5
123
330
120
100
AcDbEntity
  8
VENT DETAILS_Pen_No__102
  6
Continuous
100
AcDbLine
 10
0.0
 20
0.0
 30
0.0
 11
10.86773671971826
 21
3.343918990682543
 31
0.0
  0
LINE
  5
125
330
120
100
AcDbEntity
  8
VENT DETAILS_Pen_No__102
  6
Continuous
100
AcDbLine
 10
10.86773671971826
 20
3.343918990682543
 30
0.0
 11
19.22753419642462
 21
11.7037164673889
 31
0.0
  0
LINE
  5
126
330
120
100
AcDbEntity
  8
VENT DETAILS_Pen_No__102
  6
Continuous
100
AcDbLine
 10
19.22753419642462
 20
11.7037164673889
 30
0.0
 11
22.57145318710716
 21
22.57145318710716
 31
0.0
  0
LINE
  5
127
330
120
100
AcDbEntity
  8
VENT DETAILS_Pen_No__102
  6
Continuous
100
AcDbLine
 10
22.57145318710716
 20
22.57145318710716
 30
0.0
 11
16.71959495341271
 21
36.70900929606351
 31
0.0
  0
LINE
  5
128
330
120
100
AcDbEntity
  8
VENT DETAILS_Pen_No__102
  6
Continuous
100
AcDbLine
 10
16.71959495341271
 20
36.70900929606351
 30
0.0
 11
5.85185823369445
 21
53.2909907039365
 31
0.0
  0
LINE
  5
129
330
120
100
AcDbEntity
  8
VENT DETAILS_Pen_No__102
  6
Continuous
100
AcDbLine
 10
5.85185823369445
 20
53.2909907039365
 30
0.0
 11
0.0
 21
67.42854681289285
 31
0.0
  0
LINE
  5
12A
330
120
100
AcDbEntity
  8
VENT DETAILS_Pen_No__102
  6
Continuous
100
AcDbLine
 10
0.0
 20
67.42854681289285
 30
0.0
 11
3.343918990682543
 21
78.2962835326111
 31
0.0
  0
LINE
  5
12B
330
120
100
AcDbEntity
  8
VENT DETAILS_Pen_No__102
  6
Continuous
100
AcDbLine
 10
3.343918990682543
 20
78.2962835326111
 30
0.0
 11
11.7037164673889
 21
86.65608100931746
 31
0.0
  0
LINE
  5
12C
330
120
100
AcDbEntity
  8
VENT DETAILS_Pen_No__102
  6
Continuous
100
AcDbLine
 10
11.7037164673889
 20
86.65608100931746
 30
0.0
 11
22.57145318710716
 21
90.0
 31
0.0
  0
LINE
  5
12D
330
120
100
AcDbEntity
  8
VENT DETAILS_Pen_No__102
  6
Continuous
100
AcDbLine
 10
45.14290637421432
 20
0.0
 30
0.0
 11
34.27516965449605
 21
3.343918990682543
 31
0.0
  0
LINE
  5
12E
330
120
100
AcDbEntity
  8
VENT DETAILS_Pen_No__102
  6
Continuous
100
AcDbLine
 10
34.27516965449605
 20
3.343918990682543
 30
0.0
 11
25.9153721777897
 21
11.7037164673889
 31
0.0
  0
LINE
  5
12F
330
120
100
AcDbEntity
  8
VENT DETAILS_Pen_No__102
  6
Continuous
100
AcDbLine
 10
25.9153721777897
 20
11.7037164673889
 30
0.0
 11
22.57145318710716
 21
22.57145318710716
 31
0.0
  0
LINE
  5
130
330
120
100
AcDbEntity
  8
VENT DETAILS_Pen_No__102
  6
Continuous
100
AcDbLine
 10
22.57145318710716
 20
22.57145318710716
 30
0.0
 11
28.42331142080161
 21
36.70900929606351
 31
0.0
  0
LINE
  5
131
330
120
100
AcDbEntity
  8
VENT DETAILS_Pen_No__102
  6
Continuous
100
AcDbLine
 10
28.42331142080161
 20
36.70900929606351
 30
0.0
 11
39.29104814051987
 21
53.2909907039365
 31
0.0
  0
LINE
  5
132
330
120
100
AcDbEntity
  8
VENT DETAILS_Pen_No__102
  6
Continuous
100
AcDbLine
 10
39.29104814051987
 20
53.2909907039365
 30
0.0
 11
45.14290637421432
 21
67.42854681289285
 31
0.0
  0
LINE
  5
133
330
120
100
AcDbEntity
  8
VENT DETAILS_Pen_No__102
  6
Continuous
100
AcDbLine
 10
45.14290637421432
 20
67.42854681289285
 30
0.0
 11
41.79898738353178
 21
78.2962835326111
 31
0.0
  0
LINE
  5
134
330
120
100
AcDbEntity
  8
VENT DETAILS_Pen_No__102
  6
Continuous
100
AcDbLine
 10
41.79898738353178
 20
78.2962835326111
 30
0.0
 11
33.43918990682543
 21
86.65608100931746
 31
0.0
  0
LINE
  5
135
330
120
100
AcDbEntity
  8
VENT DETAILS_Pen_No__102
  6
Continuous
100
AcDbLine
 10
33.43918990682543
 20
86.65608100931746
 30
0.0
 11
22.57145318710716
 21
90.0
 31
0.0
  0
LINE
  5
136
330
120
100
AcDbEntity
  8
VENT DETAILS_Pen_No__102
  6
Continuous
100
AcDbLine
 10
45.14290637421432
 20
0.0
 30
0.0
 11
56.01064309393259
 21
3.343918990682543
 31
0.0
  0
LINE
  5
137
330
120
100
AcDbEntity
  8
VENT DETAILS_Pen_No__102
  6
Continuous
100
AcDbLine
 10
56.01064309393259
 20
3.343918990682543
 30
0.0
 11
64.37044057063893
 21
11.7037164673889
 31
0.0
  0
LINE
  5
138
330
120
100
AcDbEntity
  8
VENT DETAILS_Pen_No__102
  6
Continuous
100
AcDbLine
 10
64.37044057063893
 20
11.7037164673889
 30
0.0
 11
67.71435956132149
 21
22.57145318710716
 31
0.0
  0
LINE
  5
139
330
120
100
AcDbEntity
  8
VENT DETAILS_Pen_No__102
  6
Continuous
100
AcDbLine
 10
67.71435956132149
 20
22.57145318710716
 30
0.0
 11
61.86250132762704
 21
36.70900929606351
 31
0.0
  0
LINE
  5
13A
330
120
100
AcDbEntity
  8
VENT DETAILS_Pen_No__102
  6
Continuous
100
AcDbLine
 10
61.86250132762704
 20
36.70900929606351
 30
0.0
 11
50.99476460790878
 21
53.2909907039365
 31
0.0
  0
LINE
  5
13B
330
120
100
AcDbEntity
  8
VENT DETAILS_Pen_No__102
  6
Continuous
100
AcDbLine
 10
50.99476460790878
 20
53.2909907039365
 30
0.0
 11
45.14290637421432
 21
67.42854681289285
 31
0.0
  0
LINE
  5
13C
330
120
100
AcDbEntity
  8
VENT DETAILS_Pen_No__102
  6
Continuous
100
AcDbLine
 10
45.14290637421432
 20
67.42854681289285
 30
0.0
 11
48.48682536489687
 21
78.2962835326111
 31
0.0
  0
LINE
  5
13D
330
120
100
AcDbEntity
  8
VENT DETAILS_Pen_No__102
  6
Continuous
100
AcDbLine
 10
48.48682536489687
 20
78.2962835326111
 30
0.0
 11
56.84662284160321
 21
86.65608100931746
 31
0.0
  0
LINE
  5
13E
330
120
100
AcDbEntity
  8
VENT DETAILS_Pen_No__102
  6
Continuous
100
AcDbLine
 10
56.84662284160321
 20
86.65608100931746
 30
0.0
 11
67.71435956132149
 21
90.0
 31
0.0
  0
LINE
  5
13F
330
120
100
AcDbEntity
  8
VENT DETAILS_Pen_No__102
  6
Continuous
100
AcDbLine
 10
90.28581274842864
 20
0.0
 30
0.0
 11
79.41807602871039
 21
3.343918990682543
 31
0.0
  0
LINE
  5
140
330
120
100
AcDbEntity
  8
VENT DETAILS_Pen_No__102
  6
Continuous
100
AcDbLine
 10
79.41807602871039
 20
3.343918990682543
 30
0.0
 11
71.05827855200403
 21
11.7037164673889
 31
0.0
  0
LINE
  5
141
330
120
100
AcDbEntity
  8
VENT DETAILS_Pen_No__102
  6
Continuous
100
AcDbLine
 10
71.05827855200403
 20
11.7037164673889
 30
0.0
 11
67.71435956132149
 21
22.57145318710716
 31
0.0
  0
LINE
  5
142
330
120
100
AcDbEntity
  8
VENT DETAILS_Pen_No__102
  6
Continuous
100
AcDbLine
 10
67.71435956132149
 20
22.57145318710716
 30
0.0
 11
73.56621779501593
 21
36.70900929606351
 31
0.0
  0
LINE
  5
143
330
120
100
AcDbEntity
  8
VENT DETAILS_Pen_No__102
  6
Continuous
100
AcDbLine
 10
73.56621779501593
 20
36.70900929606351
 30
0.0
 11
84.4339545147342
 21
53.2909907039365
 31
0.0
  0
LINE
  5
144
330
120
100
AcDbEntity
  8
VENT DETAILS_Pen_No__102
  6
Continuous
100
AcDbLine
 10
84.4339545147342
 20
53.2909907039365
 30
0.0
 11
90.28581274842864
 21
67.42854681289285
 31
0.0
  0
LINE
  5
145
330
120
100
AcDbEntity
  8
VENT DETAILS_Pen_No__102
  6
Continuous
100
AcDbLine
 10
90.28581274842864
 20
67.42854681289285
 30
0.0
 11
86.94189375774612
 21
78.2962835326111
 31
0.0
  0
LINE
  5
146
330
120
100
AcDbEntity
  8
VENT DETAILS_Pen_No__102
  6
Continuous
100
AcDbLine
 10
86.94189375774612
 20
78.2962835326111
 30
0.0
 11
78.58209628103975
 21
86.65608100931746
 31
0.0
  0
LINE
  5
147
330
120
100
AcDbEntity
  8
VENT DETAILS_Pen_No__102
  6
Continuous
100
AcDbLine
 10
78.58209628103975
 20
86.65608100931746
 30
0.0
 11
67.71435956132149
 21
90.0
 31
0.0
  0
LINE
  5
148
330
120
100
AcDbEntity
  8
VENT DETAILS_Pen_No__102
  6
Continuous
100
AcDbLine
 10
90.28581274842864
 20
0.0
 30
0.0
 11
101.1535494681469
 21
3.343918990682543
 31
0.0
  0
LINE
  5
149
330
120
100
AcDbEntity
  8
VENT DETAILS_Pen_No__102
  6
Continuous
100
AcDbLine
 10
101.1535494681469
 20
3.343918990682543
 30
0.0
 11
109.5133469448533
 21
11.7037164673889
 31
0.0
  0
LINE
  5
14A
330
120
100
AcDbEntity
  8
VENT DETAILS_Pen_No__102
  6
Continuous
100
AcDbLine
 10
109.5133469448533
 20
11.7037164673889
 30
0.0
 11
112.8572659355358
 21
22.57145318710716
 31
0.0
  0
LINE
  5
14B
330
120
100
AcDbEntity
  8
VENT DETAILS_Pen_No__102
  6
Continuous
100
AcDbLine
 10
112.8572659355358
 20
22.57145318710716
 30
0.0
 11
107.0054077018414
 21
36.70900929606351
 31
0.0
  0
LINE
  5
14C
330
120
100
AcDbEntity
  8
VENT DETAILS_Pen_No__102
  6
Continuous
100
AcDbLine
 10
107.0054077018414
 20
36.70900929606351
 30
0.0
 11
96.1376709821231
 21
53.2909907039365
 31
0.0
  0
LINE
  5
14D
330
120
100
AcDbEntity
  8
VENT DETAILS_Pen_No__102
  6
Continuous
100
AcDbLine
 10
96.1376709821231
 20
53.2909907039365
 30
0.0
 11
90.28581274842864
 21
67.42854681289285
 31
0.0
  0
LINE
  5
14E
330
120
100
AcDbEntity
  8
VENT DETAILS_Pen_No__102
  6
Continuous
100
AcDbLine
 10
90.28581274842864
 20
67.42854681289285
 30
0.0
 11
93.62973173911118
 21
78.2962835326111
 31
0.0
  0
LINE
  5
14F
330
120
100
AcDbEntity
  8
VENT DETAILS_Pen_No__102
  6
Continuous
100
AcDbLine
 10
93.62973173911118
 20
78.2962835326111
 30
0.0
 11
101.9895292158175
 21
86.65608100931746
 31
0.0
  0
LINE
  5
150
330
120
100
AcDbEntity
  8
VENT DETAILS_Pen_No__102
  6
Continuous
100
AcDbLine
 10
101.9895292158175
 20
86.65608100931746
 30
0.0
 11
112.8572659355358
 21
90.0
 31
0.0
  0
LINE
  5
151
330
120
100
AcDbEntity
  8
VENT DETAILS_Pen_No__102
  6
Continuous
100
AcDbLine
 10
135.428719122643
 20
0.0
 30
0.0
 11
124.5609824029247
 21
3.343918990682543
 31
0.0
  0
LINE
  5
152
330
120
100
AcDbEntity
  8
VENT DETAILS_Pen_No__102
  6
Continuous
100
AcDbLine
 10
124.5609824029247
 20
3.343918990682543
 30
0.0
 11
116.2011849262184
 21
11.7037164673889
 31
0.0
  0
LINE
  5
153
330
120
100
AcDbEntity
  8
VENT DETAILS_Pen_No__102
  6
Continuous
100
AcDbLine
 10
116.2011849262184
 20
11.7037164673889
 30
0.0
 11
112.8572659355358
 21
22.57145318710716
 31
0.0
  0
LINE
  5
154
330
120
100
AcDbEntity
  8
VENT DETAILS_Pen_No__102
  6
Continuous
100
AcDbLine
 10
112.8572659355358
 20
22.57145318710716
 30
0.0
 11
118.7091241692303
 21
36.70900929606351
 31
0.0
  0
LINE
  5
155
330
120
100
AcDbEntity
  8
VENT DETAILS_Pen_No__102
  6
Continuous
100
AcDbLine
 10
118.7091241692303
 20
36.70900929606351
 30
0.0
 11
129.5768608889485
 21
53.2909907039365
 31
0.0
  0
LINE
  5
156
330
120
100
AcDbEntity
  8
VENT DETAILS_Pen_No__102
  6
Continuous
100
AcDbLine
 10
129.5768608889485
 20
53.2909907039365
 30
0.0
 11
135.428719122643
 21
67.42854681289285
 31
0.0
  0
LINE
  5
157
330
120
100
AcDbEntity
  8
VENT DETAILS_Pen_No__102
  6
Continuous
100
AcDbLine
 10
135.428719122643
 20
67.42854681289285
 30
0.0
 11
132.0848001319604
 21
78.2962835326111
 31
0.0
  0
LINE
  5
158
330
120
100
AcDbEntity
  8
VENT DETAILS_Pen_No__102
  6
Continuous
100
AcDbLine
 10
132.0848001319604
 20
78.2962835326111
 30
0.0
 11
123.7250026552541
 21
86.65608100931746
 31
0.0
  0
LINE
  5
159
330
120
100
AcDbEntity
  8
VENT DETAILS_Pen_No__102
  6
Continuous
100
AcDbLine
 10
123.7250026552541
 20
86.65608100931746
 30
0.0
 11
112.8572659355358
 21
90.0
 31
0.0
  0
LINE
  5
15A
330
120
100
AcDbEntity
  8
VENT DETAILS_Pen_No__102
  6
Continuous
100
AcDbLine
 10
135.428719122643
 20
0.0
 30
0.0
 11
146.2964558423613
 21
3.343918990682543
 31
0.0
  0
LINE
  5
15B
330
120
100
AcDbEntity
  8
VENT DETAILS_Pen_No__102
  6
Continuous
100
AcDbLine
 10
146.2964558423613
 20
3.343918990682543
 30
0.0
 11
154.6562533190676
 21
11.7037164673889
 31
0.0
  0
LINE
  5
15C
330
120
100
AcDbEntity
  8
VENT DETAILS_Pen_No__102
  6
Continuous
100
AcDbLine
 10
154.6562533190676
 20
11.7037164673889
 30
0.0
 11
158.0001723097501
 21
22.57145318710716
 31
0.0
  0
LINE
  5
15D
330
120
100
AcDbEntity
  8
VENT DETAILS_Pen_No__102
  6
Continuous
100
AcDbLine
 10
158.0001723097501
 20
22.57145318710716
 30
0.0
 11
152.1483140760557
 21
36.70900929606351
 31
0.0
  0
LINE
  5
15E
330
120
100
AcDbEntity
  8
VENT DETAILS_Pen_No__102
  6
Continuous
100
AcDbLine
 10
152.1483140760557
 20
36.70900929606351
 30
0.0
 11
141.2805773563374
 21
53.2909907039365
 31
0.0
  0
LINE
  5
15F
330
120
100
AcDbEntity
  8
VENT DETAILS_Pen_No__102
  6
Continuous
100
AcDbLine
 10
141.2805773563374
 20
53.2909907039365
 30
0.0
 11
135.428719122643
 21
67.42854681289285
 31
0.0
  0
LINE
  5
160
330
120
100
AcDbEntity
  8
VENT DETAILS_Pen_No__102
  6
Continuous
100
AcDbLine
 10
135.428719122643
 20
67.42854681289285
 30
0.0
 11
138.7726381133255
 21
78.2962835326111
 31
0.0
  0
LINE
  5
161
330
120
100
AcDbEntity
  8
VENT DETAILS_Pen_No__102
  6
Continuous
100
AcDbLine
 10
138.7726381133255
 20
78.2962835326111
 30
0.0
 11
147.1324355900319
 21
86.65608100931746
 31
0.0
  0
LINE
  5
162
330
120
100
AcDbEntity
  8
VENT DETAILS_Pen_No__102
  6
Continuous
100
AcDbLine
 10
147.1324355900319
 20
86.65608100931746
 30
0.0
 11
158.0001723097501
 21
90.0
 31
0.0
  0
LINE
  5
163
330
120
100
AcDbEntity
  8
VENT DETAILS_Pen_No__102
  6
Continuous
100
AcDbLine
 10
180.5716254968573
 20
0.0
 30
0.0
 11
169.703888777139
 21
3.343918990682543
 31
0.0
  0
LINE
  5
164
330
120
100
AcDbEntity
  8
VENT DETAILS_Pen_No__102
  6
Continuous
100
AcDbLine
 10
169.703888777139
 20
3.343918990682543
 30
0.0
 11
161.3440913004327
 21
11.7037164673889
 31
0.0
  0
LINE
  5
165
330
120
100
AcDbEntity
  8
VENT DETAILS_Pen_No__102
  6
Continuous
100
AcDbLine
 10
161.3440913004327
 20
11.7037164673889
 30
0.0
 11
158.0001723097501
 21
22.57145318710716
 31
0.0
  0
LINE
  5
166
330
120
100
AcDbEntity
  8
VENT DETAILS_Pen_No__102
  6
Continuous
100
AcDbLine
 10
158.0001723097501
 20
22.57145318710716
 30
0.0
 11
163.8520305434446
 21
36.70900929606351
 31
0.0
  0
LINE
  5
167
330
120
100
AcDbEntity
  8
VENT DETAILS_Pen_No__102
  6
Continuous
100
AcDbLine
 10
163.8520305434446
 20
36.70900929606351
 30
0.0
 11
174.7197672631629
 21
53.2909907039365
 31
0.0
  0
LINE
  5
168
330
120
100
AcDbEntity
  8
VENT DETAILS_Pen_No__102
  6
Continuous
100
AcDbLine
 10
174.7197672631629
 20
53.2909907039365
 30
0.0
 11
180.5716254968573
 21
67.42854681289285
 31
0.0
  0
LINE
  5
169
330
120
100
AcDbEntity
  8
VENT DETAILS_Pen_No__102
  6
Continuous
100
AcDbLine
 10
180.5716254968573
 20
67.42854681289285
 30
0.0
 11
177.2277065061747
 21
78.2962835326111
 31
0.0
  0
LINE
  5
16A
330
120
100
AcDbEntity
  8
VENT DETAILS_Pen_No__102
  6
Continuous
100
AcDbLine
 10
177.2277065061747
 20
78.2962835326111
 30
0.0
 11
168.8679090294684
 21
86.65608100931746
 31
0.0
  0
LINE
  5
16B
330
120
100
AcDbEntity
  8
VENT DETAILS_Pen_No__102
  6
Continuous
100
AcDbLine
 10
168.8679090294684
 20
86.65608100931746
 30
0.0
 11
158.0001723097501
 21
90.0
 31
0.0
  0
LINE
  5
16C
330
120
100
AcDbEntity
  8
VENT DETAILS_Pen_No__102
  6
Continuous
100
AcDbLine
 10
180.5716254968573
 20
0.0
 30
0.0
 11
191.4393622165756
 21
3.343918990682543
 31
0.0
  0
LINE
  5
16D
330
120
100
AcDbEntity
  8
VENT DETAILS_Pen_No__102
  6
Continuous
100
AcDbLine
 10
191.4393622165756
 20
3.343918990682543
 30
0.0
 11
199.7991596932819
 21
11.7037164673889
 31
0.0
  0
LINE
  5
16E
330
120
100
AcDbEntity
  8
VENT DETAILS_Pen_No__102
  6
Continuous
100
AcDbLine
 10
199.7991596932819
 20
11.7037164673889
 30
0.0
 11
203.1430786839644
 21
22.57145318710716
 31
0.0
  0
LINE
  5
16F
330
120
100
AcDbEntity
  8
VENT DETAILS_Pen_No__102
  6
Continuous
100
AcDbLine
 10
203.1430786839644
 20
22.57145318710716
 30
0.0
 11
197.29122045027
 21
36.70900929606351
 31
0.0
  0
LINE
  5
170
330
120
100
AcDbEntity
  8
VENT DETAILS_Pen_No__102
  6
Continuous
100
AcDbLine
 10
197.29122045027
 20
36.70900929606351
 30
0.0
 11
186.4234837305517
 21
53.2909907039365
 31
0.0
  0
LINE
  5
171
330
120
100
AcDbEntity
  8
VENT DETAILS_Pen_No__102
  6
Continuous
100
AcDbLine
 10
186.4234837305517
 20
53.2909907039365
 30
0.0
 11
180.5716254968573
 21
67.42854681289285
 31
0.0
  0
LINE
  5
172
330
120
100
AcDbEntity
  8
VENT DETAILS_Pen_No__102
  6
Continuous
100
AcDbLine
 10
180.5716254968573
 20
67.42854681289285
 30
0.0
 11
183.9155444875398
 21
78.2962835326111
 31
0.0
  0
LINE
  5
173
330
120
100
AcDbEntity
  8
VENT DETAILS_Pen_No__102
  6
Continuous
100
AcDbLine
 10
183.9155444875398
 20
78.2962835326111
 30
0.0
 11
192.2753419642462
 21
86.65608100931746
 31
0.0
  0
LINE
  5
174
330
120
100
AcDbEntity
  8
VENT DETAILS_Pen_No__102
  6
Continuous
100
AcDbLine
 10
192.2753419642462
 20
86.65608100931746
 30
0.0
 11
203.1430786839644
 21
90.0
 31
0.0
  0
LINE
  5
175
330
120
100
AcDbEntity
  8
VENT DETAILS_Pen_No__102
  6
Continuous
100
AcDbLine
 10
225.7145318710716
 20
0.0
 30
0.0
 11
214.8467951513533
 21
3.343918990682543
 31
0.0
  0
LINE
  5
176
330
120
100
AcDbEntity
  8
VENT DETAILS_Pen_No__102
  6
Continuous
100
AcDbLine
 10
214.8467951513533
 20
3.343918990682543
 30
0.0
 11
206.486997674647
 21
11.7037164673889
 31
0.0
  0
LINE
  5
177
330
120
100
AcDbEntity
  8
VENT DETAILS_Pen_No__102
  6
Continuous
100
AcDbLine
 10
206.486997674647
 20
11.7037164673889
 30
0.0
 11
203.1430786839644
 21
22.57145318710716
 31
0.0
  0
LINE
  5
178
330
120
100
AcDbEntity
  8
VENT DETAILS_Pen_No__102
  6
Continuous
100
AcDbLine
 10
203.1430786839644
 20
22.57145318710716
 30
0.0
 11
208.9949369176589
 21
36.70900929606351
 31
0.0
  0
LINE
  5
179
330
120
100
AcDbEntity
  8
VENT DETAILS_Pen_No__102
  6
Continuous
100
AcDbLine
 10
208.9949369176589
 20
36.70900929606351
 30
0.0
 11
219.8626736373772
 21
53.2909907039365
 31
0.0
  0
LINE
  5
17A
330
120
100
AcDbEntity
  8
VENT DETAILS_Pen_No__102
  6
Continuous
100
AcDbLine
 10
219.8626736373772
 20
53.2909907039365
 30
0.0
 11
225.7145318710716
 21
67.42854681289285
 31
0.0
  0
LINE
  5
17B
330
120
100
AcDbEntity
  8
VENT DETAILS_Pen_No__102
  6
Continuous
100
AcDbLine
 10
225.7145318710716
 20
67.42854681289285
 30
0.0
 11
222.3706128803891
 21
78.2962835326111
 31
0.0
  0
LINE
  5
17C
330
120
100
AcDbEntity
  8
VENT DETAILS_Pen_No__102
  6
Continuous
100
AcDbLine
 10
222.3706128803891
 20
78.2962835326111
 30
0.0
 11
214.0108154036827
 21
86.65608100931746
 31
0.0
  0
LINE
  5
17D
330
120
100
AcDbEntity
  8
VENT DETAILS_Pen_No__102
  6
Continuous
100
AcDbLine
 10
214.0108154036827
 20
86.65608100931746
 30
0.0
 11
203.1430786839644
 21
90.0
 31
0.0
  0
LINE
  5
17E
330
120
100
AcDbEntity
  8
VENT DETAILS_Pen_No__102
  6
Continuous
100
AcDbLine
 10
225.7145318710716
 20
0.0
 30
0.0
 11
236.5822685907899
 21
3.343918990682543
 31
0.0
  0
LINE
  5
17F
330
120
100
AcDbEntity
  8
VENT DETAILS_Pen_No__102
  6
Continuous
100
AcDbLine
 10
236.5822685907899
 20
3.343918990682543
 30
0.0
 11
244.9420660674962
 21
11.7037164673889
 31
0.0
  0
LINE
  5
180
330
120
100
AcDbEntity
  8
VENT DETAILS_Pen_No__102
  6
Continuous
100
AcDbLine
 10
244.9420660674962
 20
11.7037164673889
 30
0.0
 11
248.2859850581788
 21
22.57145318710716
 31
0.0
  0
LINE
  5
181
330
120
100
AcDbEntity
  8
VENT DETAILS_Pen_No__102
  6
Continuous
100
AcDbLine
 10
248.2859850581788
 20
22.57145318710716
 30
0.0
 11
242.4341268244843
 21
36.70900929606351
 31
0.0
  0
LINE
  5
182
330
120
100
AcDbEntity
  8
VENT DETAILS_Pen_No__102
  6
Continuous
100
AcDbLine
 10
242.4341268244843
 20
36.70900929606351
 30
0.0
 11
231.566390104766
 21
53.2909907039365
 31
0.0
  0
LINE
  5
183
330
120
100
AcDbEntity
  8
VENT DETAILS_Pen_No__102
  6
Continuous
100
AcDbLine
 10
231.566390104766
 20
53.2909907039365
 30
0.0
 11
225.7145318710716
 21
67.42854681289285
 31
0.0
  0
LINE
  5
184
330
120
100
AcDbEntity
  8
VENT DETAILS_Pen_No__102
  6
Continuous
100
AcDbLine
 10
225.7145318710716
 20
67.42854681289285
 30
0.0
 11
229.0584508617541
 21
78.2962835326111
 31
0.0
  0
LINE
  5
185
330
120
100
AcDbEntity
  8
VENT DETAILS_Pen_No__102
  6
Continuous
100
AcDbLine
 10
229.0584508617541
 20
78.2962835326111
 30
0.0
 11
237.4182483384605
 21
86.65608100931746
 31
0.0
  0
LINE
  5
186
330
120
100
AcDbEntity
  8
VENT DETAILS_Pen_No__102
  6
Continuous
100
AcDbLine
 10
237.4182483384605
 20
86.65608100931746
 30
0.0
 11
248.2859850581788
 21
90.0
 31
0.0
  0
LINE
  5
187
330
120
100
AcDbEntity
  8
VENT DETAILS_Pen_No__102
  6
Continuous
100
AcDbLine
 10
270.8574382452859
 20
0.0
 30
0.0
 11
259.9897015255677
 21
3.343918990682543
 31
0.0
  0
LINE
  5
188
330
120
100
AcDbEntity
  8
VENT DETAILS_Pen_No__102
  6
Continuous
100
AcDbLine
 10
259.9897015255677
 20
3.343918990682543
 30
0.0
 11
251.6299040488613
 21
11.7037164673889
 31
0.0
  0
LINE
  5
189
330
120
100
AcDbEntity
  8
VENT DETAILS_Pen_No__102
  6
Continuous
100
AcDbLine
 10
251.6299040488613
 20
11.7037164673889
 30
0.0
 11
248.2859850581788
 21
22.57145318710716
 31
0.0
  0
LINE
  5
18A
330
120
100
AcDbEntity
  8
VENT DETAILS_Pen_No__102
  6
Continuous
100
AcDbLine
 10
248.2859850581788
 20
22.57145318710716
 30
0.0
 11
254.1378432918732
 21
36.70900929606351
 31
0.0
  0
LINE
  5
18B
330
120
100
AcDbEntity
  8
VENT DETAILS_Pen_No__102
  6
Continuous
100
AcDbLine
 10
254.1378432918732
 20
36.70900929606351
 30
0.0
 11
265.0055800115915
 21
53.2909907039365
 31
0.0
  0
LINE
  5
18C
330
120
100
AcDbEntity
  8
VENT DETAILS_Pen_No__102
  6
Continuous
100
AcDbLine
 10
265.0055800115915
 20
53.2909907039365
 30
0.0
 11
270.8574382452859
 21
67.42854681289285
 31
0.0
  0
LINE
  5
18D
330
120
100
AcDbEntity
  8
VENT DETAILS_Pen_No__102
  6
Continuous
100
AcDbLine
 10
270.8574382452859
 20
67.42854681289285
 30
0.0
 11
267.5135192546034
 21
78.2962835326111
 31
0.0
  0
LINE
  5
18E
330
120
100
AcDbEntity
  8
VENT DETAILS_Pen_No__102
  6
Continuous
100
AcDbLine
 10
267.5135192546034
 20
78.2962835326111
 30
0.0
 11
259.153721777897
 21
86.65608100931746
 31
0.0
  0
LINE
  5
18F
330
120
100
AcDbEntity
  8
VENT DETAILS_Pen_No__102
  6
Continuous
100
AcDbLine
 10
259.153721777897
 20
86.65608100931746
 30
0.0
 11
248.2859850581788
 21
90.0
 31
0.0
  0
LINE
  5
190
330
120
100
AcDbEntity
  8
VENT DETAILS_Pen_No__102
  6
Continuous
100
AcDbLine
 10
270.8574382452859
 20
0.0
 30
0.0
 11
281.7251749650042
 21
3.343918990682543
 31
0.0
  0
LINE
  5
191
330
120
100
AcDbEntity
  8
VENT DETAILS_Pen_No__102
  6
Continuous
100
AcDbLine
 10
281.7251749650042
 20
3.343918990682543
 30
0.0
 11
290.0849724417105
 21
11.7037164673889
 31
0.0
  0
LINE
  5
192
330
120
100
AcDbEntity
  8
VENT DETAILS_Pen_No__102
  6
Continuous
100
AcDbLine
 10
290.0849724417105
 20
11.7037164673889
 30
0.0
 11
293.4288914323931
 21
22.57145318710716
 31
0.0
  0
LINE
  5
193
330
120
100
AcDbEntity
  8
VENT DETAILS_Pen_No__102
  6
Continuous
100
AcDbLine
 10
293.4288914323931
 20
22.57145318710716
 30
0.0
 11
287.5770331986986
 21
36.70900929606351
 31
0.0
  0
LINE
  5
194
330
120
100
AcDbEntity
  8
VENT DETAILS_Pen_No__102
  6
Continuous
100
AcDbLine
 10
287.5770331986986
 20
36.70900929606351
 30
0.0
 11
276.7092964789804
 21
53.2909907039365
 31
0.0
  0
LINE
  5
195
330
120
100
AcDbEntity
  8
VENT DETAILS_Pen_No__102
  6
Continuous
100
AcDbLine
 10
276.7092964789804
 20
53.2909907039365
 30
0.0
 11
270.8574382452859
 21
67.42854681289285
 31
0.0
  0
LINE
  5
196
330
120
100
AcDbEntity
  8
VENT DETAILS_Pen_No__102
  6
Continuous
100
AcDbLine
 10
270.8574382452859
 20
67.42854681289285
 30
0.0
 11
274.2013572359684
 21
78.2962835326111
 31
0.0
  0
LINE
  5
197
330
120
100
AcDbEntity
  8
VENT DETAILS_Pen_No__102
  6
Continuous
100
AcDbLine
 10
274.2013572359684
 20
78.2962835326111
 30
0.0
 11
282.5611547126748
 21
86.65608100931746
 31
0.0
  0
LINE
  5
198
330
120
100
AcDbEntity
  8
VENT DETAILS_Pen_No__102
  6
Continuous
100
AcDbLine
 10
282.5611547126748
 20
86.65608100931746
 30
0.0
 11
293.4288914323931
 21
90.0
 31
0.0
  0
LINE
  5
199
330
120
100
AcDbEntity
  8
VENT DETAILS_Pen_No__102
  6
Continuous
100
AcDbLine
 10
316.0003446195002
 20
0.0
 30
0.0
 11
305.132607899782
 21
3.343918990682543
 31
0.0
  0
LINE
  5
19A
330
120
100
AcDbEntity
  8
VENT DETAILS_Pen_No__102
  6
Continuous
100
AcDbLine
 10
305.132607899782
 20
3.343918990682543
 30
0.0
 11
296.7728104230756
 21
11.7037164673889
 31
0.0
  0
LINE
  5
19B
330
120
100
AcDbEntity
  8
VENT DETAILS_Pen_No__102
  6
Continuous
100
AcDbLine
 10
296.7728104230756
 20
11.7037164673889
 30
0.0
 11
293.428891432393
 21
22.57145318710716
 31
0.0
  0
LINE
  5
19C
330
120
100
AcDbEntity
  8
VENT DETAILS_Pen_No__102
  6
Continuous
100
AcDbLine
 10
293.428891432393
 20
22.57145318710716
 30
0.0
 11
299.2807496660876
 21
36.70900929606351
 31
0.0
  0
LINE
  5
19D
330
120
100
AcDbEntity
  8
VENT DETAILS_Pen_No__102
  6
Continuous
100
AcDbLine
 10
299.2807496660876
 20
36.70900929606351
 30
0.0
 11
310.1484863858058
 21
53.2909907039365
 31
0.0
  0
LINE
  5
19E
330
120
100
AcDbEntity
  8
VENT DETAILS_Pen_No__102
  6
Continuous
100
AcDbLine
 10
310.1484863858058
 20
53.2909907039365
 30
0.0
 11
316.0003446195002
 21
67.42854681289285
 31
0.0
  0
LINE
  5
19F
330
120
100
AcDbEntity
  8
VENT DETAILS_Pen_No__102
  6
Continuous
100
AcDbLine
 10
316.0003446195002
 20
67.42854681289285
 30
0.0
 11
312.6564256288177
 21
78.2962835326111
 31
0.0
  0
LINE
  5
1A0
330
120
100
AcDbEntity
  8
VENT DETAILS_Pen_No__102
  6
Continuous
100
AcDbLine
 10
312.6564256288177
 20
78.2962835326111
 30
0.0
 11
304.2966281521113
 21
86.65608100931746
 31
0.0
  0
LINE
  5
1A1
330
120
100
AcDbEntity
  8
VENT DETAILS_Pen_No__102
  6
Continuous
100
AcDbLine
 10
304.2966281521113
 20
86.65608100931746
 30
0.0
 11
293.428891432393
 21
90.0
 31
0.0
  0
LINE
  5
1A2
330
120
100
AcDbEntity
  8
VENT DETAILS_Pen_No__102
  6
Continuous
100
AcDbLine
 10
316.0003446195002
 20
0.0
 30
0.0
 11
326.8680813392185
 21
3.343918990682543
 31
0.0
  0
LINE
  5
1A3
330
120
100
AcDbEntity
  8
VENT DETAILS_Pen_No__102
  6
Continuous
100
AcDbLine
 10
326.8680813392185
 20
3.343918990682543
 30
0.0
 11
335.2278788159248
 21
11.7037164673889
 31
0.0
  0
LINE
  5
1A4
330
120
100
AcDbEntity
  8
VENT DETAILS_Pen_No__102
  6
Continuous
100
AcDbLine
 10
335.2278788159248
 20
11.7037164673889
 30
0.0
 11
338.5717978066074
 21
22.57145318710716
 31
0.0
  0
LINE
  5
1A5
330
120
100
AcDbEntity
  8
VENT DETAILS_Pen_No__102
  6
Continuous
100
AcDbLine
 10
338.5717978066074
 20
22.57145318710716
 30
0.0
 11
332.7199395729129
 21
36.70900929606351
 31
0.0
  0
LINE
  5
1A6
330
120
100
AcDbEntity
  8
VENT DETAILS_Pen_No__102
  6
Continuous
100
AcDbLine
 10
332.7199395729129
 20
36.70900929606351
 30
0.0
 11
321.8522028531947
 21
53.2909907039365
 31
0.0
  0
LINE
  5
1A7
330
120
100
AcDbEntity
  8
VENT DETAILS_Pen_No__102
  6
Continuous
100
AcDbLine
 10
321.8522028531947
 20
53.2909907039365
 30
0.0
 11
316.0003446195002
 21
67.42854681289285
 31
0.0
  0
LINE
  5
1A8
330
120
100
AcDbEntity
  8
VENT DETAILS_Pen_No__102
  6
Continuous
100
AcDbLine
 10
316.0003446195002
 20
67.42854681289285
 30
0.0
 11
319.3442636101827
 21
78.2962835326111
 31
0.0
  0
LINE
  5
1A9
330
120
100
AcDbEntity
  8
VENT DETAILS_Pen_No__102
  6
Continuous
100
AcDbLine
 10
319.3442636101827
 20
78.2962835326111
 30
0.0
 11
327.7040610868891
 21
86.65608100931746
 31
0.0
  0
LINE
  5
1AA
330
120
100
AcDbEntity
  8
VENT DETAILS_Pen_No__102
  6
Continuous
100
AcDbLine
 10
327.7040610868891
 20
86.65608100931746
 30
0.0
 11
338.5717978066074
 21
90.0
 31
0.0
  0
LINE
  5
1AB
330
120
100
AcDbEntity
  8
VENT DETAILS_Pen_No__102
  6
Continuous
100
AcDbLine
 10
361.1432509937145
 20
0.0
 30
0.0
 11
350.2755142739963
 21
3.343918990682543
 31
0.0
  0
LINE
  5
1AC
330
120
100
AcDbEntity
  8
VENT DETAILS_Pen_No__102
  6
Continuous
100
AcDbLine
 10
350.2755142739963
 20
3.343918990682543
 30
0.0
 11
341.9157167972899
 21
11.7037164673889
 31
0.0
  0
LINE
  5
1AD
330
120
100
AcDbEntity
  8
VENT DETAILS_Pen_No__102
  6
Continuous
100
AcDbLine
 10
341.9157167972899
 20
11.7037164673889
 30
0.0
 11
338.5717978066073
 21
22.57145318710716
 31
0.0
  0
LINE
  5
1AE
330
120
100
AcDbEntity
  8
VENT DETAILS_Pen_No__102
  6
Continuous
100
AcDbLine
 10
338.5717978066073
 20
22.57145318710716
 30
0.0
 11
344.4236560403018
 21
36.70900929606351
 31
0.0
  0
LINE
  5
1AF
330
120
100
AcDbEntity
  8
VENT DETAILS_Pen_No__102
  6
Continuous
100
AcDbLine
 10
344.4236560403018
 20
36.70900929606351
 30
0.0
 11
355.2913927600201
 21
53.2909907039365
 31
0.0
  0
LINE
  5
1B0
330
120
100
AcDbEntity
  8
VENT DETAILS_Pen_No__102
  6
Continuous
100
AcDbLine
 10
355.2913927600201
 20
53.2909907039365
 30
0.0
 11
361.1432509937145
 21
67.42854681289285
 31
0.0
  0
LINE
  5
1B1
330
120
100
AcDbEntity
  8
VENT DETAILS_Pen_No__102
  6
Continuous
100
AcDbLine
 10
361.1432509937145
 20
67.42854681289285
 30
0.0
 11
357.799332003032
 21
78.2962835326111
 31
0.0
  0
LINE
  5
1B2
330
120
100
AcDbEntity
  8
VENT DETAILS_Pen_No__102
  6
Continuous
100
AcDbLine
 10
357.799332003032
 20
78.2962835326111
 30
0.0
 11
349.4395345263256
 21
86.65608100931746
 31
0.0
  0
LINE
  5
1B3
330
120
100
AcDbEntity
  8
VENT DETAILS_Pen_No__102
  6
Continuous
100
AcDbLine
 10
349.4395345263256
 20
86.65608100931746
 30
0.0
 11
338.5717978066073
 21
90.0
 31
0.0
  0
LINE
  5
1B4
330
120
100
AcDbEntity
  8
VENT DETAILS_Pen_No__102
  6
Continuous
100
AcDbLine
 10
361.1432509937145
 20
0.0
 30
0.0
 11
372.0109877134328
 21
3.343918990682543
 31
0.0
  0
LINE
  5
1B5
330
120
100
AcDbEntity
  8
VENT DETAILS_Pen_No__102
  6
Continuous
100
AcDbLine
 10
372.0109877134328
 20
3.343918990682543
 30
0.0
 11
380.3707851901391
 21
11.7037164673889
 31
0.0
  0
LINE
  5
1B6
330
120
100
AcDbEntity
  8
VENT DETAILS_Pen_No__102
  6
Continuous
100
AcDbLine
 10
380.3707851901391
 20
11.7037164673889
 30
0.0
 11
383.7147041808217
 21
22.57145318710716
 31
0.0
  0
LINE
  5
1B7
330
120
100
AcDbEntity
  8
VENT DETAILS_Pen_No__102
  6
Continuous
100
AcDbLine
 10
383.7147041808217
 20
22.57145318710716
 30
0.0
 11
377.8628459471273
 21
36.70900929606351
 31
0.0
  0
LINE
  5
1B8
330
120
100
AcDbEntity
  8
VENT DETAILS_Pen_No__102
  6
Continuous
100
AcDbLine
 10
377.8628459471273
 20
36.70900929606351
 30
0.0
 11
366.995109227409
 21
53.2909907039365
 31
0.0
  0
LINE
  5
1B9
330
120
100
AcDbEntity
  8
VENT DETAILS_Pen_No__102
  6
Continuous
100
AcDbLine
 10
366.995109227409
 20
53.2909907039365
 30
0.0
 11
361.1432509937145
 21
67.42854681289285
 31
0.0
  0
LINE
  5
1BA
330
120
100
AcDbEntity
  8
VENT DETAILS_Pen_No__102
  6
Continuous
100
AcDbLine
 10
361.1432509937145
 20
67.42854681289285
 30
0.0
 11
364.487169984397
 21
78.2962835326111
 31
0.0
  0
LINE
  5
1BB
330
120
100
AcDbEntity
  8
VENT DETAILS_Pen_No__102
  6
Continuous
100
AcDbLine
 10
364.487169984397
 20
78.2962835326111
 30
0.0
 11
372.8469674611034
 21
86.65608100931746
 31
0.0
  0
LINE
  5
1BC
330
120
100
AcDbEntity
  8
VENT DETAILS_Pen_No__102
  6
Continuous
100
AcDbLine
 10
372.8469674611034
 20
86.65608100931746
 30
0.0
 11
383.7147041808217
 21
90.0
 31
0.0
  0
LINE
  5
1BD
330
120
100
AcDbEntity
  8
VENT DETAILS_Pen_No__102
  6
Continuous
100
AcDbLine
 10
406.2861573679288
 20
0.0
 30
0.0
 11
395.4184206482106
 21
3.343918990682543
 31
0.0
  0
LINE
  5
1BE
330
120
100
AcDbEntity
  8
VENT DETAILS_Pen_No__102
  6
Continuous
100
AcDbLine
 10
395.4184206482106
 20
3.343918990682543
 30
0.0
 11
387.0586231715042
 21
11.7037164673889
 31
0.0
  0
LINE
  5
1BF
330
120
100
AcDbEntity
  8
VENT DETAILS_Pen_No__102
  6
Continuous
100
AcDbLine
 10
387.0586231715042
 20
11.7037164673889
 30
0.0
 11
383.7147041808216
 21
22.57145318710716
 31
0.0
  0
LINE
  5
1C0
330
120
100
AcDbEntity
  8
VENT DETAILS_Pen_No__102
  6
Continuous
100
AcDbLine
 10
383.7147041808216
 20
22.57145318710716
 30
0.0
 11
389.5665624145162
 21
36.70900929606351
 31
0.0
  0
LINE
  5
1C1
330
120
100
AcDbEntity
  8
VENT DETAILS_Pen_No__102
  6
Continuous
100
AcDbLine
 10
389.5665624145162
 20
36.70900929606351
 30
0.0
 11
400.4342991342344
 21
53.2909907039365
 31
0.0
  0
LINE
  5
1C2
330
120
100
AcDbEntity
  8
VENT DETAILS_Pen_No__102
  6
Continuous
100
AcDbLine
 10
400.4342991342344
 20
53.2909907039365
 30
0.0
 11
406.2861573679288
 21
67.42854681289285
 31
0.0
  0
LINE
  5
1C3
330
120
100
AcDbEntity
  8
VENT DETAILS_Pen_No__102
  6
Continuous
100
AcDbLine
 10
406.2861573679288
 20
67.42854681289285
 30
0.0
 11
402.9422383772463
 21
78.2962835326111
 31
0.0
  0
LINE
  5
1C4
330
120
100
AcDbEntity
  8
VENT DETAILS_Pen_No__102
  6
Continuous
100
AcDbLine
 10
402.9422383772463
 20
78.2962835326111
 30
0.0
 11
394.58244090054
 21
86.65608100931746
 31
0.0
  0
LINE
  5
1C5
330
120
100
AcDbEntity
  8
VENT DETAILS_Pen_No__102
  6
Continuous
100
AcDbLine
 10
394.58244090054
 20
86.65608100931746
 30
0.0
 11
383.7147041808216
 21
90.0
 31
0.0
  0
LINE
  5
1C6
330
120
100
AcDbEntity
  8
VENT DETAILS_Pen_No__102
  6
Continuous
100
AcDbLine
 10
406.2861573679288
 20
0.0
 30
0.0
 11
417.1538940876471
 21
3.343918990682543
 31
0.0
  0
LINE
  5
1C7
330
120
100
AcDbEntity
  8
VENT DETAILS_Pen_No__102
  6
Continuous
100
AcDbLine
 10
417.1538940876471
 20
3.343918990682543
 30
0.0
 11
425.5136915643535
 21
11.7037164673889
 31
0.0
  0
LINE
  5
1C8
330
120
100
AcDbEntity
  8
VENT DETAILS_Pen_No__102
  6
Continuous
100
AcDbLine
 10
425.5136915643535
 20
11.7037164673889
 30
0.0
 11
428.857610555036
 21
22.57145318710716
 31
0.0
  0
LINE
  5
1C9
330
120
100
AcDbEntity
  8
VENT DETAILS_Pen_No__102
  6
Continuous
100
AcDbLine
 10
428.857610555036
 20
22.57145318710716
 30
0.0
 11
423.0057523213415
 21
36.70900929606351
 31
0.0
  0
LINE
  5
1CA
330
120
100
AcDbEntity
  8
VENT DETAILS_Pen_No__102
  6
Continuous
100
AcDbLine
 10
423.0057523213415
 20
36.70900929606351
 30
0.0
 11
412.1380156016233
 21
53.2909907039365
 31
0.0
  0
LINE
  5
1CB
330
120
100
AcDbEntity
  8
VENT DETAILS_Pen_No__102
  6
Continuous
100
AcDbLine
 10
412.1380156016233
 20
53.2909907039365
 30
0.0
 11
406.2861573679288
 21
67.42854681289285
 31
0.0
  0
LINE
  5
1CC
330
120
100
AcDbEntity
  8
VENT DETAILS_Pen_No__102
  6
Continuous
100
AcDbLine
 10
406.2861573679288
 20
67.42854681289285
 30
0.0
 11
409.6300763586113
 21
78.2962835326111
 31
0.0
  0
LINE
  5
1CD
330
120
100
AcDbEntity
  8
VENT DETAILS_Pen_No__102
  6
Continuous
100
AcDbLine
 10
409.6300763586113
 20
78.2962835326111
 30
0.0
 11
417.9898738353177
 21
86.65608100931746
 31
0.0
  0
LINE
  5
1CE
330
120
100
AcDbEntity
  8
VENT DETAILS_Pen_No__102
  6
Continuous
100
AcDbLine
 10
417.9898738353177
 20
86.65608100931746
 30
0.0
 11
428.857610555036
 21
90.0
 31
0.0
  0
LINE
  5
1CF
330
120
100
AcDbEntity
  8
VENT DETAILS_Pen_No__102
  6
Continuous
100
AcDbLine
 10
451.4290637421432
 20
0.0
 30
0.0
 11
440.5613270224249
 21
3.343918990682543
 31
0.0
  0
LINE
  5
1D0
330
120
100
AcDbEntity
  8
VENT DETAILS_Pen_No__102
  6
Continuous
100
AcDbLine
 10
440.5613270224249
 20
3.343918990682543
 30
0.0
 11
432.2015295457185
 21
11.7037164673889
 31
0.0
  0
LINE
  5
1D1
330
120
100
AcDbEntity
  8
VENT DETAILS_Pen_No__102
  6
Continuous
100
AcDbLine
 10
432.2015295457185
 20
11.7037164673889
 30
0.0
 11
428.857610555036
 21
22.57145318710716
 31
0.0
  0
LINE
  5
1D2
330
120
100
AcDbEntity
  8
VENT DETAILS_Pen_No__102
  6
Continuous
100
AcDbLine
 10
428.857610555036
 20
22.57145318710716
 30
0.0
 11
434.7094687887304
 21
36.70900929606351
 31
0.0
  0
LINE
  5
1D3
330
120
100
AcDbEntity
  8
VENT DETAILS_Pen_No__102
  6
Continuous
100
AcDbLine
 10
434.7094687887304
 20
36.70900929606351
 30
0.0
 11
445.5772055084487
 21
53.2909907039365
 31
0.0
  0
LINE
  5
1D4
330
120
100
AcDbEntity
  8
VENT DETAILS_Pen_No__102
  6
Continuous
100
AcDbLine
 10
445.5772055084487
 20
53.2909907039365
 30
0.0
 11
451.4290637421432
 21
67.42854681289285
 31
0.0
  0
LINE
  5
1D5
330
120
100
AcDbEntity
  8
VENT DETAILS_Pen_No__102
  6
Continuous
100
AcDbLine
 10
451.4290637421432
 20
67.42854681289285
 30
0.0
 11
448.0851447514606
 21
78.2962835326111
 31
0.0
  0
LINE
  5
1D6
330
120
100
AcDbEntity
  8
VENT DETAILS_Pen_No__102
  6
Continuous
100
AcDbLine
 10
448.0851447514606
 20
78.2962835326111
 30
0.0
 11
439.7253472747543
 21
86.65608100931746
 31
0.0
  0
LINE
  5
1D7
330
120
100
AcDbEntity
  8
VENT DETAILS_Pen_No__102
  6
Continuous
100
AcDbLine
 10
439.7253472747543
 20
86.65608100931746
 30
0.0
 11
428.857610555036
 21
90.0
 31
0.0
  0
ENDBLK
  5
122
330
120
100
AcDbEntity
  8
0
100
AcDbBlockEnd
  0
BLOCK
  5
1DB
330
1DA
100
AcDbEntity
  8
0
100
AcDbBlockBegin
  2
Cadimage Insulation_2
 70
     0
 10
0.0
 20
0.0
 30
0.0
  3
Cadimage Insulation_2
  1

  0
LINE
  5
1DD
330
1DA
100
AcDbEntity
  8
VENT DETAILS_Pen_No__102
  6
Continuous
100
AcDbLine
 10
0.0
 20
0.0
 30
0.0
 11
11.2820616672698
 21
3.471403589929169
 31
0.0
  0
LINE
  5
1DE
330
1DA
100
AcDbEntity
  8
VENT DETAILS_Pen_No__102
  6
Continuous
100
AcDbLine
 10
11.2820616672698
 20
3.471403589929169
 30
0.0
 11
19.96057064209272
 21
12.14991256475209
 31
0.0
  0
LINE
  5
1DF
330
1DA
100
AcDbEntity
  8
VENT DETAILS_Pen_No__102
  6
Continuous
100
AcDbLine
 10
19.96057064209272
 20
12.14991256475209
 30
0.0
 11
23.43197423202189
 21
23.43197423202189
 31
0.0
  0
LINE
  5
1E0
330
1DA
100
AcDbEntity
  8
VENT DETAILS_Pen_No__102
  6
Continuous
100
AcDbLine
 10
23.43197423202189
 20
23.43197423202189
 30
0.0
 11
17.35701794964585
 21
37.21894769305001
 31
0.0
  0
LINE
  5
1E1
330
1DA
100
AcDbEntity
  8
VENT DETAILS_Pen_No__102
  6
Continuous
100
AcDbLine
 10
17.35701794964585
 20
37.21894769305001
 30
0.0
 11
6.074956282376045
 21
52.78105230695
 31
0.0
  0
LINE
  5
1E2
330
1DA
100
AcDbEntity
  8
VENT DETAILS_Pen_No__102
  6
Continuous
100
AcDbLine
 10
6.074956282376045
 20
52.78105230695
 30
0.0
 11
0.0
 21
66.5680257679781
 31
0.0
  0
LINE
  5
1E3
330
1DA
100
AcDbEntity
  8
VENT DETAILS_Pen_No__102
  6
Continuous
100
AcDbLine
 10
0.0
 20
66.5680257679781
 30
0.0
 11
3.471403589929169
 21
77.8500874352479
 31
0.0
  0
LINE
  5
1E4
330
1DA
100
AcDbEntity
  8
VENT DETAILS_Pen_No__102
  6
Continuous
100
AcDbLine
 10
3.471403589929169
 20
77.8500874352479
 30
0.0
 11
12.14991256475209
 21
86.52859641007082
 31
0.0
  0
LINE
  5
1E5
330
1DA
100
AcDbEntity
  8
VENT DETAILS_Pen_No__102
  6
Continuous
100
AcDbLine
 10
12.14991256475209
 20
86.52859641007082
 30
0.0
 11
23.43197423202189
 21
90.0
 31
0.0
  0
LINE
  5
1E6
330
1DA
100
AcDbEntity
  8
VENT DETAILS_Pen_No__102
  6
Continuous
100
AcDbLine
 10
46.86394846404378
 20
0.0
 30
0.0
 11
35.58188679677398
 21
3.471403589929169
 31
0.0
  0
LINE
  5
1E7
330
1DA
100
AcDbEntity
  8
VENT DETAILS_Pen_No__102
  6
Continuous
100
AcDbLine
 10
35.58188679677398
 20
3.471403589929169
 30
0.0
 11
26.90337782195106
 21
12.14991256475209
 31
0.0
  0
LINE
  5
1E8
330
1DA
100
AcDbEntity
  8
VENT DETAILS_Pen_No__102
  6
Continuous
100
AcDbLine
 10
26.90337782195106
 20
12.14991256475209
 30
0.0
 11
23.43197423202189
 21
23.43197423202189
 31
0.0
  0
LINE
  5
1E9
330
1DA
100
AcDbEntity
  8
VENT DETAILS_Pen_No__102
  6
Continuous
100
AcDbLine
 10
23.43197423202189
 20
23.43197423202189
 30
0.0
 11
29.50693051439793
 21
37.21894769305001
 31
0.0
  0
LINE
  5
1EA
330
1DA
100
AcDbEntity
  8
VENT DETAILS_Pen_No__102
  6
Continuous
100
AcDbLine
 10
29.50693051439793
 20
37.21894769305001
 30
0.0
 11
40.78899218166773
 21
52.78105230695
 31
0.0
  0
LINE
  5
1EB
330
1DA
100
AcDbEntity
  8
VENT DETAILS_Pen_No__102
  6
Continuous
100
AcDbLine
 10
40.78899218166773
 20
52.78105230695
 30
0.0
 11
46.86394846404378
 21
66.5680257679781
 31
0.0
  0
LINE
  5
1EC
330
1DA
100
AcDbEntity
  8
VENT DETAILS_Pen_No__102
  6
Continuous
100
AcDbLine
 10
46.86394846404378
 20
66.5680257679781
 30
0.0
 11
43.39254487411461
 21
77.8500874352479
 31
0.0
  0
LINE
  5
1ED
330
1DA
100
AcDbEntity
  8
VENT DETAILS_Pen_No__102
  6
Continuous
100
AcDbLine
 10
43.39254487411461
 20
77.8500874352479
 30
0.0
 11
34.71403589929169
 21
86.52859641007082
 31
0.0
  0
LINE
  5
1EE
330
1DA
100
AcDbEntity
  8
VENT DETAILS_Pen_No__102
  6
Continuous
100
AcDbLine
 10
34.71403589929169
 20
86.52859641007082
 30
0.0
 11
23.43197423202189
 21
90.0
 31
0.0
  0
LINE
  5
1EF
330
1DA
100
AcDbEntity
  8
VENT DETAILS_Pen_No__102
  6
Continuous
100
AcDbLine
 10
46.86394846404378
 20
0.0
 30
0.0
 11
58.14601013131357
 21
3.471403589929169
 31
0.0
  0
LINE
  5
1F0
330
1DA
100
AcDbEntity
  8
VENT DETAILS_Pen_No__102
  6
Continuous
100
AcDbLine
 10
58.14601013131357
 20
3.471403589929169
 30
0.0
 11
66.8245191061365
 21
12.14991256475209
 31
0.0
  0
LINE
  5
1F1
330
1DA
100
AcDbEntity
  8
VENT DETAILS_Pen_No__102
  6
Continuous
100
AcDbLine
 10
66.8245191061365
 20
12.14991256475209
 30
0.0
 11
70.29592269606566
 21
23.43197423202189
 31
0.0
  0
LINE
  5
1F2
330
1DA
100
AcDbEntity
  8
VENT DETAILS_Pen_No__102
  6
Continuous
100
AcDbLine
 10
70.29592269606566
 20
23.43197423202189
 30
0.0
 11
64.22096641368962
 21
37.21894769305001
 31
0.0
  0
LINE
  5
1F3
330
1DA
100
AcDbEntity
  8
VENT DETAILS_Pen_No__102
  6
Continuous
100
AcDbLine
 10
64.22096641368962
 20
37.21894769305001
 30
0.0
 11
52.93890474641982
 21
52.78105230695
 31
0.0
  0
LINE
  5
1F4
330
1DA
100
AcDbEntity
  8
VENT DETAILS_Pen_No__102
  6
Continuous
100
AcDbLine
 10
52.93890474641982
 20
52.78105230695
 30
0.0
 11
46.86394846404378
 21
66.5680257679781
 31
0.0
  0
LINE
  5
1F5
330
1DA
100
AcDbEntity
  8
VENT DETAILS_Pen_No__102
  6
Continuous
100
AcDbLine
 10
46.86394846404378
 20
66.5680257679781
 30
0.0
 11
50.33535205397295
 21
77.8500874352479
 31
0.0
  0
LINE
  5
1F6
330
1DA
100
AcDbEntity
  8
VENT DETAILS_Pen_No__102
  6
Continuous
100
AcDbLine
 10
50.33535205397295
 20
77.8500874352479
 30
0.0
 11
59.01386102879587
 21
86.52859641007082
 31
0.0
  0
LINE
  5
1F7
330
1DA
100
AcDbEntity
  8
VENT DETAILS_Pen_No__102
  6
Continuous
100
AcDbLine
 10
59.01386102879587
 20
86.52859641007082
 30
0.0
 11
70.29592269606566
 21
90.0
 31
0.0
  0
LINE
  5
1F8
330
1DA
100
AcDbEntity
  8
VENT DETAILS_Pen_No__102
  6
Continuous
100
AcDbLine
 10
93.72789692808756
 20
0.0
 30
0.0
 11
82.44583526081774
 21
3.471403589929169
 31
0.0
  0
LINE
  5
1F9
330
1DA
100
AcDbEntity
  8
VENT DETAILS_Pen_No__102
  6
Continuous
100
AcDbLine
 10
82.44583526081774
 20
3.471403589929169
 30
0.0
 11
73.76732628599483
 21
12.14991256475209
 31
0.0
  0
LINE
  5
1FA
330
1DA
100
AcDbEntity
  8
VENT DETAILS_Pen_No__102
  6
Continuous
100
AcDbLine
 10
73.76732628599483
 20
12.14991256475209
 30
0.0
 11
70.29592269606566
 21
23.43197423202189
 31
0.0
  0
LINE
  5
1FB
330
1DA
100
AcDbEntity
  8
VENT DETAILS_Pen_No__102
  6
Continuous
100
AcDbLine
 10
70.29592269606566
 20
23.43197423202189
 30
0.0
 11
76.37087897844171
 21
37.21894769305001
 31
0.0
  0
LINE
  5
1FC
330
1DA
100
AcDbEntity
  8
VENT DETAILS_Pen_No__102
  6
Continuous
100
AcDbLine
 10
76.37087897844171
 20
37.21894769305001
 30
0.0
 11
87.65294064571151
 21
52.78105230695
 31
0.0
  0
LINE
  5
1FD
330
1DA
100
AcDbEntity
  8
VENT DETAILS_Pen_No__102
  6
Continuous
100
AcDbLine
 10
87.65294064571151
 20
52.78105230695
 30
0.0
 11
93.72789692808756
 21
66.5680257679781
 31
0.0
  0
LINE
  5
1FE
330
1DA
100
AcDbEntity
  8
VENT DETAILS_Pen_No__102
  6
Continuous
100
AcDbLine
 10
93.72789692808756
 20
66.5680257679781
 30
0.0
 11
90.25649333815838
 21
77.8500874352479
 31
0.0
  0
LINE
  5
1FF
330
1DA
100
AcDbEntity
  8
VENT DETAILS_Pen_No__102
  6
Continuous
100
AcDbLine
 10
90.25649333815838
 20
77.8500874352479
 30
0.0
 11
81.57798436333546
 21
86.52859641007082
 31
0.0
  0
LINE
  5
200
330
1DA
100
AcDbEntity
  8
VENT DETAILS_Pen_No__102
  6
Continuous
100
AcDbLine
 10
81.57798436333546
 20
86.52859641007082
 30
0.0
 11
70.29592269606566
 21
90.0
 31
0.0
  0
LINE
  5
201
330
1DA
100
AcDbEntity
  8
VENT DETAILS_Pen_No__102
  6
Continuous
100
AcDbLine
 10
93.72789692808756
 20
0.0
 30
0.0
 11
105.0099585953574
 21
3.471403589929169
 31
0.0
  0
LINE
  5
202
330
1DA
100
AcDbEntity
  8
VENT DETAILS_Pen_No__102
  6
Continuous
100
AcDbLine
 10
105.0099585953574
 20
3.471403589929169
 30
0.0
 11
113.6884675701803
 21
12.14991256475209
 31
0.0
  0
LINE
  5
203
330
1DA
100
AcDbEntity
  8
VENT DETAILS_Pen_No__102
  6
Continuous
100
AcDbLine
 10
113.6884675701803
 20
12.14991256475209
 30
0.0
 11
117.1598711601094
 21
23.43197423202189
 31
0.0
  0
LINE
  5
204
330
1DA
100
AcDbEntity
  8
VENT DETAILS_Pen_No__102
  6
Continuous
100
AcDbLine
 10
117.1598711601094
 20
23.43197423202189
 30
0.0
 11
111.0849148777334
 21
37.21894769305001
 31
0.0
  0
LINE
  5
205
330
1DA
100
AcDbEntity
  8
VENT DETAILS_Pen_No__102
  6
Continuous
100
AcDbLine
 10
111.0849148777334
 20
37.21894769305001
 30
0.0
 11
99.8028532104636
 21
52.78105230695
 31
0.0
  0
LINE
  5
206
330
1DA
100
AcDbEntity
  8
VENT DETAILS_Pen_No__102
  6
Continuous
100
AcDbLine
 10
99.8028532104636
 20
52.78105230695
 30
0.0
 11
93.72789692808756
 21
66.5680257679781
 31
0.0
  0
LINE
  5
207
330
1DA
100
AcDbEntity
  8
VENT DETAILS_Pen_No__102
  6
Continuous
100
AcDbLine
 10
93.72789692808756
 20
66.5680257679781
 30
0.0
 11
97.19930051801673
 21
77.8500874352479
 31
0.0
  0
LINE
  5
208
330
1DA
100
AcDbEntity
  8
VENT DETAILS_Pen_No__102
  6
Continuous
100
AcDbLine
 10
97.19930051801673
 20
77.8500874352479
 30
0.0
 11
105.8778094928396
 21
86.52859641007082
 31
0.0
  0
LINE
  5
209
330
1DA
100
AcDbEntity
  8
VENT DETAILS_Pen_No__102
  6
Continuous
100
AcDbLine
 10
105.8778094928396
 20
86.52859641007082
 30
0.0
 11
117.1598711601094
 21
90.0
 31
0.0
  0
LINE
  5
20A
330
1DA
100
AcDbEntity
  8
VENT DETAILS_Pen_No__102
  6
Continuous
100
AcDbLine
 10
140.5918453921313
 20
0.0
 30
0.0
 11
129.3097837248615
 21
3.471403589929169
 31
0.0
  0
LINE
  5
20B
330
1DA
100
AcDbEntity
  8
VENT DETAILS_Pen_No__102
  6
Continuous
100
AcDbLine
 10
129.3097837248615
 20
3.471403589929169
 30
0.0
 11
120.6312747500386
 21
12.14991256475209
 31
0.0
  0
LINE
  5
20C
330
1DA
100
AcDbEntity
  8
VENT DETAILS_Pen_No__102
  6
Continuous
100
AcDbLine
 10
120.6312747500386
 20
12.14991256475209
 30
0.0
 11
117.1598711601094
 21
23.43197423202189
 31
0.0
  0
LINE
  5
20D
330
1DA
100
AcDbEntity
  8
VENT DETAILS_Pen_No__102
  6
Continuous
100
AcDbLine
 10
117.1598711601094
 20
23.43197423202189
 30
0.0
 11
123.2348274424855
 21
37.21894769305001
 31
0.0
  0
LINE
  5
20E
330
1DA
100
AcDbEntity
  8
VENT DETAILS_Pen_No__102
  6
Continuous
100
AcDbLine
 10
123.2348274424855
 20
37.21894769305001
 30
0.0
 11
134.5168891097553
 21
52.78105230695
 31
0.0
  0
LINE
  5
20F
330
1DA
100
AcDbEntity
  8
VENT DETAILS_Pen_No__102
  6
Continuous
100
AcDbLine
 10
134.5168891097553
 20
52.78105230695
 30
0.0
 11
140.5918453921313
 21
66.5680257679781
 31
0.0
  0
LINE
  5
210
330
1DA
100
AcDbEntity
  8
VENT DETAILS_Pen_No__102
  6
Continuous
100
AcDbLine
 10
140.5918453921313
 20
66.5680257679781
 30
0.0
 11
137.1204418022022
 21
77.8500874352479
 31
0.0
  0
LINE
  5
211
330
1DA
100
AcDbEntity
  8
VENT DETAILS_Pen_No__102
  6
Continuous
100
AcDbLine
 10
137.1204418022022
 20
77.8500874352479
 30
0.0
 11
128.4419328273792
 21
86.52859641007082
 31
0.0
  0
LINE
  5
212
330
1DA
100
AcDbEntity
  8
VENT DETAILS_Pen_No__102
  6
Continuous
100
AcDbLine
 10
128.4419328273792
 20
86.52859641007082
 30
0.0
 11
117.1598711601094
 21
90.0
 31
0.0
  0
LINE
  5
213
330
1DA
100
AcDbEntity
  8
VENT DETAILS_Pen_No__102
  6
Continuous
100
AcDbLine
 10
140.5918453921313
 20
0.0
 30
0.0
 11
151.8739070594011
 21
3.471403589929169
 31
0.0
  0
LINE
  5
214
330
1DA
100
AcDbEntity
  8
VENT DETAILS_Pen_No__102
  6
Continuous
100
AcDbLine
 10
151.8739070594011
 20
3.471403589929169
 30
0.0
 11
160.5524160342241
 21
12.14991256475209
 31
0.0
  0
LINE
  5
215
330
1DA
100
AcDbEntity
  8
VENT DETAILS_Pen_No__102
  6
Continuous
100
AcDbLine
 10
160.5524160342241
 20
12.14991256475209
 30
0.0
 11
164.0238196241532
 21
23.43197423202189
 31
0.0
  0
LINE
  5
216
330
1DA
100
AcDbEntity
  8
VENT DETAILS_Pen_No__102
  6
Continuous
100
AcDbLine
 10
164.0238196241532
 20
23.43197423202189
 30
0.0
 11
157.9488633417772
 21
37.21894769305001
 31
0.0
  0
LINE
  5
217
330
1DA
100
AcDbEntity
  8
VENT DETAILS_Pen_No__102
  6
Continuous
100
AcDbLine
 10
157.9488633417772
 20
37.21894769305001
 30
0.0
 11
146.6668016745074
 21
52.78105230695
 31
0.0
  0
LINE
  5
218
330
1DA
100
AcDbEntity
  8
VENT DETAILS_Pen_No__102
  6
Continuous
100
AcDbLine
 10
146.6668016745074
 20
52.78105230695
 30
0.0
 11
140.5918453921313
 21
66.5680257679781
 31
0.0
  0
LINE
  5
219
330
1DA
100
AcDbEntity
  8
VENT DETAILS_Pen_No__102
  6
Continuous
100
AcDbLine
 10
140.5918453921313
 20
66.5680257679781
 30
0.0
 11
144.0632489820605
 21
77.8500874352479
 31
0.0
  0
LINE
  5
21A
330
1DA
100
AcDbEntity
  8
VENT DETAILS_Pen_No__102
  6
Continuous
100
AcDbLine
 10
144.0632489820605
 20
77.8500874352479
 30
0.0
 11
152.7417579568834
 21
86.52859641007082
 31
0.0
  0
LINE
  5
21B
330
1DA
100
AcDbEntity
  8
VENT DETAILS_Pen_No__102
  6
Continuous
100
AcDbLine
 10
152.7417579568834
 20
86.52859641007082
 30
0.0
 11
164.0238196241532
 21
90.0
 31
0.0
  0
LINE
  5
21C
330
1DA
100
AcDbEntity
  8
VENT DETAILS_Pen_No__102
  6
Continuous
100
AcDbLine
 10
187.4557938561751
 20
0.0
 30
0.0
 11
176.1737321889053
 21
3.471403589929169
 31
0.0
  0
LINE
  5
21D
330
1DA
100
AcDbEntity
  8
VENT DETAILS_Pen_No__102
  6
Continuous
100
AcDbLine
 10
176.1737321889053
 20
3.471403589929169
 30
0.0
 11
167.4952232140824
 21
12.14991256475209
 31
0.0
  0
LINE
  5
21E
330
1DA
100
AcDbEntity
  8
VENT DETAILS_Pen_No__102
  6
Continuous
100
AcDbLine
 10
167.4952232140824
 20
12.14991256475209
 30
0.0
 11
164.0238196241532
 21
23.43197423202189
 31
0.0
  0
LINE
  5
21F
330
1DA
100
AcDbEntity
  8
VENT DETAILS_Pen_No__102
  6
Continuous
100
AcDbLine
 10
164.0238196241532
 20
23.43197423202189
 30
0.0
 11
170.0987759065293
 21
37.21894769305001
 31
0.0
  0
LINE
  5
220
330
1DA
100
AcDbEntity
  8
VENT DETAILS_Pen_No__102
  6
Continuous
100
AcDbLine
 10
170.0987759065293
 20
37.21894769305001
 30
0.0
 11
181.3808375737991
 21
52.78105230695
 31
0.0
  0
LINE
  5
221
330
1DA
100
AcDbEntity
  8
VENT DETAILS_Pen_No__102
  6
Continuous
100
AcDbLine
 10
181.3808375737991
 20
52.78105230695
 30
0.0
 11
187.4557938561751
 21
66.5680257679781
 31
0.0
  0
LINE
  5
222
330
1DA
100
AcDbEntity
  8
VENT DETAILS_Pen_No__102
  6
Continuous
100
AcDbLine
 10
187.4557938561751
 20
66.5680257679781
 30
0.0
 11
183.984390266246
 21
77.8500874352479
 31
0.0
  0
LINE
  5
223
330
1DA
100
AcDbEntity
  8
VENT DETAILS_Pen_No__102
  6
Continuous
100
AcDbLine
 10
183.984390266246
 20
77.8500874352479
 30
0.0
 11
175.305881291423
 21
86.52859641007082
 31
0.0
  0
LINE
  5
224
330
1DA
100
AcDbEntity
  8
VENT DETAILS_Pen_No__102
  6
Continuous
100
AcDbLine
 10
175.305881291423
 20
86.52859641007082
 30
0.0
 11
164.0238196241532
 21
90.0
 31
0.0
  0
LINE
  5
225
330
1DA
100
AcDbEntity
  8
VENT DETAILS_Pen_No__102
  6
Continuous
100
AcDbLine
 10
187.4557938561751
 20
0.0
 30
0.0
 11
198.7378555234449
 21
3.471403589929169
 31
0.0
  0
LINE
  5
226
330
1DA
100
AcDbEntity
  8
VENT DETAILS_Pen_No__102
  6
Continuous
100
AcDbLine
 10
198.7378555234449
 20
3.471403589929169
 30
0.0
 11
207.4163644982678
 21
12.14991256475209
 31
0.0
  0
LINE
  5
227
330
1DA
100
AcDbEntity
  8
VENT DETAILS_Pen_No__102
  6
Continuous
100
AcDbLine
 10
207.4163644982678
 20
12.14991256475209
 30
0.0
 11
210.887768088197
 21
23.43197423202189
 31
0.0
  0
LINE
  5
228
330
1DA
100
AcDbEntity
  8
VENT DETAILS_Pen_No__102
  6
Continuous
100
AcDbLine
 10
210.887768088197
 20
23.43197423202189
 30
0.0
 11
204.812811805821
 21
37.21894769305001
 31
0.0
  0
LINE
  5
229
330
1DA
100
AcDbEntity
  8
VENT DETAILS_Pen_No__102
  6
Continuous
100
AcDbLine
 10
204.812811805821
 20
37.21894769305001
 30
0.0
 11
193.5307501385512
 21
52.78105230695
 31
0.0
  0
LINE
  5
22A
330
1DA
100
AcDbEntity
  8
VENT DETAILS_Pen_No__102
  6
Continuous
100
AcDbLine
 10
193.5307501385512
 20
52.78105230695
 30
0.0
 11
187.4557938561751
 21
66.5680257679781
 31
0.0
  0
LINE
  5
22B
330
1DA
100
AcDbEntity
  8
VENT DETAILS_Pen_No__102
  6
Continuous
100
AcDbLine
 10
187.4557938561751
 20
66.5680257679781
 30
0.0
 11
190.9271974461043
 21
77.8500874352479
 31
0.0
  0
LINE
  5
22C
330
1DA
100
AcDbEntity
  8
VENT DETAILS_Pen_No__102
  6
Continuous
100
AcDbLine
 10
190.9271974461043
 20
77.8500874352479
 30
0.0
 11
199.6057064209272
 21
86.52859641007082
 31
0.0
  0
LINE
  5
22D
330
1DA
100
AcDbEntity
  8
VENT DETAILS_Pen_No__102
  6
Continuous
100
AcDbLine
 10
199.6057064209272
 20
86.52859641007082
 30
0.0
 11
210.887768088197
 21
90.0
 31
0.0
  0
LINE
  5
22E
330
1DA
100
AcDbEntity
  8
VENT DETAILS_Pen_No__102
  6
Continuous
100
AcDbLine
 10
234.3197423202189
 20
0.0
 30
0.0
 11
223.0376806529491
 21
3.471403589929169
 31
0.0
  0
LINE
  5
22F
330
1DA
100
AcDbEntity
  8
VENT DETAILS_Pen_No__102
  6
Continuous
100
AcDbLine
 10
223.0376806529491
 20
3.471403589929169
 30
0.0
 11
214.3591716781262
 21
12.14991256475209
 31
0.0
  0
LINE
  5
230
330
1DA
100
AcDbEntity
  8
VENT DETAILS_Pen_No__102
  6
Continuous
100
AcDbLine
 10
214.3591716781262
 20
12.14991256475209
 30
0.0
 11
210.887768088197
 21
23.43197423202189
 31
0.0
  0
LINE
  5
231
330
1DA
100
AcDbEntity
  8
VENT DETAILS_Pen_No__102
  6
Continuous
100
AcDbLine
 10
210.887768088197
 20
23.43197423202189
 30
0.0
 11
216.9627243705731
 21
37.21894769305001
 31
0.0
  0
LINE
  5
232
330
1DA
100
AcDbEntity
  8
VENT DETAILS_Pen_No__102
  6
Continuous
100
AcDbLine
 10
216.9627243705731
 20
37.21894769305001
 30
0.0
 11
228.2447860378429
 21
52.78105230695
 31
0.0
  0
LINE
  5
233
330
1DA
100
AcDbEntity
  8
VENT DETAILS_Pen_No__102
  6
Continuous
100
AcDbLine
 10
228.2447860378429
 20
52.78105230695
 30
0.0
 11
234.3197423202189
 21
66.5680257679781
 31
0.0
  0
LINE
  5
234
330
1DA
100
AcDbEntity
  8
VENT DETAILS_Pen_No__102
  6
Continuous
100
AcDbLine
 10
234.3197423202189
 20
66.5680257679781
 30
0.0
 11
230.8483387302897
 21
77.8500874352479
 31
0.0
  0
LINE
  5
235
330
1DA
100
AcDbEntity
  8
VENT DETAILS_Pen_No__102
  6
Continuous
100
AcDbLine
 10
230.8483387302897
 20
77.8500874352479
 30
0.0
 11
222.1698297554668
 21
86.52859641007082
 31
0.0
  0
LINE
  5
236
330
1DA
100
AcDbEntity
  8
VENT DETAILS_Pen_No__102
  6
Continuous
100
AcDbLine
 10
222.1698297554668
 20
86.52859641007082
 30
0.0
 11
210.887768088197
 21
90.0
 31
0.0
  0
LINE
  5
237
330
1DA
100
AcDbEntity
  8
VENT DETAILS_Pen_No__102
  6
Continuous
100
AcDbLine
 10
234.3197423202189
 20
0.0
 30
0.0
 11
245.6018039874887
 21
3.471403589929169
 31
0.0
  0
LINE
  5
238
330
1DA
100
AcDbEntity
  8
VENT DETAILS_Pen_No__102
  6
Continuous
100
AcDbLine
 10
245.6018039874887
 20
3.471403589929169
 30
0.0
 11
254.2803129623116
 21
12.14991256475209
 31
0.0
  0
LINE
  5
239
330
1DA
100
AcDbEntity
  8
VENT DETAILS_Pen_No__102
  6
Continuous
100
AcDbLine
 10
254.2803129623116
 20
12.14991256475209
 30
0.0
 11
257.7517165522408
 21
23.43197423202189
 31
0.0
  0
LINE
  5
23A
330
1DA
100
AcDbEntity
  8
VENT DETAILS_Pen_No__102
  6
Continuous
100
AcDbLine
 10
257.7517165522408
 20
23.43197423202189
 30
0.0
 11
251.6767602698647
 21
37.21894769305001
 31
0.0
  0
LINE
  5
23B
330
1DA
100
AcDbEntity
  8
VENT DETAILS_Pen_No__102
  6
Continuous
100
AcDbLine
 10
251.6767602698647
 20
37.21894769305001
 30
0.0
 11
240.3946986025949
 21
52.78105230695
 31
0.0
  0
LINE
  5
23C
330
1DA
100
AcDbEntity
  8
VENT DETAILS_Pen_No__102
  6
Continuous
100
AcDbLine
 10
240.3946986025949
 20
52.78105230695
 30
0.0
 11
234.3197423202189
 21
66.5680257679781
 31
0.0
  0
LINE
  5
23D
330
1DA
100
AcDbEntity
  8
VENT DETAILS_Pen_No__102
  6
Continuous
100
AcDbLine
 10
234.3197423202189
 20
66.5680257679781
 30
0.0
 11
237.7911459101481
 21
77.8500874352479
 31
0.0
  0
LINE
  5
23E
330
1DA
100
AcDbEntity
  8
VENT DETAILS_Pen_No__102
  6
Continuous
100
AcDbLine
 10
237.7911459101481
 20
77.8500874352479
 30
0.0
 11
246.469654884971
 21
86.52859641007082
 31
0.0
  0
LINE
  5
23F
330
1DA
100
AcDbEntity
  8
VENT DETAILS_Pen_No__102
  6
Continuous
100
AcDbLine
 10
246.469654884971
 20
86.52859641007082
 30
0.0
 11
257.7517165522408
 21
90.0
 31
0.0
  0
LINE
  5
240
330
1DA
100
AcDbEntity
  8
VENT DETAILS_Pen_No__102
  6
Continuous
100
AcDbLine
 10
281.1836907842627
 20
0.0
 30
0.0
 11
269.9016291169929
 21
3.471403589929169
 31
0.0
  0
LINE
  5
241
330
1DA
100
AcDbEntity
  8
VENT DETAILS_Pen_No__102
  6
Continuous
100
AcDbLine
 10
269.9016291169929
 20
3.471403589929169
 30
0.0
 11
261.22312014217
 21
12.14991256475209
 31
0.0
  0
LINE
  5
242
330
1DA
100
AcDbEntity
  8
VENT DETAILS_Pen_No__102
  6
Continuous
100
AcDbLine
 10
261.22312014217
 20
12.14991256475209
 30
0.0
 11
257.7517165522409
 21
23.43197423202189
 31
0.0
  0
LINE
  5
243
330
1DA
100
AcDbEntity
  8
VENT DETAILS_Pen_No__102
  6
Continuous
100
AcDbLine
 10
257.7517165522409
 20
23.43197423202189
 30
0.0
 11
263.8266728346169
 21
37.21894769305001
 31
0.0
  0
LINE
  5
244
330
1DA
100
AcDbEntity
  8
VENT DETAILS_Pen_No__102
  6
Continuous
100
AcDbLine
 10
263.8266728346169
 20
37.21894769305001
 30
0.0
 11
275.1087345018867
 21
52.78105230695
 31
0.0
  0
LINE
  5
245
330
1DA
100
AcDbEntity
  8
VENT DETAILS_Pen_No__102
  6
Continuous
100
AcDbLine
 10
275.1087345018867
 20
52.78105230695
 30
0.0
 11
281.1836907842627
 21
66.5680257679781
 31
0.0
  0
LINE
  5
246
330
1DA
100
AcDbEntity
  8
VENT DETAILS_Pen_No__102
  6
Continuous
100
AcDbLine
 10
281.1836907842627
 20
66.5680257679781
 30
0.0
 11
277.7122871943336
 21
77.8500874352479
 31
0.0
  0
LINE
  5
247
330
1DA
100
AcDbEntity
  8
VENT DETAILS_Pen_No__102
  6
Continuous
100
AcDbLine
 10
277.7122871943336
 20
77.8500874352479
 30
0.0
 11
269.0337782195106
 21
86.52859641007082
 31
0.0
  0
LINE
  5
248
330
1DA
100
AcDbEntity
  8
VENT DETAILS_Pen_No__102
  6
Continuous
100
AcDbLine
 10
269.0337782195106
 20
86.52859641007082
 30
0.0
 11
257.7517165522409
 21
90.0
 31
0.0
  0
LINE
  5
249
330
1DA
100
AcDbEntity
  8
VENT DETAILS_Pen_No__102
  6
Continuous
100
AcDbLine
 10
281.1836907842627
 20
0.0
 30
0.0
 11
292.4657524515325
 21
3.471403589929169
 31
0.0
  0
LINE
  5
24A
330
1DA
100
AcDbEntity
  8
VENT DETAILS_Pen_No__102
  6
Continuous
100
AcDbLine
 10
292.4657524515325
 20
3.471403589929169
 30
0.0
 11
301.1442614263554
 21
12.14991256475209
 31
0.0
  0
LINE
  5
24B
330
1DA
100
AcDbEntity
  8
VENT DETAILS_Pen_No__102
  6
Continuous
100
AcDbLine
 10
301.1442614263554
 20
12.14991256475209
 30
0.0
 11
304.6156650162845
 21
23.43197423202189
 31
0.0
  0
LINE
  5
24C
330
1DA
100
AcDbEntity
  8
VENT DETAILS_Pen_No__102
  6
Continuous
100
AcDbLine
 10
304.6156650162845
 20
23.43197423202189
 30
0.0
 11
298.5407087339086
 21
37.21894769305001
 31
0.0
  0
LINE
  5
24D
330
1DA
100
AcDbEntity
  8
VENT DETAILS_Pen_No__102
  6
Continuous
100
AcDbLine
 10
298.5407087339086
 20
37.21894769305001
 30
0.0
 11
287.2586470666387
 21
52.78105230695
 31
0.0
  0
LINE
  5
24E
330
1DA
100
AcDbEntity
  8
VENT DETAILS_Pen_No__102
  6
Continuous
100
AcDbLine
 10
287.2586470666387
 20
52.78105230695
 30
0.0
 11
281.1836907842627
 21
66.5680257679781
 31
0.0
  0
LINE
  5
24F
330
1DA
100
AcDbEntity
  8
VENT DETAILS_Pen_No__102
  6
Continuous
100
AcDbLine
 10
281.1836907842627
 20
66.5680257679781
 30
0.0
 11
284.6550943741918
 21
77.8500874352479
 31
0.0
  0
LINE
  5
250
330
1DA
100
AcDbEntity
  8
VENT DETAILS_Pen_No__102
  6
Continuous
100
AcDbLine
 10
284.6550943741918
 20
77.8500874352479
 30
0.0
 11
293.3336033490148
 21
86.52859641007082
 31
0.0
  0
LINE
  5
251
330
1DA
100
AcDbEntity
  8
VENT DETAILS_Pen_No__102
  6
Continuous
100
AcDbLine
 10
293.3336033490148
 20
86.52859641007082
 30
0.0
 11
304.6156650162845
 21
90.0
 31
0.0
  0
LINE
  5
252
330
1DA
100
AcDbEntity
  8
VENT DETAILS_Pen_No__102
  6
Continuous
100
AcDbLine
 10
328.0476392483065
 20
0.0
 30
0.0
 11
316.7655775810367
 21
3.471403589929169
 31
0.0
  0
LINE
  5
253
330
1DA
100
AcDbEntity
  8
VENT DETAILS_Pen_No__102
  6
Continuous
100
AcDbLine
 10
316.7655775810367
 20
3.471403589929169
 30
0.0
 11
308.0870686062138
 21
12.14991256475209
 31
0.0
  0
LINE
  5
254
330
1DA
100
AcDbEntity
  8
VENT DETAILS_Pen_No__102
  6
Continuous
100
AcDbLine
 10
308.0870686062138
 20
12.14991256475209
 30
0.0
 11
304.6156650162846
 21
23.43197423202189
 31
0.0
  0
LINE
  5
255
330
1DA
100
AcDbEntity
  8
VENT DETAILS_Pen_No__102
  6
Continuous
100
AcDbLine
 10
304.6156650162846
 20
23.43197423202189
 30
0.0
 11
310.6906212986606
 21
37.21894769305001
 31
0.0
  0
LINE
  5
256
330
1DA
100
AcDbEntity
  8
VENT DETAILS_Pen_No__102
  6
Continuous
100
AcDbLine
 10
310.6906212986606
 20
37.21894769305001
 30
0.0
 11
321.9726829659305
 21
52.78105230695
 31
0.0
  0
LINE
  5
257
330
1DA
100
AcDbEntity
  8
VENT DETAILS_Pen_No__102
  6
Continuous
100
AcDbLine
 10
321.9726829659305
 20
52.78105230695
 30
0.0
 11
328.0476392483065
 21
66.5680257679781
 31
0.0
  0
LINE
  5
258
330
1DA
100
AcDbEntity
  8
VENT DETAILS_Pen_No__102
  6
Continuous
100
AcDbLine
 10
328.0476392483065
 20
66.5680257679781
 30
0.0
 11
324.5762356583774
 21
77.8500874352479
 31
0.0
  0
LINE
  5
259
330
1DA
100
AcDbEntity
  8
VENT DETAILS_Pen_No__102
  6
Continuous
100
AcDbLine
 10
324.5762356583774
 20
77.8500874352479
 30
0.0
 11
315.8977266835544
 21
86.52859641007082
 31
0.0
  0
LINE
  5
25A
330
1DA
100
AcDbEntity
  8
VENT DETAILS_Pen_No__102
  6
Continuous
100
AcDbLine
 10
315.8977266835544
 20
86.52859641007082
 30
0.0
 11
304.6156650162846
 21
90.0
 31
0.0
  0
LINE
  5
25B
330
1DA
100
AcDbEntity
  8
VENT DETAILS_Pen_No__102
  6
Continuous
100
AcDbLine
 10
328.0476392483065
 20
0.0
 30
0.0
 11
339.3297009155763
 21
3.471403589929169
 31
0.0
  0
LINE
  5
25C
330
1DA
100
AcDbEntity
  8
VENT DETAILS_Pen_No__102
  6
Continuous
100
AcDbLine
 10
339.3297009155763
 20
3.471403589929169
 30
0.0
 11
348.0082098903992
 21
12.14991256475209
 31
0.0
  0
LINE
  5
25D
330
1DA
100
AcDbEntity
  8
VENT DETAILS_Pen_No__102
  6
Continuous
100
AcDbLine
 10
348.0082098903992
 20
12.14991256475209
 30
0.0
 11
351.4796134803283
 21
23.43197423202189
 31
0.0
  0
LINE
  5
25E
330
1DA
100
AcDbEntity
  8
VENT DETAILS_Pen_No__102
  6
Continuous
100
AcDbLine
 10
351.4796134803283
 20
23.43197423202189
 30
0.0
 11
345.4046571979523
 21
37.21894769305001
 31
0.0
  0
LINE
  5
25F
330
1DA
100
AcDbEntity
  8
VENT DETAILS_Pen_No__102
  6
Continuous
100
AcDbLine
 10
345.4046571979523
 20
37.21894769305001
 30
0.0
 11
334.1225955306825
 21
52.78105230695
 31
0.0
  0
LINE
  5
260
330
1DA
100
AcDbEntity
  8
VENT DETAILS_Pen_No__102
  6
Continuous
100
AcDbLine
 10
334.1225955306825
 20
52.78105230695
 30
0.0
 11
328.0476392483065
 21
66.5680257679781
 31
0.0
  0
LINE
  5
261
330
1DA
100
AcDbEntity
  8
VENT DETAILS_Pen_No__102
  6
Continuous
100
AcDbLine
 10
328.0476392483065
 20
66.5680257679781
 30
0.0
 11
331.5190428382356
 21
77.8500874352479
 31
0.0
  0
LINE
  5
262
330
1DA
100
AcDbEntity
  8
VENT DETAILS_Pen_No__102
  6
Continuous
100
AcDbLine
 10
331.5190428382356
 20
77.8500874352479
 30
0.0
 11
340.1975518130586
 21
86.52859641007082
 31
0.0
  0
LINE
  5
263
330
1DA
100
AcDbEntity
  8
VENT DETAILS_Pen_No__102
  6
Continuous
100
AcDbLine
 10
340.1975518130586
 20
86.52859641007082
 30
0.0
 11
351.4796134803283
 21
90.0
 31
0.0
  0
LINE
  5
264
330
1DA
100
AcDbEntity
  8
VENT DETAILS_Pen_No__102
  6
Continuous
100
AcDbLine
 10
374.9115877123503
 20
0.0
 30
0.0
 11
363.6295260450805
 21
3.471403589929169
 31
0.0
  0
LINE
  5
265
330
1DA
100
AcDbEntity
  8
VENT DETAILS_Pen_No__102
  6
Continuous
100
AcDbLine
 10
363.6295260450805
 20
3.471403589929169
 30
0.0
 11
354.9510170702575
 21
12.14991256475209
 31
0.0
  0
LINE
  5
266
330
1DA
100
AcDbEntity
  8
VENT DETAILS_Pen_No__102
  6
Continuous
100
AcDbLine
 10
354.9510170702575
 20
12.14991256475209
 30
0.0
 11
351.4796134803284
 21
23.43197423202189
 31
0.0
  0
LINE
  5
267
330
1DA
100
AcDbEntity
  8
VENT DETAILS_Pen_No__102
  6
Continuous
100
AcDbLine
 10
351.4796134803284
 20
23.43197423202189
 30
0.0
 11
357.5545697627044
 21
37.21894769305001
 31
0.0
  0
LINE
  5
268
330
1DA
100
AcDbEntity
  8
VENT DETAILS_Pen_No__102
  6
Continuous
100
AcDbLine
 10
357.5545697627044
 20
37.21894769305001
 30
0.0
 11
368.8366314299743
 21
52.78105230695
 31
0.0
  0
LINE
  5
269
330
1DA
100
AcDbEntity
  8
VENT DETAILS_Pen_No__102
  6
Continuous
100
AcDbLine
 10
368.8366314299743
 20
52.78105230695
 30
0.0
 11
374.9115877123503
 21
66.5680257679781
 31
0.0
  0
LINE
  5
26A
330
1DA
100
AcDbEntity
  8
VENT DETAILS_Pen_No__102
  6
Continuous
100
AcDbLine
 10
374.9115877123503
 20
66.5680257679781
 30
0.0
 11
371.4401841224212
 21
77.8500874352479
 31
0.0
  0
LINE
  5
26B
330
1DA
100
AcDbEntity
  8
VENT DETAILS_Pen_No__102
  6
Continuous
100
AcDbLine
 10
371.4401841224212
 20
77.8500874352479
 30
0.0
 11
362.7616751475982
 21
86.52859641007082
 31
0.0
  0
LINE
  5
26C
330
1DA
100
AcDbEntity
  8
VENT DETAILS_Pen_No__102
  6
Continuous
100
AcDbLine
 10
362.7616751475982
 20
86.52859641007082
 30
0.0
 11
351.4796134803284
 21
90.0
 31
0.0
  0
LINE
  5
26D
330
1DA
100
AcDbEntity
  8
VENT DETAILS_Pen_No__102
  6
Continuous
100
AcDbLine
 10
374.9115877123503
 20
0.0
 30
0.0
 11
386.1936493796201
 21
3.471403589929169
 31
0.0
  0
LINE
  5
26E
330
1DA
100
AcDbEntity
  8
VENT DETAILS_Pen_No__102
  6
Continuous
100
AcDbLine
 10
386.1936493796201
 20
3.471403589929169
 30
0.0
 11
394.872158354443
 21
12.14991256475209
 31
0.0
  0
LINE
  5
26F
330
1DA
100
AcDbEntity
  8
VENT DETAILS_Pen_No__102
  6
Continuous
100
AcDbLine
 10
394.872158354443
 20
12.14991256475209
 30
0.0
 11
398.3435619443721
 21
23.43197423202189
 31
0.0
  0
LINE
  5
270
330
1DA
100
AcDbEntity
  8
VENT DETAILS_Pen_No__102
  6
Continuous
100
AcDbLine
 10
398.3435619443721
 20
23.43197423202189
 30
0.0
 11
392.2686056619961
 21
37.21894769305001
 31
0.0
  0
LINE
  5
271
330
1DA
100
AcDbEntity
  8
VENT DETAILS_Pen_No__102
  6
Continuous
100
AcDbLine
 10
392.2686056619961
 20
37.21894769305001
 30
0.0
 11
380.9865439947263
 21
52.78105230695
 31
0.0
  0
LINE
  5
272
330
1DA
100
AcDbEntity
  8
VENT DETAILS_Pen_No__102
  6
Continuous
100
AcDbLine
 10
380.9865439947263
 20
52.78105230695
 30
0.0
 11
374.9115877123503
 21
66.5680257679781
 31
0.0
  0
LINE
  5
273
330
1DA
100
AcDbEntity
  8
VENT DETAILS_Pen_No__102
  6
Continuous
100
AcDbLine
 10
374.9115877123503
 20
66.5680257679781
 30
0.0
 11
378.3829913022794
 21
77.8500874352479
 31
0.0
  0
LINE
  5
274
330
1DA
100
AcDbEntity
  8
VENT DETAILS_Pen_No__102
  6
Continuous
100
AcDbLine
 10
378.3829913022794
 20
77.8500874352479
 30
0.0
 11
387.0615002771024
 21
86.52859641007082
 31
0.0
  0
LINE
  5
275
330
1DA
100
AcDbEntity
  8
VENT DETAILS_Pen_No__102
  6
Continuous
100
AcDbLine
 10
387.0615002771024
 20
86.52859641007082
 30
0.0
 11
398.3435619443721
 21
90.0
 31
0.0
  0
LINE
  5
276
330
1DA
100
AcDbEntity
  8
VENT DETAILS_Pen_No__102
  6
Continuous
100
AcDbLine
 10
421.7755361763941
 20
0.0
 30
0.0
 11
410.4934745091243
 21
3.471403589929169
 31
0.0
  0
LINE
  5
277
330
1DA
100
AcDbEntity
  8
VENT DETAILS_Pen_No__102
  6
Continuous
100
AcDbLine
 10
410.4934745091243
 20
3.471403589929169
 30
0.0
 11
401.8149655343013
 21
12.14991256475209
 31
0.0
  0
LINE
  5
278
330
1DA
100
AcDbEntity
  8
VENT DETAILS_Pen_No__102
  6
Continuous
100
AcDbLine
 10
401.8149655343013
 20
12.14991256475209
 30
0.0
 11
398.3435619443722
 21
23.43197423202189
 31
0.0
  0
LINE
  5
279
330
1DA
100
AcDbEntity
  8
VENT DETAILS_Pen_No__102
  6
Continuous
100
AcDbLine
 10
398.3435619443722
 20
23.43197423202189
 30
0.0
 11
404.4185182267482
 21
37.21894769305001
 31
0.0
  0
LINE
  5
27A
330
1DA
100
AcDbEntity
  8
VENT DETAILS_Pen_No__102
  6
Continuous
100
AcDbLine
 10
404.4185182267482
 20
37.21894769305001
 30
0.0
 11
415.7005798940181
 21
52.78105230695
 31
0.0
  0
LINE
  5
27B
330
1DA
100
AcDbEntity
  8
VENT DETAILS_Pen_No__102
  6
Continuous
100
AcDbLine
 10
415.7005798940181
 20
52.78105230695
 30
0.0
 11
421.7755361763941
 21
66.5680257679781
 31
0.0
  0
LINE
  5
27C
330
1DA
100
AcDbEntity
  8
VENT DETAILS_Pen_No__102
  6
Continuous
100
AcDbLine
 10
421.7755361763941
 20
66.5680257679781
 30
0.0
 11
418.3041325864649
 21
77.8500874352479
 31
0.0
  0
LINE
  5
27D
330
1DA
100
AcDbEntity
  8
VENT DETAILS_Pen_No__102
  6
Continuous
100
AcDbLine
 10
418.3041325864649
 20
77.8500874352479
 30
0.0
 11
409.625623611642
 21
86.52859641007082
 31
0.0
  0
LINE
  5
27E
330
1DA
100
AcDbEntity
  8
VENT DETAILS_Pen_No__102
  6
Continuous
100
AcDbLine
 10
409.625623611642
 20
86.52859641007082
 30
0.0
 11
398.3435619443722
 21
90.0
 31
0.0
  0
LINE
  5
27F
330
1DA
100
AcDbEntity
  8
VENT DETAILS_Pen_No__102
  6
Continuous
100
AcDbLine
 10
421.7755361763941
 20
0.0
 30
0.0
 11
433.0575978436639
 21
3.471403589929169
 31
0.0
  0
LINE
  5
280
330
1DA
100
AcDbEntity
  8
VENT DETAILS_Pen_No__102
  6
Continuous
100
AcDbLine
 10
433.0575978436639
 20
3.471403589929169
 30
0.0
 11
441.7361068184868
 21
12.14991256475209
 31
0.0
  0
LINE
  5
281
330
1DA
100
AcDbEntity
  8
VENT DETAILS_Pen_No__102
  6
Continuous
100
AcDbLine
 10
441.7361068184868
 20
12.14991256475209
 30
0.0
 11
445.2075104084159
 21
23.43197423202189
 31
0.0
  0
LINE
  5
282
330
1DA
100
AcDbEntity
  8
VENT DETAILS_Pen_No__102
  6
Continuous
100
AcDbLine
 10
445.2075104084159
 20
23.43197423202189
 30
0.0
 11
439.1325541260399
 21
37.21894769305001
 31
0.0
  0
LINE
  5
283
330
1DA
100
AcDbEntity
  8
VENT DETAILS_Pen_No__102
  6
Continuous
100
AcDbLine
 10
439.1325541260399
 20
37.21894769305001
 30
0.0
 11
427.8504924587701
 21
52.78105230695
 31
0.0
  0
LINE
  5
284
330
1DA
100
AcDbEntity
  8
VENT DETAILS_Pen_No__102
  6
Continuous
100
AcDbLine
 10
427.8504924587701
 20
52.78105230695
 30
0.0
 11
421.7755361763941
 21
66.5680257679781
 31
0.0
  0
LINE
  5
285
330
1DA
100
AcDbEntity
  8
VENT DETAILS_Pen_No__102
  6
Continuous
100
AcDbLine
 10
421.7755361763941
 20
66.5680257679781
 30
0.0
 11
425.2469397663232
 21
77.8500874352479
 31
0.0
  0
LINE
  5
286
330
1DA
100
AcDbEntity
  8
VENT DETAILS_Pen_No__102
  6
Continuous
100
AcDbLine
 10
425.2469397663232
 20
77.8500874352479
 30
0.0
 11
433.9254487411461
 21
86.52859641007082
 31
0.0
  0
LINE
  5
287
330
1DA
100
AcDbEntity
  8
VENT DETAILS_Pen_No__102
  6
Continuous
100
AcDbLine
 10
433.9254487411461
 20
86.52859641007082
 30
0.0
 11
445.2075104084159
 21
90.0
 31
0.0
  0
ENDBLK
  5
1DC
330
1DA
100
AcDbEntity
  8
0
100
AcDbBlockEnd
  0
BLOCK
  5
293
330
292
100
AcDbEntity
  8
0
100
AcDbBlockBegin
  2
ARROWHEAD_4
 70
     0
 10
0.0
 20
0.0
 30
0.0
  3
ARROWHEAD_4
  1

  0
LWPOLYLINE
  5
295
330
292
100
AcDbEntity
  8
0
  6
Continuous
 62
     0
370
     0
100
AcDbPolyline
 90
        3
 70
   129
 43
0.0
 10
-1.0
 20
0.2679
 10
0.0
 20
0.0
 10
-1.0
 20
-0.2679
  0
LINE
  5
296
330
292
100
AcDbEntity
  8
0
  6
Continuous
 62
     0
370
     0
100
AcDbLine
 10
0.0
 20
0.0
 30
0.0
 11
-1.0
 21
0.0
 31
0.0
  0
ENDBLK
  5
294
330
292
100
AcDbEntity
  8
0
100
AcDbBlockEnd
  0
BLOCK
  5
298
330
297
100
AcDbEntity
  8
0
100
AcDbBlockBegin
  2
Untitled _STORY_MARKER
 70
     0
 10
0.0
 20
0.0
 30
0.0
  3
Untitled _STORY_MARKER
  1

  0
ENDBLK
  5
299
330
297
100
AcDbEntity
  8
0
100
AcDbBlockEnd
  0
ENDSEC
  0
SECTION
  2
ENTITIES
  0
LWPOLYLINE
  5
E3
330
1F
100
AcDbEntity
  8
VENT DETAILS_Pen_No__7
  6
Continuous
100
AcDbPolyline
 90
        2
 70
   128
 43
0.0
 10
31404.81502030531
 20
31336.91010914486
 10
31404.81502030531
 20
31427.29005729891
  0
LWPOLYLINE
  5
E5
330
1F
100
AcDbEntity
  8
VENT DETAILS_Pen_No__7
  6
Continuous
100
AcDbPolyline
 90
        3
 70
   128
 43
0.0
 10
31404.81502030531
 20
31427.29005729891
 10
31684.13647892973
 20
31427.29005729891
 10
31404.81502030531
 20
31557.53979253197
  0
LWPOLYLINE
  5
E6
330
1F
100
AcDbEntity
  8
VENT DETAILS_Pen_No__7
  6
Continuous
100
AcDbPolyline
 90
        2
 70
   128
 43
0.0
 10
31404.81502030531
 20
31557.53979253197
 10
31404.81502030531
 20
31656.84380508469
  0
LWPOLYLINE
  5
E7
330
1F
100
AcDbEntity
  8
VENT DETAILS_Pen_No__7
  6
Continuous
100
AcDbPolyline
 90
        6
 70
   128
 43
0.0
 10
31404.81502030531
 20
31656.84380508469
 10
32477.95690286878
 20
31156.42952695848
 10
32477.95690286935
 20
31066.42952695836
 10
32458.00438323117
 20
31066.42952695836
 10
31877.95690286871
 20
31336.91010914486
 10
31404.81502030531
 20
31336.91010914486
  0
LWPOLYLINE
  5
E8
330
1F
100
AcDbEntity
  8
VENT DETAILS_Pen_No__7
  6
Continuous
100
AcDbPolyline
 90
        6
 70
   128
 43
0.0
 10
32250.58785250243
 20
31066.42952695849
 10
31892.66536843455
 20
31066.42952695849
 10
31892.66536843455
 20
31061.9295269585
 10
32477.95690286935
 20
31061.9295269585
 10
32477.95690286935
 20
31066.42952695849
 10
32320.45429278527
 20
31066.42952695849
  0
LWPOLYLINE
  5
E9
330
1F
100
AcDbEntity
  8
VENT DETAILS_Pen_No__7
  6
Continuous
100
AcDbPolyline
 90
        2
 70
   128
 43
0.0
 10
31404.81502030531
 20
31301.91010914486
 10
31404.81502030531
 20
31291.91010914485
  0
LWPOLYLINE
  5
EA
330
1F
100
AcDbEntity
  8
VENT DETAILS_Pen_No__7
  6
Continuous
100
AcDbPolyline
 90
        4
 70
   128
 43
0.0
 10
31404.81502030531
 20
31291.91010914485
 10
31787.9569028687
 20
31291.91010914485
 10
31787.9569028687
 20
31301.91010914486
 10
31404.81502030531
 20
31301.91010914486
  0
LWPOLYLINE
  5
EB
330
1F
100
AcDbEntity
  8
VENT DETAILS_Pen_No__7
  6
Continuous
100
AcDbPolyline
 90
        4
 70
   129
 43
0.0
 10
31737.95690286871
 20
31301.91010914486
 10
31877.95690286871
 20
31301.91010914486
 10
31877.95690286871
 20
31336.91010914486
 10
31737.95690286871
 20
31336.91010914486
  0
LWPOLYLINE
  5
EC
330
1F
100
AcDbEntity
  8
VENT DETAILS_Pen_No__7
  6
Continuous
100
AcDbPolyline
 90
        4
 70
   129
 43
0.0
 10
31787.9569028687
 20
31256.91010914486
 10
31877.95690286871
 20
31256.91010914486
 10
31877.95690286871
 20
31301.91010914486
 10
31787.9569028687
 20
31301.91010914486
  0
LWPOLYLINE
  5
ED
330
1F
100
AcDbEntity
  8
VENT DETAILS_Pen_No__7
  6
Continuous
100
AcDbPolyline
 90
        4
 70
   129
 43
0.0
 10
31787.9569028687
 20
30811.70260395303
 10
31787.9569028687
 20
31301.91010914499
 10
31777.95690286871
 20
31301.91010914499
 10
31777.95690286871
 20
30811.70260395303
  0
LWPOLYLINE
  5
EE
330
1F
100
AcDbEntity
  8
VENT DETAILS_Pen_No__7
  6
Continuous
100
AcDbPolyline
 90
        4
 70
   129
 43
0.0
 10
32477.95690286935
 20
31046.42952695835
 10
32497.95690286936
 20
31046.42952695835
 10
32497.95690286936
 20
31191.53424606038
 10
32477.95690286935
 20
31191.53424606038
  0
LINE
  5
EF
330
1F
100
AcDbEntity
  8
VENT DETAILS_Pen_No__7
  6
Continuous
100
AcDbLine
 10
31787.95690110763
 20
31336.91010863486
 30
0.0
 11
31877.95690132388
 21
31336.91010863486
 31
0.0
  0
LINE
  5
F0
330
1F
100
AcDbEntity
  8
VENT DETAILS_Pen_No__8
  6
Continuous
100
AcDbLine
 10
31404.81502030531
 20
31336.91010863486
 30
0.0
 11
31787.95690110763
 21
31336.91010863486
 31
0.0
  0
LINE
  5
F2
330
1F
100
AcDbEntity
  8
VENT DETAILS_Pen_No__7
  6
Continuous
100
AcDbLine
 10
31877.95690132388
 20
30811.70261010556
 30
0.0
 11
31877.95690132388
 21
31336.91010863486
 31
0.0
  0
LINE
  5
F3
330
1F
100
AcDbEntity
  8
VENT DETAILS_Pen_No__7
  6
Continuous
100
AcDbLine
 10
32466.52392009725
 20
31207.27515165646
 30
0.0
 11
32416.67699059421
 21
31230.51915512368
 31
0.0
  0
LINE
  5
F4
330
1F
100
AcDbEntity
  8
VENT DETAILS_Pen_No__7
  6
Continuous
100
AcDbLine
 10
32449.09092655035
 20
31169.88995452919
 30
0.0
 11
32399.24399704731
 21
31193.1339579964
 31
0.0
  0
LINE
  5
F5
330
1F
100
AcDbEntity
  8
VENT DETAILS_Pen_No__7
  6
Continuous
100
AcDbLine
 10
32449.09092655035
 20
31169.88995452919
 30
0.0
 11
32466.52392009725
 21
31207.27515165646
 31
0.0
  0
LINE
  5
F6
330
1F
100
AcDbEntity
  8
VENT DETAILS_Pen_No__7
  6
Continuous
100
AcDbLine
 10
32399.24399704731
 20
31193.1339579964
 30
0.0
 11
32416.67699059421
 21
31230.51915512368
 31
0.0
  0
LINE
  5
F7
330
1F
100
AcDbEntity
  8
VENT DETAILS_Pen_No__7
  6
Continuous
100
AcDbLine
 10
32466.52392009725
 20
31207.27515165646
 30
0.0
 11
32399.24399704731
 21
31193.1339579964
 31
0.0
  0
LINE
  5
F8
330
1F
100
AcDbEntity
  8
VENT DETAILS_Pen_No__7
  6
Continuous
100
AcDbLine
 10
32416.67699059421
 20
31230.51915512368
 30
0.0
 11
32449.09092655035
 21
31169.88995452919
 31
0.0
  0
LINE
  5
FA
330
1F
100
AcDbEntity
  8
VENT DETAILS_Pen_No__7
  6
Hidden Line XS
100
AcDbLine
 10
32525.01243663171
 20
31182.17194732221
 30
0.0
 11
32498.30482838606
 21
31196.13637872936
 31
0.0
  0
LINE
  5
FB
330
1F
100
AcDbEntity
  8
VENT DETAILS_Pen_No__7
  6
Continuous
100
AcDbLine
 10
32525.94173014125
 20
31183.50741330448
 30
0.0
 11
32535.03490246449
 21
31203.51086748085
 31
0.0
  0
LINE
  5
FC
330
1F
100
AcDbEntity
  8
VENT DETAILS_Pen_No__7
  6
Continuous
100
AcDbLine
 10
32525.94173014125
 20
31183.50741330448
 30
0.0
 11
32497.95690286936
 21
31201.16800541385
 31
0.0
  0
LINE
  5
FD
330
1F
100
AcDbEntity
  8
VENT DETAILS_Pen_No__7
  6
Continuous
100
AcDbLine
 10
32535.03490246449
 20
31203.51086748085
 30
0.0
 11
31404.81502030531
 21
31730.54105373442
 31
0.0
  0
LINE
  5
FE
330
1F
100
AcDbEntity
  8
VENT DETAILS_Pen_No__7
  6
Continuous
100
AcDbLine
 10
31650.84691820317
 20
31587.63159507428
 30
0.0
 11
31600.99998870013
 21
31610.87559854149
 31
0.0
  0
LINE
  5
FF
330
1F
100
AcDbEntity
  8
VENT DETAILS_Pen_No__7
  6
Continuous
100
AcDbLine
 10
31633.41390654925
 20
31550.246397947
 30
0.0
 11
31583.56697704622
 21
31573.49040141421
 31
0.0
  0
LINE
  5
100
330
1F
100
AcDbEntity
  8
VENT DETAILS_Pen_No__7
  6
Continuous
100
AcDbLine
 10
31633.41390654925
 20
31550.246397947
 30
0.0
 11
31650.84691820317
 21
31587.63159507428
 31
0.0
  0
LINE
  5
101
330
1F
100
AcDbEntity
  8
VENT DETAILS_Pen_No__7
  6
Continuous
100
AcDbLine
 10
31583.56697704622
 20
31573.49040141421
 30
0.0
 11
31600.99998870013
 21
31610.87559854149
 31
0.0
  0
LINE
  5
102
330
1F
100
AcDbEntity
  8
VENT DETAILS_Pen_No__7
  6
Continuous
100
AcDbLine
 10
31650.84691820317
 20
31587.63159507428
 30
0.0
 11
31583.56697704622
 21
31573.49040141421
 31
0.0
  0
LINE
  5
103
330
1F
100
AcDbEntity
  8
VENT DETAILS_Pen_No__7
  6
Continuous
100
AcDbLine
 10
31600.99998870013
 20
31610.87559854149
 30
0.0
 11
31633.41390654925
 21
31550.246397947
 31
0.0
  0
LINE
  5
104
330
1F
100
AcDbEntity
  8
VENT DETAILS_Pen_No__7
  6
Continuous
100
AcDbLine
 10
31737.95689495183
 20
31301.91011156859
 30
0.0
 11
31877.95690132388
 21
31336.91010863486
 31
0.0
  0
LINE
  5
105
330
1F
100
AcDbEntity
  8
VENT DETAILS_Pen_No__7
  6
Continuous
100
AcDbLine
 10
31737.95689495183
 20
31336.91010863486
 30
0.0
 11
31877.95690132388
 21
31301.91011156859
 31
0.0
  0
LINE
  5
106
330
1F
100
AcDbEntity
  8
VENT DETAILS_Pen_No__7
  6
Continuous
100
AcDbLine
 10
31877.95690132388
 20
31301.91011156859
 30
0.0
 11
31787.95690110763
 21
31256.91010240697
 31
0.0
  0
LINE
  5
107
330
1F
100
AcDbEntity
  8
VENT DETAILS_Pen_No__7
  6
Continuous
100
AcDbLine
 10
31787.95690110763
 20
31301.91011156859
 30
0.0
 11
31877.95690132388
 21
31256.91010240697
 31
0.0
  0
LINE
  5
10A
330
1F
100
AcDbEntity
  8
VENT DETAILS_Pen_No__7
  6
Break
100
AcDbLine
 10
31404.81502030531
 20
31249.52838189747
 30
0.0
 11
31404.81502030531
 21
31805.83879651455
 31
0.0
  0
LINE
  5
10B
330
1F
100
AcDbEntity
  8
VENT DETAILS_Pen_No__7
  6
Continuous
100
AcDbLine
 10
32499.95465513503
 20
31176.62022107449
 30
0.0
 11
32499.95465513503
 21
31096.62023295361
 31
0.0
  0
LINE
  5
10C
330
1F
100
AcDbEntity
  8
VENT DETAILS_Pen_No__7
  6
Continuous
100
AcDbLine
 10
32499.95465513503
 20
31096.62023295361
 30
0.0
 11
32579.95466136292
 21
31096.62023295361
 31
0.0
  0
LINE
  5
10D
330
1F
100
AcDbEntity
  8
VENT DETAILS_Pen_No__7
  6
Continuous
100
AcDbLine
 10
32619.95465542336
 20
31136.62022701405
 30
0.0
 11
32619.95465542336
 21
31166.62022708613
 31
0.0
  0
LINE
  5
10E
330
1F
100
AcDbEntity
  8
VENT DETAILS_Pen_No__7
  6
Continuous
100
AcDbLine
 10
32619.95465542336
 20
31166.62022708613
 30
0.0
 11
32613.69665588273
 21
31166.62022708613
 31
0.0
  0
LINE
  5
10F
330
1F
100
AcDbEntity
  8
VENT DETAILS_Pen_No__7
  6
Continuous
100
AcDbLine
 10
32613.69665588273
 20
31166.62022708613
 30
0.0
 11
32613.69665588273
 21
31160.33995592462
 31
0.0
  0
LINE
  5
110
330
1F
100
AcDbEntity
  8
VENT DETAILS_Pen_No__7
  6
Break
100
AcDbLine
 10
31741.40752952024
 20
30811.70261010556
 30
0.0
 11
31948.55084156051
 21
30811.70261010556
 31
0.0
  0
LINE
  5
111
330
1F
100
AcDbEntity
  8
VENT DETAILS_Pen_No__7
  6
Hidden Line XS
100
AcDbLine
 10
31885.48776926523
 20
31336.91010914486
 30
0.0
 11
31885.48776926523
 21
30811.70261010556
 31
0.0
  0
ARC
  5
112
330
1F
100
AcDbEntity
  8
VENT DETAILS_Pen_No__7
  6
Continuous
100
AcDbCircle
 10
32579.95465542336
 20
31136.62022919668
 30
0.0
 40
39.99999999999915
100
AcDbArc
 50
270.0
 51
0.0
  0
LWPOLYLINE
  5
113
330
1F
100
AcDbEntity
  8
VENT DETAILS_Pen_No__7
  6
Continuous
100
AcDbPolyline
 90
        4
 70
   129
 43
0.0
 10
31892.66536843455
 20
30811.70260395303
 10
31892.66536843455
 20
31061.9295269585
 10
31937.30419553991
 20
31061.9295269585
 10
31937.30419553991
 20
30811.70260395303
  0
MTEXT
  5
114
330
1F
100
AcDbEntity
  8
VENT DETAILS_Pen_No__7
  6
Continuous
100
AcDbMText
 10
32101.41145932089
 20
30851.38529547055
 30
0.0
 40
12.499995
 41
0.0
 71
     7
 72
     1
  1
\A1;{\fArial|b0|i0|c0|p34;(10,000 mm}
  7
GENERATED_STYLE_1
 73
     1
 44
1.0
  0
MTEXT
  5
115
330
1F
100
AcDbEntity
  8
VENT DETAILS_Pen_No__7
  6
Continuous
100
AcDbMText
 10
32192.72570850946
 20
30860.65082136881
 30
0.0
 40
7.778568317142859
 41
0.0
 71
     7
 72
     1
  1
\A1;{\fArial|b0|i0|c0|p34;2}
  7
GENERATED_STYLE_1
 73
     1
 44
1.0
  0
MTEXT
  5
116
330
1F
100
AcDbEntity
  8
VENT DETAILS_Pen_No__7
  6
Continuous
100
AcDbMText
 10
32198.62853063812
 20
30851.38529547055
 30
0.0
 40
12.499995
 41
0.0
 71
     7
 72
     1
  1
\A1;{\fArial|b0|i0|c0|p34; lin/m)}
  7
GENERATED_STYLE_1
 73
     1
 44
1.0
  0
LWPOLYLINE
  5
117
330
1F
100
AcDbEntity
  8
VENT DETAILS_Pen_No__7
  6
Continuous
100
AcDbPolyline
 90
        6
 70
   128
 43
0.0
 10
32320.45429278527
 20
31066.42952695849
 10
32477.95690286935
 20
31066.42952695849
 10
32477.95690286935
 20
31156.42952695849
 10
31892.66536843455
 20
31156.42952695849
 10
31892.66536843455
 20
31066.42952695849
 10
32250.58785250243
 20
31066.42952695849
  0
LWPOLYLINE
  5
118
330
1F
100
AcDbEntity
  8
VENT DETAILS_Pen_No__7
  6
Continuous
100
AcDbPolyline
 90
        8
 70
   129
 43
0.0
 10
32245.47690323381
 20
31058.35556957983
 10
32325.4769032338
 20
31058.35556957983
 10
32325.4769032338
 20
31061.92952695836
 10
32320.45429278527
 20
31061.92952695836
 10
32320.45429278527
 20
31078.55729169005
 10
32250.58785250243
 20
31078.55729169005
 10
32250.58785250243
 20
31061.92952695836
 10
32245.47690323381
 20
31061.92952695836
  0
LINE
  5
119
330
1F
100
AcDbEntity
  8
VENT DETAILS_Pen_No__7
  6
Continuous
100
AcDbLine
 10
31937.66536051865
 20
31066.42952986438
 30
0.0
 11
31937.66536051865
 21
31156.42953008063
 31
0.0
  0
LINE
  5
11A
330
1F
100
AcDbEntity
  8
VENT DETAILS_Pen_No__7
  6
Continuous
100
AcDbLine
 10
31937.66536051865
 20
31066.42952986438
 30
0.0
 11
31892.66536946402
 21
31156.42953008063
 31
0.0
  0
LINE
  5
11B
330
1F
100
AcDbEntity
  8
VENT DETAILS_Pen_No__7
  6
Continuous
100
AcDbLine
 10
31937.66536051865
 20
31156.42953008063
 30
0.0
 11
31892.66536946402
 21
31066.42952986438
 31
0.0
  0
MTEXT
  5
11D
330
1F
100
AcDbEntity
  8
VENT DETAILS_Pen_No__7
  6
Continuous
100
AcDbMText
 10
32101.41145932089
 20
30884.02013506847
 30
0.0
 40
15.0
 41
0.0
 71
     7
 72
     1
  1
\A1;{\fArial|b1|i0|c0|p34;VENT  \fArial|b1|i0|c0|p34;Circular Soffit Vent\fArial|b1|i0|c0|p34; - G700 \fArial|b0|i0|c0|p34;(any roof pitch)}
  7
GENERATED_STYLE_2
 73
     1
 44
1.0
  0
LINE
  5
11E
330
1F
100
AcDbEntity
  8
VENT DETAILS_Pen_No__7
  6
Continuous
100
AcDbLine
 10
32497.95690286936
 20
31201.16800541385
 30
0.0
 11
31404.81502030531
 21
31710.90843886013
 31
0.0
  0
LINE
  5
11F
330
1F
100
AcDbEntity
  8
VENT DETAILS_Pen_No__7
  6
Hidden Line XS
100
AcDbLine
 10
32498.30482838606
 20
31196.13637872936
 30
0.0
 11
31404.81502030531
 21
31706.03904772075
 31
0.0
  0
INSERT
  5
1D8
330
1F
100
AcDbEntity
  8
VENT DETAILS
  6
Continuous
 62
   171
370
    18
100
AcDbBlockReference
  2
Cadimage Insulation
 10
31404.81502030532
 20
31338.92800853147
 30
0.0
 43
1000.0
  0
INSERT
  5
288
330
1F
100
AcDbEntity
  8
VENT DETAILS
  6
Continuous
 62
   171
370
    18
100
AcDbBlockReference
  2
Cadimage Insulation_2
 10
31877.95690132388
 20
30813.72049189516
 30
0.0
 43
1000.0
 50
90.0
  0
WIPEOUT
  5
289
330
1F
100
AcDbEntity
  8
VENT DETAILS_Pen_No__1
  6
Wipeout_Contour
 48
178698.7681364903
 92
      296
310
28010000060000000C0000000E000000120000000C00000016000000000000C20C00000014000000010000006C0000000700000004000000B67959555A59DF400AE670D4871EDE40000000000000000016557CC58FDBDF400AE670D4871EDE40000000000000000016557CC58FDBDF40B602CB386308DE4000000000000000
310
00B67959555A59DF40B602CB386308DE4000000000000000000C0000000E00000007000000840000000600000005000000B67959555A59DF400AE670D4871EDE40000000000000000016557CC58FDBDF400AE670D4871EDE40000000000000000016557CC58FDBDF40B602CB386308DE400000000000000000B67959555A59
310
DF40B602CB386308DE400000000000000000B67959555A59DF400AE670D4871EDE400000000000000000
100
AcDbWipeout
 90
        0
 10
32101.41145932089
 20
30753.55034137025
 30
0.0
 11
520.8349692480406
 21
0.0
 31
0.0
 12
0.0
 22
88.57200000000012
 32
0.0
 13
1.0
 23
1.0
340
0
 70
    15
280
     1
281
    50
282
    50
283
     0
360
0
 71
     2
 91
        5
 14
-0.5
 24
-0.5
 14
0.5
 24
-0.5
 14
0.5
 24
0.5
 14
-0.5
 24
0.5
 14
-0.5
 24
-0.5
  0
MTEXT
  5
28C
330
1F
100
AcDbEntity
  8
VENT DETAILS_Pen_No__1
  6
Continuous
100
AcDbMText
 10
32106.41145932089
 20
30798.44805565596
 30
0.0
 40
12.49999999999999
 41
510.8349692480409
 71
     4
 72
     1
  1
\A1;{\fArial|b0|i0|c0|p34;THIS IS A SUGGESTED METHOD OF VENTILATION BUT THE OVERALL DESIGN AND DIMENSIONS ARE THE RESPONSABILITY OF THE DESIGNER IN COMPLIANCE WITH THE NZ BUILDING CODE.}
  7
GENERATED_STYLE_1
 73
     1
 44
0.9301067086060235
  0
WIPEOUT
  5
28D
330
1F
100
AcDbEntity
  8
VENT DETAILS_Pen_No__1
  6
Wipeout_Contour
 48
179642.2759679838
 92
      296
310
28010000060000000C0000000E000000120000000C00000016000000000000C20C00000014000000010000006C00000007000000040000003448E582509ADF406B67BA10D246DE400000000000000000BA33373BDFE2DF406B67BA10D246DE400000000000000000BA33373BDFE2DF4096EED0E9683FDE4000000000000000
310
003448E582509ADF4096EED0E9683FDE4000000000000000000C0000000E000000070000008400000006000000050000003448E582509ADF406B67BA10D246DE400000000000000000BA33373BDFE2DF406B67BA10D246DE400000000000000000BA33373BDFE2DF4096EED0E9683FDE4000000000000000003448E582509A
310
DF4096EED0E9683FDE4000000000000000003448E582509ADF406B67BA10D246DE400000000000000000
100
AcDbWipeout
 90
        0
 10
32361.25798923541
 20
30973.63927100467
 30
0.0
 11
290.2300000000032
 21
0.0
 31
0.0
 12
0.0
 22
29.64300000000003
 32
0.0
 13
1.0
 23
1.0
340
0
 70
    15
280
     1
281
    50
282
    50
283
     0
360
0
 71
     2
 91
        5
 14
-0.5
 24
-0.5000000000000614
 14
0.5
 24
-0.5000000000000614
 14
0.5
 24
0.4999999999999387
 14
-0.5
 24
0.4999999999999387
 14
-0.5
 24
-0.5000000000000614
  0
MTEXT
  5
28E
102
{ACAD_REACTORS
330
28F
102
}
330
1F
100
AcDbEntity
  8
VENT DETAILS_Pen_No__1
  6
Continuous
100
AcDbMText
 10
32366.25798923542
 20
30989.07227100467
 30
0.0
 40
12.49999999999999
 41
280.23
 71
     4
 72
     1
  1
\A1;{\fArial|b0|i0|c0|p34;VENT G700 Circular Soffit Ventilator.}
  7
GENERATED_STYLE_1
 73
     1
 44
1.0
  0
LEADER
  5
28F
330
1F
100
AcDbEntity
  8
VENT DETAILS_Pen_No__182
  6
Continuous
100
AcDbLeader
  3
GENERATED_STYLE__1
 73
     0
 74
     0
 40
33.74583333333332
 41
203.4249999999999
 76
     3
 10
32288.1591874974
 20
31058.35556957983
 30
0.0
 10
32288.1591874974
 20
30989.07227100467
 30
0.0
 10
32366.16798923542
 20
30989.07227100467
 30
0.0
340
28E
  0
ENDSEC
  0
SECTION
  2
OBJECTS
  0
DICTIONARY
  5
C
330
0
100
AcDbDictionary
281
     1
  3
ACAD_GROUP
350
D
  3
ACAD_LAYOUT
350
1A
  3
ACAD_MATERIAL
350
3B
  3
ACAD_MLEADERSTYLE
350
2FB
  3
ACAD_MLINESTYLE
350
17
  3
ACAD_PLOTSETTINGS
350
19
  3
ACAD_PLOTSTYLENAME
350
E
  3
ACAD_SCALELIST
350
29A
  3
ACAD_TABLESTYLE
350
2FA
  3
ACAD_VISUALSTYLE
350
2A
  3
AcDbVariableDictionary
350
2D2
  3
WATERMARKS
350
2BC
  0
DICTIONARY
  5
2BE
330
45
100
AcDbDictionary
280
     1
281
     1
  3
ACAD_MLATT
360
2BF
  0
DICTIONARY
  5
2C0
330
46
100
AcDbDictionary
280
     1
281
     1
  3
ACAD_MLATT
360
2C1
  0
DICTIONARY
  5
2C2
330
57
100
AcDbDictionary
280
     1
281
     1
  3
ACAD_MLATT
360
2C3
  0
DICTIONARY
  5
2C4
330
58
100
AcDbDictionary
280
     1
281
     1
  3
ACAD_MLATT
360
2C5
  0
DICTIONARY
  5
2C6
330
8E
100
AcDbDictionary
280
     1
281
     1
  3
ACAD_MLATT
360
2C7
  0
DICTIONARY
  5
2C8
330
8F
100
AcDbDictionary
280
     1
281
     1
  3
ACAD_MLATT
360
2C9
  0
DICTIONARY
  5
2CA
330
A5
100
AcDbDictionary
280
     1
281
     1
  3
ACAD_MLATT
360
2CB
  0
DICTIONARY
  5
2CC
330
C9
100
AcDbDictionary
280
     1
281
     1
  3
ACAD_MLATT
360
2CD
  0
DICTIONARY
  5
2CE
330
CE
100
AcDbDictionary
280
     1
281
     1
  3
ACAD_MLATT
360
2CF
  0
DICTIONARY
  5
2D0
330
CF
100
AcDbDictionary
280
     1
281
     1
  3
ACAD_MLATT
360
2D1
  0
DICTIONARY
  5
D
102
{ACAD_REACTORS
330
C
102
}
330
C
100
AcDbDictionary
281
     1
  0
DICTIONARY
  5
1A
102
{ACAD_REACTORS
330
C
102
}
330
C
100
AcDbDictionary
281
     1
  3
Layout1
350
1E
  3
Layout2
350
26
  3
Model
350
22
  0
DICTIONARY
  5
3B
102
{ACAD_REACTORS
330
C
102
}
330
C
100
AcDbDictionary
281
     1
  3
ByBlock
350
3D
  3
ByLayer
350
3C
  3
Global
350
3E
  0
DICTIONARY
  5
2FB
102
{ACAD_REACTORS
330
C
102
}
330
C
100
AcDbDictionary
281
     1
  0
DICTIONARY
  5
17
102
{ACAD_REACTORS
330
C
102
}
330
C
100
AcDbDictionary
281
     1
  3
Standard
350
18
  0
DICTIONARY
  5
19
102
{ACAD_REACTORS
330
C
102
}
330
C
100
AcDbDictionary
281
     1
  0
ACDBDICTIONARYWDFLT
  5
E
102
{ACAD_REACTORS
330
C
102
}
330
C
100
AcDbDictionary
281
     1
  3
Normal
350
F
100
AcDbDictionaryWithDefault
340
F
  0
DICTIONARY
  5
29A
102
{ACAD_REACTORS
330
C
102
}
330
C
100
AcDbDictionary
281
     1
  3
A0
350
29B
  3
A1
350
29C
  3
A2
350
29D
  3
A3
350
29E
  3
A4
350
29F
  3
A5
350
2A0
  3
A6
350
2A1
  3
A7
350
2A2
  3
A8
350
2A3
  3
A9
350
2A4
  3
B0
350
2A5
  3
B1
350
2A6
  3
B2
350
2A7
  3
B3
350
2A8
  3
B4
350
2A9
  3
B5
350
2AA
  3
B6
350
2AB
  3
B7
350
2AC
  3
B8
350
2AD
  3
B9
350
2AE
  3
C0
350
2AF
  3
C1
350
2B0
  3
C2
350
2B1
  3
C3
350
2B2
  3
C4
350
2B3
  3
C5
350
2B4
  3
C6
350
2B5
  3
C7
350
2B6
  3
C8
350
2B7
  3
C9
350
2B8
  3
D0
350
2B9
  3
D1
350
2BA
  3
D2
350
2BB
  0
DICTIONARY
  5
2FA
102
{ACAD_REACTORS
330
C
102
}
330
C
100
AcDbDictionary
281
     1
  0
DICTIONARY
  5
2A
102
{ACAD_REACTORS
330
C
102
}
330
C
100
AcDbDictionary
281
     1
  3
2dWireframe
350
2F
  3
3D Hidden
350
31
  3
3dWireframe
350
30
  3
Basic
350
32
  3
Brighten
350
36
  3
ColorChange
350
3A
  3
Conceptual
350
34
  3
Dim
350
35
  3
Facepattern
350
39
  3
Flat
350
2B
  3
FlatWithEdges
350
2C
  3
Gouraud
350
2D
  3
GouraudWithEdges
350
2E
  3
Linepattern
350
38
  3
Realistic
350
33
  3
Thicken
350
37
  0
DICTIONARY
  5
2D2
102
{ACAD_REACTORS
330
C
102
}
330
C
100
AcDbDictionary
281
     1
  3
CANNOSCALE
350
2D3
  3
XCLIPFRAME
350
2FC
  0
DICTIONARY
  5
2BC
102
{ACAD_REACTORS
330
C
102
}
330
C
100
AcDbDictionary
281
     1
  3
AC_WATERMARK
350
2BD
  0
XRECORD
  5
2BF
102
{ACAD_REACTORS
330
2BE
102
}
330
2BE
100
AcDbXrecord
280
     1
 70
     4
 70
     0
 70
     0
 40
1.0
  2
AC_MarkerText_1
  1
Embedded Object
 10
-1.860000023809476
 20
507.2570916666674
 30
0.0
 40
12.5
 41
0.0
 46
0.0
 71
     7
 72
     1
  1
\A1;{\fArial|b0|i0|c0|p34;3,000}
  7
GENERATED_STYLE_1
 11
0.0000000000000001
 21
1.0
 31
0.0
 73
     1
 44
1.0
  0
XRECORD
  5
2C1
102
{ACAD_REACTORS
330
2C0
102
}
330
2C0
100
AcDbXrecord
280
     1
 70
     4
 70
     0
 70
     0
 40
1.0
  2
AC_MarkerText_1
  1
Embedded Object
 10
2.857142857142884
 20
507.2570916666674
 30
0.0
 40
12.5
 41
0.0
 46
0.0
 71
     1
 72
     1
  1
\A1;{\fArial|b0|i0|c0|p34;2,200}
  7
GENERATED_STYLE_1
 11
0.0000000000000001
 21
1.0
 31
0.0
 73
     1
 44
1.0
  0
XRECORD
  5
2C3
102
{ACAD_REACTORS
330
2C2
102
}
330
2C2
100
AcDbXrecord
280
     1
 70
     4
 70
     0
 70
     0
 40
1.0
  2
AC_MarkerText_1
  1
Embedded Object
 10
1.860096601732872
 20
-607.2570493603624
 30
0.0
 40
12.5
 41
0.0
 46
0.0
 71
     7
 72
     1
  1
\A1;{\fArial|b0|i0|c0|p34;2,500}
  7
GENERATED_STYLE_1
 11
-0.0000000000000002
 21
-1.0
 31
0.0
 73
     1
 44
1.0
  0
XRECORD
  5
2C5
102
{ACAD_REACTORS
330
2C4
102
}
330
2C4
100
AcDbXrecord
280
     1
 70
     4
 70
     0
 70
     0
 40
1.0
  2
AC_MarkerText_1
  1
Embedded Object
 10
-2.857142857142887
 20
-607.2570493603624
 30
0.0
 40
12.5
 41
0.0
 46
0.0
 71
     1
 72
     1
  1
\A1;{\fArial|b0|i0|c0|p34;2,200}
  7
GENERATED_STYLE_1
 11
-0.0000000000000002
 21
-1.0
 31
0.0
 73
     1
 44
1.0
  0
XRECORD
  5
2C7
102
{ACAD_REACTORS
330
2C6
102
}
330
2C6
100
AcDbXrecord
280
     1
 70
     4
 70
     0
 70
     0
 40
1.0
  2
AC_MarkerText_1
  1
Embedded Object
 10
-1.860096601732874
 20
507.2570493603636
 30
0.0
 40
12.5
 41
0.0
 46
0.0
 71
     7
 72
     1
  1
\A1;{\fArial|b0|i0|c0|p34;1,800}
  7
GENERATED_STYLE_1
 11
0.0000000000000001
 21
1.0
 31
0.0
 73
     1
 44
1.0
  0
XRECORD
  5
2C9
102
{ACAD_REACTORS
330
2C8
102
}
330
2C8
100
AcDbXrecord
280
     1
 70
     4
 70
     0
 70
     0
 40
1.0
  2
AC_MarkerText_1
  1
Embedded Object
 10
2.857142857142884
 20
507.2570493603636
 30
0.0
 40
12.5
 41
0.0
 46
0.0
 71
     1
 72
     1
  1
\A1;{\fArial|b0|i0|c0|p34;2,200}
  7
GENERATED_STYLE_1
 11
0.0000000000000001
 21
1.0
 31
0.0
 73
     1
 44
1.0
  0
XRECORD
  5
2CB
102
{ACAD_REACTORS
330
2CA
102
}
330
2CA
100
AcDbXrecord
280
     1
 70
     4
 70
     0
 70
     0
 40
1.0
  2
AC_MarkerText_1
  1
Embedded Object
 10
-299.388523127705
 20
-250.7714271527418
 30
0.0
 40
12.5
 41
0.0
 46
0.0
 71
     4
 72
     1
  1
\A1;{\fArial|b0|i0|c0|p34;710}
  7
GENERATED_STYLE_1
 11
-0.0000000000000002
 21
-1.0
 31
0.0
 73
     1
 44
1.0
  0
XRECORD
  5
2CD
102
{ACAD_REACTORS
330
2CC
102
}
330
2CC
100
AcDbXrecord
280
     1
 70
     4
 70
     0
 70
     0
 40
1.0
  2
AC_MarkerText_1
  1
Embedded Object
 10
-18.51430310881414
 20
0.7862332358892208
 30
0.0
 40
12.5
 41
0.0
 46
0.0
 71
     7
 72
     1
  1
\A1;{\fArial|b0|i0|c0|p34;Exist}
  7
GENERATED_STYLE_1
 73
     1
 44
1.0
  0
XRECORD
  5
2CF
102
{ACAD_REACTORS
330
2CE
102
}
330
2CE
100
AcDbXrecord
280
     1
 70
     4
 70
     0
 70
     0
 40
1.0
  2
AC_MarkerText_1
  1
Embedded Object
 10
1.860096601732872
 20
-607.2570493603641
 30
0.0
 40
12.5
 41
0.0
 46
0.0
 71
     7
 72
     1
  1
\A1;{\fArial|b0|i0|c0|p34;1,200}
  7
GENERATED_STYLE_1
 11
-0.0000000000000002
 21
-1.0
 31
0.0
 73
     1
 44
1.0
  0
XRECORD
  5
2D1
102
{ACAD_REACTORS
330
2D0
102
}
330
2D0
100
AcDbXrecord
280
     1
 70
     4
 70
     0
 70
     0
 40
1.0
  2
AC_MarkerText_1
  1
Embedded Object
 10
-2.857142857142887
 20
-607.2570493603641
 30
0.0
 40
12.5
 41
0.0
 46
0.0
 71
     1
 72
     1
  1
\A1;{\fArial|b0|i0|c0|p34;2,200}
  7
GENERATED_STYLE_1
 11
-0.0000000000000002
 21
-1.0
 31
0.0
 73
     1
 44
1.0
  0
LAYOUT
  5
1E
102
{ACAD_REACTORS
330
1A
102
}
330
1A
100
AcDbPlotSettings
  1

  2
none_device
  4

  6

 40
0.0
 41
0.0
 42
0.0
 43
0.0
 44
0.0
 45
0.0
 46
0.0
 47
0.0
 48
0.0
 49
0.0
140
0.0
141
0.0
142
1.0
143
1.0
 70
   688
 72
     0
 73
     0
 74
     5
  7

 75
    16
 76
     0
 77
     2
 78
   300
147
1.0
148
0.0
149
0.0
100
AcDbLayout
  1
Layout1
 70
     1
 71
     1
 10
0.0
 20
0.0
 11
12.0
 21
9.0
 12
0.0
 22
0.0
 32
0.0
 14
1.000000000000000E+20
 24
1.000000000000000E+20
 34
1.000000000000000E+20
 15
-1.000000000000000E+20
 25
-1.000000000000000E+20
 35
-1.000000000000000E+20
146
0.0
 13
0.0
 23
0.0
 33
0.0
 16
1.0
 26
0.0
 36
0.0
 17
0.0
 27
1.0
 37
0.0
 76
     0
330
1B
  0
LAYOUT
  5
26
102
{ACAD_REACTORS
330
1A
102
}
330
1A
100
AcDbPlotSettings
  1

  2
none_device
  4

  6

 40
0.0
 41
0.0
 42
0.0
 43
0.0
 44
0.0
 45
0.0
 46
0.0
 47
0.0
 48
0.0
 49
0.0
140
0.0
141
0.0
142
1.0
143
1.0
 70
   688
 72
     0
 73
     0
 74
     5
  7

 75
    16
 76
     0
 77
     2
 78
   300
147
1.0
148
0.0
149
0.0
100
AcDbLayout
  1
Layout2
 70
     1
 71
     2
 10
0.0
 20
0.0
 11
0.0
 21
0.0
 12
0.0
 22
0.0
 32
0.0
 14
0.0
 24
0.0
 34
0.0
 15
0.0
 25
0.0
 35
0.0
146
0.0
 13
0.0
 23
0.0
 33
0.0
 16
1.0
 26
0.0
 36
0.0
 17
0.0
 27
1.0
 37
0.0
 76
     0
330
23
  0
LAYOUT
  5
22
102
{ACAD_REACTORS
330
1A
102
}
330
1A
100
AcDbPlotSettings
  1

  2
none_device
  4

  6

 40
0.0
 41
0.0
 42
0.0
 43
0.0
 44
0.0
 45
0.0
 46
0.0
 47
0.0
 48
0.0
 49
0.0
140
0.0
141
0.0
142
1.0
143
1.0
 70
  1712
 72
     0
 73
     0
 74
     0
  7

 75
     0
 76
     0
 77
     2
 78
   300
147
1.0
148
0.0
149
0.0
100
AcDbLayout
  1
Model
 70
     1
 71
     0
 10
0.0
 20
0.0
 11
12.0
 21
9.0
 12
0.0
 22
0.0
 32
0.0
 14
1.000000000000000E+20
 24
1.000000000000000E+20
 34
1.000000000000000E+20
 15
-1.000000000000000E+20
 25
-1.000000000000000E+20
 35
-1.000000000000000E+20
146
0.0
 13
0.0
 23
0.0
 33
0.0
 16
1.0
 26
0.0
 36
0.0
 17
0.0
 27
1.0
 37
0.0
 76
     0
330
1F
331
29
  0
MATERIAL
  5
3D
102
{ACAD_REACTORS
330
3B
102
}
102
{ACAD_XDICTIONARY
360
2F6
102
}
330
3B
100
AcDbMaterial
  1
ByBlock
  0
MATERIAL
  5
3C
102
{ACAD_REACTORS
330
3B
102
}
102
{ACAD_XDICTIONARY
360
2F4
102
}
330
3B
100
AcDbMaterial
  1
ByLayer
  0
MATERIAL
  5
3E
102
{ACAD_REACTORS
330
3B
102
}
102
{ACAD_XDICTIONARY
360
2F8
102
}
330
3B
100
AcDbMaterial
  1
Global
  0
MLINESTYLE
  5
18
102
{ACAD_REACTORS
330
17
102
}
330
17
100
AcDbMlineStyle
  2
Standard
 70
     0
  3

 62
   256
 51
90.0
 52
90.0
 71
     2
 49
0.5
 62
   256
  6
BYLAYER
 49
-0.5
 62
   256
  6
BYLAYER
  0
ACDBPLACEHOLDER
  5
F
102
{ACAD_REACTORS
330
E
102
}
330
E
  0
SCALE
  5
29B
102
{ACAD_REACTORS
330
29A
102
}
330
29A
100
AcDbScale
 70
     0
300
1:1
140
1.0
141
1.0
290
     1
  0
SCALE
  5
29C
102
{ACAD_REACTORS
330
29A
102
}
330
29A
100
AcDbScale
 70
     0
300
1:2
140
1.0
141
2.0
290
     0
  0
SCALE
  5
29D
102
{ACAD_REACTORS
330
29A
102
}
330
29A
100
AcDbScale
 70
     0
300
1:4
140
1.0
141
4.0
290
     0
  0
SCALE
  5
29E
102
{ACAD_REACTORS
330
29A
102
}
330
29A
100
AcDbScale
 70
     0
300
1:5
140
1.0
141
5.0
290
     0
  0
SCALE
  5
29F
102
{ACAD_REACTORS
330
29A
102
}
330
29A
100
AcDbScale
 70
     0
300
1:8
140
1.0
141
8.0
290
     0
  0
SCALE
  5
2A0
102
{ACAD_REACTORS
330
29A
102
}
330
29A
100
AcDbScale
 70
     0
300
1:10
140
1.0
141
10.0
290
     0
  0
SCALE
  5
2A1
102
{ACAD_REACTORS
330
29A
102
}
330
29A
100
AcDbScale
 70
     0
300
1:16
140
1.0
141
16.0
290
     0
  0
SCALE
  5
2A2
102
{ACAD_REACTORS
330
29A
102
}
330
29A
100
AcDbScale
 70
     0
300
1:20
140
1.0
141
20.0
290
     0
  0
SCALE
  5
2A3
102
{ACAD_REACTORS
330
29A
102
}
330
29A
100
AcDbScale
 70
     0
300
1:30
140
1.0
141
30.0
290
     0
  0
SCALE
  5
2A4
102
{ACAD_REACTORS
330
29A
102
}
330
29A
100
AcDbScale
 70
     0
300
1:40
140
1.0
141
40.0
290
     0
  0
SCALE
  5
2A5
102
{ACAD_REACTORS
330
29A
102
}
330
29A
100
AcDbScale
 70
     0
300
1:50
140
1.0
141
50.0
290
     0
  0
SCALE
  5
2A6
102
{ACAD_REACTORS
330
29A
102
}
330
29A
100
AcDbScale
 70
     0
300
1:100
140
1.0
141
100.0
290
     0
  0
SCALE
  5
2A7
102
{ACAD_REACTORS
330
29A
102
}
330
29A
100
AcDbScale
 70
     0
300
2:1
140
2.0
141
1.0
290
     0
  0
SCALE
  5
2A8
102
{ACAD_REACTORS
330
29A
102
}
330
29A
100
AcDbScale
 70
     0
300
4:1
140
4.0
141
1.0
290
     0
  0
SCALE
  5
2A9
102
{ACAD_REACTORS
330
29A
102
}
330
29A
100
AcDbScale
 70
     0
300
8:1
140
8.0
141
1.0
290
     0
  0
SCALE
  5
2AA
102
{ACAD_REACTORS
330
29A
102
}
330
29A
100
AcDbScale
 70
     0
300
10:1
140
10.0
141
1.0
290
     0
  0
SCALE
  5
2AB
102
{ACAD_REACTORS
330
29A
102
}
330
29A
100
AcDbScale
 70
     0
300
100:1
140
100.0
141
1.0
290
     0
  0
SCALE
  5
2AC
102
{ACAD_REACTORS
330
29A
102
}
330
29A
100
AcDbScale
 70
     0
300
1/128" = 1'-0"
140
0.0078125
141
12.0
290
     0
  0
SCALE
  5
2AD
102
{ACAD_REACTORS
330
29A
102
}
330
29A
100
AcDbScale
 70
     0
300
1/64" = 1'-0"
140
0.015625
141
12.0
290
     0
  0
SCALE
  5
2AE
102
{ACAD_REACTORS
330
29A
102
}
330
29A
100
AcDbScale
 70
     0
300
1/32" = 1'-0"
140
0.03125
141
12.0
290
     0
  0
SCALE
  5
2AF
102
{ACAD_REACTORS
330
29A
102
}
330
29A
100
AcDbScale
 70
     0
300
1/16" = 1'-0"
140
0.0625
141
12.0
290
     0
  0
SCALE
  5
2B0
102
{ACAD_REACTORS
330
29A
102
}
330
29A
100
AcDbScale
 70
     0
300
3/32" = 1'-0"
140
0.09375
141
12.0
290
     0
  0
SCALE
  5
2B1
102
{ACAD_REACTORS
330
29A
102
}
330
29A
100
AcDbScale
 70
     0
300
1/8" = 1'-0"
140
0.125
141
12.0
290
     0
  0
SCALE
  5
2B2
102
{ACAD_REACTORS
330
29A
102
}
330
29A
100
AcDbScale
 70
     0
300
3/16" = 1'-0"
140
0.1875
141
12.0
290
     0
  0
SCALE
  5
2B3
102
{ACAD_REACTORS
330
29A
102
}
330
29A
100
AcDbScale
 70
     0
300
1/4" = 1'-0"
140
0.25
141
12.0
290
     0
  0
SCALE
  5
2B4
102
{ACAD_REACTORS
330
29A
102
}
330
29A
100
AcDbScale
 70
     0
300
3/8" = 1'-0"
140
0.375
141
12.0
290
     0
  0
SCALE
  5
2B5
102
{ACAD_REACTORS
330
29A
102
}
330
29A
100
AcDbScale
 70
     0
300
1/2" = 1'-0"
140
0.5
141
12.0
290
     0
  0
SCALE
  5
2B6
102
{ACAD_REACTORS
330
29A
102
}
330
29A
100
AcDbScale
 70
     0
300
3/4" = 1'-0"
140
0.75
141
12.0
290
     0
  0
SCALE
  5
2B7
102
{ACAD_REACTORS
330
29A
102
}
330
29A
100
AcDbScale
 70
     0
300
1" = 1'-0"
140
1.0
141
12.0
290
     0
  0
SCALE
  5
2B8
102
{ACAD_REACTORS
330
29A
102
}
330
29A
100
AcDbScale
 70
     0
300
1-1/2" = 1'-0"
140
1.5
141
12.0
290
     0
  0
SCALE
  5
2B9
102
{ACAD_REACTORS
330
29A
102
}
330
29A
100
AcDbScale
 70
     0
300
3" = 1'-0"
140
3.0
141
12.0
290
     0
  0
SCALE
  5
2BA
102
{ACAD_REACTORS
330
29A
102
}
330
29A
100
AcDbScale
 70
     0
300
6" = 1'-0"
140
6.0
141
12.0
290
     0
  0
SCALE
  5
2BB
102
{ACAD_REACTORS
330
29A
102
}
330
29A
100
AcDbScale
 70
     0
300
1'-0" = 1'-0"
140
12.0
141
12.0
290
     0
  0
VISUALSTYLE
  5
2F
102
{ACAD_REACTORS
330
2A
102
}
102
{ACAD_XDICTIONARY
360
2DC
102
}
330
2A
100
AcDbVisualStyle
  2
2dWireframe
 70
     4
 71
     0
 72
     2
 73
     0
 90
        0
 40
-0.6
 41
-30.0
 62
     5
 63
     7
421
 16777215
 74
     1
 91
        4
 64
     7
 65
   257
 75
     1
175
     1
 42
1.0
 92
        0
 66
   257
 43
1.0
 76
     1
 77
     6
 78
     2
 67
     7
 79
     5
170
     0
171
     0
290
     0
174
     0
 93
        1
 44
0.0
173
     0
291
     0
 45
0.0
1001
ACAD
1000
AcDbSavedByObjectVersion
1070
     0
  0
VISUALSTYLE
  5
31
102
{ACAD_REACTORS
330
2A
102
}
102
{ACAD_XDICTIONARY
360
2E0
102
}
330
2A
100
AcDbVisualStyle
  2
3D Hidden
 70
     6
 71
     1
 72
     2
 73
     2
 90
        0
 40
-0.6
 41
-30.0
 62
     5
 63
     7
421
 16777215
 74
     2
 91
        2
 64
     7
 65
   257
 75
     2
175
     1
 42
40.0
 92
        0
 66
   257
 43
1.0
 76
     1
 77
     6
 78
     2
 67
     7
 79
     3
170
     0
171
     0
290
     0
174
     0
 93
        1
 44
0.0
173
     0
291
     0
 45
0.0
1001
ACAD
1000
AcDbSavedByObjectVersion
1070
     0
  0
VISUALSTYLE
  5
30
102
{ACAD_REACTORS
330
2A
102
}
102
{ACAD_XDICTIONARY
360
2DE
102
}
330
2A
100
AcDbVisualStyle
  2
3dWireframe
 70
     5
 71
     0
 72
     2
 73
     0
 90
        0
 40
-0.6
 41
-30.0
 62
     5
 63
     7
421
 16777215
 74
     1
 91
        4
 64
     7
 65
   257
 75
     1
175
     1
 42
1.0
 92
        0
 66
   257
 43
1.0
 76
     1
 77
     6
 78
     2
 67
     7
 79
     5
170
     0
171
     0
290
     0
174
     0
 93
        1
 44
0.0
173
     0
291
     0
 45
0.0
1001
ACAD
1000
AcDbSavedByObjectVersion
1070
     0
  0
VISUALSTYLE
  5
32
102
{ACAD_REACTORS
330
2A
102
}
102
{ACAD_XDICTIONARY
360
2E2
102
}
330
2A
100
AcDbVisualStyle
  2
Basic
 70
     7
 71
     1
 72
     0
 73
     1
 90
        0
 40
-0.6
 41
-30.0
 62
     5
 63
     7
421
 16777215
 74
     0
 91
        4
 64
     7
 65
   257
 75
     1
175
     1
 42
1.0
 92
        8
 66
     7
 43
1.0
 76
     1
 77
     6
 78
     2
 67
     7
 79
     5
170
     0
171
     0
290
     0
174
     0
 93
        1
 44
0.0
173
     0
291
     1
 45
0.0
1001
ACAD
1000
AcDbSavedByObjectVersion
1070
     0
  0
VISUALSTYLE
  5
36
102
{ACAD_REACTORS
330
2A
102
}
102
{ACAD_XDICTIONARY
360
2EA
102
}
330
2A
100
AcDbVisualStyle
  2
Brighten
 70
    12
 71
     2
 72
     2
 73
     0
 90
        0
 40
-0.6
 41
-30.0
 62
     5
 63
     7
421
 16777215
 74
     1
 91
        4
 64
     7
 65
   257
 75
     1
175
     1
 42
1.0
 92
        8
 66
     7
 43
1.0
 76
     1
 77
     6
 78
     2
 67
     7
 79
     5
170
     0
171
     0
290
     0
174
     0
 93
        1
 44
50.0
173
     0
291
     1
 45
0.0
1001
ACAD
1000
AcDbSavedByObjectVersion
1070
     0
  0
VISUALSTYLE
  5
3A
102
{ACAD_REACTORS
330
2A
102
}
102
{ACAD_XDICTIONARY
360
2F2
102
}
330
2A
100
AcDbVisualStyle
  2
ColorChange
 70
    16
 71
     2
 72
     2
 73
     3
 90
        0
 40
-0.6
 41
-30.0
 62
     5
 63
     8
421
  8421504
 74
     1
 91
        4
 64
     7
 65
   257
 75
     1
175
     1
 42
1.0
 92
        8
 66
     8
424
  8421504
 43
1.0
 76
     1
 77
     6
 78
     2
 67
     7
 79
     5
170
     0
171
     0
290
     0
174
     0
 93
        1
 44
0.0
173
     0
291
     1
 45
0.0
1001
ACAD
1000
AcDbSavedByObjectVersion
1070
     0
  0
VISUALSTYLE
  5
34
102
{ACAD_REACTORS
330
2A
102
}
102
{ACAD_XDICTIONARY
360
2E6
102
}
330
2A
100
AcDbVisualStyle
  2
Conceptual
 70
     9
 71
     3
 72
     2
 73
     0
 90
        0
 40
-0.6
 41
-30.0
 62
     5
 63
     7
421
 16777215
 74
     2
 91
        2
 64
     7
 65
   257
 75
     1
175
     1
 42
40.0
 92
        8
 66
     7
 43
1.0
 76
     1
 77
     6
 78
     2
 67
     7
 79
     3
170
     0
171
     0
290
     0
174
     0
 93
        1
 44
0.0
173
     0
291
     0
 45
0.0
1001
ACAD
1000
AcDbSavedByObjectVersion
1070
     0
  0
VISUALSTYLE
  5
35
102
{ACAD_REACTORS
330
2A
102
}
102
{ACAD_XDICTIONARY
360
2E8
102
}
330
2A
100
AcDbVisualStyle
  2
Dim
 70
    11
 71
     2
 72
     2
 73
     0
 90
        0
 40
-0.6
 41
-30.0
 62
     5
 63
     7
421
 16777215
 74
     1
 91
        4
 64
     7
 65
   257
 75
     1
175
     1
 42
1.0
 92
        8
 66
     7
 43
1.0
 76
     1
 77
     6
 78
     2
 67
     7
 79
     5
170
     0
171
     0
290
     0
174
     0
 93
        1
 44
-50.0
173
     0
291
     1
 45
0.0
1001
ACAD
1000
AcDbSavedByObjectVersion
1070
     0
  0
VISUALSTYLE
  5
39
102
{ACAD_REACTORS
330
2A
102
}
102
{ACAD_XDICTIONARY
360
2F0
102
}
330
2A
100
AcDbVisualStyle
  2
Facepattern
 70
    15
 71
     2
 72
     2
 73
     0
 90
        0
 40
-0.6
 41
-30.0
 62
     5
 63
     7
421
 16777215
 74
     1
 91
        4
 64
     7
 65
   257
 75
     1
175
     1
 42
1.0
 92
        8
 66
     7
 43
1.0
 76
     1
 77
     6
 78
     2
 67
     7
 79
     5
170
     0
171
     0
290
     0
174
     0
 93
        1
 44
0.0
173
     0
291
     1
 45
0.0
1001
ACAD
1000
AcDbSavedByObjectVersion
1070
     0
  0
VISUALSTYLE
  5
2B
102
{ACAD_REACTORS
330
2A
102
}
102
{ACAD_XDICTIONARY
360
2D4
102
}
330
2A
100
AcDbVisualStyle
  2
Flat
 70
     0
 71
     2
 72
     1
 73
     1
 90
        2
 40
-0.6
 41
30.0
 62
     5
 63
     7
421
 16777215
 74
     0
 91
        4
 64
     7
 65
   257
 75
     1
175
     1
 42
1.0
 92
        8
 66
     7
 43
1.0
 76
     1
 77
     6
 78
     2
 67
     7
 79
     5
170
     0
171
     0
290
     0
174
     0
 93
       13
 44
0.0
173
     0
291
     1
 45
0.0
1001
ACAD
1000
AcDbSavedByObjectVersion
1070
     0
  0
VISUALSTYLE
  5
2C
102
{ACAD_REACTORS
330
2A
102
}
102
{ACAD_XDICTIONARY
360
2D6
102
}
330
2A
100
AcDbVisualStyle
  2
FlatWithEdges
 70
     1
 71
     2
 72
     1
 73
     1
 90
        2
 40
-0.6
 41
30.0
 62
     5
 63
     7
421
 16777215
 74
     1
 91
        4
 64
     7
 65
   257
 75
     1
175
     1
 42
1.0
 92
        0
 66
   257
 43
1.0
 76
     1
 77
     6
 78
     2
 67
     7
 79
     5
170
     0
171
     0
290
     0
174
     0
 93
       13
 44
0.0
173
     0
291
     1
 45
0.0
1001
ACAD
1000
AcDbSavedByObjectVersion
1070
     0
  0
VISUALSTYLE
  5
2D
102
{ACAD_REACTORS
330
2A
102
}
102
{ACAD_XDICTIONARY
360
2D8
102
}
330
2A
100
AcDbVisualStyle
  2
Gouraud
 70
     2
 71
     2
 72
     2
 73
     1
 90
        2
 40
-0.6
 41
30.0
 62
     5
 63
     7
421
 16777215
 74
     0
 91
        4
 64
     7
 65
   257
 75
     1
175
     1
 42
1.0
 92
        0
 66
     7
 43
1.0
 76
     1
 77
     6
 78
     2
 67
     7
 79
     5
170
     0
171
     0
290
     0
174
     0
 93
       13
 44
0.0
173
     0
291
     1
 45
0.0
1001
ACAD
1000
AcDbSavedByObjectVersion
1070
     0
  0
VISUALSTYLE
  5
2E
102
{ACAD_REACTORS
330
2A
102
}
102
{ACAD_XDICTIONARY
360
2DA
102
}
330
2A
100
AcDbVisualStyle
  2
GouraudWithEdges
 70
     3
 71
     2
 72
     2
 73
     1
 90
        2
 40
-0.6
 41
30.0
 62
     5
 63
     7
421
 16777215
 74
     1
 91
        4
 64
     7
 65
   257
 75
     1
175
     1
 42
1.0
 92
        0
 66
   257
 43
1.0
 76
     1
 77
     6
 78
     2
 67
     7
 79
     5
170
     0
171
     0
290
     0
174
     0
 93
       13
 44
0.0
173
     0
291
     1
 45
0.0
1001
ACAD
1000
AcDbSavedByObjectVersion
1070
     0
  0
VISUALSTYLE
  5
38
102
{ACAD_REACTORS
330
2A
102
}
102
{ACAD_XDICTIONARY
360
2EE
102
}
330
2A
100
AcDbVisualStyle
  2
Linepattern
 70
    14
 71
     2
 72
     2
 73
     0
 90
        0
 40
-0.6
 41
-30.0
 62
     5
 63
     7
421
 16777215
 74
     1
 91
        4
 64
     7
 65
   257
 75
     7
175
     7
 42
1.0
 92
        8
 66
     7
 43
1.0
 76
     1
 77
     6
 78
     2
 67
     7
 79
     5
170
     0
171
     0
290
     0
174
     0
 93
        1
 44
0.0
173
     0
291
     1
 45
0.0
1001
ACAD
1000
AcDbSavedByObjectVersion
1070
     0
  0
VISUALSTYLE
  5
33
102
{ACAD_REACTORS
330
2A
102
}
102
{ACAD_XDICTIONARY
360
2E4
102
}
330
2A
100
AcDbVisualStyle
  2
Realistic
 70
     8
 71
     2
 72
     2
 73
     0
 90
        0
 40
-0.6
 41
-30.0
 62
     5
 63
     7
421
 16777215
 74
     1
 91
        0
 64
     7
 65
   257
 75
     1
175
     1
 42
1.0
 92
        8
 66
     8
424
  7895160
 43
1.0
 76
     1
 77
     6
 78
     2
 67
     7
 79
     5
170
     0
171
     0
290
     0
174
     0
 93
       13
 44
0.0
173
     0
291
     0
 45
0.0
1001
ACAD
1000
AcDbSavedByObjectVersion
1070
     0
  0
VISUALSTYLE
  5
37
102
{ACAD_REACTORS
330
2A
102
}
102
{ACAD_XDICTIONARY
360
2EC
102
}
330
2A
100
AcDbVisualStyle
  2
Thicken
 70
    13
 71
     2
 72
     2
 73
     0
 90
        0
 40
-0.6
 41
-30.0
 62
     5
 63
     7
421
 16777215
 74
     1
 91
        4
 64
     7
 65
   257
 75
     1
175
     1
 42
1.0
 92
       12
 66
     7
 43
1.0
 76
     1
 77
     6
 78
     2
 67
     7
 79
     5
170
     0
171
     0
290
     0
174
     0
 93
        1
 44
0.0
173
     0
291
     1
 45
0.0
1001
ACAD
1000
AcDbSavedByObjectVersion
1070
     0
  0
DICTIONARYVAR
  5
2D3
102
{ACAD_REACTORS
330
2D2
102
}
330
2D2
100
DictionaryVariables
280
     0
  1
1:1
  0
DICTIONARYVAR
  5
2FC
102
{ACAD_REACTORS
330
2D2
102
}
330
2D2
100
DictionaryVariables
280
     0
  1
0
  0
XRECORD
  5
2BD
102
{ACAD_REACTORS
330
2BC
102
}
330
2BC
100
AcDbXrecord
280
     1
1000
This DWG file was created in ArchiCAD(TM)®
  0
DICTIONARY
  5
2F6
330
3D
100
AcDbDictionary
280
     1
281
     1
  3
ACAD_XREC_ROUNDTRIP
360
2F7
  0
DICTIONARY
  5
2F4
330
3C
100
AcDbDictionary
280
     1
281
     1
  3
ACAD_XREC_ROUNDTRIP
360
2F5
  0
DICTIONARY
  5
2F8
330
3E
100
AcDbDictionary
280
     1
281
     1
  3
ACAD_XREC_ROUNDTRIP
360
2F9
  0
DICTIONARY
  5
2DC
330
2F
100
AcDbDictionary
280
     1
281
     1
  3
ACAD_XREC_ROUNDTRIP
360
2DD
  0
DICTIONARY
  5
2E0
330
31
100
AcDbDictionary
280
     1
281
     1
  3
ACAD_XREC_ROUNDTRIP
360
2E1
  0
DICTIONARY
  5
2DE
330
30
100
AcDbDictionary
280
     1
281
     1
  3
ACAD_XREC_ROUNDTRIP
360
2DF
  0
DICTIONARY
  5
2E2
330
32
100
AcDbDictionary
280
     1
281
     1
  3
ACAD_XREC_ROUNDTRIP
360
2E3
  0
DICTIONARY
  5
2EA
330
36
100
AcDbDictionary
280
     1
281
     1
  3
ACAD_XREC_ROUNDTRIP
360
2EB
  0
DICTIONARY
  5
2F2
330
3A
100
AcDbDictionary
280
     1
281
     1
  3
ACAD_XREC_ROUNDTRIP
360
2F3
  0
DICTIONARY
  5
2E6
330
34
100
AcDbDictionary
280
     1
281
     1
  3
ACAD_XREC_ROUNDTRIP
360
2E7
  0
DICTIONARY
  5
2E8
330
35
100
AcDbDictionary
280
     1
281
     1
  3
ACAD_XREC_ROUNDTRIP
360
2E9
  0
DICTIONARY
  5
2F0
330
39
100
AcDbDictionary
280
     1
281
     1
  3
ACAD_XREC_ROUNDTRIP
360
2F1
  0
DICTIONARY
  5
2D4
330
2B
100
AcDbDictionary
280
     1
281
     1
  3
ACAD_XREC_ROUNDTRIP
360
2D5
  0
DICTIONARY
  5
2D6
330
2C
100
AcDbDictionary
280
     1
281
     1
  3
ACAD_XREC_ROUNDTRIP
360
2D7
  0
DICTIONARY
  5
2D8
330
2D
100
AcDbDictionary
280
     1
281
     1
  3
ACAD_XREC_ROUNDTRIP
360
2D9
  0
DICTIONARY
  5
2DA
330
2E
100
AcDbDictionary
280
     1
281
     1
  3
ACAD_XREC_ROUNDTRIP
360
2DB
  0
DICTIONARY
  5
2EE
330
38
100
AcDbDictionary
280
     1
281
     1
  3
ACAD_XREC_ROUNDTRIP
360
2EF
  0
DICTIONARY
  5
2E4
330
33
100
AcDbDictionary
280
     1
281
     1
  3
ACAD_XREC_ROUNDTRIP
360
2E5
  0
DICTIONARY
  5
2EC
330
37
100
AcDbDictionary
280
     1
281
     1
  3
ACAD_XREC_ROUNDTRIP
360
2ED
  0
XRECORD
  5
2F7
102
{ACAD_REACTORS
330
2F6
102
}
330
2F6
100
AcDbXrecord
280
     1
102
MATERIAL
148
0.0
149
0.0
149
0.0
 93
        0
 94
      127
282
     0
 72
     1
 77
     1
171
     1
175
     1
179
     1
273
     0
  0
XRECORD
  5
2F5
102
{ACAD_REACTORS
330
2F4
102
}
330
2F4
100
AcDbXrecord
280
     1
102
MATERIAL
148
0.0
149
0.0
149
0.0
 93
        0
 94
      127
282
     0
 72
     1
 77
     1
171
     1
175
     1
179
     1
273
     0
  0
XRECORD
  5
2F9
102
{ACAD_REACTORS
330
2F8
102
}
330
2F8
100
AcDbXrecord
280
     1
102
MATERIAL
148
0.0
149
0.0
149
0.0
 93
        0
 94
      127
282
     0
 72
     1
 77
     1
171
     1
175
     1
179
     1
273
     0
  0
XRECORD
  5
2DD
102
{ACAD_REACTORS
330
2DC
102
}
330
2DC
100
AcDbXrecord
280
     1
102
RTVSPropertyOp0
 70
     1
102
RTVSPropertyOp1
 70
     1
102
RTVSPropertyOp2
 70
     1
102
RTVSPropertyOp3
 70
     1
102
RTVSPropertyOp4
 70
     1
102
RTVSPropertyOp5
 70
     1
102
RTVSPropertyOp6
 70
     1
102
RTVSPropertyOp7
 70
     1
102
RTVSPropertyOp8
 70
     1
102
RTVSPropertyOp9
 70
     1
102
RTVSPropertyOp10
 70
     1
102
RTVSPropertyOp11
 70
     1
102
RTVSPropertyOp12
 70
     1
102
RTVSPropertyOp13
 70
     1
102
RTVSPropertyOp14
 70
     1
102
RTVSPropertyOp15
 70
     1
102
RTVSPropertyOp16
 70
     1
102
RTVSPropertyOp17
 70
     1
102
RTVSPropertyOp18
 70
     1
102
RTVSPropertyOp19
 70
     1
102
RTVSPropertyOp20
 70
     1
102
RTVSPropertyOp21
 70
     1
102
RTVSPropertyOp22
 70
     1
102
RTVSPropertyOp23
 70
     1
102
RTVSPropertyOp24
 70
     1
102
RTVSPropertyOp25
 70
     1
102
RTVSPropertyOp26
 70
     1
102
RTVSPropertyOp27
 70
     1
102
RTVSPropertyOp28
 70
     1
102
RTVSPropertyOp29
 70
     1
102
RTVSPropertyOp30
 70
     1
102
RTVSPropertyOp31
 70
     1
102
RTVSPropertyOp32
 70
     1
  0
XRECORD
  5
2E1
102
{ACAD_REACTORS
330
2E0
102
}
330
2E0
100
AcDbXrecord
280
     1
102
RTVSPropertyOp0
 70
     1
102
RTVSPropertyOp1
 70
     1
102
RTVSPropertyOp2
 70
     1
102
RTVSPropertyOp3
 70
     1
102
RTVSPropertyOp4
 70
     1
102
RTVSPropertyOp5
 70
     1
102
RTVSPropertyOp6
 70
     1
102
RTVSPropertyOp7
 70
     1
102
RTVSPropertyOp8
 70
     1
102
RTVSPropertyOp9
 70
     1
102
RTVSPropertyOp10
 70
     1
102
RTVSPropertyOp11
 70
     1
102
RTVSPropertyOp12
 70
     1
102
RTVSPropertyOp13
 70
     1
102
RTVSPropertyOp14
 70
     1
102
RTVSPropertyOp15
 70
     1
102
RTVSPropertyOp16
 70
     1
102
RTVSPropertyOp17
 70
     1
102
RTVSPropertyOp18
 70
     1
102
RTVSPropertyOp19
 70
     1
102
RTVSPropertyOp20
 70
     1
102
RTVSPropertyOp21
 70
     1
102
RTVSPropertyOp22
 70
     1
102
RTVSPropertyOp23
 70
     1
102
RTVSPropertyOp24
 70
     1
102
RTVSPropertyOp25
 70
     1
102
RTVSPropertyOp26
 70
     1
102
RTVSPropertyOp27
 70
     1
102
RTVSPropertyOp28
 70
     1
102
RTVSPropertyOp29
 70
     1
102
RTVSPropertyOp30
 70
     1
102
RTVSPropertyOp31
 70
     1
102
RTVSPropertyOp32
 70
     1
  0
XRECORD
  5
2DF
102
{ACAD_REACTORS
330
2DE
102
}
330
2DE
100
AcDbXrecord
280
     1
102
RTVSPropertyOp0
 70
     1
102
RTVSPropertyOp1
 70
     1
102
RTVSPropertyOp2
 70
     1
102
RTVSPropertyOp3
 70
     1
102
RTVSPropertyOp4
 70
     1
102
RTVSPropertyOp5
 70
     1
102
RTVSPropertyOp6
 70
     1
102
RTVSPropertyOp7
 70
     1
102
RTVSPropertyOp8
 70
     1
102
RTVSPropertyOp9
 70
     1
102
RTVSPropertyOp10
 70
     1
102
RTVSPropertyOp11
 70
     1
102
RTVSPropertyOp12
 70
     1
102
RTVSPropertyOp13
 70
     1
102
RTVSPropertyOp14
 70
     1
102
RTVSPropertyOp15
 70
     1
102
RTVSPropertyOp16
 70
     1
102
RTVSPropertyOp17
 70
     1
102
RTVSPropertyOp18
 70
     1
102
RTVSPropertyOp19
 70
     1
102
RTVSPropertyOp20
 70
     1
102
RTVSPropertyOp21
 70
     1
102
RTVSPropertyOp22
 70
     1
102
RTVSPropertyOp23
 70
     1
102
RTVSPropertyOp24
 70
     1
102
RTVSPropertyOp25
 70
     1
102
RTVSPropertyOp26
 70
     1
102
RTVSPropertyOp27
 70
     1
102
RTVSPropertyOp28
 70
     1
102
RTVSPropertyOp29
 70
     1
102
RTVSPropertyOp30
 70
     1
102
RTVSPropertyOp31
 70
     1
102
RTVSPropertyOp32
 70
     1
  0
XRECORD
  5
2E3
102
{ACAD_REACTORS
330
2E2
102
}
330
2E2
100
AcDbXrecord
280
     1
102
RTVSPropertyOp0
 70
     1
102
RTVSPropertyOp1
 70
     1
102
RTVSPropertyOp2
 70
     1
102
RTVSPropertyOp3
 70
     1
102
RTVSPropertyOp4
 70
     1
102
RTVSPropertyOp5
 70
     1
102
RTVSPropertyOp6
 70
     1
102
RTVSPropertyOp7
 70
     1
102
RTVSPropertyOp8
 70
     1
102
RTVSPropertyOp9
 70
     1
102
RTVSPropertyOp10
 70
     1
102
RTVSPropertyOp11
 70
     1
102
RTVSPropertyOp12
 70
     1
102
RTVSPropertyOp13
 70
     1
102
RTVSPropertyOp14
 70
     1
102
RTVSPropertyOp15
 70
     1
102
RTVSPropertyOp16
 70
     1
102
RTVSPropertyOp17
 70
     1
102
RTVSPropertyOp18
 70
     1
102
RTVSPropertyOp19
 70
     1
102
RTVSPropertyOp20
 70
     1
102
RTVSPropertyOp21
 70
     1
102
RTVSPropertyOp22
 70
     1
102
RTVSPropertyOp23
 70
     1
102
RTVSPropertyOp24
 70
     1
102
RTVSPropertyOp25
 70
     1
102
RTVSPropertyOp26
 70
     1
102
RTVSPropertyOp27
 70
     1
102
RTVSPropertyOp28
 70
     1
102
RTVSPropertyOp29
 70
     1
102
RTVSPropertyOp30
 70
     1
102
RTVSPropertyOp31
 70
     1
102
RTVSPropertyOp32
 70
     1
  0
XRECORD
  5
2EB
102
{ACAD_REACTORS
330
2EA
102
}
330
2EA
100
AcDbXrecord
280
     1
102
RTVSPropertyOp0
 70
     1
102
RTVSPropertyOp1
 70
     1
102
RTVSPropertyOp2
 70
     1
102
RTVSPropertyOp3
 70
     1
102
RTVSPropertyOp4
 70
     1
102
RTVSPropertyOp5
 70
     1
102
RTVSPropertyOp6
 70
     1
102
RTVSPropertyOp7
 70
     1
102
RTVSPropertyOp8
 70
     1
102
RTVSPropertyOp9
 70
     1
102
RTVSPropertyOp10
 70
     1
102
RTVSPropertyOp11
 70
     1
102
RTVSPropertyOp12
 70
     1
102
RTVSPropertyOp13
 70
     1
102
RTVSPropertyOp14
 70
     1
102
RTVSPropertyOp15
 70
     1
102
RTVSPropertyOp16
 70
     1
102
RTVSPropertyOp17
 70
     1
102
RTVSPropertyOp18
 70
     1
102
RTVSPropertyOp19
 70
     1
102
RTVSPropertyOp20
 70
     1
102
RTVSPropertyOp21
 70
     1
102
RTVSPropertyOp22
 70
     1
102
RTVSPropertyOp23
 70
     1
102
RTVSPropertyOp24
 70
     1
102
RTVSPropertyOp25
 70
     1
102
RTVSPropertyOp26
 70
     1
102
RTVSPropertyOp27
 70
     1
102
RTVSPropertyOp28
 70
     1
102
RTVSPropertyOp29
 70
     1
102
RTVSPropertyOp30
 70
     1
102
RTVSPropertyOp31
 70
     1
102
RTVSPropertyOp32
 70
     1
  0
XRECORD
  5
2F3
102
{ACAD_REACTORS
330
2F2
102
}
330
2F2
100
AcDbXrecord
280
     1
102
RTVSPropertyOp0
 70
     1
102
RTVSPropertyOp1
 70
     1
102
RTVSPropertyOp2
 70
     1
102
RTVSPropertyOp3
 70
     1
102
RTVSPropertyOp4
 70
     1
102
RTVSPropertyOp5
 70
     1
102
RTVSPropertyOp6
 70
     1
102
RTVSPropertyOp7
 70
     1
102
RTVSPropertyOp8
 70
     1
102
RTVSPropertyOp9
 70
     1
102
RTVSPropertyOp10
 70
     1
102
RTVSPropertyOp11
 70
     1
102
RTVSPropertyOp12
 70
     1
102
RTVSPropertyOp13
 70
     1
102
RTVSPropertyOp14
 70
     1
102
RTVSPropertyOp15
 70
     1
102
RTVSPropertyOp16
 70
     1
102
RTVSPropertyOp17
 70
     1
102
RTVSPropertyOp18
 70
     1
102
RTVSPropertyOp19
 70
     1
102
RTVSPropertyOp20
 70
     1
102
RTVSPropertyOp21
 70
     1
102
RTVSPropertyOp22
 70
     1
102
RTVSPropertyOp23
 70
     1
102
RTVSPropertyOp24
 70
     1
102
RTVSPropertyOp25
 70
     1
102
RTVSPropertyOp26
 70
     1
102
RTVSPropertyOp27
 70
     1
102
RTVSPropertyOp28
 70
     1
102
RTVSPropertyOp29
 70
     1
102
RTVSPropertyOp30
 70
     1
102
RTVSPropertyOp31
 70
     1
102
RTVSPropertyOp32
 70
     1
  0
XRECORD
  5
2E7
102
{ACAD_REACTORS
330
2E6
102
}
330
2E6
100
AcDbXrecord
280
     1
102
RTVSPropertyOp0
 70
     1
102
RTVSPropertyOp1
 70
     1
102
RTVSPropertyOp2
 70
     1
102
RTVSPropertyOp3
 70
     1
102
RTVSPropertyOp4
 70
     1
102
RTVSPropertyOp5
 70
     1
102
RTVSPropertyOp6
 70
     1
102
RTVSPropertyOp7
 70
     1
102
RTVSPropertyOp8
 70
     1
102
RTVSPropertyOp9
 70
     1
102
RTVSPropertyOp10
 70
     1
102
RTVSPropertyOp11
 70
     1
102
RTVSPropertyOp12
 70
     1
102
RTVSPropertyOp13
 70
     1
102
RTVSPropertyOp14
 70
     1
102
RTVSPropertyOp15
 70
     1
102
RTVSPropertyOp16
 70
     1
102
RTVSPropertyOp17
 70
     1
102
RTVSPropertyOp18
 70
     1
102
RTVSPropertyOp19
 70
     1
102
RTVSPropertyOp20
 70
     1
102
RTVSPropertyOp21
 70
     1
102
RTVSPropertyOp22
 70
     1
102
RTVSPropertyOp23
 70
     1
102
RTVSPropertyOp24
 70
     1
102
RTVSPropertyOp25
 70
     1
102
RTVSPropertyOp26
 70
     1
102
RTVSPropertyOp27
 70
     1
102
RTVSPropertyOp28
 70
     1
102
RTVSPropertyOp29
 70
     1
102
RTVSPropertyOp30
 70
     1
102
RTVSPropertyOp31
 70
     1
102
RTVSPropertyOp32
 70
     1
  0
XRECORD
  5
2E9
102
{ACAD_REACTORS
330
2E8
102
}
330
2E8
100
AcDbXrecord
280
     1
102
RTVSPropertyOp0
 70
     1
102
RTVSPropertyOp1
 70
     1
102
RTVSPropertyOp2
 70
     1
102
RTVSPropertyOp3
 70
     1
102
RTVSPropertyOp4
 70
     1
102
RTVSPropertyOp5
 70
     1
102
RTVSPropertyOp6
 70
     1
102
RTVSPropertyOp7
 70
     1
102
RTVSPropertyOp8
 70
     1
102
RTVSPropertyOp9
 70
     1
102
RTVSPropertyOp10
 70
     1
102
RTVSPropertyOp11
 70
     1
102
RTVSPropertyOp12
 70
     1
102
RTVSPropertyOp13
 70
     1
102
RTVSPropertyOp14
 70
     1
102
RTVSPropertyOp15
 70
     1
102
RTVSPropertyOp16
 70
     1
102
RTVSPropertyOp17
 70
     1
102
RTVSPropertyOp18
 70
     1
102
RTVSPropertyOp19
 70
     1
102
RTVSPropertyOp20
 70
     1
102
RTVSPropertyOp21
 70
     1
102
RTVSPropertyOp22
 70
     1
102
RTVSPropertyOp23
 70
     1
102
RTVSPropertyOp24
 70
     1
102
RTVSPropertyOp25
 70
     1
102
RTVSPropertyOp26
 70
     1
102
RTVSPropertyOp27
 70
     1
102
RTVSPropertyOp28
 70
     1
102
RTVSPropertyOp29
 70
     1
102
RTVSPropertyOp30
 70
     1
102
RTVSPropertyOp31
 70
     1
102
RTVSPropertyOp32
 70
     1
  0
XRECORD
  5
2F1
102
{ACAD_REACTORS
330
2F0
102
}
330
2F0
100
AcDbXrecord
280
     1
102
RTVSPropertyOp0
 70
     1
102
RTVSPropertyOp1
 70
     1
102
RTVSPropertyOp2
 70
     1
102
RTVSPropertyOp3
 70
     1
102
RTVSPropertyOp4
 70
     1
102
RTVSPropertyOp5
 70
     1
102
RTVSPropertyOp6
 70
     1
102
RTVSPropertyOp7
 70
     1
102
RTVSPropertyOp8
 70
     1
102
RTVSPropertyOp9
 70
     1
102
RTVSPropertyOp10
 70
     1
102
RTVSPropertyOp11
 70
     1
102
RTVSPropertyOp12
 70
     1
102
RTVSPropertyOp13
 70
     1
102
RTVSPropertyOp14
 70
     1
102
RTVSPropertyOp15
 70
     1
102
RTVSPropertyOp16
 70
     1
102
RTVSPropertyOp17
 70
     1
102
RTVSPropertyOp18
 70
     1
102
RTVSPropertyOp19
 70
     1
102
RTVSPropertyOp20
 70
     1
102
RTVSPropertyOp21
 70
     1
102
RTVSPropertyOp22
 70
     1
102
RTVSPropertyOp23
 70
     1
102
RTVSPropertyOp24
 70
     1
102
RTVSPropertyOp25
 70
     1
102
RTVSPropertyOp26
 70
     1
102
RTVSPropertyOp27
 70
     1
102
RTVSPropertyOp28
 70
     1
102
RTVSPropertyOp29
 70
     1
102
RTVSPropertyOp30
 70
     1
102
RTVSPropertyOp31
 70
     1
102
RTVSPropertyOp32
 70
     1
  0
XRECORD
  5
2D5
102
{ACAD_REACTORS
330
2D4
102
}
330
2D4
100
AcDbXrecord
280
     1
102
RTVSPropertyOp0
 70
     1
102
RTVSPropertyOp1
 70
     1
102
RTVSPropertyOp2
 70
     1
102
RTVSPropertyOp3
 70
     1
102
RTVSPropertyOp4
 70
     1
102
RTVSPropertyOp5
 70
     1
102
RTVSPropertyOp6
 70
     1
102
RTVSPropertyOp7
 70
     1
102
RTVSPropertyOp8
 70
     1
102
RTVSPropertyOp9
 70
     1
102
RTVSPropertyOp10
 70
     1
102
RTVSPropertyOp11
 70
     1
102
RTVSPropertyOp12
 70
     1
102
RTVSPropertyOp13
 70
     1
102
RTVSPropertyOp14
 70
     1
102
RTVSPropertyOp15
 70
     1
102
RTVSPropertyOp16
 70
     1
102
RTVSPropertyOp17
 70
     1
102
RTVSPropertyOp18
 70
     1
102
RTVSPropertyOp19
 70
     1
102
RTVSPropertyOp20
 70
     1
102
RTVSPropertyOp21
 70
     1
102
RTVSPropertyOp22
 70
     1
102
RTVSPropertyOp23
 70
     1
102
RTVSPropertyOp24
 70
     1
102
RTVSPropertyOp25
 70
     1
102
RTVSPropertyOp26
 70
     1
102
RTVSPropertyOp27
 70
     1
102
RTVSPropertyOp28
 70
     1
102
RTVSPropertyOp29
 70
     1
102
RTVSPropertyOp30
 70
     1
102
RTVSPropertyOp31
 70
     1
102
RTVSPropertyOp32
 70
     1
  0
XRECORD
  5
2D7
102
{ACAD_REACTORS
330
2D6
102
}
330
2D6
100
AcDbXrecord
280
     1
102
RTVSPropertyOp0
 70
     1
102
RTVSPropertyOp1
 70
     1
102
RTVSPropertyOp2
 70
     1
102
RTVSPropertyOp3
 70
     1
102
RTVSPropertyOp4
 70
     1
102
RTVSPropertyOp5
 70
     1
102
RTVSPropertyOp6
 70
     1
102
RTVSPropertyOp7
 70
     1
102
RTVSPropertyOp8
 70
     1
102
RTVSPropertyOp9
 70
     1
102
RTVSPropertyOp10
 70
     1
102
RTVSPropertyOp11
 70
     1
102
RTVSPropertyOp12
 70
     1
102
RTVSPropertyOp13
 70
     1
102
RTVSPropertyOp14
 70
     1
102
RTVSPropertyOp15
 70
     1
102
RTVSPropertyOp16
 70
     1
102
RTVSPropertyOp17
 70
     1
102
RTVSPropertyOp18
 70
     1
102
RTVSPropertyOp19
 70
     1
102
RTVSPropertyOp20
 70
     1
102
RTVSPropertyOp21
 70
     1
102
RTVSPropertyOp22
 70
     1
102
RTVSPropertyOp23
 70
     1
102
RTVSPropertyOp24
 70
     1
102
RTVSPropertyOp25
 70
     1
102
RTVSPropertyOp26
 70
     1
102
RTVSPropertyOp27
 70
     1
102
RTVSPropertyOp28
 70
     1
102
RTVSPropertyOp29
 70
     1
102
RTVSPropertyOp30
 70
     1
102
RTVSPropertyOp31
 70
     1
102
RTVSPropertyOp32
 70
     1
  0
XRECORD
  5
2D9
102
{ACAD_REACTORS
330
2D8
102
}
330
2D8
100
AcDbXrecord
280
     1
102
RTVSPropertyOp0
 70
     1
102
RTVSPropertyOp1
 70
     1
102
RTVSPropertyOp2
 70
     1
102
RTVSPropertyOp3
 70
     1
102
RTVSPropertyOp4
 70
     1
102
RTVSPropertyOp5
 70
     1
102
RTVSPropertyOp6
 70
     1
102
RTVSPropertyOp7
 70
     1
102
RTVSPropertyOp8
 70
     1
102
RTVSPropertyOp9
 70
     1
102
RTVSPropertyOp10
 70
     1
102
RTVSPropertyOp11
 70
     1
102
RTVSPropertyOp12
 70
     1
102
RTVSPropertyOp13
 70
     1
102
RTVSPropertyOp14
 70
     1
102
RTVSPropertyOp15
 70
     1
102
RTVSPropertyOp16
 70
     1
102
RTVSPropertyOp17
 70
     1
102
RTVSPropertyOp18
 70
     1
102
RTVSPropertyOp19
 70
     1
102
RTVSPropertyOp20
 70
     1
102
RTVSPropertyOp21
 70
     1
102
RTVSPropertyOp22
 70
     1
102
RTVSPropertyOp23
 70
     1
102
RTVSPropertyOp24
 70
     1
102
RTVSPropertyOp25
 70
     1
102
RTVSPropertyOp26
 70
     1
102
RTVSPropertyOp27
 70
     1
102
RTVSPropertyOp28
 70
     1
102
RTVSPropertyOp29
 70
     1
102
RTVSPropertyOp30
 70
     1
102
RTVSPropertyOp31
 70
     1
102
RTVSPropertyOp32
 70
     1
  0
XRECORD
  5
2DB
102
{ACAD_REACTORS
330
2DA
102
}
330
2DA
100
AcDbXrecord
280
     1
102
RTVSPropertyOp0
 70
     1
102
RTVSPropertyOp1
 70
     1
102
RTVSPropertyOp2
 70
     1
102
RTVSPropertyOp3
 70
     1
102
RTVSPropertyOp4
 70
     1
102
RTVSPropertyOp5
 70
     1
102
RTVSPropertyOp6
 70
     1
102
RTVSPropertyOp7
 70
     1
102
RTVSPropertyOp8
 70
     1
102
RTVSPropertyOp9
 70
     1
102
RTVSPropertyOp10
 70
     1
102
RTVSPropertyOp11
 70
     1
102
RTVSPropertyOp12
 70
     1
102
RTVSPropertyOp13
 70
     1
102
RTVSPropertyOp14
 70
     1
102
RTVSPropertyOp15
 70
     1
102
RTVSPropertyOp16
 70
     1
102
RTVSPropertyOp17
 70
     1
102
RTVSPropertyOp18
 70
     1
102
RTVSPropertyOp19
 70
     1
102
RTVSPropertyOp20
 70
     1
102
RTVSPropertyOp21
 70
     1
102
RTVSPropertyOp22
 70
     1
102
RTVSPropertyOp23
 70
     1
102
RTVSPropertyOp24
 70
     1
102
RTVSPropertyOp25
 70
     1
102
RTVSPropertyOp26
 70
     1
102
RTVSPropertyOp27
 70
     1
102
RTVSPropertyOp28
 70
     1
102
RTVSPropertyOp29
 70
     1
102
RTVSPropertyOp30
 70
     1
102
RTVSPropertyOp31
 70
     1
102
RTVSPropertyOp32
 70
     1
  0
XRECORD
  5
2EF
102
{ACAD_REACTORS
330
2EE
102
}
330
2EE
100
AcDbXrecord
280
     1
102
RTVSPropertyOp0
 70
     1
102
RTVSPropertyOp1
 70
     1
102
RTVSPropertyOp2
 70
     1
102
RTVSPropertyOp3
 70
     1
102
RTVSPropertyOp4
 70
     1
102
RTVSPropertyOp5
 70
     1
102
RTVSPropertyOp6
 70
     1
102
RTVSPropertyOp7
 70
     1
102
RTVSPropertyOp8
 70
     1
102
RTVSPropertyOp9
 70
     1
102
RTVSPropertyOp10
 70
     1
102
RTVSPropertyOp11
 70
     1
102
RTVSPropertyOp12
 70
     1
102
RTVSPropertyOp13
 70
     1
102
RTVSPropertyOp14
 70
     1
102
RTVSPropertyOp15
 70
     1
102
RTVSPropertyOp16
 70
     1
102
RTVSPropertyOp17
 70
     1
102
RTVSPropertyOp18
 70
     1
102
RTVSPropertyOp19
 70
     1
102
RTVSPropertyOp20
 70
     1
102
RTVSPropertyOp21
 70
     1
102
RTVSPropertyOp22
 70
     1
102
RTVSPropertyOp23
 70
     1
102
RTVSPropertyOp24
 70
     1
102
RTVSPropertyOp25
 70
     1
102
RTVSPropertyOp26
 70
     1
102
RTVSPropertyOp27
 70
     1
102
RTVSPropertyOp28
 70
     1
102
RTVSPropertyOp29
 70
     1
102
RTVSPropertyOp30
 70
     1
102
RTVSPropertyOp31
 70
     1
102
RTVSPropertyOp32
 70
     1
  0
XRECORD
  5
2E5
102
{ACAD_REACTORS
330
2E4
102
}
330
2E4
100
AcDbXrecord
280
     1
102
RTVSPropertyOp0
 70
     1
102
RTVSPropertyOp1
 70
     1
102
RTVSPropertyOp2
 70
     1
102
RTVSPropertyOp3
 70
     1
102
RTVSPropertyOp4
 70
     1
102
RTVSPropertyOp5
 70
     1
102
RTVSPropertyOp6
 70
     1
102
RTVSPropertyOp7
 70
     1
102
RTVSPropertyOp8
 70
     1
102
RTVSPropertyOp9
 70
     1
102
RTVSPropertyOp10
 70
     1
102
RTVSPropertyOp11
 70
     1
102
RTVSPropertyOp12
 70
     1
102
RTVSPropertyOp13
 70
     1
102
RTVSPropertyOp14
 70
     1
102
RTVSPropertyOp15
 70
     1
102
RTVSPropertyOp16
 70
     1
102
RTVSPropertyOp17
 70
     1
102
RTVSPropertyOp18
 70
     1
102
RTVSPropertyOp19
 70
     1
102
RTVSPropertyOp20
 70
     1
102
RTVSPropertyOp21
 70
     1
102
RTVSPropertyOp22
 70
     1
102
RTVSPropertyOp23
 70
     1
102
RTVSPropertyOp24
 70
     1
102
RTVSPropertyOp25
 70
     1
102
RTVSPropertyOp26
 70
     1
102
RTVSPropertyOp27
 70
     1
102
RTVSPropertyOp28
 70
     1
102
RTVSPropertyOp29
 70
     1
102
RTVSPropertyOp30
 70
     1
102
RTVSPropertyOp31
 70
     1
102
RTVSPropertyOp32
 70
     1
  0
XRECORD
  5
2ED
102
{ACAD_REACTORS
330
2EC
102
}
330
2EC
100
AcDbXrecord
280
     1
102
RTVSPropertyOp0
 70
     1
102
RTVSPropertyOp1
 70
     1
102
RTVSPropertyOp2
 70
     1
102
RTVSPropertyOp3
 70
     1
102
RTVSPropertyOp4
 70
     1
102
RTVSPropertyOp5
 70
     1
102
RTVSPropertyOp6
 70
     1
102
RTVSPropertyOp7
 70
     1
102
RTVSPropertyOp8
 70
     1
102
RTVSPropertyOp9
 70
     1
102
RTVSPropertyOp10
 70
     1
102
RTVSPropertyOp11
 70
     1
102
RTVSPropertyOp12
 70
     1
102
RTVSPropertyOp13
 70
     1
102
RTVSPropertyOp14
 70
     1
102
RTVSPropertyOp15
 70
     1
102
RTVSPropertyOp16
 70
     1
102
RTVSPropertyOp17
 70
     1
102
RTVSPropertyOp18
 70
     1
102
RTVSPropertyOp19
 70
     1
102
RTVSPropertyOp20
 70
     1
102
RTVSPropertyOp21
 70
     1
102
RTVSPropertyOp22
 70
     1
102
RTVSPropertyOp23
 70
     1
102
RTVSPropertyOp24
 70
     1
102
RTVSPropertyOp25
 70
     1
102
RTVSPropertyOp26
 70
     1
102
RTVSPropertyOp27
 70
     1
102
RTVSPropertyOp28
 70
     1
102
RTVSPropertyOp29
 70
     1
102
RTVSPropertyOp30
 70
     1
102
RTVSPropertyOp31
 70
     1
102
RTVSPropertyOp32
 70
     1
  0
ENDSEC
  0
EOF
