  0
SECTION
  2
HEADER
  9
$ACADVER
  1
AC1015
  9
$ACADMAINTVER
 70
    20
  9
$DWGCODEPAGE
  3
ANSI_1252
  9
$INSBASE
 10
0.0
 20
0.0
 30
0.0
  9
$EXTMIN
 10
-0.0000008078504834
 20
0.0000001108869583
 30
-12.50000000000001
  9
$EXTMAX
 10
353.9999991921495
 20
482.0000001108869
 30
0.0
  9
$LIMMIN
 10
-0.0000008078504834
 20
0.0000001108869583
  9
$LIMMAX
 10
353.9999991921495
 20
482.0000001108869
  9
$ORTHOMODE
 70
     0
  9
$REGENMODE
 70
     1
  9
$FILLMODE
 70
     1
  9
$QTEXTMODE
 70
     0
  9
$MIRRTEXT
 70
     0
  9
$LTSCALE
 40
1.0
  9
$ATTMODE
 70
     1
  9
$TEXTSIZE
 40
5.0
  9
$TRACEWID
 40
1.0
  9
$TEXTSTYLE
  7
Arial-Bold
  9
$CLAYER
  8
APL Joinery
  9
$CELTYPE
  6
ByLayer
  9
$CECOLOR
 62
   256
  9
$CELTSCALE
 40
1.0
  9
$DISPSILH
 70
     0
  9
$DIMSCALE
 40
1.0
  9
$DIMASZ
 40
4.0
  9
$DIMEXO
 40
0.625
  9
$DIMDLI
 40
3.75
  9
$DIMRND
 40
0.0
  9
$DIMDLE
 40
0.0
  9
$DIMEXE
 40
1.25
  9
$DIMTP
 40
0.0
  9
$DIMTM
 40
0.0
  9
$DIMTXT
 40
2.5
  9
$DIMCEN
 40
2.5
  9
$DIMTSZ
 40
0.0
  9
$DIMTOL
 70
     0
  9
$DIMLIM
 70
     0
  9
$DIMTIH
 70
     0
  9
$DIMTOH
 70
     0
  9
$DIMSE1
 70
     0
  9
$DIMSE2
 70
     0
  9
$DIMTAD
 70
     1
  9
$DIMZIN
 70
     8
  9
$DIMBLK
  1

  9
$DIMASO
 70
     1
  9
$DIMSHO
 70
     1
  9
$DIMPOST
  1

  9
$DIMAPOST
  1

  9
$DIMALT
 70
     0
  9
$DIMALTD
 70
     3
  9
$DIMALTF
 40
0.03937007874016
  9
$DIMLFAC
 40
1.0
  9
$DIMTOFL
 70
     1
  9
$DIMTVP
 40
0.0
  9
$DIMTIX
 70
     0
  9
$DIMSOXD
 70
     0
  9
$DIMSAH
 70
     0
  9
$DIMBLK1
  1

  9
$DIMBLK2
  1

  9
$DIMSTYLE
  2
ISO-25
  9
$DIMCLRD
 70
     0
  9
$DIMCLRE
 70
     0
  9
$DIMCLRT
 70
     0
  9
$DIMTFAC
 40
1.0
  9
$DIMGAP
 40
0.625
  9
$DIMJUST
 70
     0
  9
$DIMSD1
 70
     0
  9
$DIMSD2
 70
     0
  9
$DIMTOLJ
 70
     0
  9
$DIMTZIN
 70
     8
  9
$DIMALTZ
 70
     0
  9
$DIMALTTZ
 70
     0
  9
$DIMUPT
 70
     0
  9
$DIMDEC
 70
     2
  9
$DIMTDEC
 70
     2
  9
$DIMALTU
 70
     2
  9
$DIMALTTD
 70
     3
  9
$DIMTXSTY
  7
Standard
  9
$DIMAUNIT
 70
     0
  9
$DIMADEC
 70
     0
  9
$DIMALTRND
 40
0.0
  9
$DIMAZIN
 70
     0
  9
$DIMDSEP
 70
    44
  9
$DIMATFIT
 70
     3
  9
$DIMFRAC
 70
     0
  9
$DIMLDRBLK
  1

  9
$DIMLUNIT
 70
     2
  9
$DIMLWD
 70
    -2
  9
$DIMLWE
 70
    -2
  9
$DIMTMOVE
 70
     0
  9
$LUNITS
 70
     2
  9
$LUPREC
 70
     4
  9
$SKETCHINC
 40
1.0
  9
$FILLETRAD
 40
10.0
  9
$AUNITS
 70
     0
  9
$AUPREC
 70
     0
  9
$MENU
  1
.
  9
$ELEVATION
 40
0.0
  9
$PELEVATION
 40
0.0
  9
$THICKNESS
 40
0.0
  9
$LIMCHECK
 70
     0
  9
$CHAMFERA
 40
10.0
  9
$CHAMFERB
 40
10.0
  9
$CHAMFERC
 40
20.0
  9
$CHAMFERD
 40
0.0
  9
$SKPOLY
 70
     0
  9
$TDCREATE
 40
2452284.566801979
  9
$TDUCREATE
 40
2452284.066801979
  9
$TDUPDATE
 40
2455812.474136169
  9
$TDUUPDATE
 40
2455811.974136169
  9
$TDINDWG
 40
0.8336477199
  9
$TDUSRTIMER
 40
0.8336476042
  9
$USRTIMER
 70
     1
  9
$ANGBASE
 50
0.0
  9
$ANGDIR
 70
     0
  9
$PDMODE
 70
     3
  9
$PDSIZE
 40
3.0
  9
$PLINEWID
 40
0.0
  9
$SPLFRAME
 70
     0
  9
$SPLINETYPE
 70
     6
  9
$SPLINESEGS
 70
     8
  9
$HANDSEED
  5
31AE
  9
$SURFTAB1
 70
     6
  9
$SURFTAB2
 70
     6
  9
$SURFTYPE
 70
     6
  9
$SURFU
 70
     6
  9
$SURFV
 70
     6
  9
$UCSBASE
  2

  9
$UCSNAME
  2

  9
$UCSORG
 10
0.0
 20
0.0
 30
0.0
  9
$UCSXDIR
 10
1.0
 20
0.0
 30
0.0
  9
$UCSYDIR
 10
0.0
 20
1.0
 30
0.0
  9
$UCSORTHOREF
  2

  9
$UCSORTHOVIEW
 70
     0
  9
$UCSORGTOP
 10
0.0
 20
0.0
 30
0.0
  9
$UCSORGBOTTOM
 10
0.0
 20
0.0
 30
0.0
  9
$UCSORGLEFT
 10
0.0
 20
0.0
 30
0.0
  9
$UCSORGRIGHT
 10
0.0
 20
0.0
 30
0.0
  9
$UCSORGFRONT
 10
0.0
 20
0.0
 30
0.0
  9
$UCSORGBACK
 10
0.0
 20
0.0
 30
0.0
  9
$PUCSBASE
  2

  9
$PUCSNAME
  2

  9
$PUCSORG
 10
0.0
 20
0.0
 30
0.0
  9
$PUCSXDIR
 10
1.0
 20
0.0
 30
0.0
  9
$PUCSYDIR
 10
0.0
 20
1.0
 30
0.0
  9
$PUCSORTHOREF
  2

  9
$PUCSORTHOVIEW
 70
     0
  9
$PUCSORGTOP
 10
0.0
 20
0.0
 30
0.0
  9
$PUCSORGBOTTOM
 10
0.0
 20
0.0
 30
0.0
  9
$PUCSORGLEFT
 10
0.0
 20
0.0
 30
0.0
  9
$PUCSORGRIGHT
 10
0.0
 20
0.0
 30
0.0
  9
$PUCSORGFRONT
 10
0.0
 20
0.0
 30
0.0
  9
$PUCSORGBACK
 10
0.0
 20
0.0
 30
0.0
  9
$USERI1
 70
     0
  9
$USERI2
 70
     0
  9
$USERI3
 70
     0
  9
$USERI4
 70
     0
  9
$USERI5
 70
     0
  9
$USERR1
 40
0.0
  9
$USERR2
 40
0.0
  9
$USERR3
 40
0.0
  9
$USERR4
 40
0.0
  9
$USERR5
 40
0.0
  9
$WORLDVIEW
 70
     1
  9
$SHADEDGE
 70
     3
  9
$SHADEDIF
 70
    70
  9
$TILEMODE
 70
     0
  9
$MAXACTVP
 70
    64
  9
$PINSBASE
 10
0.0
 20
0.0
 30
0.0
  9
$PLIMCHECK
 70
     0
  9
$PEXTMIN
 10
23.1872881558757
 20
4.590634010144299
 30
-0.0015258207003583
  9
$PEXTMAX
 10
201.1903938122528
 20
279.565011319025
 30
0.0000000349246037
  9
$PLIMMIN
 10
6.55594313781961
 20
-3.513779229851706
  9
$PLIMMAX
 10
216.4445997540306
 20
293.5392298033514
  9
$UNITMODE
 70
     0
  9
$VISRETAIN
 70
     1
  9
$PLINEGEN
 70
     0
  9
$PSLTSCALE
 70
     1
  9
$TREEDEPTH
 70
  3020
  9
$CMLSTYLE
  2
Standard
  9
$CMLJUST
 70
     0
  9
$CMLSCALE
 40
20.0
  9
$PROXYGRAPHICS
 70
     1
  9
$MEASUREMENT
 70
     1
  9
$CELWEIGHT
370
    -1
  9
$ENDCAPS
280
     0
  9
$JOINSTYLE
280
     0
  9
$LWDISPLAY
290
     0
  9
$INSUNITS
 70
     4
  9
$HYPERLINKBASE
  1

  9
$STYLESHEET
  1
A4 Specifier Manual.ctb
  9
$XEDIT
290
     1
  9
$CEPSNTYPE
380
     0
  9
$PSTYLEMODE
290
     1
  9
$FINGERPRINTGUID
  2
{D079D194-C9C2-11D5-B123-005004D48FB5}
  9
$VERSIONGUID
  2
{F46F6354-DEE7-404C-897B-D3C190735416}
  9
$EXTNAMES
290
     1
  9
$PSVPSCALE
 40
0.0
  9
$OLESTARTUP
290
     0
  0
ENDSEC
  0
SECTION
  2
CLASSES
  0
CLASS
  1
ACDBDICTIONARYWDFLT
  2
AcDbDictionaryWithDefault
  3
ObjectDBX Classes
 90
        0
280
     0
281
     0
  0
CLASS
  1
ACDBPLACEHOLDER
  2
AcDbPlaceHolder
  3
ObjectDBX Classes
 90
        0
280
     0
281
     0
  0
CLASS
  1
LAYOUT
  2
AcDbLayout
  3
ObjectDBX Classes
 90
        0
280
     0
281
     0
  0
CLASS
  1
DICTIONARYVAR
  2
AcDbDictionaryVar
  3
ObjectDBX Classes
 90
        0
280
     0
281
     0
  0
CLASS
  1
PLOTSETTINGS
  2
AcDbPlotSettings
  3
ObjectDBX Classes
 90
        0
280
     0
281
     0
  0
CLASS
  1
MATERIAL
  2
AcDbMaterial
  3
ObjectDBX Classes
 90
        0
280
     0
281
     0
  0
CLASS
  1
VISUALSTYLE
  2
AcDbVisualStyle
  3
ObjectDBX Classes
 90
     4095
280
     0
281
     0
  0
CLASS
  1
TABLESTYLE
  2
AcDbTableStyle
  3
ObjectDBX Classes
 90
     2047
280
     0
281
     0
  0
CLASS
  1
SCALE
  2
AcDbScale
  3
ObjectDBX Classes
 90
     1153
280
     0
281
     0
  0
CLASS
  1
MLEADERSTYLE
  2
AcDbMLeaderStyle
  3
ACDB_MLEADERSTYLE_CLASS
 90
     4095
280
     0
281
     0
  0
CLASS
  1
EXACTERMXREFMAP
  2
ExAcTermXrefMap
  3
EXAC_SERVICE
 90
    33793
280
     0
281
     0
  0
CLASS
  1
NPOCOLLECTION
  2
AcDbImpNonPersistentObjectsCollection
  3
ObjectDBX Classes
 90
    33921
280
     0
281
     0
  0
CLASS
  1
EXACXREFPANELOBJECT
  2
ExAcXREFPanelObject
  3
EXAC_ESW
 90
    33793
280
     0
281
     0
  0
CLASS
  1
SORTENTSTABLE
  2
AcDbSortentsTable
  3
ObjectDBX Classes
 90
        0
280
     0
281
     0
  0
CLASS
  1
CELLSTYLEMAP
  2
AcDbCellStyleMap
  3
ObjectDBX Classes
 90
     1152
280
     0
281
     0
  0
ENDSEC
  0
SECTION
  2
TABLES
  0
TABLE
  2
VPORT
  5
8
102
{ACAD_XDICTIONARY
360
2CE9
102
}
330
0
100
AcDbSymbolTable
 70
     1
  0
VPORT
  5
2E9F
330
8
100
AcDbSymbolTableRecord
100
AcDbViewportTableRecord
  2
*Active
 70
     0
 10
0.0
 20
0.0
 11
1.0
 21
1.0
 12
130.9538806881771
 22
98.30908250972413
 13
0.0
 23
0.0
 14
10.0
 24
10.0
 15
10.0
 25
10.0
 16
0.0
 26
0.0
 36
1.0
 17
0.0
 27
0.0
 37
0.0
 40
94.22884169432723
 41
1.614928909952606
 42
50.0
 43
0.0
 44
0.0
 50
0.0
 51
0.0
 71
     0
 72
 20000
 73
     1
 74
     3
 75
     0
 76
     0
 77
     0
 78
     0
281
     0
 65
     1
110
0.0
120
0.0
130
0.0
111
1.0
121
0.0
131
0.0
112
0.0
122
1.0
132
0.0
 79
     0
146
0.0
  0
ENDTAB
  0
TABLE
  2
LTYPE
  5
5
330
0
100
AcDbSymbolTable
 70
     2
  0
LTYPE
  5
14
330
5
100
AcDbSymbolTableRecord
100
AcDbLinetypeTableRecord
  2
ByBlock
 70
     0
  3

 72
    65
 73
     0
 40
0.0
  0
LTYPE
  5
15
330
5
100
AcDbSymbolTableRecord
100
AcDbLinetypeTableRecord
  2
ByLayer
 70
     0
  3

 72
    65
 73
     0
 40
0.0
  0
LTYPE
  5
16
330
5
100
AcDbSymbolTableRecord
100
AcDbLinetypeTableRecord
  2
Continuous
 70
     0
  3
Solid line
 72
    65
 73
     0
 40
0.0
  0
LTYPE
  5
1123
330
5
100
AcDbSymbolTableRecord
100
AcDbLinetypeTableRecord
  2
DASHED
 70
     0
  3
_ _ _ _ _ _ _ _ _ _ _ _ _ _ _ _
 72
    65
 73
     2
 40
0.2
 49
0.1
 74
     0
 49
-0.1
 74
     0
  0
ENDTAB
  0
TABLE
  2
LAYER
  5
2
102
{ACAD_XDICTIONARY
360
2C1E
102
}
330
0
100
AcDbSymbolTable
 70
     5
  0
LAYER
  5
10
102
{ACAD_XDICTIONARY
360
2C4B
102
}
330
2
100
AcDbSymbolTableRecord
100
AcDbLayerTableRecord
  2
0
 70
     4
 62
     7
  6
Continuous
290
     0
370
    -3
390
F
  0
LAYER
  5
2B
102
{ACAD_XDICTIONARY
360
2C4D
102
}
330
2
100
AcDbSymbolTableRecord
100
AcDbLayerTableRecord
  2
APL Joinery
 70
     0
 62
     2
  6
Continuous
370
    -3
390
F
  0
LAYER
  5
75
102
{ACAD_XDICTIONARY
360
2C4F
102
}
330
2
100
AcDbSymbolTableRecord
100
AcDbLayerTableRecord
  2
APL Notes
 70
     0
 62
     7
  6
Continuous
370
    -3
390
F
  0
LAYER
  5
27D5
102
{ACAD_XDICTIONARY
360
2C51
102
}
330
2
100
AcDbSymbolTableRecord
100
AcDbLayerTableRecord
  2
APL Border
 70
     0
 62
     7
  6
Continuous
370
    -3
390
F
  0
LAYER
  5
2BF6
102
{ACAD_XDICTIONARY
360
2C55
102
}
330
2
100
AcDbSymbolTableRecord
100
AcDbLayerTableRecord
  2
APL Hatch
 70
     0
 62
   253
  6
Continuous
370
    -3
390
F
  0
ENDTAB
  0
TABLE
  2
STYLE
  5
3
330
0
100
AcDbSymbolTable
 70
     6
  0
STYLE
  5
11
330
3
100
AcDbSymbolTableRecord
100
AcDbTextStyleTableRecord
  2
Standard
 70
     0
 40
0.0
 41
1.0
 50
0.0
 71
     0
 42
3.0
  3
txt
  4

  0
STYLE
  5
56
330
3
100
AcDbSymbolTableRecord
100
AcDbTextStyleTableRecord
  2
Arial-Regular
 70
     0
 40
0.0
 41
1.0
 50
0.0
 71
     0
 42
2.5
  3
ARIAL.TTF
  4

1001
ACAD
1000
Arial
1071
       34
  0
STYLE
  5
58
330
3
100
AcDbSymbolTableRecord
100
AcDbTextStyleTableRecord
  2
Arial-Bold
 70
     0
 40
0.0
 41
1.0
 50
0.0
 71
     0
 42
5.0
  3
ARIALBD.TTF
  4

1001
ACAD
1000
Arial
1071
 33554466
  0
STYLE
  5
3166
330
3
100
AcDbSymbolTableRecord
100
AcDbTextStyleTableRecord
  2
Times New Roman - Regular
 70
     0
 40
0.0
 41
1.0
 50
0.0
 71
     0
 42
2.5
  3
TIMES.TTF
  4

1001
ACAD
1000
Times New Roman
1071
       18
  0
ENDTAB
  0
TABLE
  2
VIEW
  5
6
330
0
100
AcDbSymbolTable
 70
     0
  0
ENDTAB
  0
TABLE
  2
UCS
  5
7
330
0
100
AcDbSymbolTable
 70
     0
  0
ENDTAB
  0
TABLE
  2
APPID
  5
9
330
0
100
AcDbSymbolTable
 70
     5
  0
APPID
  5
12
330
9
100
AcDbSymbolTableRecord
100
AcDbRegAppTableRecord
  2
ACAD
 70
     0
  0
APPID
  5
2BEE
330
9
100
AcDbSymbolTableRecord
100
AcDbRegAppTableRecord
  2
ACAD_MLEADERVER
 70
     0
  0
APPID
  5
2BFF
330
9
100
AcDbSymbolTableRecord
100
AcDbRegAppTableRecord
  2
DCO15
 70
     0
  0
APPID
  5
2CE4
330
9
100
AcDbSymbolTableRecord
100
AcDbRegAppTableRecord
  2
ACAD_PSEXT
 70
     0
  0
APPID
  5
2E6A
330
9
100
AcDbSymbolTableRecord
100
AcDbRegAppTableRecord
  2
ACAD_EXEMPT_FROM_CAD_STANDARDS
 70
     0
  0
ENDTAB
  0
TABLE
  2
DIMSTYLE
  5
A
330
0
100
AcDbSymbolTable
 70
     2
100
AcDbDimStyleTable
 71
     1
340
27
  0
DIMSTYLE
105
27
330
A
100
AcDbSymbolTableRecord
100
AcDbDimStyleTableRecord
  2
ISO-25
 70
     0
 41
4.0
 42
0.625
 43
3.75
 44
1.25
 73
     0
 74
     0
 77
     1
 78
     8
140
2.5
141
2.5
143
0.03937007874016
147
0.625
171
     3
172
     1
271
     2
272
     2
274
     3
278
    44
283
     0
284
     8
340
11
  0
ENDTAB
  0
TABLE
  2
BLOCK_RECORD
  5
1
330
0
100
AcDbSymbolTable
 70
    26
  0
BLOCK_RECORD
  5
1F
102
{ACAD_XDICTIONARY
360
2C33
102
}
330
1
100
AcDbSymbolTableRecord
100
AcDbBlockTableRecord
  2
*Model_Space
340
22
  0
BLOCK_RECORD
  5
2F11
330
1
100
AcDbSymbolTableRecord
100
AcDbBlockTableRecord
  2
*Paper_Space
340
2F24
  0
BLOCK_RECORD
  5
2672
102
{ACAD_XDICTIONARY
360
30D7
102
}
330
1
100
AcDbSymbolTableRecord
100
AcDbBlockTableRecord
  2
07401
340
0
102
{BLKREFS
331
2676
331
270B
102
}
1001
ACAD
1000
DesignCenter Data
1002
{
1070
     1
1070
     4
1002
}
  0
BLOCK_RECORD
  5
2677
330
1
100
AcDbSymbolTableRecord
100
AcDbBlockTableRecord
  2
sw30mmliner
340
0
102
{BLKREFS
331
267B
331
2749
102
}
  0
BLOCK_RECORD
  5
267D
102
{ACAD_XDICTIONARY
360
30DC
102
}
330
1
100
AcDbSymbolTableRecord
100
AcDbBlockTableRecord
  2
02431
340
0
102
{BLKREFS
331
2682
102
}
1001
ACAD
1000
DesignCenter Data
1002
{
1070
     1
1070
     4
1002
}
  0
BLOCK_RECORD
  5
2683
330
1
100
AcDbSymbolTableRecord
100
AcDbBlockTableRecord
  2
9010331
340
0
102
{BLKREFS
331
2687
102
}
1001
ACAD
1000
DesignCenter Data
1002
{
1070
     1
1070
     4
1002
}
  0
BLOCK_RECORD
  5
2688
330
1
100
AcDbSymbolTableRecord
100
AcDbBlockTableRecord
  2
9700158
340
0
102
{BLKREFS
331
268C
331
26E8
331
271A
102
}
1001
ACAD
1000
DesignCenter Data
1002
{
1070
     1
1070
     4
1002
}
  0
BLOCK_RECORD
  5
268F
102
{ACAD_XDICTIONARY
360
30F8
102
}
330
1
100
AcDbSymbolTableRecord
100
AcDbBlockTableRecord
  2
07402
340
0
102
{BLKREFS
331
2693
331
272E
102
}
1001
ACAD
1000
DesignCenter Data
1002
{
1070
     1
1070
     4
1002
}
  0
BLOCK_RECORD
  5
2695
330
1
100
AcDbSymbolTableRecord
100
AcDbBlockTableRecord
  2
Timber Profile 1
340
0
102
{BLKREFS
331
2699
331
272D
102
}
1001
ACAD
1000
DesignCenter Data
1002
{
1070
     1
1070
     4
1002
}
  0
BLOCK_RECORD
  5
269B
330
1
100
AcDbSymbolTableRecord
100
AcDbBlockTableRecord
  2
9700524
340
0
102
{BLKREFS
331
269F
331
272C
102
}
1001
ACAD
1000
DesignCenter Data
1002
{
1070
     1
1070
     4
1002
}
  0
BLOCK_RECORD
  5
26AA
330
1
100
AcDbSymbolTableRecord
100
AcDbBlockTableRecord
  2
9010604
340
0
102
{BLKREFS
331
26C5
331
26EA
102
}
1001
ACAD
1000
DesignCenter Data
1002
{
1070
     1
1070
     4
1002
}
  0
BLOCK_RECORD
  5
26AF
330
1
100
AcDbSymbolTableRecord
100
AcDbBlockTableRecord
  2
6Glass
340
0
102
{BLKREFS
331
26C3
331
26E9
331
26E7
102
}
  0
BLOCK_RECORD
  5
26D1
102
{ACAD_XDICTIONARY
360
3128
102
}
330
1
100
AcDbSymbolTableRecord
100
AcDbBlockTableRecord
  2
07123
340
0
102
{BLKREFS
331
26ED
102
}
1001
ACAD
1000
DesignCenter Data
1002
{
1070
     1
1070
     4
1002
}
  0
BLOCK_RECORD
  5
26DF
330
1
100
AcDbSymbolTableRecord
100
AcDbBlockTableRecord
  2
9700183
340
0
102
{BLKREFS
331
27B9
331
27BA
102
}
1001
ACAD
1000
DesignCenter Data
1002
{
1070
     1
1070
     4
1002
}
  0
BLOCK_RECORD
  5
26E4
330
1
100
AcDbSymbolTableRecord
100
AcDbBlockTableRecord
  2
07123Glaze
340
0
310
2800000020000000200000000100080000000000000400000000000000000000000000000000000000000000000080000080000000808000800000008000800080800000C0C0C000C0DCC000F0CAA6000020400000206000002080000020A0000020C0000020E00000400000004020000040400000406000004080000040A0
310
000040C0000040E00000600000006020000060400000606000006080000060A0000060C0000060E00000800000008020000080400000806000008080000080A0000080C0000080E00000A0000000A0200000A0400000A0600000A0800000A0A00000A0C00000A0E00000C0000000C0200000C0400000C0600000C0800000C0
310
A00000C0C00000C0E00000E0000000E0200000E0400000E0600000E0800000E0A00000E0C00000E0E00040000000400020004000400040006000400080004000A0004000C0004000E00040200000402020004020400040206000402080004020A0004020C0004020E000404000004040200040404000404060004040800040
310
40A0004040C0004040E00040600000406020004060400040606000406080004060A0004060C0004060E00040800000408020004080400040806000408080004080A0004080C0004080E00040A0000040A0200040A0400040A0600040A0800040A0A00040A0C00040A0E00040C0000040C0200040C0400040C0600040C08000
310
40C0A00040C0C00040C0E00040E0000040E0200040E0400040E0600040E0800040E0A00040E0C00040E0E00080000000800020008000400080006000800080008000A0008000C0008000E00080200000802020008020400080206000802080008020A0008020C0008020E00080400000804020008040400080406000804080
310
008040A0008040C0008040E00080600000806020008060400080606000806080008060A0008060C0008060E00080800000808020008080400080806000808080008080A0008080C0008080E00080A0000080A0200080A0400080A0600080A0800080A0A00080A0C00080A0E00080C0000080C0200080C0400080C0600080C0
310
800080C0A00080C0C00080C0E00080E0000080E0200080E0400080E0600080E0800080E0A00080E0C00080E0E000C0000000C0002000C0004000C0006000C0008000C000A000C000C000C000E000C0200000C0202000C0204000C0206000C0208000C020A000C020C000C020E000C0400000C0402000C0404000C0406000C0
310
408000C040A000C040C000C040E000C0600000C0602000C0604000C0606000C0608000C060A000C060C000C060E000C0800000C0802000C0804000C0806000C0808000C080A000C080C000C080E000C0A00000C0A02000C0A04000C0A06000C0A08000C0A0A000C0A0C000C0A0E000C0C00000C0C02000C0C04000C0C06000
310
C0C08000C0C0A000F0FBFF00A4A0A000808080000000FF0000FF000000FFFF00FF000000FF00FF00FFFF0000FFFFFF0000000000000000000000000000000000000000000000000000000000000000000000000000000000000000000000000000000000000000000000000000000000000000000000000000000000000000
310
00000000000000000000000000000000000000000000000000FFA4A400FF0000000000000000FFA4A400FF0000000000000000000000000000FFA4A400FF0000000000000000FFA4A400FF0000000000000000000000000000FFA4A400FF0000000000000000FFA4A400FF0000000000000000000000000000FFA4A400FF00
310
00000000000000FFA4A400FF00000000000000000000000000A4FFA4A400FF0000000000000000FFA4A400FF0000A4A4A4000000000000A4A400A4A4A400FF0000000000000000FFA4A400A4A4A40000A40000000000A4000000A4A4A400FF0000000000000000FFA4A400A4A4A4A4A40000000000FBFBFBA4A4FFA4A400FF
310
0000000000000000FFA4A400A4A400000000000000FBFBFBFBA4A4A4A4A400FF0000000000000000FFA4A400A4A4A4A400000000FBFBFBFBFBA4A4A4A4A400FF0000000000000000FFA4A400A4A4A4A400000000FBFB00A400A4A4FFA4A400FFFFFFFFFFFFFFFFFFFFA4A400A4A4A4A400000000FBFBFBFBFBA4A4A4A4A400
310
FF0000000000000000FFA4A400A4A4A4A400000000FB00FBFBFBA4A4FFA4A400FF0000000000000000FFA4A400A4A4000000000000FBFBFBFBA4A4A4A4A4A400FF0000000000000000FFA4A400FF00000000000000FBFB0000A4A4A4A4FFFFFFFFFFFFFFFFFFFFFFFFFFA4A4FFFF00000000000000FBFB000000A4A4000000
310
00000000000000000000000000000000000000000000FB00FB0000A40000000000000000000000000000000000000000000000000000FB0000FB00000000000000000000000000000000000000000000000000000000FBFBFB00FB000000000000000000000000000000000000000000000000000000FBFB00FB00FB000000
310
0000000000000000000000000000000000000000000000FBFBFB00FBFB0000000000000000000000000000000000000000000000000000FBFBFBFB0000FB000000000000000000000000000000000000000000000000000000FBFB000000FBFB0000FB0000000000000000000000000000000000000000000000FB000000FB
310
00FBFBFB000000000000000000000000000000000000000000000000000000FBFBFBFB00000000000000000000000000000000000000000000000000000000FB000000000000000000000000000000000000000000000000000000000000000000000000000000000000000000000000000000000000000000000000000000
310
0000000000000000000000000000000000000000000000000000000000000000000000000000000000000000000000000000000000000000
102
{BLKREFS
331
26EF
331
2726
331
2D88
331
2D92
102
}
1001
ACAD
1000
DesignCenter Data
1002
{
1070
     1
1070
     4
1002
}
  0
BLOCK_RECORD
  5
26FF
102
{ACAD_XDICTIONARY
360
314A
102
}
330
1
100
AcDbSymbolTableRecord
100
AcDbBlockTableRecord
  2
07403
340
0
102
{BLKREFS
331
2703
331
2722
102
}
1001
ACAD
1000
DesignCenter Data
1002
{
1070
     1
1070
     4
1002
}
  0
BLOCK_RECORD
  5
2710
330
1
100
AcDbSymbolTableRecord
100
AcDbBlockTableRecord
  2
9700526
340
0
102
{BLKREFS
331
2714
331
2721
102
}
1001
ACAD
1000
DesignCenter Data
1002
{
1070
     1
1070
     4
1002
}
  0
BLOCK_RECORD
  5
2715
330
1
100
AcDbSymbolTableRecord
100
AcDbBlockTableRecord
  2
Timber Profile 3
340
0
102
{BLKREFS
331
2719
331
2720
102
}
1001
ACAD
1000
DesignCenter Data
1002
{
1070
     1
1070
     4
1002
}
  0
BLOCK_RECORD
  5
2739
102
{ACAD_XDICTIONARY
360
3155
102
}
330
1
100
AcDbSymbolTableRecord
100
AcDbBlockTableRecord
  2
07400
340
0
102
{BLKREFS
331
273D
331
274C
102
}
1001
ACAD
1000
DesignCenter Data
1002
{
1070
     1
1070
     4
1002
}
  0
BLOCK_RECORD
  5
273F
330
1
100
AcDbSymbolTableRecord
100
AcDbBlockTableRecord
  2
9010105
340
0
102
{BLKREFS
331
2743
331
2750
102
}
1001
ACAD
1000
DesignCenter Data
1002
{
1070
     1
1070
     4
1002
}
  0
BLOCK_RECORD
  5
2744
330
1
100
AcDbSymbolTableRecord
100
AcDbBlockTableRecord
  2
9070140
340
0
102
{BLKREFS
331
2748
331
274E
102
}
1001
ACAD
1000
DesignCenter Data
1002
{
1070
     1
1070
     4
1002
}
  0
BLOCK_RECORD
  5
2B04
330
1
100
AcDbSymbolTableRecord
100
AcDbBlockTableRecord
  2
smartwood a4 SM border
340
0
102
{BLKREFS
331
2EF6
331
2F19
331
2F2F
102
}
1001
ACAD
1000
DesignCenter Data
1002
{
1070
     1
1070
     4
1002
}
  0
BLOCK_RECORD
  5
2B20
330
1
100
AcDbSymbolTableRecord
100
AcDbBlockTableRecord
  2
smartwood a4 SM attributes (2)
340
0
102
{BLKREFS
331
2EF7
331
2F1A
331
2F30
102
}
1001
ACAD
1000
DesignCenter Data
1002
{
1070
     1
1070
     4
1002
}
  0
ENDTAB
  0
ENDSEC
  0
SECTION
  2
BLOCKS
  0
BLOCK
  5
20
330
1F
100
AcDbEntity
  8
0
100
AcDbBlockBegin
  2
*Model_Space
 70
     0
 10
0.0
 20
0.0
 30
0.0
  3
*Model_Space
  1

  0
ENDBLK
  5
21
330
1F
100
AcDbEntity
  8
0
100
AcDbBlockEnd
  0
BLOCK
  5
2F12
330
2F11
100
AcDbEntity
 67
     1
  8
0
100
AcDbBlockBegin
  2
*Paper_Space
 70
     0
 10
0.0
 20
0.0
 30
0.0
  3
*Paper_Space
  1

  0
ENDBLK
  5
2F23
330
2F11
100
AcDbEntity
 67
     1
  8
0
100
AcDbBlockEnd
  0
BLOCK
  5
2673
330
2672
100
AcDbEntity
  8
0
100
AcDbBlockBegin
  2
07401
 70
     0
 10
0.0
 20
0.0
 30
0.0
  3
07401
  1
07401.dwg
  0
LWPOLYLINE
  5
30D3
102
{ACAD_REACTORS
330
30D6
102
}
330
2672
100
AcDbEntity
  8
APL Joinery
  6
Continuous
100
AcDbPolyline
 90
      131
 70
     1
 43
0.0
 10
-3.299979999999777
 20
13.60000113666319
 10
-3.699979999999413
 20
14.00000113666283
 10
-7.199979999999413
 20
14.00000113666283
 10
-7.599979999999959
 20
13.60000113666319
 10
-7.999979999999595
 20
14.00000113666283
 10
-16.14966391927896
 20
14.00000113666283
 42
0.4142135623730951
 10
-16.34966391927901
 20
13.80000113666283
 10
-16.34966391927901
 20
10.77799403759854
 10
-18.35000000000036
 20
10.77799403759854
 10
-18.35000000000036
 20
15.87799403759855
 42
0.9999999999999998
 10
-18.35000000000036
 20
16.67799403759909
 10
-18.35000000000036
 20
21.77799403759855
 10
-16.34966391927901
 20
21.77799403759855
 10
-16.34966391927901
 20
20.97799403759855
 42
0.4142135623730951
 10
-16.14966391927896
 20
20.77799403759855
 10
-15.54966391927905
 20
20.77799403759855
 42
0.4142135623730951
 10
-15.34966391927901
 20
20.97799403759855
 10
-15.34966391927901
 20
21.05481047834473
 10
-13.40719964916536
 20
19.93316291833155
 42
0.591506853715317
 10
-13.09997999999996
 20
20.10199403759816
 10
-13.09997999999984
 20
21.37253089201555
 42
0.2679353093117181
 10
-13.19997102591355
 20
21.54573079127128
 10
-17.4039697736265
 20
23.97320103591855
 42
0.1316656752908676
 10
-17.50397874771283
 20
24.00000113666283
 10
-21.84997999999905
 20
24.00000113666283
 42
2.10749102966347
 10
-20.62523512860753
 20
22.50000113666283
 10
-19.84999999999945
 20
22.50000113666283
 10
-19.84999999999945
 20
-16.99999886333529
 42
0.4142135623730951
 10
-16.84999999999945
 20
-19.99999886333529
 10
-13.14998000000014
 20
-19.99999886333529
 10
-12.74997999999959
 20
-19.59999886333566
 10
-12.34997999999905
 20
-19.99999886333529
 10
0.0000200000004043
 20
-19.99999886333529
 42
0.4142135623730951
 10
0.2500200000004042
 20
-19.74999886333529
 10
0.2500200000004042
 20
-18.74999886333529
 42
0.4142135623730951
 10
0.0000200000004043
 20
-18.49999886333529
 10
-0.4817450027494488
 20
-18.49999886333529
 42
-0.5908090823376801
 10
-0.6930606513946032
 20
-18.11641107707574
 42
0.320194961581171
 10
-0.8898151648342036
 20
-14.60784481282809
 42
1.000000000000077
 10
-2.060144835164464
 20
-15.54610301969112
 42
-2.083394336380676
 10
-4.439815164834385
 20
-15.5461030196912
 42
0.6557567563764856
 10
-5.081229999999095
 20
-14.32908626594019
 42
-0.4423413745084176
 10
-5.349929999999403
 20
-14.07479063252407
 10
-5.349929999999403
 20
-11.16806431836716
 10
-4.0
 20
-9.818134318367299
 10
-4.0
 20
2.000000000000056
 42
-0.4142135623730909
 10
-1.0
 20
5.0
 10
31.11001999999917
 20
5.0
 42
0.1989123673796614
 10
32.17068017177917
 20
5.439339828219999
 10
37.05002000000059
 20
10.31867965644051
 10
44.85002000000076
 20
10.31867965644051
 10
44.85002000000076
 20
5.20000113666466
 42
0.4142135623730943
 10
45.05002000000081
 20
5.000001136664657
 10
47.4500200000009
 20
5.000001136664643
 42
0.4142135623731205
 10
47.65002000000094
 20
5.20000113666466
 10
47.65002000000083
 20
6.300001136662828
 42
0.4142135623730951
 10
47.45002000000079
 20
6.500001136662831
 10
46.2500200000004
 20
6.500001136662831
 10
46.25001999999983
 20
10.51867965644032
 42
0.4142135623730771
 10
44.85001999999986
 20
11.91867965643996
 10
43.87899949798248
 20
11.91867965643996
 42
-0.5788221705813106
 10
43.6630468645485
 20
12.29463385491398
 42
0.2347146043132693
 10
43.84306807704184
 20
14.98036267660397
 42
-0.3037440006547696
 10
43.89712180133574
 20
15.25314623307076
 10
45.81068017178018
 20
17.16670460351556
 42
0.1989123673796693
 10
46.2500200000004
 20
18.22736477529543
 10
46.2500200000004
 20
25.75000113666283
 10
46.5000200000004
 20
25.50000113666283
 10
49.57699505292566
 20
25.50000113666283
 10
50.07699505292475
 20
26.00000113666192
 10
65.0769950529243
 20
26.00000113666192
 10
65.5769950529243
 20
25.50000113666192
 10
66.8269950529243
 20
25.50000113666192
 42
0.9999999999999998
 10
66.8269950529243
 20
27.00000113666192
 10
46.5000199999995
 20
27.00000113666192
 10
46.2500200000004
 20
26.75000113666283
 10
46.2500200000004
 20
28.20000113666197
 10
46.7500200000004
 20
28.20000113666208
 42
0.9999999999999998
 10
46.7500200000004
 20
29.40000113666201
 10
46.2500200000004
 20
29.40000113666201
 10
46.2500200000004
 20
35.75000113666102
 10
50.60002000000043
 20
35.75000113666192
 42
1.000000000000075
 10
50.60002000000031
 20
37.25000113666192
 10
46.2500200000004
 20
37.25000113666192
 10
46.2500200000004
 20
40.60000113666274
 10
46.7500200000004
 20
40.60000113666285
 42
0.9999999999999998
 10
46.7500200000004
 20
41.80000113666278
 10
46.2500200000004
 20
41.80000113666278
 10
46.2500200000004
 20
42.80000113666282
 42
0.4142135623730954
 10
46.05002000000036
 20
43.00000113666283
 10
42.95002000000045
 20
43.00000113666283
 42
0.4142135623730951
 10
42.7500200000004
 20
42.80000113666282
 10
42.7500200000004
 20
40.95000113666265
 42
0.9999999999999998
 10
43.7500200000004
 20
40.95000113666265
 10
43.7500200000004
 20
41.70000113666264
 10
45.2500200000004
 20
41.70000113666264
 10
45.2500200000004
 20
36.20000113666265
 10
43.7500200000004
 20
36.20000113666265
 10
43.7500200000004
 20
36.95000113666265
 42
0.9999999999999998
 10
42.7500200000004
 20
36.95000113666265
 10
42.7500200000004
 20
34.90000113666338
 10
41.95002000000044
 20
34.90000113666338
 42
0.4142135623730951
 10
41.7500200000004
 20
34.70000113666337
 10
41.7500200000004
 20
33.10000113666337
 42
0.4142135623730951
 10
41.95002000000044
 20
32.90000113666338
 10
42.55002000000035
 20
32.90000113666338
 42
0.4142135623730951
 10
42.7500200000004
 20
33.10000113666338
 10
42.7500200000004
 20
33.90000113666338
 10
44.7500200000004
 20
33.90000113666338
 10
44.7500200000004
 20
28.80000113666337
 42
0.9999999999999998
 10
44.7500200000004
 20
28.00000113666283
 10
44.7500200000004
 20
22.90000113666338
 10
42.7500200000004
 20
22.90000113666338
 10
42.75002000000029
 20
23.80000113666283
 42
0.4142135623730951
 10
42.55002000000025
 20
24.00000113666283
 10
39.95002000000045
 20
24.00000113666283
 42
0.4142135623731117
 10
39.75002000000041
 20
23.80000113666282
 10
39.75002000000052
 20
22.00000113666286
 10
27.10002000000077
 20
22.00000113666303
 42
0.4142135623730534
 10
26.90002000000095
 20
21.80000113666301
 10
26.90002000000073
 20
20.7000011366629
 42
0.4142135623731159
 10
27.10001999999986
 20
20.50000113666283
 10
28.44002000000001
 20
20.50000113666283
 10
28.44002000000001
 20
14.00000113666283
 10
12.10001999999986
 20
14.00000113666283
 10
11.70002000000022
 20
13.60000113666319
 10
11.30002000000058
 20
14.00000113666283
 10
5.650020000000949
 20
14.00000113666283
 10
5.250020000000404
 20
13.60000113666319
 10
4.850020000000768
 20
14.00000113666283
 10
-2.899980000000141
 20
14.00000113666283
  0
LWPOLYLINE
  5
30D4
102
{ACAD_REACTORS
330
30D6
102
}
330
2672
100
AcDbEntity
  8
APL Joinery
  6
Continuous
100
AcDbPolyline
 90
       22
 70
     1
 43
0.0
 10
44.7500200000004
 20
21.40000113666338
 10
44.7500200000004
 20
18.22736477529543
 10
42.29468991411045
 20
15.77203468940601
 42
0.3824594225138298
 10
42.23985516483572
 20
14.77257550008469
 42
-2.083394336380896
 10
39.86018483516557
 20
14.77257550008464
 42
1.000000000000051
 10
38.68985516483599
 20
15.7108337069482
 42
0.2778896604911937
 10
38.27383219426736
 20
12.61726121672303
 42
-0.5395760792498689
 10
37.81495817679024
 20
11.91867965643996
 10
37.15002000000095
 20
11.91867965643996
 42
0.1989123673796596
 10
36.08935982822095
 20
11.47933982821996
 10
31.11002000000008
 20
6.499999999999545
 10
16.70002000000022
 20
6.499999999999545
 42
-0.4142135623730951
 10
15.70002000000022
 20
7.499999999999545
 10
15.70002000000022
 20
11.50000113666283
 42
-0.4142135623730951
 10
16.70002000000022
 20
12.50000113666283
 10
28.44002000000001
 20
12.50000113666283
 42
0.4142135623730951
 10
29.94002
 20
14.00000113666283
 10
29.94002
 20
19.40000113666338
 42
-0.4142135623730951
 10
30.94002000000001
 20
20.40000113666338
 10
42.55002000000025
 20
20.40000113666338
 42
0.4142135623730951
 10
42.75002000000029
 20
20.60000113666338
 10
42.7500200000004
 20
21.40000113666338
  0
LWPOLYLINE
  5
30D5
102
{ACAD_REACTORS
330
30D6
102
}
330
2672
100
AcDbEntity
  8
APL Joinery
  6
Continuous
100
AcDbPolyline
 90
       40
 70
     1
 43
0.0
 10
6.500000000000454
 20
6.499999999999545
 10
6.300000000000181
 20
6.700000000000272
 10
-1.0
 20
6.700000000000059
 42
0.4142135623730935
 10
-5.699999999999818
 20
1.999999999999602
 10
-5.699999999999818
 20
-9.113971262332995
 10
-7.049929999999676
 20
-10.46390126233285
 10
-7.049929999999676
 20
-17.29968769996043
 42
-0.4142135623730951
 10
-8.049929999999676
 20
-18.29968769996043
 10
-12.3499299999994
 20
-18.29968769996043
 10
-12.74992999999904
 20
-17.89968769995988
 10
-13.14992999999958
 20
-18.29968769996043
 10
-17.14999999999963
 20
-18.29968769996043
 42
-0.4142135623730951
 10
-18.14999999999963
 20
-17.29968769996043
 10
-18.14999999999963
 20
9.277994037598546
 10
-15.34966391927901
 20
9.277994037598546
 42
0.4142135623730951
 10
-14.84966391927901
 20
9.777994037598546
 10
-14.84966391927901
 20
12.00000113666283
 42
-0.4142135623730951
 10
-14.34966391927901
 20
12.50000113666283
 10
-7.999979999999595
 20
12.50000113666283
 10
-7.599979999999959
 20
12.10000113666319
 10
-7.199979999999413
 20
12.50000113666283
 10
-5.799979999999777
 20
12.50000113666283
 10
-5.799979999999663
 20
11.70000113666283
 42
0.4142135623730951
 10
-5.599979999999618
 20
11.50000113666283
 10
-0.9999799999998231
 20
11.50000113666283
 42
0.4142135623730951
 10
-0.7999799999997777
 20
11.70000113666283
 10
-0.7999799999997777
 20
12.50000113666283
 10
2.750020000000404
 20
12.50000113666283
 10
2.750020000000517
 20
11.70000113666283
 42
0.4142135623730951
 10
2.950020000000563
 20
11.50000113666283
 10
7.550020000000358
 20
11.50000113666283
 42
0.4142135623730951
 10
7.750020000000404
 20
11.70000113666283
 10
7.750020000000404
 20
12.50000113666283
 10
9.200020000000222
 20
12.50000113666283
 10
9.200020000000222
 20
11.70000113666283
 42
0.4142135623730951
 10
9.400020000000267
 20
11.50000113666283
 10
13.20002000000022
 20
11.50000113666283
 42
-0.4142135623730951
 10
14.20002000000022
 20
10.50000113666283
 10
14.20002000000022
 20
7.499999999999545
 42
-0.4142135623730951
 10
13.20002000000022
 20
6.499999999999545
  0
HATCH
  5
30D6
330
2672
100
AcDbEntity
  8
APL Hatch
100
AcDbHatch
 10
0.0
 20
0.0
 30
0.0
210
0.0
220
0.0
230
1.0
  2
SOLID
 70
     1
 71
     1
 91
        3
 92
        1
 93
      131
 72
     1
 10
-3.299979999999777
 20
13.60000113666319
 11
-3.699979999999413
 21
14.00000113666283
 72
     1
 10
-3.699979999999413
 20
14.00000113666283
 11
-7.199979999999413
 21
14.00000113666283
 72
     1
 10
-7.199979999999413
 20
14.00000113666283
 11
-7.599979999999959
 21
13.60000113666319
 72
     1
 10
-7.599979999999959
 20
13.60000113666319
 11
-7.999979999999595
 21
14.00000113666283
 72
     1
 10
-7.999979999999595
 20
14.00000113666283
 11
-16.14966391927896
 21
14.00000113666283
 72
     2
 10
-16.14966391927898
 20
13.8000011366628
 40
0.2000000000000242
 50
89.99999999999388
 51
179.9999999999939
 73
     1
 72
     1
 10
-16.34966391927901
 20
13.80000113666283
 11
-16.34966391927901
 21
10.77799403759854
 72
     1
 10
-16.34966391927901
 20
10.77799403759854
 11
-18.35000000000036
 21
10.77799403759854
 72
     1
 10
-18.35000000000036
 20
10.77799403759854
 11
-18.35000000000036
 21
15.87799403759855
 72
     2
 10
-18.35000000000036
 20
16.27799403759882
 40
0.4000000000002722
 50
270.0
 51
450.0
 73
     1
 72
     1
 10
-18.35000000000036
 20
16.67799403759909
 11
-18.35000000000036
 21
21.77799403759855
 72
     1
 10
-18.35000000000036
 20
21.77799403759855
 11
-16.34966391927901
 21
21.77799403759855
 72
     1
 10
-16.34966391927901
 20
21.77799403759855
 11
-16.34966391927901
 21
20.97799403759855
 72
     2
 10
-16.14966391927898
 20
20.97799403759857
 40
0.2000000000000242
 50
180.0000000000061
 51
270.0000000000061
 73
     1
 72
     1
 10
-16.14966391927896
 20
20.77799403759855
 11
-15.54966391927905
 21
20.77799403759855
 72
     2
 10
-15.54966391927903
 20
20.97799403759857
 40
0.2000000000000242
 50
269.9999999999939
 51
359.9999999999939
 73
     1
 72
     1
 10
-15.34966391927901
 20
20.97799403759855
 11
-15.34966391927901
 21
21.05481047834473
 72
     1
 10
-15.34966391927901
 20
21.05481047834473
 11
-13.40719964916536
 21
19.93316291833155
 72
     2
 10
-13.29997999999989
 20
20.10199403759813
 40
0.199999999999931
 50
237.5815775663404
 51
360.0000000000102
 73
     1
 72
     1
 10
-13.09997999999996
 20
20.10199403759816
 11
-13.09997999999984
 21
21.37253089201555
 72
     2
 10
-13.29997999999989
 20
21.37253089201548
 40
0.2000000000000419
 50
0.0000000000203555
 51
59.99703135174058
 73
     1
 72
     1
 10
-13.19997102591355
 20
21.54573079127128
 11
-17.4039697736265
 21
23.97320103591855
 72
     2
 10
-17.50397874771286
 20
23.8000011366629
 40
0.1999999999999323
 50
59.99703135171405
 51
89.99999999999388
 73
     1
 72
     1
 10
-17.50397874771283
 20
24.00000113666283
 11
-21.84997999999905
 21
24.00000113666283
 72
     2
 10
-21.84997999999906
 20
22.75000113666288
 40
1.24999999999995
 50
89.99999999999969
 51
348.4630409671817
 73
     1
 72
     1
 10
-20.62523512860753
 20
22.50000113666283
 11
-19.84999999999945
 21
22.50000113666283
 72
     1
 10
-19.84999999999945
 20
22.50000113666283
 11
-19.84999999999945
 21
-16.99999886333529
 72
     2
 10
-16.84999999999945
 20
-16.99999886333529
 40
3.0
 50
180.0
 51
270.0
 73
     1
 72
     1
 10
-16.84999999999945
 20
-19.99999886333529
 11
-13.14998000000014
 21
-19.99999886333529
 72
     1
 10
-13.14998000000014
 20
-19.99999886333529
 11
-12.74997999999959
 21
-19.59999886333566
 72
     1
 10
-12.74997999999959
 20
-19.59999886333566
 11
-12.34997999999905
 21
-19.99999886333529
 72
     1
 10
-12.34997999999905
 20
-19.99999886333529
 11
0.0000200000004043
 21
-19.99999886333529
 72
     2
 10
0.0000200000004043
 20
-19.74999886333529
 40
0.25
 50
270.0
 51
360.0
 73
     1
 72
     1
 10
0.2500200000004042
 20
-19.74999886333529
 11
0.2500200000004042
 21
-18.74999886333529
 72
     2
 10
0.0000200000004043
 20
-18.74999886333529
 40
0.25
 50
0.0
 51
90.0
 73
     1
 72
     1
 10
0.0000200000004043
 20
-18.49999886333529
 11
-0.4817450027494488
 21
-18.49999886333529
 72
     2
 10
-0.4817450027494526
 20
-18.24999886333523
 40
0.2500000000000639
 50
89.99999999999912
 51
212.2999183634549
 73
     0
 72
     2
 10
-3.249979999999256
 20
-16.49999886333496
 40
3.024999999999869
 50
327.7000816365129
 51
398.719297322231
 73
     1
 72
     2
 10
-1.47497999999937
 20
-15.07697391625956
 40
0.7500000000001924
 50
38.71929732221837
 51
218.7192973222273
 73
     1
 72
     2
 10
-3.249979999999391
 20
-16.49999886333516
 40
1.524999999999719
 50
321.2807026777583
 51
578.7192973222375
 73
     0
 72
     2
 10
-5.024979999999231
 20
-15.0769739162595
 40
0.7500000000000869
 50
321.2807026777525
 51
454.3012223046594
 73
     1
 72
     2
 10
-5.099979999998928
 20
-14.07979038250031
 40
0.2500000000001257
 50
85.6987776953702
 51
181.1459346857006
 73
     0
 72
     1
 10
-5.349929999999403
 20
-14.07479063252407
 11
-5.349929999999403
 21
-11.16806431836716
 72
     1
 10
-5.349929999999403
 20
-11.16806431836716
 11
-4.0
 21
-9.818134318367299
 72
     1
 10
-4.0
 20
-9.818134318367299
 11
-4.0
 21
2.000000000000056
 72
     2
 10
-1.000000000000007
 20
2.000000000000007
 40
2.999999999999992
 50
180.0000000000009
 51
270.0000000000001
 73
     0
 72
     1
 10
-1.0
 20
5.0
 11
31.11001999999917
 21
5.0
 72
     2
 10
31.11001999999948
 20
6.500000000000103
 40
1.500000000000103
 50
269.9999999999879
 51
314.9999999999886
 73
     1
 72
     1
 10
32.17068017177917
 20
5.439339828219999
 11
37.05002000000059
 21
10.31867965644051
 72
     1
 10
37.05002000000059
 20
10.31867965644051
 11
44.85002000000076
 21
10.31867965644051
 72
     1
 10
44.85002000000076
 20
10.31867965644051
 11
44.85002000000076
 21
5.20000113666466
 72
     2
 10
45.05002000000079
 20
5.200001136664681
 40
0.2000000000000242
 50
180.0000000000061
 51
270.0000000000061
 73
     1
 72
     1
 10
45.05002000000081
 20
5.000001136664657
 11
47.4500200000009
 21
5.000001136664643
 72
     2
 10
47.45002000000092
 20
5.200001136664665
 40
0.2000000000000224
 50
269.9999999999939
 51
359.9999999999984
 73
     1
 72
     1
 10
47.65002000000094
 20
5.20000113666466
 11
47.65002000000083
 21
6.300001136662828
 72
     2
 10
47.45002000000081
 20
6.300001136662807
 40
0.2000000000000242
 50
0.0000000000061067
 51
90.00000000000612
 73
     1
 72
     1
 10
47.45002000000079
 20
6.500001136662831
 11
46.2500200000004
 21
6.500001136662831
 72
     1
 10
46.2500200000004
 20
6.500001136662831
 11
46.25001999999983
 21
10.51867965644032
 72
     2
 10
44.85001999999998
 20
10.51867965644011
 40
1.399999999999849
 50
0.0000000000087238
 51
90.00000000000524
 73
     1
 72
     1
 10
44.85001999999986
 20
11.91867965643996
 11
43.87899949798248
 21
11.91867965643996
 72
     2
 10
43.87899949798259
 20
12.16867965644042
 40
0.2500000000004636
 50
90.00000000002605
 51
210.2528399621369
 73
     0
 72
     2
 10
41.05002000000081
 20
13.81867965644052
 40
3.024999999999772
 50
329.747160037875
 51
382.5833761036315
 73
     1
 72
     2
 10
44.07389849663184
 20
15.07636953777407
 40
0.2499999999996636
 50
157.4166238964475
 51
225.0000000000973
 73
     0
 72
     1
 10
43.89712180133574
 20
15.25314623307076
 11
45.81068017178018
 21
17.16670460351556
 72
     2
 10
44.7500200000004
 20
18.22736477529543
 40
1.499999999999999
 50
314.9999999999974
 51
359.9999999999998
 73
     1
 72
     1
 10
46.2500200000004
 20
18.22736477529543
 11
46.2500200000004
 21
25.75000113666283
 72
     1
 10
46.2500200000004
 20
25.75000113666283
 11
46.5000200000004
 21
25.50000113666283
 72
     1
 10
46.5000200000004
 20
25.50000113666283
 11
49.57699505292566
 21
25.50000113666283
 72
     1
 10
49.57699505292566
 20
25.50000113666283
 11
50.07699505292475
 21
26.00000113666192
 72
     1
 10
50.07699505292475
 20
26.00000113666192
 11
65.0769950529243
 21
26.00000113666192
 72
     1
 10
65.0769950529243
 20
26.00000113666192
 11
65.5769950529243
 21
25.50000113666192
 72
     1
 10
65.5769950529243
 20
25.50000113666192
 11
66.8269950529243
 21
25.50000113666192
 72
     2
 10
66.8269950529243
 20
26.25000113666192
 40
0.7500000000000036
 50
270.0
 51
450.0
 73
     1
 72
     1
 10
66.8269950529243
 20
27.00000113666192
 11
46.5000199999995
 21
27.00000113666192
 72
     1
 10
46.5000199999995
 20
27.00000113666192
 11
46.2500200000004
 21
26.75000113666283
 72
     1
 10
46.2500200000004
 20
26.75000113666283
 11
46.2500200000004
 21
28.20000113666197
 72
     1
 10
46.2500200000004
 20
28.20000113666197
 11
46.7500200000004
 21
28.20000113666208
 72
     2
 10
46.7500200000004
 20
28.80000113666205
 40
0.5999999999999659
 50
270.0
 51
450.0
 73
     1
 72
     1
 10
46.7500200000004
 20
29.40000113666201
 11
46.2500200000004
 21
29.40000113666201
 72
     1
 10
46.2500200000004
 20
29.40000113666201
 11
46.2500200000004
 21
35.75000113666102
 72
     1
 10
46.2500200000004
 20
35.75000113666102
 11
50.60002000000043
 21
35.75000113666192
 72
     2
 10
50.60002000000043
 20
36.50000113666192
 40
0.75
 50
270.0
 51
450.0000000000086
 73
     1
 72
     1
 10
50.60002000000031
 20
37.25000113666192
 11
46.2500200000004
 21
37.25000113666192
 72
     1
 10
46.2500200000004
 20
37.25000113666192
 11
46.2500200000004
 21
40.60000113666274
 72
     1
 10
46.2500200000004
 20
40.60000113666274
 11
46.7500200000004
 21
40.60000113666285
 72
     2
 10
46.7500200000004
 20
41.20000113666281
 40
0.5999999999999659
 50
270.0
 51
450.0
 73
     1
 72
     1
 10
46.7500200000004
 20
41.80000113666278
 11
46.2500200000004
 21
41.80000113666278
 72
     1
 10
46.2500200000004
 20
41.80000113666278
 11
46.2500200000004
 21
42.80000113666282
 72
     2
 10
46.05002000000038
 20
42.80000113666281
 40
0.2000000000000242
 50
0.0000000000061067
 51
90.00000000000612
 73
     1
 72
     1
 10
46.05002000000036
 20
43.00000113666283
 11
42.95002000000045
 21
43.00000113666283
 72
     2
 10
42.95002000000042
 20
42.80000113666281
 40
0.2000000000000242
 50
89.99999999999388
 51
179.9999999999939
 73
     1
 72
     1
 10
42.7500200000004
 20
42.80000113666282
 11
42.7500200000004
 21
40.95000113666265
 72
     2
 10
43.2500200000004
 20
40.95000113666265
 40
0.5
 50
180.0
 51
360.0
 73
     1
 72
     1
 10
43.7500200000004
 20
40.95000113666265
 11
43.7500200000004
 21
41.70000113666264
 72
     1
 10
43.7500200000004
 20
41.70000113666264
 11
45.2500200000004
 21
41.70000113666264
 72
     1
 10
45.2500200000004
 20
41.70000113666264
 11
45.2500200000004
 21
36.20000113666265
 72
     1
 10
45.2500200000004
 20
36.20000113666265
 11
43.7500200000004
 21
36.20000113666265
 72
     1
 10
43.7500200000004
 20
36.20000113666265
 11
43.7500200000004
 21
36.95000113666265
 72
     2
 10
43.2500200000004
 20
36.95000113666265
 40
0.5
 50
0.0
 51
180.0
 73
     1
 72
     1
 10
42.7500200000004
 20
36.95000113666265
 11
42.7500200000004
 21
34.90000113666338
 72
     1
 10
42.7500200000004
 20
34.90000113666338
 11
41.95002000000044
 21
34.90000113666338
 72
     2
 10
41.95002000000043
 20
34.70000113666336
 40
0.2000000000000242
 50
89.99999999999388
 51
179.9999999999939
 73
     1
 72
     1
 10
41.7500200000004
 20
34.70000113666337
 11
41.7500200000004
 21
33.10000113666337
 72
     2
 10
41.95002000000042
 20
33.10000113666339
 40
0.200000000000017
 50
180.0000000000061
 51
270.0000000000081
 73
     1
 72
     1
 10
41.95002000000044
 20
32.90000113666338
 11
42.55002000000035
 21
32.90000113666338
 72
     2
 10
42.55002000000038
 20
33.1000011366634
 40
0.2000000000000242
 50
269.9999999999939
 51
359.9999999999939
 73
     1
 72
     1
 10
42.7500200000004
 20
33.10000113666338
 11
42.7500200000004
 21
33.90000113666338
 72
     1
 10
42.7500200000004
 20
33.90000113666338
 11
44.7500200000004
 21
33.90000113666338
 72
     1
 10
44.7500200000004
 20
33.90000113666338
 11
44.7500200000004
 21
28.80000113666337
 72
     2
 10
44.7500200000004
 20
28.4000011366631
 40
0.4000000000002722
 50
90.0
 51
270.0
 73
     1
 72
     1
 10
44.7500200000004
 20
28.00000113666283
 11
44.7500200000004
 21
22.90000113666338
 72
     1
 10
44.7500200000004
 20
22.90000113666338
 11
42.7500200000004
 21
22.90000113666338
 72
     1
 10
42.7500200000004
 20
22.90000113666338
 11
42.75002000000029
 21
23.80000113666283
 72
     2
 10
42.55002000000026
 20
23.80000113666281
 40
0.2000000000000242
 50
0.0000000000061067
 51
90.00000000000612
 73
     1
 72
     1
 10
42.55002000000025
 20
24.00000113666283
 11
39.95002000000045
 21
24.00000113666283
 72
     2
 10
39.95002000000043
 20
23.80000113666281
 40
0.2000000000000242
 50
89.99999999999388
 51
179.9999999999979
 73
     1
 72
     1
 10
39.75002000000041
 20
23.80000113666282
 11
39.75002000000052
 21
22.00000113666286
 72
     1
 10
39.75002000000052
 20
22.00000113666286
 11
27.10002000000077
 21
22.00000113666303
 72
     2
 10
27.10002000000088
 20
21.8000011366631
 40
0.1999999999999318
 50
90.00000000003257
 51
180.0000000000244
 73
     1
 72
     1
 10
26.90002000000095
 20
21.80000113666301
 11
26.90002000000073
 21
20.7000011366629
 72
     2
 10
27.10002000000032
 20
20.70000113666242
 40
0.1999999999995943
 50
179.9999999998646
 51
269.9999999998687
 73
     1
 72
     1
 10
27.10001999999986
 20
20.50000113666283
 11
28.44002000000001
 21
20.50000113666283
 72
     1
 10
28.44002000000001
 20
20.50000113666283
 11
28.44002000000001
 21
14.00000113666283
 72
     1
 10
28.44002000000001
 20
14.00000113666283
 11
12.10001999999986
 21
14.00000113666283
 72
     1
 10
12.10001999999986
 20
14.00000113666283
 11
11.70002000000022
 21
13.60000113666319
 72
     1
 10
11.70002000000022
 20
13.60000113666319
 11
11.30002000000058
 21
14.00000113666283
 72
     1
 10
11.30002000000058
 20
14.00000113666283
 11
5.650020000000949
 21
14.00000113666283
 72
     1
 10
5.650020000000949
 20
14.00000113666283
 11
5.250020000000404
 21
13.60000113666319
 72
     1
 10
5.250020000000404
 20
13.60000113666319
 11
4.850020000000768
 21
14.00000113666283
 72
     1
 10
4.850020000000768
 20
14.00000113666283
 11
-2.899980000000141
 21
14.00000113666283
 72
     1
 10
-2.899980000000141
 20
14.00000113666283
 11
-3.299979999999777
 21
13.60000113666319
 97
        1
330
30D3
 92
       16
 93
       40
 72
     1
 10
6.500000000000454
 20
6.499999999999545
 11
6.300000000000181
 21
6.700000000000272
 72
     1
 10
6.300000000000181
 20
6.700000000000272
 11
-1.0
 21
6.700000000000059
 72
     2
 10
-0.9999999999996681
 20
1.999999999999909
 40
4.70000000000015
 50
90.00000000000403
 51
180.0000000000037
 73
     1
 72
     1
 10
-5.699999999999818
 20
1.999999999999602
 11
-5.699999999999818
 21
-9.113971262332995
 72
     1
 10
-5.699999999999818
 20
-9.113971262332995
 11
-7.049929999999676
 21
-10.46390126233285
 72
     1
 10
-7.049929999999676
 20
-10.46390126233285
 11
-7.049929999999676
 21
-17.29968769996043
 72
     2
 10
-8.049929999999676
 20
-17.29968769996043
 40
1.0
 50
360.0
 51
450.0
 73
     0
 72
     1
 10
-8.049929999999676
 20
-18.29968769996043
 11
-12.3499299999994
 21
-18.29968769996043
 72
     1
 10
-12.3499299999994
 20
-18.29968769996043
 11
-12.74992999999904
 21
-17.89968769995988
 72
     1
 10
-12.74992999999904
 20
-17.89968769995988
 11
-13.14992999999958
 21
-18.29968769996043
 72
     1
 10
-13.14992999999958
 20
-18.29968769996043
 11
-17.14999999999963
 21
-18.29968769996043
 72
     2
 10
-17.14999999999963
 20
-17.29968769996043
 40
1.0
 50
90.0
 51
180.0
 73
     0
 72
     1
 10
-18.14999999999963
 20
-17.29968769996043
 11
-18.14999999999963
 21
9.277994037598546
 72
     1
 10
-18.14999999999963
 20
9.277994037598546
 11
-15.34966391927901
 21
9.277994037598546
 72
     2
 10
-15.34966391927901
 20
9.777994037598546
 40
0.5
 50
270.0
 51
360.0
 73
     1
 72
     1
 10
-14.84966391927901
 20
9.777994037598546
 11
-14.84966391927901
 21
12.00000113666283
 72
     2
 10
-14.34966391927901
 20
12.00000113666283
 40
0.5
 50
180.0
 51
270.0
 73
     0
 72
     1
 10
-14.34966391927901
 20
12.50000113666283
 11
-7.999979999999595
 21
12.50000113666283
 72
     1
 10
-7.999979999999595
 20
12.50000113666283
 11
-7.599979999999959
 21
12.10000113666319
 72
     1
 10
-7.599979999999959
 20
12.10000113666319
 11
-7.199979999999413
 21
12.50000113666283
 72
     1
 10
-7.199979999999413
 20
12.50000113666283
 11
-5.799979999999777
 21
12.50000113666283
 72
     1
 10
-5.799979999999777
 20
12.50000113666283
 11
-5.799979999999663
 21
11.70000113666283
 72
     2
 10
-5.599979999999639
 20
11.70000113666285
 40
0.2000000000000242
 50
180.0000000000061
 51
270.0000000000061
 73
     1
 72
     1
 10
-5.599979999999618
 20
11.50000113666283
 11
-0.9999799999998231
 21
11.50000113666283
 72
     2
 10
-0.9999799999998018
 20
11.70000113666285
 40
0.2000000000000242
 50
269.9999999999939
 51
359.9999999999939
 73
     1
 72
     1
 10
-0.7999799999997777
 20
11.70000113666283
 11
-0.7999799999997777
 21
12.50000113666283
 72
     1
 10
-0.7999799999997777
 20
12.50000113666283
 11
2.750020000000404
 21
12.50000113666283
 72
     1
 10
2.750020000000404
 20
12.50000113666283
 11
2.750020000000517
 21
11.70000113666283
 72
     2
 10
2.950020000000542
 20
11.70000113666285
 40
0.2000000000000242
 50
180.0000000000061
 51
270.0000000000061
 73
     1
 72
     1
 10
2.950020000000563
 20
11.50000113666283
 11
7.550020000000358
 21
11.50000113666283
 72
     2
 10
7.55002000000038
 20
11.70000113666285
 40
0.2000000000000242
 50
269.9999999999939
 51
359.9999999999939
 73
     1
 72
     1
 10
7.750020000000404
 20
11.70000113666283
 11
7.750020000000404
 21
12.50000113666283
 72
     1
 10
7.750020000000404
 20
12.50000113666283
 11
9.200020000000222
 21
12.50000113666283
 72
     1
 10
9.200020000000222
 20
12.50000113666283
 11
9.200020000000222
 21
11.70000113666283
 72
     2
 10
9.400020000000246
 20
11.70000113666285
 40
0.2000000000000242
 50
180.0000000000061
 51
270.0000000000061
 73
     1
 72
     1
 10
9.400020000000267
 20
11.50000113666283
 11
13.20002000000022
 21
11.50000113666283
 72
     2
 10
13.20002000000022
 20
10.50000113666283
 40
1.0
 50
270.0
 51
360.0
 73
     0
 72
     1
 10
14.20002000000022
 20
10.50000113666283
 11
14.20002000000022
 21
7.499999999999545
 72
     2
 10
13.20002000000022
 20
7.499999999999545
 40
1.0
 50
360.0
 51
450.0
 73
     0
 72
     1
 10
13.20002000000022
 20
6.499999999999545
 11
6.500000000000454
 21
6.499999999999545
 97
        1
330
30D5
 92
       16
 93
       22
 72
     1
 10
44.7500200000004
 20
21.40000113666338
 11
44.7500200000004
 21
18.22736477529543
 72
     1
 10
44.7500200000004
 20
18.22736477529543
 11
42.29468991411045
 21
15.77203468940601
 72
     2
 10
42.82502000000033
 20
15.24170460351629
 40
0.7499999999998478
 50
135.000000000009
 51
218.7192973222526
 73
     1
 72
     2
 10
41.05002000000066
 20
13.81867965644041
 40
1.524999999999965
 50
321.2807026777544
 51
578.7192973222431
 73
     0
 72
     2
 10
39.2750200000008
 20
15.24170460351645
 40
0.7500000000000959
 50
321.2807026777422
 51
501.2807026777477
 73
     1
 72
     2
 10
41.05002000000081
 20
13.8186796564413
 40
3.02499999999971
 50
141.2807026777659
 51
203.4009508140937
 73
     1
 72
     2
 10
37.81495817679025
 20
12.41867965643999
 40
0.5000000000000276
 50
336.5990491860315
 51
450.0000000000007
 73
     0
 72
     1
 10
37.81495817679024
 20
11.91867965643996
 11
37.15002000000095
 21
11.91867965643996
 72
     2
 10
37.15002000000064
 20
10.41867965643985
 40
1.500000000000115
 50
89.99999999998806
 51
134.9999999999884
 73
     1
 72
     1
 10
36.08935982822095
 20
11.47933982821996
 11
31.11002000000008
 21
6.499999999999545
 72
     1
 10
31.11002000000008
 20
6.499999999999545
 11
16.70002000000022
 21
6.499999999999545
 72
     2
 10
16.70002000000022
 20
7.499999999999545
 40
1.0
 50
90.0
 51
180.0
 73
     0
 72
     1
 10
15.70002000000022
 20
7.499999999999545
 11
15.70002000000022
 21
11.50000113666283
 72
     2
 10
16.70002000000022
 20
11.50000113666283
 40
1.0
 50
180.0
 51
270.0
 73
     0
 72
     1
 10
16.70002000000022
 20
12.50000113666283
 11
28.44002000000001
 21
12.50000113666283
 72
     2
 10
28.44002000000001
 20
14.00000113666283
 40
1.5
 50
270.0
 51
360.0
 73
     1
 72
     1
 10
29.94002
 20
14.00000113666283
 11
29.94002
 21
19.40000113666338
 72
     2
 10
30.94002000000001
 20
19.40000113666338
 40
1.0
 50
180.0
 51
270.0
 73
     0
 72
     1
 10
30.94002000000001
 20
20.40000113666338
 11
42.55002000000025
 21
20.40000113666338
 72
     2
 10
42.55002000000026
 20
20.6000011366634
 40
0.2000000000000242
 50
269.9999999999939
 51
359.9999999999939
 73
     1
 72
     1
 10
42.75002000000029
 20
20.60000113666338
 11
42.7500200000004
 21
21.40000113666338
 72
     1
 10
42.7500200000004
 20
21.40000113666338
 11
44.7500200000004
 21
21.40000113666338
 97
        1
330
30D4
 75
     0
 76
     1
 98
        1
 10
-673.3302831301129
 20
61.93192451390695
  0
ENDBLK
  5
2674
330
2672
100
AcDbEntity
  8
0
100
AcDbBlockEnd
  0
BLOCK
  5
2678
330
2677
100
AcDbEntity
  8
0
100
AcDbBlockBegin
  2
sw30mmliner
 70
     0
 10
-8.320245268962722
 20
142.2739088327281
 30
0.0
  3
sw30mmliner
  1
sw30mmliner.dwg
  0
LWPOLYLINE
  5
2A63
330
2677
100
AcDbEntity
  8
APL Joinery
  6
Continuous
 62
     3
100
AcDbPolyline
 90
       16
 70
   129
 43
0.0
 10
-8.320245268962722
 20
161.273908832728
 10
-8.320245268962722
 20
152.973908832728
 10
-3.920245268962716
 20
152.973908832728
 10
-3.920245268962716
 20
150.473908832728
 10
-8.320245268962722
 20
150.473908832728
 10
-8.320245268962722
 20
142.2739088327281
 10
16.67975473103728
 20
142.2739088327281
 10
16.67975473103728
 20
131.273908832728
 10
58.57975473103727
 20
131.273908832728
 10
58.57975473103727
 20
139.2739088327281
 10
68.57975473103727
 20
139.2739088327281
 10
68.57975473103727
 20
131.273908832728
 10
77.57975473103726
 20
131.273908832728
 42
0.4142135623730951
 10
80.57975473103727
 20
134.273908832728
 10
80.57975473103727
 20
158.273908832728
 42
0.4142135623730951
 10
77.57975473103726
 20
161.273908832728
  0
ARC
  5
2A64
330
2677
100
AcDbEntity
  8
APL Joinery
  6
Continuous
 62
     8
100
AcDbCircle
 10
-2.065094850108238
 20
126.3181393429162
 30
0.0
 40
41.9195481519577
100
AcDbArc
 50
10.24507817588775
 51
50.73613270831355
  0
ARC
  5
2A65
330
2677
100
AcDbEntity
  8
APL Joinery
  6
Continuous
 62
     8
100
AcDbCircle
 10
-2.065094850108238
 20
126.3181393429162
 30
0.0
 40
61.9195481519577
100
AcDbArc
 50
14.45446489788398
 51
31.61173285031439
  0
ARC
  5
2A66
330
2677
100
AcDbEntity
  8
APL Joinery
  6
Continuous
 62
     8
100
AcDbCircle
 10
-2.065094850108238
 20
126.3181393429162
 30
0.0
 40
81.91954815195769
100
AcDbArc
 50
11.94794822801606
 51
23.34026053111568
  0
ARC
  5
2A67
330
2677
100
AcDbEntity
  8
APL Joinery
  6
Continuous
 62
     8
100
AcDbCircle
 10
-2.065094850108238
 20
126.3181393429162
 30
0.0
 40
21.9195481519577
100
AcDbArc
 50
57.3495468426925
 51
88.31417642809208
  0
LINE
  5
2A68
330
2677
100
AcDbEntity
  8
APL Joinery
  6
Continuous
 62
     8
100
AcDbLine
 10
1.439132372933531
 20
144.773908832728
 30
0.0
 11
4.097335334867297
 21
158.773908832728
 31
0.0
  0
LINE
  5
2A69
330
2677
100
AcDbEntity
  8
APL Joinery
  6
Continuous
 62
     8
100
AcDbLine
 10
19.17975473103728
 20
143.487533006339
 30
0.0
 11
31.20445811643854
 21
158.773908832728
 31
0.0
  0
LINE
  5
2A6A
330
2677
100
AcDbEntity
  8
APL Joinery
  6
Continuous
 62
     8
100
AcDbLine
 10
23.56650084485508
 20
133.773908832728
 30
0.0
 11
78.07975473103725
 21
149.6308324496542
 31
0.0
  0
ENDBLK
  5
2679
330
2677
100
AcDbEntity
  8
0
100
AcDbBlockEnd
  0
BLOCK
  5
267E
330
267D
100
AcDbEntity
  8
0
100
AcDbBlockBegin
  2
02431
 70
     0
 10
133.4350046343382
 20
118.0946783451616
 30
0.0
  3
02431
  1
02431.dwg
  0
LWPOLYLINE
  5
30DA
102
{ACAD_REACTORS
330
30DB
102
}
330
267D
100
AcDbEntity
  8
APL Joinery
  6
Continuous
100
AcDbPolyline
 90
       33
 70
     1
 43
0.0
 10
125.0350046343387
 20
129.0946783451616
 10
125.0350046343387
 20
130.9446783451615
 42
-0.4142135623730951
 10
126.0350046343387
 20
131.9446783451615
 10
127.2850046343387
 20
131.9446783451615
 42
-0.9999999999999998
 10
127.2850046343387
 20
130.9446783451615
 10
126.3350046343388
 20
130.9446783451615
 10
126.3350046343388
 20
129.6946783451615
 10
133.7350046343385
 20
129.6946783451615
 10
133.7350046343385
 20
130.9446783451615
 10
132.7850046343387
 20
130.9446783451615
 42
-0.9999999999999998
 10
132.7850046343387
 20
131.9446783451615
 10
134.0350046343387
 20
131.9446783451615
 42
-0.4142135623730951
 10
135.0350046343387
 20
130.9446783451615
 10
135.0350046343387
 20
128.5946783451616
 10
134.6350046343387
 20
128.5946783451616
 10
134.6350046343387
 20
128.0946783451616
 10
135.0350046343387
 20
127.6946783451617
 10
135.0350046343387
 20
119.6946783451616
 10
139.6350046343386
 20
119.6946783451616
 10
140.0350046343387
 20
119.2946783451615
 10
140.4350046343383
 20
119.6946783451616
 10
144.7850046343387
 20
119.6946783451616
 42
-0.4142135623730951
 10
145.0350046343387
 20
119.4446783451615
 10
145.0350046343387
 20
118.3446783451616
 42
-0.4142135623730951
 10
144.7850046343387
 20
118.0946783451616
 10
135.0350046343382
 20
118.0946783451616
 42
-0.4142135623731367
 10
133.4350046343382
 20
119.6946783451618
 10
133.4350046343383
 20
127.6946783451617
 10
133.8350046343383
 20
128.0946783451616
 10
133.8350046343383
 20
128.5946783451616
 10
132.9350046343383
 20
128.5946783451616
 10
132.9350046343383
 20
128.0946783451616
 10
126.0350046343387
 20
128.0946783451616
 42
-0.4142135623730951
  0
HATCH
  5
30DB
330
267D
100
AcDbEntity
  8
APL Hatch
100
AcDbHatch
 10
0.0
 20
0.0
 30
0.0
210
0.0
220
0.0
230
1.0
  2
SOLID
 70
     1
 71
     1
 91
        1
 92
        1
 93
       33
 72
     1
 10
125.0350046343387
 20
129.0946783451616
 11
125.0350046343387
 21
130.9446783451615
 72
     2
 10
126.0350046343387
 20
130.9446783451615
 40
1.0
 50
180.0
 51
270.0
 73
     0
 72
     1
 10
126.0350046343387
 20
131.9446783451615
 11
127.2850046343387
 21
131.9446783451615
 72
     2
 10
127.2850046343387
 20
131.4446783451616
 40
0.5
 50
270.0
 51
450.0
 73
     0
 72
     1
 10
127.2850046343387
 20
130.9446783451615
 11
126.3350046343388
 21
130.9446783451615
 72
     1
 10
126.3350046343388
 20
130.9446783451615
 11
126.3350046343388
 21
129.6946783451615
 72
     1
 10
126.3350046343388
 20
129.6946783451615
 11
133.7350046343385
 21
129.6946783451615
 72
     1
 10
133.7350046343385
 20
129.6946783451615
 11
133.7350046343385
 21
130.9446783451615
 72
     1
 10
133.7350046343385
 20
130.9446783451615
 11
132.7850046343387
 21
130.9446783451615
 72
     2
 10
132.7850046343387
 20
131.4446783451616
 40
0.5
 50
90.0
 51
270.0
 73
     0
 72
     1
 10
132.7850046343387
 20
131.9446783451615
 11
134.0350046343387
 21
131.9446783451615
 72
     2
 10
134.0350046343387
 20
130.9446783451615
 40
1.0
 50
270.0
 51
360.0
 73
     0
 72
     1
 10
135.0350046343387
 20
130.9446783451615
 11
135.0350046343387
 21
128.5946783451616
 72
     1
 10
135.0350046343387
 20
128.5946783451616
 11
134.6350046343387
 21
128.5946783451616
 72
     1
 10
134.6350046343387
 20
128.5946783451616
 11
134.6350046343387
 21
128.0946783451616
 72
     1
 10
134.6350046343387
 20
128.0946783451616
 11
135.0350046343387
 21
127.6946783451617
 72
     1
 10
135.0350046343387
 20
127.6946783451617
 11
135.0350046343387
 21
119.6946783451616
 72
     1
 10
135.0350046343387
 20
119.6946783451616
 11
139.6350046343386
 21
119.6946783451616
 72
     1
 10
139.6350046343386
 20
119.6946783451616
 11
140.0350046343387
 21
119.2946783451615
 72
     1
 10
140.0350046343387
 20
119.2946783451615
 11
140.4350046343383
 21
119.6946783451616
 72
     1
 10
140.4350046343383
 20
119.6946783451616
 11
144.7850046343387
 21
119.6946783451616
 72
     2
 10
144.7850046343387
 20
119.4446783451615
 40
0.25
 50
270.0
 51
360.0
 73
     0
 72
     1
 10
145.0350046343387
 20
119.4446783451615
 11
145.0350046343387
 21
118.3446783451616
 72
     2
 10
144.7850046343387
 20
118.3446783451616
 40
0.25
 50
360.0
 51
450.0
 73
     0
 72
     1
 10
144.7850046343387
 20
118.0946783451616
 11
135.0350046343382
 21
118.0946783451616
 72
     2
 10
135.0350046343381
 20
119.6946783451616
 40
1.599999999999951
 50
89.99999999999797
 51
180.0000000000066
 73
     0
 72
     1
 10
133.4350046343382
 20
119.6946783451618
 11
133.4350046343383
 21
127.6946783451617
 72
     1
 10
133.4350046343383
 20
127.6946783451617
 11
133.8350046343383
 21
128.0946783451616
 72
     1
 10
133.8350046343383
 20
128.0946783451616
 11
133.8350046343383
 21
128.5946783451616
 72
     1
 10
133.8350046343383
 20
128.5946783451616
 11
132.9350046343383
 21
128.5946783451616
 72
     1
 10
132.9350046343383
 20
128.5946783451616
 11
132.9350046343383
 21
128.0946783451616
 72
     1
 10
132.9350046343383
 20
128.0946783451616
 11
126.0350046343387
 21
128.0946783451616
 72
     2
 10
126.0350046343387
 20
129.0946783451616
 40
1.0
 50
90.0
 51
180.0
 73
     0
 97
        1
330
30DA
 75
     0
 76
     1
 98
        1
 10
0.0
 20
0.0
  0
ENDBLK
  5
267F
330
267D
100
AcDbEntity
  8
0
100
AcDbBlockEnd
  0
BLOCK
  5
2684
330
2683
100
AcDbEntity
  8
0
100
AcDbBlockBegin
  2
9010331
 70
     0
 10
79.78512856672606
 20
151.6303744221887
 30
0.0
  3
9010331
  1
9010331.dwg
  0
LINE
  5
30DF
330
2683
100
AcDbEntity
  8
APL Joinery
 62
   252
100
AcDbLine
 10
73.28512856672606
 20
154.9196394371826
 30
0.0
 11
79.03512856672605
 21
153.3789315807037
 31
0.0
  0
LINE
  5
30E0
330
2683
100
AcDbEntity
  8
APL Joinery
 62
   252
100
AcDbLine
 10
77.57424399404638
 20
153.7703744221883
 30
0.0
 11
73.28512856672606
 21
153.7703744221883
 31
0.0
  0
LINE
  5
30E1
330
2683
100
AcDbEntity
  8
APL Joinery
 62
   252
100
AcDbLine
 10
79.03512856672605
 20
152.9303744221883
 30
0.0
 11
73.28512856672606
 21
152.9303744221883
 31
0.0
  0
LINE
  5
30E2
330
2683
100
AcDbEntity
  8
APL Joinery
 62
   252
100
AcDbLine
 10
79.03512856672605
 20
152.0903744221887
 30
0.0
 11
73.28512856672606
 21
152.0903744221883
 31
0.0
  0
LINE
  5
30E3
330
2683
100
AcDbEntity
  8
APL Joinery
 62
   252
100
AcDbLine
 10
79.03512856672605
 20
151.1703744221886
 30
0.0
 11
73.28512856672606
 21
151.1703744221883
 31
0.0
  0
LINE
  5
30E4
330
2683
100
AcDbEntity
  8
APL Joinery
 62
   252
100
AcDbLine
 10
79.03512856672605
 20
150.3303744221885
 30
0.0
 11
73.28512856672606
 21
150.3303744221885
 31
0.0
  0
LINE
  5
30E5
330
2683
100
AcDbEntity
  8
APL Joinery
 62
   252
100
AcDbLine
 10
77.57424399404524
 20
149.4903744221885
 30
0.0
 11
73.28512856672606
 21
149.4903744221885
 31
0.0
  0
LINE
  5
30E6
330
2683
100
AcDbEntity
  8
APL Joinery
 62
   252
100
AcDbLine
 10
79.03512856672605
 20
149.8818172636736
 30
0.0
 11
73.28512856672606
 21
148.341109407194
 31
0.0
  0
LINE
  5
30E7
330
2683
100
AcDbEntity
  8
APL Joinery
 62
   252
100
AcDbLine
 10
79.03512856672605
 20
155.0803744221887
 30
0.0
 11
79.03512856672605
 21
148.1803744221888
 31
0.0
  0
LINE
  5
30E8
330
2683
100
AcDbEntity
  8
APL Joinery
 62
   252
100
AcDbLine
 10
79.28512856672606
 20
155.0803744221887
 30
0.0
 11
79.28512856672606
 21
148.1803744221888
 31
0.0
  0
LINE
  5
30E9
330
2683
100
AcDbEntity
  8
APL Joinery
 62
   252
100
AcDbLine
 10
79.53512856672606
 20
155.0803744221887
 30
0.0
 11
79.53512856672606
 21
148.1803744221888
 31
0.0
  0
LINE
  5
30EA
330
2683
100
AcDbEntity
  8
APL Joinery
 62
   252
100
AcDbLine
 10
79.53512856672606
 20
148.1803744221888
 30
0.0
 11
79.03512856672605
 21
148.1803744221888
 31
0.0
  0
LINE
  5
30EB
330
2683
100
AcDbEntity
  8
APL Joinery
 62
   252
100
AcDbLine
 10
79.03512856672605
 20
155.0803744221887
 30
0.0
 11
79.53512856672606
 21
155.0803744221887
 31
0.0
  0
ENDBLK
  5
2685
330
2683
100
AcDbEntity
  8
0
100
AcDbBlockEnd
  0
BLOCK
  5
2689
330
2688
100
AcDbEntity
  8
0
100
AcDbBlockBegin
  2
9700158
 70
     0
 10
174.0833845896645
 20
209.1838914698199
 30
0.0
  3
9700158
  1
9700158.dwg
  0
LWPOLYLINE
  5
30EE
330
2688
100
AcDbEntity
  8
APL Joinery
 62
     8
100
AcDbPolyline
 90
       16
 70
     0
 43
0.0
 10
170.0844615238645
 20
210.7276577404199
 10
170.5812307214826
 20
205.3929768350096
 42
-1.73205080756885
 10
169.7943127780645
 20
205.7545845650198
 10
169.5990464418646
 20
208.6720902866199
 10
169.5856905330645
 20
209.0611154212198
 10
169.5833845896645
 20
211.1173474922199
 10
169.6471993674645
 20
211.4735521188198
 10
169.6839086074645
 20
211.5745025288198
 10
169.7450906740645
 20
211.6876893520199
 10
169.8123909474645
 20
211.7702851420198
 10
169.9286368740645
 20
211.8651173452199
 10
170.0142917672645
 20
211.9171221018198
 10
170.1427741072645
 20
211.9630086518199
 10
170.2804337572645
 20
211.9905405818199
 10
170.3333845896645
 20
212.0043371268199
 10
169.5919031330645
 20
214.7715835956199
  0
LWPOLYLINE
  5
30EF
330
2688
100
AcDbEntity
  8
APL Joinery
 62
     8
100
AcDbPolyline
 90
       20
 70
     0
 43
0.0
 10
170.0844615237555
 20
210.7276577405251
 42
-1.047538523474869
 10
170.5833845896645
 20
210.7508376296199
 10
170.5833845896645
 20
205.6338914698199
 42
0.4142135623730951
 10
171.0833845896645
 20
205.1338914698199
 10
171.5833845896645
 20
205.1338914698199
 10
171.5833845896645
 20
207.9338914698198
 10
172.8333845896645
 20
207.9338914698198
 10
172.8333845896645
 20
207.4338914698198
 42
0.9999999999999998
 10
173.8333845896645
 20
207.4338914698198
 10
173.8333845896645
 20
210.9338914698199
 42
0.9999999999999998
 10
172.8333845896645
 20
210.9338914698199
 10
172.8333845896645
 20
210.4338914698199
 10
171.5833845896645
 20
210.4338914698199
 10
171.5833845896645
 20
213.2338914698199
 10
175.6833845896645
 20
213.2338914698199
 10
176.1792862290088
 20
215.9388095026067
 42
0.4683749459846007
 10
175.9333845896645
 20
216.2338914698199
 10
175.1833845896646
 20
216.2338914698199
 10
169.7838326132251
 20
215.081328357083
 42
0.4325719375873472
 10
169.5919031330922
 20
214.7715835957442
  0
LWPOLYLINE
  5
30F0
330
2688
100
AcDbEntity
  8
APL Joinery
 62
     8
100
AcDbPolyline
 90
        2
 70
     0
 43
0.0
 10
172.2085048132645
 20
207.9338914698198
 10
172.2085048132645
 20
210.4338914698199
  0
ENDBLK
  5
268A
330
2688
100
AcDbEntity
  8
0
100
AcDbBlockEnd
  0
BLOCK
  5
2690
330
268F
100
AcDbEntity
  8
0
100
AcDbBlockBegin
  2
07402
 70
     0
 10
230.7633166097221
 20
-524.9327682157816
 30
0.0
  3
07402
  1
07402.dwg
  0
LWPOLYLINE
  5
30F2
102
{ACAD_REACTORS
330
30F4
330
30F5
330
30F6
330
30F7
102
}
330
268F
100
AcDbEntity
  8
APL Joinery
  6
Continuous
100
AcDbPolyline
 90
       34
 70
     1
 43
0.0
 10
282.1132978447021
 20
-548.5772169403187
 10
282.1132978447021
 20
-537.7827682157828
 42
0.4142135623730951
 10
281.6132978447022
 20
-537.2827682157828
 10
227.7132372803535
 20
-537.2827682157828
 42
0.4142135623730951
 10
227.2132372803535
 20
-537.7827682157828
 10
227.2132372803535
 20
-543.9827682157827
 42
0.4142135623730951
 10
227.7132372803535
 20
-544.4827682157827
 10
233.1132372803532
 20
-544.4827682157827
 42
-0.4142135623730951
 10
233.6132372803532
 20
-544.9827682157827
 10
233.6132372803532
 20
-548.5772169403187
 42
0.5234933716074149
 10
234.2885619556773
 20
-549.0454703527173
 42
-0.2922632705254267
 10
237.8171052336838
 20
-549.7991143696292
 42
-0.9999999999999998
 10
236.7631345083112
 20
-550.8664220619372
 42
2.3929095084565
 10
236.763134508312
 20
-553.4991143696281
 42
-0.9999999999999998
 10
237.817105233683
 20
-554.5664220619372
 42
-0.2922632705254268
 10
234.2885619556778
 20
-555.3200660788483
 42
0.5234933716074148
 10
233.6132372803532
 20
-555.7883194912462
 10
233.6132372803532
 20
-561.1827682157834
 42
-0.4142135623730951
 10
233.1132372803532
 20
-561.6827682157834
 10
227.7132372803535
 20
-561.6827682157834
 42
0.4142135623730951
 10
227.2132372803535
 20
-562.1827682157834
 10
227.2132372803535
 20
-571.3827682157823
 42
0.4142135623730951
 10
227.7132372803535
 20
-571.8827682157823
 10
276.6132978447022
 20
-571.8827682157823
 42
0.4142135623730951
 10
277.1132978447022
 20
-571.3827682157823
 10
277.113297844704
 20
-557.9327682157834
 42
-0.3412868470082055
 10
278.2345957499638
 20
-556.4813603739144
 42
0.6669066090348787
 10
278.4267784909355
 20
-555.1099537595105
 42
-0.0604498752216198
 10
277.7768940098574
 20
-554.611339644355
 42
-1.00000000000015
 10
278.8616680388048
 20
-553.5041967872117
 42
2.37979589711373
 10
278.8616680388043
 20
-550.8613396443548
 42
-1.0
 10
277.7768940098581
 20
-549.7541967872121
 42
-0.297879656363205
 10
281.4265158558196
 20
-549.0289131978396
 42
0.5313489649887269
 10
282.1132978447021
 20
-548.5651109893185
  0
LWPOLYLINE
  5
30F3
102
{ACAD_REACTORS
330
30F4
330
30F5
330
30F6
330
30F7
102
}
330
268F
100
AcDbEntity
  8
APL Joinery
  6
Continuous
100
AcDbPolyline
 90
       62
 70
     1
 43
0.0
 10
278.6132978447022
 20
-557.9327682157834
 10
278.6132978447022
 20
-566.6827682157834
 10
278.2132978447025
 20
-567.082768215783
 10
278.6132978447022
 20
-567.4827682157826
 10
278.6132978447022
 20
-572.082768215783
 10
280.7107063484318
 20
-572.082768215783
 10
282.3847444541079
 20
-571.1162618648369
 42
-0.3394542588633798
 10
282.686521149405
 20
-571.1559915204868
 10
283.6132978447022
 20
-572.082768215783
 10
283.6132978447022
 20
-573.5827682157831
 10
219.6132372803534
 20
-573.5827682157831
 10
219.6132372803534
 20
-571.8827682157823
 10
224.6132372803534
 20
-571.8827682157823
 42
0.4142135623730951
 10
225.6132372803534
 20
-570.8827682157823
 10
225.6132372803535
 20
-562.1827682157834
 42
-0.4142135623731034
 10
227.7132372803535
 20
-560.082768215783
 10
232.1132372803532
 20
-560.082768215783
 10
232.1132372803532
 20
-546.082768215783
 10
227.7132372803536
 20
-546.0827682157827
 42
-0.4142135623731034
 10
225.6132372803534
 20
-543.9827682157827
 10
225.6132372803534
 20
-537.4827682157826
 10
219.6133166097227
 20
-537.4827682157826
 10
219.6133166097218
 20
-524.9327682157816
 10
230.7633166097221
 20
-524.9327682157816
 10
230.7633166097221
 20
-526.1327682157814
 10
229.1633166097236
 20
-526.1327682157814
 10
229.1633166097236
 20
-526.4327682157816
 10
222.1133166097218
 20
-526.4327682157816
 42
0.4142135623730951
 10
221.1133166097218
 20
-527.4327682157815
 10
221.1133166097218
 20
-534.582768215783
 42
0.4142135623730951
 10
222.1133166097218
 20
-535.582768215783
 10
304.6132978447022
 20
-535.582768215783
 10
304.6132978447022
 20
-539.082768215783
 10
302.5632978447011
 20
-539.082768215783
 42
-0.9999999999999998
 10
302.5632978447011
 20
-538.082768215783
 10
303.3132978447011
 20
-538.082768215783
 10
303.3132978447011
 20
-536.5827682157831
 10
297.8132978447011
 20
-536.5827682157831
 10
297.8132978447011
 20
-538.082768215783
 10
298.5632978447011
 20
-538.082768215783
 42
-0.9999999999999998
 10
298.5632978447011
 20
-539.082768215783
 10
296.5132978447018
 20
-539.082768215783
 10
296.5132978447018
 20
-537.082768215783
 10
295.0132978447018
 20
-537.082768215783
 10
295.0132978447018
 20
-536.832768215783
 10
293.3132978447011
 20
-536.832768215783
 10
293.0132978447018
 20
-536.5327682157819
 10
292.7132978447016
 20
-536.832768215783
 10
291.0132978447018
 20
-536.832768215783
 10
291.0132978447018
 20
-537.082768215783
 10
283.6132978447022
 20
-537.082768215783
 10
283.6132978447022
 20
-547.4327682157833
 10
283.2132978447025
 20
-547.832768215783
 10
283.6132978447022
 20
-548.2327682157826
 10
283.6132978447022
 20
-560.4327682157834
 42
-0.9999999999999998
 10
282.6132978447022
 20
-560.4327682157834
 10
282.6132978447022
 20
-557.9327682157834
 10
282.1132978447021
 20
-557.9327682157834
 10
282.1132978447021
 20
-555.3523887059295
 42
0.5675210391690513
 10
281.7447631562797
 20
-555.1322761718916
 42
-0.0967410137952487
 10
280.5182346685674
 20
-555.5131697629118
 42
0.3821661969546992
 10
280.2952381125248
 20
-555.7611021179194
 42
-0.3406114348430613
  0
HATCH
  5
30F4
330
268F
100
AcDbEntity
  8
APL Hatch
100
AcDbHatch
 10
0.0
 20
0.0
 30
0.0
210
0.0
220
0.0
230
1.0
  2
SOLID
 70
     1
 71
     1
 91
        2
 92
        1
 93
       62
 72
     1
 10
278.6132978447022
 20
-557.9327682157834
 11
278.6132978447022
 21
-566.6827682157834
 72
     1
 10
278.6132978447022
 20
-566.6827682157834
 11
278.2132978447025
 21
-567.082768215783
 72
     1
 10
278.2132978447025
 20
-567.082768215783
 11
278.6132978447022
 21
-567.4827682157826
 72
     1
 10
278.6132978447022
 20
-567.4827682157826
 11
278.6132978447022
 21
-572.082768215783
 72
     1
 10
278.6132978447022
 20
-572.082768215783
 11
280.7107063484318
 21
-572.082768215783
 72
     1
 10
280.7107063484318
 20
-572.082768215783
 11
282.3847444541079
 21
-571.1162618648369
 72
     2
 10
282.5097444541079
 20
-571.3327682157835
 40
0.2500000000003859
 50
240.0000000000661
 51
315.0000000000829
 73
     0
 72
     1
 10
282.686521149405
 20
-571.1559915204868
 11
283.6132978447022
 21
-572.082768215783
 72
     1
 10
283.6132978447022
 20
-572.082768215783
 11
283.6132978447022
 21
-573.5827682157831
 72
     1
 10
283.6132978447022
 20
-573.5827682157831
 11
219.6132372803534
 21
-573.5827682157831
 72
     1
 10
219.6132372803534
 20
-573.5827682157831
 11
219.6132372803534
 21
-571.8827682157823
 72
     1
 10
219.6132372803534
 20
-571.8827682157823
 11
224.6132372803534
 21
-571.8827682157823
 72
     2
 10
224.6132372803534
 20
-570.8827682157823
 40
1.0
 50
270.0
 51
360.0
 73
     1
 72
     1
 10
225.6132372803534
 20
-570.8827682157823
 11
225.6132372803535
 21
-562.1827682157834
 72
     2
 10
227.7132372803537
 20
-562.1827682157832
 40
2.100000000000164
 50
179.9999999999938
 51
269.9999999999954
 73
     0
 72
     1
 10
227.7132372803535
 20
-560.082768215783
 11
232.1132372803532
 21
-560.082768215783
 72
     1
 10
232.1132372803532
 20
-560.082768215783
 11
232.1132372803532
 21
-546.082768215783
 72
     1
 10
232.1132372803532
 20
-546.082768215783
 11
227.7132372803536
 21
-546.0827682157827
 72
     2
 10
227.7132372803535
 20
-543.9827682157827
 40
2.100000000000022
 50
89.9999999999969
 51
180.0
 73
     0
 72
     1
 10
225.6132372803534
 20
-543.9827682157827
 11
225.6132372803534
 21
-537.4827682157826
 72
     1
 10
225.6132372803534
 20
-537.4827682157826
 11
219.6133166097227
 21
-537.4827682157826
 72
     1
 10
219.6133166097227
 20
-537.4827682157826
 11
219.6133166097218
 21
-524.9327682157816
 72
     1
 10
219.6133166097218
 20
-524.9327682157816
 11
230.7633166097221
 21
-524.9327682157816
 72
     1
 10
230.7633166097221
 20
-524.9327682157816
 11
230.7633166097221
 21
-526.1327682157814
 72
     1
 10
230.7633166097221
 20
-526.1327682157814
 11
229.1633166097236
 21
-526.1327682157814
 72
     1
 10
229.1633166097236
 20
-526.1327682157814
 11
229.1633166097236
 21
-526.4327682157816
 72
     1
 10
229.1633166097236
 20
-526.4327682157816
 11
222.1133166097218
 21
-526.4327682157816
 72
     2
 10
222.1133166097218
 20
-527.4327682157815
 40
1.0
 50
90.0
 51
180.0
 73
     1
 72
     1
 10
221.1133166097218
 20
-527.4327682157815
 11
221.1133166097218
 21
-534.582768215783
 72
     2
 10
222.1133166097218
 20
-534.582768215783
 40
1.0
 50
180.0
 51
270.0
 73
     1
 72
     1
 10
222.1133166097218
 20
-535.582768215783
 11
304.6132978447022
 21
-535.582768215783
 72
     1
 10
304.6132978447022
 20
-535.582768215783
 11
304.6132978447022
 21
-539.082768215783
 72
     1
 10
304.6132978447022
 20
-539.082768215783
 11
302.5632978447011
 21
-539.082768215783
 72
     2
 10
302.5632978447011
 20
-538.582768215783
 40
0.5
 50
90.0
 51
270.0
 73
     0
 72
     1
 10
302.5632978447011
 20
-538.082768215783
 11
303.3132978447011
 21
-538.082768215783
 72
     1
 10
303.3132978447011
 20
-538.082768215783
 11
303.3132978447011
 21
-536.5827682157831
 72
     1
 10
303.3132978447011
 20
-536.5827682157831
 11
297.8132978447011
 21
-536.5827682157831
 72
     1
 10
297.8132978447011
 20
-536.5827682157831
 11
297.8132978447011
 21
-538.082768215783
 72
     1
 10
297.8132978447011
 20
-538.082768215783
 11
298.5632978447011
 21
-538.082768215783
 72
     2
 10
298.5632978447011
 20
-538.582768215783
 40
0.5
 50
270.0
 51
450.0
 73
     0
 72
     1
 10
298.5632978447011
 20
-539.082768215783
 11
296.5132978447018
 21
-539.082768215783
 72
     1
 10
296.5132978447018
 20
-539.082768215783
 11
296.5132978447018
 21
-537.082768215783
 72
     1
 10
296.5132978447018
 20
-537.082768215783
 11
295.0132978447018
 21
-537.082768215783
 72
     1
 10
295.0132978447018
 20
-537.082768215783
 11
295.0132978447018
 21
-536.832768215783
 72
     1
 10
295.0132978447018
 20
-536.832768215783
 11
293.3132978447011
 21
-536.832768215783
 72
     1
 10
293.3132978447011
 20
-536.832768215783
 11
293.0132978447018
 21
-536.5327682157819
 72
     1
 10
293.0132978447018
 20
-536.5327682157819
 11
292.7132978447016
 21
-536.832768215783
 72
     1
 10
292.7132978447016
 20
-536.832768215783
 11
291.0132978447018
 21
-536.832768215783
 72
     1
 10
291.0132978447018
 20
-536.832768215783
 11
291.0132978447018
 21
-537.082768215783
 72
     1
 10
291.0132978447018
 20
-537.082768215783
 11
283.6132978447022
 21
-537.082768215783
 72
     1
 10
283.6132978447022
 20
-537.082768215783
 11
283.6132978447022
 21
-547.4327682157833
 72
     1
 10
283.6132978447022
 20
-547.4327682157833
 11
283.2132978447025
 21
-547.832768215783
 72
     1
 10
283.2132978447025
 20
-547.832768215783
 11
283.6132978447022
 21
-548.2327682157826
 72
     1
 10
283.6132978447022
 20
-548.2327682157826
 11
283.6132978447022
 21
-560.4327682157834
 72
     2
 10
283.1132978447022
 20
-560.4327682157834
 40
0.5
 50
360.0
 51
540.0
 73
     0
 72
     1
 10
282.6132978447022
 20
-560.4327682157834
 11
282.6132978447022
 21
-557.9327682157834
 72
     1
 10
282.6132978447022
 20
-557.9327682157834
 11
282.1132978447021
 21
-557.9327682157834
 72
     1
 10
282.1132978447021
 20
-557.9327682157834
 11
282.1132978447021
 21
-555.3523887059295
 72
     2
 10
281.8632978447021
 20
-555.3523887059295
 40
0.2500000000000568
 50
0.0
 51
118.3032891697205
 73
     1
 72
     2
 10
280.1563983314204
 20
-552.1827682157827
 40
3.349999999999953
 50
61.69671083029463
 51
83.79933772847286
 73
     0
 72
     2
 10
280.5452373802949
 20
-555.7617071918021
 40
0.2500000000000245
 50
96.20066227155348
 51
179.8613271455375
 73
     1
 72
     2
 10
278.045244702593
 20
-555.7556564529785
 40
2.250000000000752
 50
0.1386728543899942
 51
75.37639235394634
 73
     0
 97
        1
330
30F3
 92
       16
 93
       34
 72
     1
 10
282.1132978447021
 20
-548.5772169403187
 11
282.1132978447021
 21
-537.7827682157828
 72
     2
 10
281.6132978447022
 20
-537.7827682157828
 40
0.5
 50
0.0
 51
90.0
 73
     1
 72
     1
 10
281.6132978447022
 20
-537.2827682157828
 11
227.7132372803535
 21
-537.2827682157828
 72
     2
 10
227.7132372803535
 20
-537.7827682157828
 40
0.5
 50
90.0
 51
180.0
 73
     1
 72
     1
 10
227.2132372803535
 20
-537.7827682157828
 11
227.2132372803535
 21
-543.9827682157827
 72
     2
 10
227.7132372803535
 20
-543.9827682157827
 40
0.5
 50
180.0
 51
270.0
 73
     1
 72
     1
 10
227.7132372803535
 20
-544.4827682157827
 11
233.1132372803532
 21
-544.4827682157827
 72
     2
 10
233.1132372803532
 20
-544.9827682157827
 40
0.5
 50
270.0
 51
360.0
 73
     0
 72
     1
 10
233.6132372803532
 20
-544.9827682157827
 11
233.6132372803532
 21
-548.5772169403187
 72
     2
 10
234.1132372803531
 20
-548.5772169403191
 40
0.4999999999999432
 50
179.9999999999479
 51
290.527037437425
 73
     1
 72
     2
 10
235.4632372803532
 20
-552.1827682157838
 40
3.350000000000675
 50
249.4729625625099
 51
314.6397729585957
 73
     0
 72
     2
 10
237.2901198709975
 20
-550.3327682157832
 40
0.7500000000003891
 50
314.6397729586123
 51
494.6397729586123
 73
     0
 72
     2
 10
235.4632372803537
 20
-552.182768215783
 40
1.849999999998949
 50
45.36022704141231
 51
314.6397729586188
 73
     1
 72
     2
 10
237.2901198709975
 20
-554.0327682157826
 40
0.7500000000001935
 50
225.3602270414523
 51
405.3602270414583
 73
     0
 72
     2
 10
235.4632372803537
 20
-552.1827682157833
 40
3.349999999999289
 50
45.36022704141162
 51
110.5270374374989
 73
     0
 72
     2
 10
234.1132372803532
 20
-555.7883194912462
 40
0.4999999999999533
 50
69.47296256251404
 51
180.0
 73
     1
 72
     1
 10
233.6132372803532
 20
-555.7883194912462
 11
233.6132372803532
 21
-561.1827682157834
 72
     2
 10
233.1132372803532
 20
-561.1827682157834
 40
0.5
 50
360.0
 51
450.0
 73
     0
 72
     1
 10
233.1132372803532
 20
-561.6827682157834
 11
227.7132372803535
 21
-561.6827682157834
 72
     2
 10
227.7132372803535
 20
-562.1827682157834
 40
0.5
 50
90.0
 51
180.0
 73
     1
 72
     1
 10
227.2132372803535
 20
-562.1827682157834
 11
227.2132372803535
 21
-571.3827682157823
 72
     2
 10
227.7132372803535
 20
-571.3827682157823
 40
0.5
 50
180.0
 51
270.0
 73
     1
 72
     1
 10
227.7132372803535
 20
-571.8827682157823
 11
276.6132978447022
 21
-571.8827682157823
 72
     2
 10
276.6132978447022
 20
-571.3827682157823
 40
0.5
 50
270.0
 51
360.0
 73
     1
 72
     1
 10
277.1132978447022
 20
-571.3827682157823
 11
277.113297844704
 21
-557.9327682157834
 72
     2
 10
278.6132978447039
 20
-557.9327682157835
 40
1.499999999999886
 50
180.0000000000043
 51
255.376392353917
 73
     0
 72
     2
 10
278.0452447025937
 20
-555.7556564529798
 40
0.7499999999999307
 50
284.6236076460947
 51
419.4219440464731
 73
     1
 72
     2
 10
280.1563983314186
 20
-552.182768215779
 40
3.400000000003506
 50
120.5780559534955
 51
134.4153085971463
 73
     0
 72
     2
 10
278.319281024331
 20
-554.0577682157833
 40
0.7750000000003442
 50
134.4153085971932
 51
314.4153085972051
 73
     0
 72
     2
 10
280.1563983314188
 20
-552.182768215783
 40
1.850000000000067
 50
225.5846914028092
 51
494.4153085972106
 73
     1
 72
     2
 10
278.3192810243312
 20
-550.3077682157834
 40
0.7749999999998237
 50
45.58469140282205
 51
225.5846914028192
 73
     0
 72
     2
 10
280.1563983314188
 20
-552.1827682157832
 40
3.399999999999668
 50
225.5846914028049
 51
291.9355856718802
 73
     0
 72
     2
 10
281.6132978447022
 20
-548.5651109893185
 40
0.4999999999999626
 50
248.0644143281104
 51
360.0
 73
     1
 72
     1
 10
282.1132978447021
 20
-548.5651109893185
 11
282.1132978447021
 21
-548.5772169403187
 97
        1
330
30F2
 75
     0
 76
     1
 98
        1
 10
0.0
 20
0.0
  0
HATCH
  5
30F5
330
268F
100
AcDbEntity
  8
APL Hatch
100
AcDbHatch
 10
0.0
 20
0.0
 30
0.0
210
0.0
220
0.0
230
1.0
  2
SOLID
 70
     1
 71
     1
 91
        2
 92
        1
 93
       62
 72
     1
 10
278.6132978447022
 20
-557.9327682157834
 11
278.6132978447022
 21
-566.6827682157834
 72
     1
 10
278.6132978447022
 20
-566.6827682157834
 11
278.2132978447025
 21
-567.082768215783
 72
     1
 10
278.2132978447025
 20
-567.082768215783
 11
278.6132978447022
 21
-567.4827682157826
 72
     1
 10
278.6132978447022
 20
-567.4827682157826
 11
278.6132978447022
 21
-572.082768215783
 72
     1
 10
278.6132978447022
 20
-572.082768215783
 11
280.7107063484318
 21
-572.082768215783
 72
     1
 10
280.7107063484318
 20
-572.082768215783
 11
282.3847444541079
 21
-571.1162618648369
 72
     2
 10
282.5097444541079
 20
-571.3327682157835
 40
0.2500000000003859
 50
240.0000000000661
 51
315.0000000000829
 73
     0
 72
     1
 10
282.686521149405
 20
-571.1559915204868
 11
283.6132978447022
 21
-572.082768215783
 72
     1
 10
283.6132978447022
 20
-572.082768215783
 11
283.6132978447022
 21
-573.5827682157831
 72
     1
 10
283.6132978447022
 20
-573.5827682157831
 11
219.6132372803534
 21
-573.5827682157831
 72
     1
 10
219.6132372803534
 20
-573.5827682157831
 11
219.6132372803534
 21
-571.8827682157823
 72
     1
 10
219.6132372803534
 20
-571.8827682157823
 11
224.6132372803534
 21
-571.8827682157823
 72
     2
 10
224.6132372803534
 20
-570.8827682157823
 40
1.0
 50
270.0
 51
360.0
 73
     1
 72
     1
 10
225.6132372803534
 20
-570.8827682157823
 11
225.6132372803535
 21
-562.1827682157834
 72
     2
 10
227.7132372803537
 20
-562.1827682157832
 40
2.100000000000164
 50
179.9999999999938
 51
269.9999999999954
 73
     0
 72
     1
 10
227.7132372803535
 20
-560.082768215783
 11
232.1132372803532
 21
-560.082768215783
 72
     1
 10
232.1132372803532
 20
-560.082768215783
 11
232.1132372803532
 21
-546.082768215783
 72
     1
 10
232.1132372803532
 20
-546.082768215783
 11
227.7132372803536
 21
-546.0827682157827
 72
     2
 10
227.7132372803535
 20
-543.9827682157827
 40
2.100000000000022
 50
89.9999999999969
 51
180.0
 73
     0
 72
     1
 10
225.6132372803534
 20
-543.9827682157827
 11
225.6132372803534
 21
-537.4827682157826
 72
     1
 10
225.6132372803534
 20
-537.4827682157826
 11
219.6133166097227
 21
-537.4827682157826
 72
     1
 10
219.6133166097227
 20
-537.4827682157826
 11
219.6133166097218
 21
-524.9327682157816
 72
     1
 10
219.6133166097218
 20
-524.9327682157816
 11
230.7633166097221
 21
-524.9327682157816
 72
     1
 10
230.7633166097221
 20
-524.9327682157816
 11
230.7633166097221
 21
-526.1327682157814
 72
     1
 10
230.7633166097221
 20
-526.1327682157814
 11
229.1633166097236
 21
-526.1327682157814
 72
     1
 10
229.1633166097236
 20
-526.1327682157814
 11
229.1633166097236
 21
-526.4327682157816
 72
     1
 10
229.1633166097236
 20
-526.4327682157816
 11
222.1133166097218
 21
-526.4327682157816
 72
     2
 10
222.1133166097218
 20
-527.4327682157815
 40
1.0
 50
90.0
 51
180.0
 73
     1
 72
     1
 10
221.1133166097218
 20
-527.4327682157815
 11
221.1133166097218
 21
-534.582768215783
 72
     2
 10
222.1133166097218
 20
-534.582768215783
 40
1.0
 50
180.0
 51
270.0
 73
     1
 72
     1
 10
222.1133166097218
 20
-535.582768215783
 11
304.6132978447022
 21
-535.582768215783
 72
     1
 10
304.6132978447022
 20
-535.582768215783
 11
304.6132978447022
 21
-539.082768215783
 72
     1
 10
304.6132978447022
 20
-539.082768215783
 11
302.5632978447011
 21
-539.082768215783
 72
     2
 10
302.5632978447011
 20
-538.582768215783
 40
0.5
 50
90.0
 51
270.0
 73
     0
 72
     1
 10
302.5632978447011
 20
-538.082768215783
 11
303.3132978447011
 21
-538.082768215783
 72
     1
 10
303.3132978447011
 20
-538.082768215783
 11
303.3132978447011
 21
-536.5827682157831
 72
     1
 10
303.3132978447011
 20
-536.5827682157831
 11
297.8132978447011
 21
-536.5827682157831
 72
     1
 10
297.8132978447011
 20
-536.5827682157831
 11
297.8132978447011
 21
-538.082768215783
 72
     1
 10
297.8132978447011
 20
-538.082768215783
 11
298.5632978447011
 21
-538.082768215783
 72
     2
 10
298.5632978447011
 20
-538.582768215783
 40
0.5
 50
270.0
 51
450.0
 73
     0
 72
     1
 10
298.5632978447011
 20
-539.082768215783
 11
296.5132978447018
 21
-539.082768215783
 72
     1
 10
296.5132978447018
 20
-539.082768215783
 11
296.5132978447018
 21
-537.082768215783
 72
     1
 10
296.5132978447018
 20
-537.082768215783
 11
295.0132978447018
 21
-537.082768215783
 72
     1
 10
295.0132978447018
 20
-537.082768215783
 11
295.0132978447018
 21
-536.832768215783
 72
     1
 10
295.0132978447018
 20
-536.832768215783
 11
293.3132978447011
 21
-536.832768215783
 72
     1
 10
293.3132978447011
 20
-536.832768215783
 11
293.0132978447018
 21
-536.5327682157819
 72
     1
 10
293.0132978447018
 20
-536.5327682157819
 11
292.7132978447016
 21
-536.832768215783
 72
     1
 10
292.7132978447016
 20
-536.832768215783
 11
291.0132978447018
 21
-536.832768215783
 72
     1
 10
291.0132978447018
 20
-536.832768215783
 11
291.0132978447018
 21
-537.082768215783
 72
     1
 10
291.0132978447018
 20
-537.082768215783
 11
283.6132978447022
 21
-537.082768215783
 72
     1
 10
283.6132978447022
 20
-537.082768215783
 11
283.6132978447022
 21
-547.4327682157833
 72
     1
 10
283.6132978447022
 20
-547.4327682157833
 11
283.2132978447025
 21
-547.832768215783
 72
     1
 10
283.2132978447025
 20
-547.832768215783
 11
283.6132978447022
 21
-548.2327682157826
 72
     1
 10
283.6132978447022
 20
-548.2327682157826
 11
283.6132978447022
 21
-560.4327682157834
 72
     2
 10
283.1132978447022
 20
-560.4327682157834
 40
0.5
 50
360.0
 51
540.0
 73
     0
 72
     1
 10
282.6132978447022
 20
-560.4327682157834
 11
282.6132978447022
 21
-557.9327682157834
 72
     1
 10
282.6132978447022
 20
-557.9327682157834
 11
282.1132978447021
 21
-557.9327682157834
 72
     1
 10
282.1132978447021
 20
-557.9327682157834
 11
282.1132978447021
 21
-555.3523887059295
 72
     2
 10
281.8632978447021
 20
-555.3523887059295
 40
0.2500000000000568
 50
0.0
 51
118.3032891697205
 73
     1
 72
     2
 10
280.1563983314204
 20
-552.1827682157827
 40
3.349999999999953
 50
61.69671083029463
 51
83.79933772847286
 73
     0
 72
     2
 10
280.5452373802949
 20
-555.7617071918021
 40
0.2500000000000245
 50
96.20066227155348
 51
179.8613271455375
 73
     1
 72
     2
 10
278.045244702593
 20
-555.7556564529785
 40
2.250000000000752
 50
0.1386728543899942
 51
75.37639235394634
 73
     0
 97
        1
330
30F3
 92
       16
 93
       34
 72
     1
 10
282.1132978447021
 20
-548.5772169403187
 11
282.1132978447021
 21
-537.7827682157828
 72
     2
 10
281.6132978447022
 20
-537.7827682157828
 40
0.5
 50
0.0
 51
90.0
 73
     1
 72
     1
 10
281.6132978447022
 20
-537.2827682157828
 11
227.7132372803535
 21
-537.2827682157828
 72
     2
 10
227.7132372803535
 20
-537.7827682157828
 40
0.5
 50
90.0
 51
180.0
 73
     1
 72
     1
 10
227.2132372803535
 20
-537.7827682157828
 11
227.2132372803535
 21
-543.9827682157827
 72
     2
 10
227.7132372803535
 20
-543.9827682157827
 40
0.5
 50
180.0
 51
270.0
 73
     1
 72
     1
 10
227.7132372803535
 20
-544.4827682157827
 11
233.1132372803532
 21
-544.4827682157827
 72
     2
 10
233.1132372803532
 20
-544.9827682157827
 40
0.5
 50
270.0
 51
360.0
 73
     0
 72
     1
 10
233.6132372803532
 20
-544.9827682157827
 11
233.6132372803532
 21
-548.5772169403187
 72
     2
 10
234.1132372803531
 20
-548.5772169403191
 40
0.4999999999999432
 50
179.9999999999479
 51
290.527037437425
 73
     1
 72
     2
 10
235.4632372803532
 20
-552.1827682157838
 40
3.350000000000675
 50
249.4729625625099
 51
314.6397729585957
 73
     0
 72
     2
 10
237.2901198709975
 20
-550.3327682157832
 40
0.7500000000003891
 50
314.6397729586123
 51
494.6397729586123
 73
     0
 72
     2
 10
235.4632372803537
 20
-552.182768215783
 40
1.849999999998949
 50
45.36022704141231
 51
314.6397729586188
 73
     1
 72
     2
 10
237.2901198709975
 20
-554.0327682157826
 40
0.7500000000001935
 50
225.3602270414523
 51
405.3602270414583
 73
     0
 72
     2
 10
235.4632372803537
 20
-552.1827682157833
 40
3.349999999999289
 50
45.36022704141162
 51
110.5270374374989
 73
     0
 72
     2
 10
234.1132372803532
 20
-555.7883194912462
 40
0.4999999999999533
 50
69.47296256251404
 51
180.0
 73
     1
 72
     1
 10
233.6132372803532
 20
-555.7883194912462
 11
233.6132372803532
 21
-561.1827682157834
 72
     2
 10
233.1132372803532
 20
-561.1827682157834
 40
0.5
 50
360.0
 51
450.0
 73
     0
 72
     1
 10
233.1132372803532
 20
-561.6827682157834
 11
227.7132372803535
 21
-561.6827682157834
 72
     2
 10
227.7132372803535
 20
-562.1827682157834
 40
0.5
 50
90.0
 51
180.0
 73
     1
 72
     1
 10
227.2132372803535
 20
-562.1827682157834
 11
227.2132372803535
 21
-571.3827682157823
 72
     2
 10
227.7132372803535
 20
-571.3827682157823
 40
0.5
 50
180.0
 51
270.0
 73
     1
 72
     1
 10
227.7132372803535
 20
-571.8827682157823
 11
276.6132978447022
 21
-571.8827682157823
 72
     2
 10
276.6132978447022
 20
-571.3827682157823
 40
0.5
 50
270.0
 51
360.0
 73
     1
 72
     1
 10
277.1132978447022
 20
-571.3827682157823
 11
277.113297844704
 21
-557.9327682157834
 72
     2
 10
278.6132978447039
 20
-557.9327682157835
 40
1.499999999999886
 50
180.0000000000043
 51
255.376392353917
 73
     0
 72
     2
 10
278.0452447025937
 20
-555.7556564529798
 40
0.7499999999999307
 50
284.6236076460947
 51
419.4219440464731
 73
     1
 72
     2
 10
280.1563983314186
 20
-552.182768215779
 40
3.400000000003506
 50
120.5780559534955
 51
134.4153085971463
 73
     0
 72
     2
 10
278.319281024331
 20
-554.0577682157833
 40
0.7750000000003442
 50
134.4153085971932
 51
314.4153085972051
 73
     0
 72
     2
 10
280.1563983314188
 20
-552.182768215783
 40
1.850000000000067
 50
225.5846914028092
 51
494.4153085972106
 73
     1
 72
     2
 10
278.3192810243312
 20
-550.3077682157834
 40
0.7749999999998237
 50
45.58469140282205
 51
225.5846914028192
 73
     0
 72
     2
 10
280.1563983314188
 20
-552.1827682157832
 40
3.399999999999668
 50
225.5846914028049
 51
291.9355856718802
 73
     0
 72
     2
 10
281.6132978447022
 20
-548.5651109893185
 40
0.4999999999999626
 50
248.0644143281104
 51
360.0
 73
     1
 72
     1
 10
282.1132978447021
 20
-548.5651109893185
 11
282.1132978447021
 21
-548.5772169403187
 97
        1
330
30F2
 75
     0
 76
     1
 98
        1
 10
0.0
 20
0.0
  0
HATCH
  5
30F6
330
268F
100
AcDbEntity
  8
APL Hatch
100
AcDbHatch
 10
0.0
 20
0.0
 30
0.0
210
0.0
220
0.0
230
1.0
  2
SOLID
 70
     1
 71
     1
 91
        2
 92
        7
 72
     1
 73
     1
 93
       62
 10
293.0132978447018
 20
-536.5327682157819
 42
0.0
 10
293.3132978447011
 20
-536.832768215783
 42
0.0
 10
295.0132978447018
 20
-536.832768215783
 42
0.0
 10
295.0132978447018
 20
-537.082768215783
 42
0.0
 10
296.5132978447018
 20
-537.082768215783
 42
0.0
 10
296.5132978447018
 20
-539.082768215783
 42
0.0
 10
298.5632978447011
 20
-539.082768215783
 42
1.0
 10
298.5632978447011
 20
-538.082768215783
 42
0.0
 10
297.8132978447011
 20
-538.082768215783
 42
0.0
 10
297.8132978447011
 20
-536.5827682157831
 42
0.0
 10
303.3132978447011
 20
-536.5827682157831
 42
0.0
 10
303.3132978447011
 20
-538.082768215783
 42
0.0
 10
302.5632978447011
 20
-538.082768215783
 42
1.0
 10
302.5632978447011
 20
-539.082768215783
 42
0.0
 10
304.6132978447022
 20
-539.082768215783
 42
0.0
 10
304.6132978447022
 20
-535.582768215783
 42
0.0
 10
222.1133166097218
 20
-535.582768215783
 42
-0.4142135623730951
 10
221.1133166097218
 20
-534.582768215783
 42
0.0
 10
221.1133166097218
 20
-527.4327682157815
 42
-0.4142135623730951
 10
222.1133166097218
 20
-526.4327682157816
 42
0.0
 10
229.1633166097236
 20
-526.4327682157817
 42
0.0
 10
229.1633166097236
 20
-526.1327682157814
 42
0.0
 10
230.7633166097221
 20
-526.1327682157814
 42
0.0
 10
230.7633166097221
 20
-524.9327682157816
 42
0.0
 10
219.6133166097218
 20
-524.9327682157814
 42
0.0
 10
219.6133166097227
 20
-537.4827682157826
 42
0.0
 10
225.6132372803534
 20
-537.4827682157826
 42
0.0
 10
225.6132372803534
 20
-543.9827682157827
 42
0.4142135623730637
 10
227.7132372803533
 20
-546.0827682157827
 42
0.0
 10
232.1132372803532
 20
-546.0827682157829
 42
0.0
 10
232.1132372803532
 20
-560.082768215783
 42
0.0
 10
227.7132372803537
 20
-560.082768215783
 42
0.4142135623730954
 10
225.6132372803535
 20
-562.1827682157832
 42
0.0
 10
225.6132372803534
 20
-570.8827682157823
 42
-0.4142135623730951
 10
224.6132372803534
 20
-571.8827682157823
 42
0.0
 10
219.6132372803534
 20
-571.8827682157824
 42
0.0
 10
219.6132372803534
 20
-573.5827682157831
 42
0.0
 10
283.6132978447022
 20
-573.5827682157831
 42
0.0
 10
283.6132978447022
 20
-572.082768215783
 42
0.0
 10
282.6865211494047
 20
-571.1559915204865
 42
0.3394542588632171
 10
282.3847444541076
 20
-571.116261864837
 42
0.0
 10
280.7107063484316
 20
-572.082768215783
 42
0.0
 10
278.6132978447022
 20
-572.082768215783
 42
0.0
 10
278.6132978447022
 20
-567.4827682157826
 42
0.0
 10
278.2132978447025
 20
-567.0827682157829
 42
0.0
 10
278.6132978447022
 20
-566.6827682157835
 42
0.0
 10
278.6132978447022
 20
-557.9327682157834
 42
0.3406114348430245
 10
280.2952381125249
 20
-555.7611021179197
 42
-0.3821661969553362
 10
280.5182346685676
 20
-555.5131697629117
 42
0.0967410137952378
 10
281.7447631562798
 20
-555.1322761718916
 42
-0.5675210391690758
 10
282.1132978447021
 20
-555.3523887059297
 42
0.0
 10
282.1132978447021
 20
-557.9327682157834
 42
0.0
 10
282.6132978447022
 20
-557.9327682157834
 42
0.0
 10
282.6132978447022
 20
-560.4327682157834
 42
1.0
 10
283.6132978447022
 20
-560.4327682157834
 42
0.0
 10
283.6132978447022
 20
-548.2327682157826
 42
0.0
 10
283.2132978447025
 20
-547.832768215783
 42
0.0
 10
283.6132978447022
 20
-547.4327682157835
 42
0.0
 10
283.6132978447022
 20
-537.082768215783
 42
0.0
 10
291.0132978447018
 20
-537.082768215783
 42
0.0
 10
291.0132978447018
 20
-536.832768215783
 42
0.0
 10
292.7132978447017
 20
-536.832768215783
 42
0.0
 97
        1
330
30F3
 92
       22
 72
     1
 73
     1
 93
       33
 10
281.6132978447022
 20
-537.2827682157828
 42
-0.4142135623730951
 10
282.1132978447021
 20
-537.7827682157828
 42
0.0
 10
282.1132978447021
 20
-548.5651109893185
 42
-0.5313489649887458
 10
281.4265158558196
 20
-549.0289131978397
 42
0.2978796563632284
 10
277.7768940098579
 20
-549.7541967872122
 42
1.0
 10
278.8616680388045
 20
-550.8613396443547
 42
-2.37979589711373
 10
278.8616680388047
 20
-553.5041967872116
 42
1.0
 10
277.776894009858
 20
-554.6113396443555
 42
0.0604498752215302
 10
278.4267784909352
 20
-555.1099537595104
 42
-0.6669066090351117
 10
278.2345957499638
 20
-556.4813603739144
 42
0.3412868470081843
 10
277.113297844704
 20
-557.9327682157833
 42
0.0
 10
277.1132978447022
 20
-571.3827682157824
 42
-0.4142135623730284
 10
276.6132978447022
 20
-571.8827682157823
 42
0.0
 10
227.7132372803535
 20
-571.8827682157823
 42
-0.4142135623730951
 10
227.2132372803535
 20
-571.3827682157823
 42
0.0
 10
227.2132372803535
 20
-562.1827682157834
 42
-0.4142135623730951
 10
227.7132372803535
 20
-561.6827682157834
 42
0.0
 10
233.1132372803532
 20
-561.6827682157834
 42
0.4142135623730951
 10
233.6132372803532
 20
-561.1827682157834
 42
0.0
 10
233.6132372803532
 20
-555.7883194912462
 42
-0.5234933716074931
 10
234.2885619556779
 20
-555.3200660788483
 42
0.2922632705254838
 10
237.8171052336836
 20
-554.5664220619366
 42
1.0
 10
236.7631345083117
 20
-553.4991143696283
 42
-2.392909508456353
 10
236.7631345083114
 20
-550.8664220619374
 42
1.0
 10
237.8171052336836
 20
-549.7991143696291
 42
0.2922632705253652
 10
234.2885619556778
 20
-549.0454703527172
 42
-0.5234933716073983
 10
233.6132372803532
 20
-548.5772169403193
 42
0.0
 10
233.6132372803532
 20
-544.9827682157827
 42
0.4142135623730951
 10
233.1132372803532
 20
-544.4827682157827
 42
0.0
 10
227.7132372803535
 20
-544.4827682157827
 42
-0.4142135623730951
 10
227.2132372803535
 20
-543.9827682157827
 42
0.0
 10
227.2132372803535
 20
-537.7827682157828
 42
-0.4142135623730951
 10
227.7132372803535
 20
-537.2827682157828
 42
0.0
 97
        1
330
30F2
 75
     0
 76
     1
 47
0.1830847593484632
 98
        2
 10
277.1046863708275
 20
-536.5823963690102
 10
277.1046863708275
 20
-536.5823963690102
  0
HATCH
  5
30F7
330
268F
100
AcDbEntity
  8
APL Hatch
100
AcDbHatch
 10
0.0
 20
0.0
 30
0.0
210
0.0
220
0.0
230
1.0
  2
SOLID
 70
     1
 71
     1
 91
        2
 92
        1
 93
       62
 72
     1
 10
278.6132978447022
 20
-557.9327682157834
 11
278.6132978447022
 21
-566.6827682157834
 72
     1
 10
278.6132978447022
 20
-566.6827682157834
 11
278.2132978447025
 21
-567.082768215783
 72
     1
 10
278.2132978447025
 20
-567.082768215783
 11
278.6132978447022
 21
-567.4827682157826
 72
     1
 10
278.6132978447022
 20
-567.4827682157826
 11
278.6132978447022
 21
-572.082768215783
 72
     1
 10
278.6132978447022
 20
-572.082768215783
 11
280.7107063484318
 21
-572.082768215783
 72
     1
 10
280.7107063484318
 20
-572.082768215783
 11
282.3847444541079
 21
-571.1162618648369
 72
     2
 10
282.5097444541079
 20
-571.3327682157835
 40
0.2500000000003859
 50
240.0000000000661
 51
315.0000000000829
 73
     0
 72
     1
 10
282.686521149405
 20
-571.1559915204868
 11
283.6132978447022
 21
-572.082768215783
 72
     1
 10
283.6132978447022
 20
-572.082768215783
 11
283.6132978447022
 21
-573.5827682157831
 72
     1
 10
283.6132978447022
 20
-573.5827682157831
 11
219.6132372803534
 21
-573.5827682157831
 72
     1
 10
219.6132372803534
 20
-573.5827682157831
 11
219.6132372803534
 21
-571.8827682157823
 72
     1
 10
219.6132372803534
 20
-571.8827682157823
 11
224.6132372803534
 21
-571.8827682157823
 72
     2
 10
224.6132372803534
 20
-570.8827682157823
 40
1.0
 50
270.0
 51
360.0
 73
     1
 72
     1
 10
225.6132372803534
 20
-570.8827682157823
 11
225.6132372803535
 21
-562.1827682157834
 72
     2
 10
227.7132372803537
 20
-562.1827682157832
 40
2.100000000000164
 50
179.9999999999938
 51
269.9999999999954
 73
     0
 72
     1
 10
227.7132372803535
 20
-560.082768215783
 11
232.1132372803532
 21
-560.082768215783
 72
     1
 10
232.1132372803532
 20
-560.082768215783
 11
232.1132372803532
 21
-546.082768215783
 72
     1
 10
232.1132372803532
 20
-546.082768215783
 11
227.7132372803536
 21
-546.0827682157827
 72
     2
 10
227.7132372803535
 20
-543.9827682157827
 40
2.100000000000022
 50
89.9999999999969
 51
180.0
 73
     0
 72
     1
 10
225.6132372803534
 20
-543.9827682157827
 11
225.6132372803534
 21
-537.4827682157826
 72
     1
 10
225.6132372803534
 20
-537.4827682157826
 11
219.6133166097227
 21
-537.4827682157826
 72
     1
 10
219.6133166097227
 20
-537.4827682157826
 11
219.6133166097218
 21
-524.9327682157816
 72
     1
 10
219.6133166097218
 20
-524.9327682157816
 11
230.7633166097221
 21
-524.9327682157816
 72
     1
 10
230.7633166097221
 20
-524.9327682157816
 11
230.7633166097221
 21
-526.1327682157814
 72
     1
 10
230.7633166097221
 20
-526.1327682157814
 11
229.1633166097236
 21
-526.1327682157814
 72
     1
 10
229.1633166097236
 20
-526.1327682157814
 11
229.1633166097236
 21
-526.4327682157816
 72
     1
 10
229.1633166097236
 20
-526.4327682157816
 11
222.1133166097218
 21
-526.4327682157816
 72
     2
 10
222.1133166097218
 20
-527.4327682157815
 40
1.0
 50
90.0
 51
180.0
 73
     1
 72
     1
 10
221.1133166097218
 20
-527.4327682157815
 11
221.1133166097218
 21
-534.582768215783
 72
     2
 10
222.1133166097218
 20
-534.582768215783
 40
1.0
 50
180.0
 51
270.0
 73
     1
 72
     1
 10
222.1133166097218
 20
-535.582768215783
 11
304.6132978447022
 21
-535.582768215783
 72
     1
 10
304.6132978447022
 20
-535.582768215783
 11
304.6132978447022
 21
-539.082768215783
 72
     1
 10
304.6132978447022
 20
-539.082768215783
 11
302.5632978447011
 21
-539.082768215783
 72
     2
 10
302.5632978447011
 20
-538.582768215783
 40
0.5
 50
90.0
 51
270.0
 73
     0
 72
     1
 10
302.5632978447011
 20
-538.082768215783
 11
303.3132978447011
 21
-538.082768215783
 72
     1
 10
303.3132978447011
 20
-538.082768215783
 11
303.3132978447011
 21
-536.5827682157831
 72
     1
 10
303.3132978447011
 20
-536.5827682157831
 11
297.8132978447011
 21
-536.5827682157831
 72
     1
 10
297.8132978447011
 20
-536.5827682157831
 11
297.8132978447011
 21
-538.082768215783
 72
     1
 10
297.8132978447011
 20
-538.082768215783
 11
298.5632978447011
 21
-538.082768215783
 72
     2
 10
298.5632978447011
 20
-538.582768215783
 40
0.5
 50
270.0
 51
450.0
 73
     0
 72
     1
 10
298.5632978447011
 20
-539.082768215783
 11
296.5132978447018
 21
-539.082768215783
 72
     1
 10
296.5132978447018
 20
-539.082768215783
 11
296.5132978447018
 21
-537.082768215783
 72
     1
 10
296.5132978447018
 20
-537.082768215783
 11
295.0132978447018
 21
-537.082768215783
 72
     1
 10
295.0132978447018
 20
-537.082768215783
 11
295.0132978447018
 21
-536.832768215783
 72
     1
 10
295.0132978447018
 20
-536.832768215783
 11
293.3132978447011
 21
-536.832768215783
 72
     1
 10
293.3132978447011
 20
-536.832768215783
 11
293.0132978447018
 21
-536.5327682157819
 72
     1
 10
293.0132978447018
 20
-536.5327682157819
 11
292.7132978447016
 21
-536.832768215783
 72
     1
 10
292.7132978447016
 20
-536.832768215783
 11
291.0132978447018
 21
-536.832768215783
 72
     1
 10
291.0132978447018
 20
-536.832768215783
 11
291.0132978447018
 21
-537.082768215783
 72
     1
 10
291.0132978447018
 20
-537.082768215783
 11
283.6132978447022
 21
-537.082768215783
 72
     1
 10
283.6132978447022
 20
-537.082768215783
 11
283.6132978447022
 21
-547.4327682157833
 72
     1
 10
283.6132978447022
 20
-547.4327682157833
 11
283.2132978447025
 21
-547.832768215783
 72
     1
 10
283.2132978447025
 20
-547.832768215783
 11
283.6132978447022
 21
-548.2327682157826
 72
     1
 10
283.6132978447022
 20
-548.2327682157826
 11
283.6132978447022
 21
-560.4327682157834
 72
     2
 10
283.1132978447022
 20
-560.4327682157834
 40
0.5
 50
360.0
 51
540.0
 73
     0
 72
     1
 10
282.6132978447022
 20
-560.4327682157834
 11
282.6132978447022
 21
-557.9327682157834
 72
     1
 10
282.6132978447022
 20
-557.9327682157834
 11
282.1132978447021
 21
-557.9327682157834
 72
     1
 10
282.1132978447021
 20
-557.9327682157834
 11
282.1132978447021
 21
-555.3523887059295
 72
     2
 10
281.8632978447021
 20
-555.3523887059295
 40
0.2500000000000568
 50
0.0
 51
118.3032891697205
 73
     1
 72
     2
 10
280.1563983314204
 20
-552.1827682157827
 40
3.349999999999953
 50
61.69671083029463
 51
83.79933772847286
 73
     0
 72
     2
 10
280.5452373802949
 20
-555.7617071918021
 40
0.2500000000000245
 50
96.20066227155348
 51
179.8613271455375
 73
     1
 72
     2
 10
278.045244702593
 20
-555.7556564529785
 40
2.250000000000752
 50
0.1386728543899942
 51
75.37639235394634
 73
     0
 97
        1
330
30F3
 92
       16
 93
       34
 72
     1
 10
282.1132978447021
 20
-548.5772169403187
 11
282.1132978447021
 21
-537.7827682157828
 72
     2
 10
281.6132978447022
 20
-537.7827682157828
 40
0.5
 50
0.0
 51
90.0
 73
     1
 72
     1
 10
281.6132978447022
 20
-537.2827682157828
 11
227.7132372803535
 21
-537.2827682157828
 72
     2
 10
227.7132372803535
 20
-537.7827682157828
 40
0.5
 50
90.0
 51
180.0
 73
     1
 72
     1
 10
227.2132372803535
 20
-537.7827682157828
 11
227.2132372803535
 21
-543.9827682157827
 72
     2
 10
227.7132372803535
 20
-543.9827682157827
 40
0.5
 50
180.0
 51
270.0
 73
     1
 72
     1
 10
227.7132372803535
 20
-544.4827682157827
 11
233.1132372803532
 21
-544.4827682157827
 72
     2
 10
233.1132372803532
 20
-544.9827682157827
 40
0.5
 50
270.0
 51
360.0
 73
     0
 72
     1
 10
233.6132372803532
 20
-544.9827682157827
 11
233.6132372803532
 21
-548.5772169403187
 72
     2
 10
234.1132372803531
 20
-548.5772169403191
 40
0.4999999999999432
 50
179.9999999999479
 51
290.527037437425
 73
     1
 72
     2
 10
235.4632372803532
 20
-552.1827682157838
 40
3.350000000000675
 50
249.4729625625099
 51
314.6397729585957
 73
     0
 72
     2
 10
237.2901198709975
 20
-550.3327682157832
 40
0.7500000000003891
 50
314.6397729586123
 51
494.6397729586123
 73
     0
 72
     2
 10
235.4632372803537
 20
-552.182768215783
 40
1.849999999998949
 50
45.36022704141231
 51
314.6397729586188
 73
     1
 72
     2
 10
237.2901198709975
 20
-554.0327682157826
 40
0.7500000000001935
 50
225.3602270414523
 51
405.3602270414583
 73
     0
 72
     2
 10
235.4632372803537
 20
-552.1827682157833
 40
3.349999999999289
 50
45.36022704141162
 51
110.5270374374989
 73
     0
 72
     2
 10
234.1132372803532
 20
-555.7883194912462
 40
0.4999999999999533
 50
69.47296256251404
 51
180.0
 73
     1
 72
     1
 10
233.6132372803532
 20
-555.7883194912462
 11
233.6132372803532
 21
-561.1827682157834
 72
     2
 10
233.1132372803532
 20
-561.1827682157834
 40
0.5
 50
360.0
 51
450.0
 73
     0
 72
     1
 10
233.1132372803532
 20
-561.6827682157834
 11
227.7132372803535
 21
-561.6827682157834
 72
     2
 10
227.7132372803535
 20
-562.1827682157834
 40
0.5
 50
90.0
 51
180.0
 73
     1
 72
     1
 10
227.2132372803535
 20
-562.1827682157834
 11
227.2132372803535
 21
-571.3827682157823
 72
     2
 10
227.7132372803535
 20
-571.3827682157823
 40
0.5
 50
180.0
 51
270.0
 73
     1
 72
     1
 10
227.7132372803535
 20
-571.8827682157823
 11
276.6132978447022
 21
-571.8827682157823
 72
     2
 10
276.6132978447022
 20
-571.3827682157823
 40
0.5
 50
270.0
 51
360.0
 73
     1
 72
     1
 10
277.1132978447022
 20
-571.3827682157823
 11
277.113297844704
 21
-557.9327682157834
 72
     2
 10
278.6132978447039
 20
-557.9327682157835
 40
1.499999999999886
 50
180.0000000000043
 51
255.376392353917
 73
     0
 72
     2
 10
278.0452447025937
 20
-555.7556564529798
 40
0.7499999999999307
 50
284.6236076460947
 51
419.4219440464731
 73
     1
 72
     2
 10
280.1563983314186
 20
-552.182768215779
 40
3.400000000003506
 50
120.5780559534955
 51
134.4153085971463
 73
     0
 72
     2
 10
278.319281024331
 20
-554.0577682157833
 40
0.7750000000003442
 50
134.4153085971932
 51
314.4153085972051
 73
     0
 72
     2
 10
280.1563983314188
 20
-552.182768215783
 40
1.850000000000067
 50
225.5846914028092
 51
494.4153085972106
 73
     1
 72
     2
 10
278.3192810243312
 20
-550.3077682157834
 40
0.7749999999998237
 50
45.58469140282205
 51
225.5846914028192
 73
     0
 72
     2
 10
280.1563983314188
 20
-552.1827682157832
 40
3.399999999999668
 50
225.5846914028049
 51
291.9355856718802
 73
     0
 72
     2
 10
281.6132978447022
 20
-548.5651109893185
 40
0.4999999999999626
 50
248.0644143281104
 51
360.0
 73
     1
 72
     1
 10
282.1132978447021
 20
-548.5651109893185
 11
282.1132978447021
 21
-548.5772169403187
 97
        1
330
30F2
 75
     0
 76
     1
 98
        1
 10
0.0
 20
0.0
  0
ENDBLK
  5
2691
330
268F
100
AcDbEntity
  8
0
100
AcDbBlockEnd
  0
BLOCK
  5
2696
330
2695
100
AcDbEntity
  8
0
100
AcDbBlockBegin
  2
Timber Profile 1
 70
     0
 10
294.3509774584608
 20
1107.823326522199
 30
0.0
  3
Timber Profile 1
  1
Timber Profile 1.dwg
  0
LINE
  5
30FA
330
2695
100
AcDbEntity
  8
APL Joinery
  6
Continuous
 62
     3
100
AcDbLine
 10
285.0509774584604
 20
1180.623307757179
 30
0.0
 11
301.4509774584591
 21
1180.623307757179
 31
0.0
  0
LINE
  5
30FB
330
2695
100
AcDbEntity
  8
APL Joinery
  6
Continuous
 62
     3
100
AcDbLine
 10
298.4509774584591
 20
1092.623326522199
 30
0.0
 11
294.4509774584609
 21
1092.623326522199
 31
0.0
  0
SPLINE
  5
30FC
330
2695
100
AcDbEntity
  8
APL Joinery
 62
     8
100
AcDbSpline
210
0.0
220
0.0
230
1.0
 70
     8
 71
     3
 72
    11
 73
     7
 74
     5
 42
0.0000000001
 43
0.0000000001
 44
0.0000000001
 40
0.0
 40
0.0
 40
0.0
 40
0.0
 40
16.10174676032533
 40
22.59275029292009
 40
30.2492484102006
 40
34.11943844864421
 40
34.11943844864421
 40
34.11943844864421
 40
34.11943844864421
 10
299.535773254642
 20
1178.559723723254
 30
0.0
 10
299.8210734651973
 20
1172.934762641037
 30
0.0
 10
300.2213850904847
 20
1165.042243709422
 30
0.0
 10
293.937184588139
 20
1156.759072835421
 30
0.0
 10
288.5557171353333
 20
1153.526619425577
 30
0.0
 10
287.0540020524256
 20
1149.917911928341
 30
0.0
 10
286.5497876001969
 20
1148.706255672981
 30
0.0
 11
299.535773254642
 21
1178.559723723254
 31
0.0
 11
297.8043084194837
 21
1162.551342222982
 31
0.0
 11
293.9085128449986
 21
1157.359434702428
 31
0.0
 11
288.2812524353552
 21
1152.167527181875
 31
0.0
 11
286.5497876001969
 21
1148.706255672981
 31
0.0
  0
LINE
  5
30FD
330
2695
100
AcDbEntity
  8
APL Joinery
  6
Continuous
 62
     3
100
AcDbLine
 10
292.3509774584605
 20
1108.623326522199
 30
0.0
 11
292.3509774584605
 21
1105.323326522198
 31
0.0
  0
LINE
  5
30FE
330
2695
100
AcDbEntity
  8
APL Joinery
  6
Continuous
 62
     3
100
AcDbLine
 10
294.4509774584609
 20
1092.623326522199
 30
0.0
 11
294.4509774584609
 21
1108.623326522199
 31
0.0
  0
LINE
  5
30FF
330
2695
100
AcDbEntity
  8
APL Joinery
  6
Continuous
 62
     3
100
AcDbLine
 10
285.0509774584604
 20
1105.323326522198
 30
0.0
 11
285.0509774584604
 21
1180.623307757179
 31
0.0
  0
LINE
  5
3100
330
2695
100
AcDbEntity
  8
APL Joinery
  6
Continuous
 62
     3
100
AcDbLine
 10
292.3509774584605
 20
1105.323326522198
 30
0.0
 11
285.0509774584604
 21
1105.323326522198
 31
0.0
  0
LINE
  5
3101
330
2695
100
AcDbEntity
  8
APL Joinery
  6
Continuous
 62
     3
100
AcDbLine
 10
294.4509774584609
 20
1108.623326522199
 30
0.0
 11
292.3509774584605
 21
1108.623326522199
 31
0.0
  0
SPLINE
  5
3102
330
2695
100
AcDbEntity
  8
APL Joinery
 62
     8
100
AcDbSpline
210
0.0
220
0.0
230
1.0
 70
     8
 71
     3
 72
    10
 73
     6
 74
     4
 42
0.0000000001
 43
0.0000000001
 44
0.0000000001
 40
0.0
 40
0.0
 40
0.0
 40
0.0
 40
5.263591546577339
 40
10.30985873790608
 40
15.81802698952888
 40
15.81802698952888
 40
15.81802698952888
 40
15.81802698952888
 10
293.9085128449986
 20
1178.559723723254
 30
0.0
 10
293.764626863349
 20
1176.784831942582
 30
0.0
 10
293.4827956969209
 20
1173.308330513496
 30
0.0
 10
290.4953115672669
 20
1168.755973753718
 30
0.0
 10
287.9027818136302
 20
1166.384779398832
 30
0.0
 10
286.5497876001969
 20
1165.147296111865
 30
0.0
 11
293.9085128449986
 21
1178.559723723254
 31
0.0
 11
293.0427806305002
 21
1173.367816202701
 31
0.0
 11
290.4455831746819
 21
1169.041226559371
 31
0.0
 11
286.5497876001969
 21
1165.147296111865
 31
0.0
  0
LINE
  5
3103
330
2695
100
AcDbEntity
  8
APL Joinery
  6
Continuous
 62
     3
100
AcDbLine
 10
301.4509774584591
 20
1180.623307757179
 30
0.0
 11
301.4509774584591
 21
1095.623326522199
 31
0.0
  0
ARC
  5
3104
330
2695
100
AcDbEntity
  8
APL Joinery
  6
Continuous
 62
     3
100
AcDbCircle
 10
298.4509774584591
 20
1095.623326522199
 30
0.0
 40
3.0
100
AcDbArc
 50
270.0
 51
0.0
  0
ENDBLK
  5
2697
330
2695
100
AcDbEntity
  8
0
100
AcDbBlockEnd
  0
BLOCK
  5
269C
330
269B
100
AcDbEntity
  8
0
100
AcDbBlockBegin
  2
9700524
 70
     0
 10
581.3376910851161
 20
273.233702793776
 30
0.0
  3
9700524
  1
9700524.dwg
  0
LWPOLYLINE
  5
3106
330
269B
100
AcDbEntity
  8
APL Joinery
  6
Continuous
 62
     8
100
AcDbPolyline
 90
       12
 70
     1
 43
0.0
 10
571.7376910851152
 20
274.6837027937748
 10
579.3876910851156
 20
274.6837027937748
 10
579.3876910851156
 20
277.2837027937752
 10
581.3876910851156
 20
277.2837027937752
 10
581.3876910851156
 20
273.3837027937755
 10
580.0876910851163
 20
273.3837027937755
 10
580.0876910851163
 20
271.7837027937751
 10
578.7876910851162
 20
271.7837027937751
 10
578.7876910851162
 20
273.3837027937755
 10
570.737691085115
 20
273.3837027937755
 10
570.737691085115
 20
346.8337027937745
 10
571.7376910851142
 20
346.8337027937745
  0
ENDBLK
  5
269D
330
269B
100
AcDbEntity
  8
0
100
AcDbBlockEnd
  0
BLOCK
  5
26AB
330
26AA
100
AcDbEntity
  8
0
100
AcDbBlockBegin
  2
9010604
 70
     0
 10
-20.17351297792279
 20
130.681482016425
 30
0.0
  3
9010604
  1
9010604.dwg
  0
LWPOLYLINE
  5
310C
330
26AA
100
AcDbEntity
  8
APL Joinery
 62
   252
100
AcDbPolyline
 90
        2
 70
     0
 43
0.0
 10
16.60163658520415
 20
134.3235541766534
 42
0.6709480368361744
 10
16.17351297792268
 20
134.1481347349457
210
0.0
220
0.0
230
-1.0
  0
LWPOLYLINE
  5
310D
330
26AA
100
AcDbEntity
  8
APL Joinery
 62
   252
100
AcDbPolyline
 90
        2
 70
     0
 43
0.0
 10
16.67351297792268
 20
128.8441344391318
 42
0.9999999999999998
 10
16.17351297792268
 20
128.8441344391318
210
0.0
220
0.0
230
-1.0
  0
LWPOLYLINE
  5
310E
330
26AA
100
AcDbEntity
  8
APL Joinery
 62
   252
100
AcDbPolyline
 90
        2
 70
     0
 43
0.0
 10
16.67351297792269
 20
125.4689079447544
 42
0.9999999999999998
 10
16.17351297792269
 20
125.4689079447544
210
0.0
220
0.0
230
-1.0
  0
LWPOLYLINE
  5
310F
330
26AA
100
AcDbEntity
  8
APL Joinery
 62
   252
100
AcDbPolyline
 90
        2
 70
     0
 43
0.0
 10
-16.17351297792268
 20
128.8441344391318
 10
-16.1735129779228
 20
127.9621344391317
  0
LWPOLYLINE
  5
3110
330
26AA
100
AcDbEntity
  8
APL Joinery
 62
   252
100
AcDbPolyline
 90
        2
 70
     0
 43
0.0
 10
-16.17351297792268
 20
134.1481347349457
 10
-16.1735129779228
 20
132.4795000512589
  0
LWPOLYLINE
  5
3111
330
26AA
100
AcDbEntity
  8
APL Joinery
 62
   252
100
AcDbPolyline
 90
        2
 70
     0
 43
0.0
 10
16.17351297792542
 20
132.4795000512256
 42
0.2679491924311239
 10
17.67351297795256
 20
130.3216344391175
210
0.0
220
0.0
230
-1.0
  0
LWPOLYLINE
  5
3112
330
26AA
100
AcDbEntity
  8
APL Joinery
 62
   252
100
AcDbPolyline
 90
        6
 70
     0
 43
0.0
 10
-17.67351297792268
 20
130.3216344391317
 10
-17.67351297792259
 20
127.9076182450579
 42
0.493145426031304
 10
-17.48469012115723
 20
127.7627293711144
 10
-17.41469393282016
 20
127.7814847932528
 42
0.3394542588633749
 10
-16.67351297792268
 20
128.7474106195419
 10
-16.67351297792279
 20
128.8441344391318
  0
LWPOLYLINE
  5
3113
330
26AA
100
AcDbEntity
  8
APL Joinery
 62
   252
100
AcDbPolyline
 90
        2
 70
     0
 43
0.0
 10
16.17351297792268
 20
127.9621344391317
 42
0.4142135623730951
 10
17.67351297792268
 20
126.4621344391317
210
0.0
220
0.0
230
-1.0
  0
LWPOLYLINE
  5
3114
330
26AA
100
AcDbEntity
  8
APL Joinery
 62
   252
100
AcDbPolyline
 90
        2
 70
     0
 43
0.0
 10
16.67351297792269
 20
122.0936814503771
 42
0.9999999999999998
 10
16.17351297792269
 20
122.0936814503771
210
0.0
220
0.0
230
-1.0
  0
LWPOLYLINE
  5
3115
330
26AA
100
AcDbEntity
  8
APL Joinery
 62
   252
100
AcDbPolyline
 90
        2
 70
     0
 43
0.0
 10
-16.17351297792269
 20
122.0936814503771
 10
-16.1735129779228
 20
121.2116814503773
  0
LWPOLYLINE
  5
3116
330
26AA
100
AcDbEntity
  8
APL Joinery
 62
   252
100
AcDbPolyline
 90
        2
 70
     0
 43
0.0
 10
16.17351297792269
 20
121.2116814503773
 42
0.2513102605358356
 10
16.84402567435407
 20
119.9619011443961
210
0.0
220
0.0
230
-1.0
  0
LWPOLYLINE
  5
3117
330
26AA
100
AcDbEntity
  8
APL Joinery
 62
   252
100
AcDbPolyline
 90
        2
 70
     0
 43
0.0
 10
16.17351297792269
 20
124.5869079447544
 42
0.4142135623730951
 10
17.67351297792269
 20
123.0869079447544
210
0.0
220
0.0
230
-1.0
  0
LWPOLYLINE
  5
3118
330
26AA
100
AcDbEntity
  8
APL Joinery
 62
   252
100
AcDbPolyline
 90
        6
 70
     0
 43
0.0
 10
-17.67351297792269
 20
123.0869079447544
 10
-17.6735129779226
 20
121.1571652563034
 42
0.493145426031304
 10
-17.48469012115723
 20
121.01227638236
 10
-17.41469393282017
 20
121.0310318044981
 42
0.3394542588633749
 10
-16.67351297792269
 20
121.9969576307872
 10
-16.6735129779228
 20
122.0936814503773
  0
LWPOLYLINE
  5
3119
330
26AA
100
AcDbEntity
  8
APL Joinery
 62
   252
100
AcDbPolyline
 90
        6
 70
     0
 43
0.0
 10
-17.67351297792268
 20
126.4621344391317
 10
-17.6735129779226
 20
124.5323917506806
 42
0.493145426031304
 10
-17.48469012115701
 20
124.3875028767373
 10
-17.41469393282017
 20
124.4062582988755
 42
0.3394542588633749
 10
-16.67351297792269
 20
125.3721841251645
 10
-16.6735129779228
 20
125.4689079447544
  0
LWPOLYLINE
  5
311A
330
26AA
100
AcDbEntity
  8
APL Joinery
 62
   252
100
AcDbPolyline
 90
        2
 70
     0
 43
0.0
 10
-16.17351297792268
 20
125.4689079447544
 10
-16.1735129779228
 20
124.5869079447544
  0
LWPOLYLINE
  5
311B
330
26AA
100
AcDbEntity
  8
APL Joinery
 62
   252
100
AcDbPolyline
 90
        5
 70
     0
 43
0.0
 10
-16.84402567440342
 20
119.9619011443633
 10
-18.92388950453384
 20
118.5814820164251
 10
-20.17351297792281
 20
120.4886926987968
 10
-20.17351297792281
 20
125.131482016425
 10
-21.10930520105367
 20
127.2276565962382
  0
LWPOLYLINE
  5
311C
330
26AA
100
AcDbEntity
  8
APL Joinery
 62
   252
100
AcDbPolyline
 90
        2
 70
     0
 43
0.0
 10
21.10930520105035
 20
127.2276565962311
 42
0.543279747118861
 10
20.65273625983471
 20
127.931482016425
210
0.0
220
0.0
230
-1.0
  0
LWPOLYLINE
  5
311D
330
26AA
100
AcDbEntity
  8
APL Joinery
 62
   252
100
AcDbPolyline
 90
        5
 70
     0
 43
0.0
 10
-20.65273625983471
 20
127.931482016425
 10
-20.1735129779228
 20
127.931482016425
 10
-20.1735129779228
 20
130.7814820164249
 10
-21.1735129779228
 20
130.681482016425
 10
-21.1735129779228
 20
131.6862565916781
  0
LWPOLYLINE
  5
311E
330
26AA
100
AcDbEntity
  8
APL Joinery
 62
   252
100
AcDbPolyline
 90
        2
 70
     0
 43
0.0
 10
-21.17351297755487
 20
131.6862565917625
 42
0.149906020253322
 10
-16.6016365851351
 20
134.3235541767276
  0
ENDBLK
  5
26AC
330
26AA
100
AcDbEntity
  8
0
100
AcDbBlockEnd
  0
BLOCK
  5
26B0
330
26AF
100
AcDbEntity
  8
0
100
AcDbBlockBegin
  2
6Glass
 70
     0
 10
101.8368839708302
 20
399.4111348733001
 30
0.0
  3
6Glass
  1
6Glass.dwg
  0
LINE
  5
2A6B
330
26AF
100
AcDbEntity
  8
APL Joinery
 62
     7
100
AcDbLine
 10
95.33688397083029
 20
412.4111348732999
 30
0.0
 11
95.33688397083029
 21
392.4111348733
 31
0.0
  0
LINE
  5
2A6C
330
26AF
100
AcDbEntity
  8
APL Joinery
 62
     7
100
AcDbLine
 10
89.33688397083029
 20
412.4111348732999
 30
0.0
 11
95.33688397083029
 21
412.4111348732999
 31
0.0
  0
LINE
  5
2A6D
330
26AF
100
AcDbEntity
  8
APL Joinery
 62
     8
100
AcDbLine
 10
93.33688397083028
 20
412.4111348732999
 30
0.0
 11
93.33688397083028
 21
392.4111348733
 31
0.0
  0
LINE
  5
2A6E
330
26AF
100
AcDbEntity
  8
APL Joinery
 62
     7
100
AcDbLine
 10
89.33688397083029
 20
412.4111348732999
 30
0.0
 11
89.33688397083029
 21
392.4111348733
 31
0.0
  0
LINE
  5
2A6F
330
26AF
100
AcDbEntity
  8
APL Joinery
 62
     8
100
AcDbLine
 10
91.33688397083028
 20
412.4111348732999
 30
0.0
 11
91.33688397083028
 21
392.4111348733
 31
0.0
  0
ENDBLK
  5
26B1
330
26AF
100
AcDbEntity
  8
0
100
AcDbBlockEnd
  0
BLOCK
  5
26D2
330
26D1
100
AcDbEntity
  8
0
100
AcDbBlockBegin
  2
07123
 70
     0
 10
458.3656891128131
 20
292.4876175000117
 30
0.0
  3
07123
  1
07123.dwg
  0
LWPOLYLINE
  5
3126
102
{ACAD_REACTORS
330
3127
102
}
330
26D1
100
AcDbEntity
  8
APL Joinery
  6
Continuous
100
AcDbPolyline
 90
       56
 70
     1
 43
0.0
 10
459.5121357222217
 20
306.5340641094199
 42
-0.9999999999999797
 10
460.2192425034092
 20
307.2411708906055
 10
461.7727958940023
 20
305.6876175000123
 42
-0.198912367379658
 10
462.0656891128158
 20
304.9805107188258
 10
462.0656891128158
 20
304.2353124947366
 42
-0.1873013852563519
 10
461.8037365730718
 20
303.5605636922864
 10
461.3598098581149
 20
303.074991901237
 42
0.6521072359563518
 10
461.7288335882434
 20
302.2376175000117
 10
462.7656891128165
 20
302.2376175000117
 42
-0.9999999999999998
 10
462.7656891128165
 20
301.2376175000117
 10
459.9003636353329
 20
301.2376175000117
 42
0.2105751711947796
 10
459.5313399052041
 20
301.0749919012377
 10
453.6345243070663
 20
294.6249919012381
 42
0.6521072359563482
 10
454.0035480371928
 20
293.7876175000128
 10
456.0544192755945
 20
293.7876175000128
 42
0.1989123673796545
 10
456.7615260567811
 20
294.0805107188261
 10
458.5416894616386
 20
295.8606741236834
 42
-0.3394542588634284
 10
459.7487962428252
 20
296.0195927462809
 10
460.1156891128133
 20
295.8077670490304
 42
-1.163404169897045
 10
459.4983642097079
 20
295.0355310938692
 42
0.4259052264678404
 10
459.137925062859
 20
295.0426961625298
 10
458.1813745377661
 20
294.0861456374358
 42
0.4142135623730951
 10
458.1813745377651
 20
293.3790388562501
 10
458.2192425034102
 20
293.341170890605
 42
-0.6681786379192989
 10
457.8656891128169
 20
292.4876175000117
 10
440.5727954482293
 20
292.4876175000117
 42
-0.1989123673797415
 10
440.2192420576359
 20
292.6340641094185
 10
437.5424653623388
 20
295.3108408047155
 42
-0.668178637919367
 10
437.719242057635
 20
295.7376175000117
 10
438.3300891105548
 20
295.7376175000117
 10
438.3300891105548
 20
296.9876175000117
 10
440.3800891105541
 20
296.9876175000117
 42
-0.9999999999999998
 10
440.3800891105541
 20
295.9876175000117
 10
439.6300891105541
 20
295.9876175000117
 10
439.6300891105541
 20
295.0616946875852
 10
440.2041662981276
 20
294.4876175000117
 10
440.8800891105541
 20
294.4876175000117
 10
440.8800891105541
 20
294.0376175000128
 42
0.4142135623730951
 10
441.1300891105541
 20
293.7876175000128
 10
443.6300891105541
 20
293.7876175000128
 42
0.4142135623730951
 10
443.8800891105541
 20
294.0376175000128
 10
443.8800891105541
 20
294.4876175000117
 10
445.1300891105541
 20
294.4876175000117
 10
445.1300891105541
 20
295.9876175000117
 10
444.3800891105541
 20
295.9876175000117
 42
-0.9999999999999998
 10
444.3800891105541
 20
296.9876175000117
 10
445.4300891105552
 20
296.9876175000117
 42
-0.4142135623730951
 10
446.4300891105552
 20
295.9876175000117
 10
446.4300891105552
 20
293.7876175000129
 10
448.9041058039487
 20
293.7876175000128
 42
0.2105751711947817
 10
452.5943431052322
 20
295.4138734877578
 10
458.3656891128169
 20
301.7266335070253
 10
458.3656891128169
 20
302.4876175000117
 10
459.061407295728
 20
302.4876175000117
 10
460.5640551380639
 20
304.1312297890105
 42
0.4011595793581357
 10
460.5331144589938
 20
305.5130853726477
  0
HATCH
  5
3127
330
26D1
100
AcDbEntity
  8
APL Hatch
100
AcDbHatch
 10
0.0
 20
0.0
 30
0.0
210
0.0
220
0.0
230
1.0
  2
SOLID
 70
     1
 71
     1
 91
        1
 92
        1
 93
       56
 72
     2
 10
459.8656891128155
 20
306.8876175000127
 40
0.5000000000000443
 50
135.0000000000783
 51
315.0000000000783
 73
     0
 72
     1
 10
460.2192425034092
 20
307.2411708906055
 11
461.7727958940023
 21
305.6876175000123
 72
     2
 10
461.0656891128158
 20
304.9805107188258
 40
1.000000000000007
 50
315.0
 51
360.0
 73
     0
 72
     1
 10
462.0656891128158
 20
304.9805107188258
 11
462.0656891128158
 21
304.2353124947366
 72
     2
 10
461.0656891128159
 20
304.2353124947378
 40
0.9999999999999431
 50
0.0000000000683946
 51
42.43464631024123
 73
     0
 72
     1
 10
461.8037365730718
 20
303.5605636922864
 11
461.3598098581149
 21
303.074991901237
 72
     2
 10
461.7288335882434
 20
302.7376175000117
 40
0.5000000000000034
 50
137.5653536898278
 51
270.0
 73
     1
 72
     1
 10
461.7288335882434
 20
302.2376175000117
 11
462.7656891128165
 21
302.2376175000117
 72
     2
 10
462.7656891128165
 20
301.7376175000117
 40
0.5
 50
270.0
 51
450.0
 73
     0
 72
     1
 10
462.7656891128165
 20
301.2376175000117
 11
459.9003636353329
 21
301.2376175000117
 72
     2
 10
459.9003636353319
 20
300.7376175000115
 40
0.5000000000002274
 50
89.99999999987624
 51
137.5653536897021
 73
     1
 72
     1
 10
459.5313399052041
 20
301.0749919012377
 11
453.6345243070663
 21
294.6249919012381
 72
     2
 10
454.0035480371938
 20
294.2876175000124
 40
0.4999999999996426
 50
137.5653536897282
 51
269.9999999998893
 73
     1
 72
     1
 10
454.0035480371928
 20
293.7876175000128
 11
456.0544192755945
 21
293.7876175000128
 72
     2
 10
456.0544192755947
 20
294.7876175000129
 40
1.000000000000113
 50
269.9999999999902
 51
314.9999999999885
 73
     1
 72
     1
 10
456.7615260567811
 20
294.0805107188261
 11
458.5416894616386
 21
295.8606741236834
 72
     2
 10
459.2487962428249
 20
295.1535673424968
 40
0.9999999999998474
 50
225.0000000000138
 51
300.0000000000227
 73
     0
 72
     1
 10
459.7487962428252
 20
296.0195927462809
 11
460.1156891128133
 21
295.8077670490304
 72
     2
 10
459.8656891128134
 20
295.3747543471383
 40
0.4999999999998649
 50
300.0000000000014
 51
497.2776334669029
 73
     0
 72
     2
 10
459.3147017581562
 20
294.8659194672341
 40
0.2499999999996247
 50
42.72236653332014
 51
135.0000000002211
 73
     1
 72
     1
 10
459.137925062859
 20
295.0426961625298
 11
458.1813745377661
 21
294.0861456374358
 72
     2
 10
458.5349279283585
 20
293.7325922468425
 40
0.4999999999994414
 50
134.9999999999263
 51
224.9999999999171
 73
     1
 72
     1
 10
458.1813745377651
 20
293.3790388562501
 11
458.2192425034102
 21
293.341170890605
 72
     2
 10
457.8656891128169
 20
292.9876175000117
 40
0.500000000000004
 50
315.0
 51
450.0
 73
     0
 72
     1
 10
457.8656891128169
 20
292.4876175000117
 11
440.5727954482293
 21
292.4876175000117
 72
     2
 10
440.5727954482292
 20
292.9876175000117
 40
0.5
 50
89.99999999999349
 51
135.0000000000138
 73
     0
 72
     1
 10
440.2192420576359
 20
292.6340641094185
 11
437.5424653623388
 21
295.3108408047155
 72
     2
 10
437.7192420576352
 20
295.4876175000121
 40
0.2499999999997207
 50
134.9999999999631
 51
269.9999999999739
 73
     0
 72
     1
 10
437.719242057635
 20
295.7376175000117
 11
438.3300891105548
 21
295.7376175000117
 72
     1
 10
438.3300891105548
 20
295.7376175000117
 11
438.3300891105548
 21
296.9876175000117
 72
     1
 10
438.3300891105548
 20
296.9876175000117
 11
440.3800891105541
 21
296.9876175000117
 72
     2
 10
440.3800891105541
 20
296.4876175000117
 40
0.5
 50
270.0
 51
450.0
 73
     0
 72
     1
 10
440.3800891105541
 20
295.9876175000117
 11
439.6300891105541
 21
295.9876175000117
 72
     1
 10
439.6300891105541
 20
295.9876175000117
 11
439.6300891105541
 21
295.0616946875852
 72
     1
 10
439.6300891105541
 20
295.0616946875852
 11
440.2041662981276
 21
294.4876175000117
 72
     1
 10
440.2041662981276
 20
294.4876175000117
 11
440.8800891105541
 21
294.4876175000117
 72
     1
 10
440.8800891105541
 20
294.4876175000117
 11
440.8800891105541
 21
294.0376175000128
 72
     2
 10
441.1300891105541
 20
294.0376175000128
 40
0.25
 50
180.0
 51
270.0
 73
     1
 72
     1
 10
441.1300891105541
 20
293.7876175000128
 11
443.6300891105541
 21
293.7876175000128
 72
     2
 10
443.6300891105541
 20
294.0376175000128
 40
0.25
 50
270.0
 51
360.0
 73
     1
 72
     1
 10
443.8800891105541
 20
294.0376175000128
 11
443.8800891105541
 21
294.4876175000117
 72
     1
 10
443.8800891105541
 20
294.4876175000117
 11
445.1300891105541
 21
294.4876175000117
 72
     1
 10
445.1300891105541
 20
294.4876175000117
 11
445.1300891105541
 21
295.9876175000117
 72
     1
 10
445.1300891105541
 20
295.9876175000117
 11
444.3800891105541
 21
295.9876175000117
 72
     2
 10
444.3800891105541
 20
296.4876175000117
 40
0.5
 50
90.0
 51
270.0
 73
     0
 72
     1
 10
444.3800891105541
 20
296.9876175000117
 11
445.4300891105552
 21
296.9876175000117
 72
     2
 10
445.4300891105552
 20
295.9876175000117
 40
1.0
 50
270.0
 51
360.0
 73
     0
 72
     1
 10
446.4300891105552
 20
295.9876175000117
 11
446.4300891105552
 21
293.7876175000129
 72
     1
 10
446.4300891105552
 20
293.7876175000129
 11
448.9041058039487
 21
293.7876175000128
 72
     2
 10
448.9041058039507
 20
298.7876175000114
 40
4.999999999998578
 50
269.9999999999765
 51
317.5653536898046
 73
     1
 72
     1
 10
452.5943431052322
 20
295.4138734877578
 11
458.3656891128169
 21
301.7266335070253
 72
     1
 10
458.3656891128169
 20
301.7266335070253
 11
458.3656891128169
 21
302.4876175000117
 72
     1
 10
458.3656891128169
 20
302.4876175000117
 11
459.061407295728
 21
302.4876175000117
 72
     1
 10
459.061407295728
 20
302.4876175000117
 11
460.5640551380639
 21
304.1312297890105
 72
     2
 10
459.8260076778072
 20
304.8059785914611
 40
1.000000000000083
 50
317.565353689823
 51
404.9999999999953
 73
     1
 72
     1
 10
460.5331144589938
 20
305.5130853726477
 11
459.5121357222217
 21
306.5340641094199
 97
        1
330
3126
 75
     0
 76
     1
 98
        1
 10
0.0
 20
0.0
  0
ENDBLK
  5
26D3
330
26D1
100
AcDbEntity
  8
0
100
AcDbBlockEnd
  0
BLOCK
  5
26E0
330
26DF
100
AcDbEntity
  8
0
100
AcDbBlockBegin
  2
9700183
 70
     0
 10
164.2655056947639
 20
209.5498052339528
 30
0.0
  3
9700183
  1
9700183.dwg
  0
LINE
  5
312A
330
26DF
100
AcDbEntity
  8
APL Joinery
  6
Continuous
 62
     8
100
AcDbLine
 10
137.510013698268
 20
219.5498052339528
 30
0.0
 11
163.5155056947639
 21
219.5498052339528
 31
0.0
  0
ARC
  5
312B
330
26DF
100
AcDbEntity
  8
APL Joinery
  6
Continuous
 62
     8
100
AcDbCircle
 10
143.5100136982689
 20
210.5498052339528
 30
0.0
 40
1.0
100
AcDbArc
 50
270.0
 51
0.0
  0
LINE
  5
312C
330
26DF
100
AcDbEntity
  8
APL Joinery
  6
Continuous
 62
     8
100
AcDbLine
 10
136.510013698268
 20
210.5498052339528
 30
0.0
 11
136.510013698268
 21
218.5498052339528
 31
0.0
  0
LINE
  5
312D
330
26DF
100
AcDbEntity
  8
APL Joinery
  6
Continuous
 62
     8
100
AcDbLine
 10
137.510013698268
 20
209.5498052339528
 30
0.0
 11
143.5100136982689
 21
209.5498052339528
 31
0.0
  0
ARC
  5
312E
330
26DF
100
AcDbEntity
  8
APL Joinery
  6
Continuous
 62
     8
100
AcDbCircle
 10
137.510013698268
 20
210.5498052339528
 30
0.0
 40
1.0
100
AcDbArc
 50
180.0
 51
270.0
  0
ARC
  5
312F
330
26DF
100
AcDbEntity
  8
APL Joinery
  6
Continuous
 62
     8
100
AcDbCircle
 10
137.510013698268
 20
218.5498052339528
 30
0.0
 40
1.0
100
AcDbArc
 50
90.0
 51
180.0
  0
LINE
  5
3130
330
26DF
100
AcDbEntity
  8
APL Joinery
  6
Continuous
 62
     8
100
AcDbLine
 10
163.5155056947639
 20
217.5498052339528
 30
0.0
 11
160.390505694763
 21
217.5498052339528
 31
0.0
  0
LINE
  5
3131
330
26DF
100
AcDbEntity
  8
APL Joinery
  6
Continuous
 62
     8
100
AcDbLine
 10
154.390505694763
 20
217.5498052339528
 30
0.0
 11
144.5100136982689
 21
217.5498052339528
 31
0.0
  0
LINE
  5
3132
330
26DF
100
AcDbEntity
  8
APL Joinery
  6
Continuous
 62
     8
100
AcDbLine
 10
144.5100136982689
 20
217.5498052339528
 30
0.0
 11
144.5100136982689
 21
210.5498052339528
 31
0.0
  0
LINE
  5
3133
330
26DF
100
AcDbEntity
  8
APL Joinery
  6
Continuous
 62
     8
100
AcDbLine
 10
160.390505694763
 20
217.5498052339528
 30
0.0
 11
160.390505694763
 21
210.5498052339528
 31
0.0
  0
LINE
  5
3134
330
26DF
100
AcDbEntity
  8
APL Joinery
  6
Continuous
 62
     8
100
AcDbLine
 10
154.390505694763
 20
210.5498269079292
 30
0.0
 11
154.390505694763
 21
217.5498052339528
 31
0.0
  0
LINE
  5
3135
330
26DF
100
AcDbEntity
  8
APL Joinery
  6
Continuous
 62
     8
100
AcDbLine
 10
155.390505694763
 20
209.5498052339528
 30
0.0
 11
159.390505694763
 21
209.5498052339528
 31
0.0
  0
POLYLINE
  5
3136
330
26DF
100
AcDbEntity
  8
APL Joinery
  6
Continuous
 62
     8
100
AcDb2dPolyline
 66
     1
 10
0.0
 20
0.0
 30
0.0
 70
     2
210
0.0
220
0.0
230
-1.0
  0
VERTEX
  5
3137
330
3136
100
AcDbEntity
  8
APL Joinery
  6
Continuous
 62
     8
100
AcDbVertex
100
AcDb2dVertex
 10
-155.390505694763
 20
209.5498052339528
 30
0.0
 70
     1
  0
VERTEX
  5
3138
330
3136
100
AcDbEntity
  8
APL Joinery
  6
Continuous
 62
     8
100
AcDbVertex
100
AcDb2dVertex
 10
-155.0643158023475
 20
209.6045008621683
 30
0.0
 70
     1
  0
VERTEX
  5
3139
330
3136
100
AcDbEntity
  8
APL Joinery
  6
Continuous
 62
     8
100
AcDbVertex
100
AcDb2dVertex
 10
-154.9182468886592
 20
209.6683450665494
 30
0.0
 70
     1
  0
VERTEX
  5
313A
330
3136
100
AcDbEntity
  8
APL Joinery
  6
Continuous
 62
     8
100
AcDbVertex
100
AcDb2dVertex
 10
-154.7655269284424
 20
209.7691630572139
 30
0.0
 70
     1
  0
VERTEX
  5
313B
330
3136
100
AcDbEntity
  8
APL Joinery
  6
Continuous
 62
     8
100
AcDbVertex
100
AcDb2dVertex
 10
-154.6559448734486
 20
209.871261758037
 30
0.0
 70
     1
  0
VERTEX
  5
313C
330
3136
100
AcDbEntity
  8
APL Joinery
  6
Continuous
 62
     8
100
AcDbVertex
100
AcDb2dVertex
 10
-154.5562854548812
 20
209.998372958818
 30
0.0
 70
     1
  0
VERTEX
  5
313D
330
3136
100
AcDbEntity
  8
APL Joinery
  6
Continuous
 62
     8
100
AcDbVertex
100
AcDb2dVertex
 10
-154.4781057732812
 20
210.1405042148394
 30
0.0
 70
     1
  0
VERTEX
  5
313E
330
3136
100
AcDbEntity
  8
APL Joinery
  6
Continuous
 62
     8
100
AcDbVertex
100
AcDb2dVertex
 10
-154.4273660507568
 20
210.2808019041324
 30
0.0
 70
     1
  0
VERTEX
  5
313F
330
3136
100
AcDbEntity
  8
APL Joinery
  6
Continuous
 62
     8
100
AcDbVertex
100
AcDb2dVertex
 10
-154.39668240654
 20
210.438829309706
 30
0.0
 70
     1
  0
VERTEX
  5
3140
330
3136
100
AcDbEntity
  8
APL Joinery
  6
Continuous
 62
     8
100
AcDbVertex
100
AcDb2dVertex
 10
-154.390505694763
 20
210.5498032879872
 30
0.0
 70
     1
  0
SEQEND
  5
3141
330
3136
100
AcDbEntity
  8
APL Joinery
  6
Continuous
 62
     8
  0
ARC
  5
3142
330
26DF
100
AcDbEntity
  8
APL Joinery
  6
Continuous
 62
     8
100
AcDbCircle
 10
159.390505694763
 20
210.5498052339528
 30
0.0
 40
1.0
100
AcDbArc
 50
270.0
 51
0.0
  0
ARC
  5
3143
330
26DF
100
AcDbEntity
  8
APL Joinery
  6
Continuous
 62
     8
100
AcDbCircle
 10
163.5155056947639
 20
218.5498052339528
 30
0.0
 40
1.0
100
AcDbArc
 50
270.0
 51
90.0
  0
ENDBLK
  5
26E1
330
26DF
100
AcDbEntity
  8
0
100
AcDbBlockEnd
  0
BLOCK
  5
26E5
330
26E4
100
AcDbEntity
  8
0
100
AcDbBlockBegin
  2
07123Glaze
 70
     0
 10
0.0
 20
0.0
 30
0.0
  3
07123Glaze
  1

  0
INSERT
  5
26E7
330
26E4
100
AcDbEntity
  8
APL Joinery
100
AcDbBlockReference
  2
6Glass
 10
39.0
 20
-22.9999999999998
 30
0.0
  0
INSERT
  5
26E8
330
26E4
100
AcDbEntity
  8
APL Joinery
100
AcDbBlockReference
  2
9700158
 10
36.99999999999994
 20
-16.95000000000073
 30
0.0
 41
-1.0
 50
180.0
  0
INSERT
  5
26E9
330
26E4
100
AcDbEntity
  8
APL Joinery
100
AcDbBlockReference
  2
6Glass
 10
21.0
 20
-22.9999999999998
 30
0.0
  0
INSERT
  5
26EA
330
26E4
100
AcDbEntity
  8
APL Joinery
100
AcDbBlockReference
  2
9010604
 10
4.5
 20
-20.03560000225826
 30
0.0
 41
-1.0
 50
180.0
  0
LINE
  5
26EB
330
26E4
100
AcDbEntity
  8
APL Joinery
 62
     7
100
AcDbLine
 10
14.50000000000005
 20
-15.99999999999997
 30
0.0
 11
26.50000000000006
 21
-15.99999999999997
 31
0.0
  0
LINE
  5
26EC
330
26E4
100
AcDbEntity
  8
APL Joinery
 62
     7
100
AcDbLine
 10
14.50000000000005
 20
-9.999999999999971
 30
0.0
 11
26.50000000000006
 21
-9.999999999999971
 31
0.0
  0
INSERT
  5
26ED
330
26E4
100
AcDbEntity
  8
APL Joinery
100
AcDbBlockReference
  2
07123
 10
0.0
 20
0.0
 30
0.0
 41
-1.0
 50
270.0
  0
ENDBLK
  5
26E6
330
26E4
100
AcDbEntity
  8
0
100
AcDbBlockEnd
  0
BLOCK
  5
2700
330
26FF
100
AcDbEntity
  8
0
100
AcDbBlockBegin
  2
07403
 70
     0
 10
522.6184848534983
 20
-690.5428405563439
 30
0.0
  3
07403
  1
07403.dwg
  0
LWPOLYLINE
  5
3145
102
{ACAD_REACTORS
330
3148
330
3149
102
}
330
26FF
100
AcDbEntity
  8
APL Joinery
  6
Continuous
100
AcDbPolyline
 90
       17
 70
     1
 43
0.0
 10
492.9399134249253
 20
-583.3792631562098
 42
1.00000000000016
 10
494.0470562820686
 20
-582.2944891272625
 42
-2.379795897113629
 10
496.6899134249254
 20
-582.2944891272629
 42
0.9999999999999998
 10
497.7970562820684
 20
-583.3792631562089
 42
0.2978796563631833
 10
498.5223398714406
 20
-579.7296413102475
 42
-0.5313489649887064
 10
498.9861420799617
 20
-579.042859321365
 10
509.0684848534971
 20
-579.042859321365
 42
-0.4142135623730951
 10
510.0684848534972
 20
-580.042859321365
 10
510.0684848534972
 20
-628.5428593213668
 42
-0.4142135623730951
 10
509.0684848534971
 20
-629.5428593213669
 10
476.8684848534968
 20
-629.5428593213669
 42
-0.4142135623730951
 10
475.8684848534969
 20
-628.5428593213668
 10
475.8684848534969
 20
-585.0428593213632
 42
-0.4142135623730951
 10
476.8684848534968
 20
-584.0428593213633
 10
489.6184848534969
 20
-584.0428593213633
 42
0.3412868470082055
 10
491.0698926953659
 20
-582.9215614161035
 42
-0.6669066090348557
 10
492.4412993097696
 20
-582.7293786751318
 42
0.060449875221615
  0
LWPOLYLINE
  5
3146
102
{ACAD_REACTORS
330
3148
330
3149
102
}
330
26FF
100
AcDbEntity
  8
APL Joinery
  6
Continuous
100
AcDbPolyline
 90
       59
 70
     1
 43
0.0
 10
476.3952615487935
 20
-578.4696360166613
 10
475.4684848534973
 20
-577.5428593213651
 10
473.9684848534972
 20
-577.5428593213651
 10
473.9684848534972
 20
-693.5429198857141
 10
475.6684848534971
 20
-693.5429198857141
 10
475.6684848534971
 20
-688.5429198857141
 42
-0.4142135623730951
 10
476.668484853497
 20
-687.542919885714
 10
485.3684848534968
 20
-687.5429198857138
 42
0.4142135623730951
 10
487.4684848534973
 20
-685.4429198857137
 10
487.4684848534973
 20
-681.0429198857141
 10
501.4684848534972
 20
-681.0429198857141
 10
501.4684848534967
 20
-685.4429198857137
 42
0.4142135623730951
 10
503.5684848534967
 20
-687.542919885714
 10
510.0684848534966
 20
-687.542919885714
 10
510.0684848534966
 20
-693.5428405563448
 10
522.6184848534983
 20
-693.5428405563448
 10
522.6184848534983
 20
-690.5428405563439
 10
521.4184848534984
 20
-690.5428405563439
 10
521.4184848534984
 20
-692.0428405563439
 10
511.9684848534972
 20
-692.0428405563447
 10
511.9684848534972
 20
-556.5428593213651
 10
508.4684848534973
 20
-556.5428593213651
 10
508.4684848534973
 20
-558.5928593213662
 42
0.9999999999999998
 10
509.4684848534972
 20
-558.5928593213662
 10
509.4684848534972
 20
-557.8428593213661
 10
510.9684848534972
 20
-557.8428593213661
 10
510.9684848534972
 20
-563.3428593213661
 10
509.4684848534972
 20
-563.3428593213661
 10
509.4684848534972
 20
-562.5928593213662
 42
0.9999999999999998
 10
508.4684848534973
 20
-562.5928593213662
 10
508.4684848534973
 20
-564.6428593213654
 10
510.4684848534972
 20
-564.6428593213654
 10
510.4684848534972
 20
-566.1428593213654
 10
510.7184848534973
 20
-566.1428593213654
 10
510.7184848534973
 20
-567.8428593213643
 10
511.0184848534983
 20
-568.1428593213654
 10
510.7184848534973
 20
-568.4428593213647
 10
510.7184848534973
 20
-570.1428593213655
 10
510.4684848534972
 20
-570.1428593213655
 10
510.4684848534972
 20
-577.5428593213651
 10
500.1184848534968
 20
-577.5428593213651
 10
499.7184848534972
 20
-577.9428593213647
 10
499.3184848534976
 20
-577.5428593213651
 10
487.1184848534968
 20
-577.5428593213651
 42
0.9999999999999998
 10
487.1184848534968
 20
-578.5428593213651
 10
489.6184848534969
 20
-578.5428593213651
 10
489.6184848534969
 20
-579.042859321365
 10
492.1988643633508
 20
-579.042859321365
 42
-0.5675210391690618
 10
492.4189768973888
 20
-579.4113940097875
 42
0.0967410137952496
 10
492.0380833063685
 20
-580.6379224975
 42
-0.3821661969547074
 10
491.7901509513607
 20
-580.8609190535425
 42
0.3406114348430417
 10
489.6184848534969
 20
-582.5428593213632
 10
480.8684848534968
 20
-582.5428593213632
 10
480.4684848534972
 20
-582.9428593213647
 10
480.0684848534976
 20
-582.5428593213632
 10
475.9684848534972
 20
-582.5428593213632
 42
-0.4142135623730951
 10
475.4684848534973
 20
-582.0428593213632
 10
475.4684848534973
 20
-580.4454508176345
 10
476.4349912044433
 20
-578.7714127119593
 42
0.3394542588633798
  0
LWPOLYLINE
  5
3147
102
{ACAD_REACTORS
330
3148
330
3149
102
}
330
26FF
100
AcDbEntity
  8
APL Joinery
  6
Continuous
100
AcDbPolyline
 90
       31
 70
     1
 43
0.0
 10
494.0521386996512
 20
-634.1927565493257
 42
-0.9999999999999998
 10
492.9848310073431
 20
-635.2467272746967
 42
-0.2922632705254444
 10
492.231186990431
 20
-631.7181839966915
 42
0.5234933716074291
 10
491.7629335780331
 20
-631.0428593213669
 10
476.8684848534968
 20
-631.0428593213669
 42
0.4142135623730951
 10
475.8684848534969
 20
-632.0428593213669
 10
475.8684848534969
 20
-684.9429198857137
 42
0.4142135623730951
 10
476.8684848534968
 20
-685.9429198857137
 10
485.3684848534968
 20
-685.9429198857137
 42
0.4142135623730951
 10
485.8684848534969
 20
-685.4429198857137
 10
485.8684848534969
 20
-680.0429198857141
 42
-0.4142135623730951
 10
486.3684848534969
 20
-679.5429198857141
 10
491.7629335780331
 20
-679.5429198857141
 42
0.5234933716074291
 10
492.2311869904309
 20
-678.8675952103901
 42
-0.2922632705254444
 10
492.9848310073436
 20
-675.3390519323835
 42
-1.000000000000009
 10
494.0521386996508
 20
-676.3930226577561
 42
2.392909508456569
 10
496.6848310073435
 20
-676.3930226577553
 42
-0.9999999999999998
 10
497.7521386996507
 20
-675.3390519323842
 42
-0.2922632705254164
 10
498.5057827165627
 20
-678.8675952103894
 42
0.5234933716074291
 10
498.9740361289606
 20
-679.5429198857141
 10
502.5684848534967
 20
-679.5429198857141
 42
-0.4142135623730951
 10
503.0684848534967
 20
-680.0429198857141
 10
503.0684848534967
 20
-685.4429198857137
 42
0.4142135623730951
 10
503.5684848534967
 20
-685.9429198857137
 10
510.0684848534966
 20
-685.9429198857137
 10
510.0684848534966
 20
-632.0428593213669
 42
0.4142135623730951
 10
509.0684848534967
 20
-631.0428593213669
 10
498.9740361289606
 20
-631.0428593213669
 42
0.5234933716074291
 10
498.505782716563
 20
-631.7181839966912
 42
-0.2922632705254191
 10
497.752138699651
 20
-635.2467272746975
 42
-0.999999999999995
 10
496.6848310073429
 20
-634.1927565493249
 42
2.392909508456569
  0
HATCH
  5
3148
330
26FF
100
AcDbEntity
  8
APL Hatch
100
AcDbHatch
 10
0.0
 20
0.0
 30
0.0
210
0.0
220
0.0
230
1.0
  2
SOLID
 70
     1
 71
     1
 91
        3
 92
       16
 93
       31
 72
     2
 10
493.5184848534971
 20
-634.7197419120113
 40
0.7499999999999103
 50
315.3602270414309
 51
495.3602270414278
 73
     0
 72
     2
 10
495.3684848534964
 20
-632.8928593213667
 40
3.349999999999323
 50
135.3602270413958
 51
200.5270374374872
 73
     0
 72
     2
 10
491.7629335780332
 20
-631.5428593213669
 40
0.4999999999999433
 50
339.4729625625171
 51
450.0000000000065
 73
     1
 72
     1
 10
491.7629335780331
 20
-631.0428593213669
 11
476.8684848534968
 21
-631.0428593213669
 72
     2
 10
476.8684848534968
 20
-632.0428593213669
 40
1.0
 50
90.0
 51
180.0
 73
     1
 72
     1
 10
475.8684848534969
 20
-632.0428593213669
 11
475.8684848534969
 21
-684.9429198857137
 72
     2
 10
476.8684848534968
 20
-684.9429198857137
 40
1.0
 50
180.0
 51
270.0
 73
     1
 72
     1
 10
476.8684848534968
 20
-685.9429198857137
 11
485.3684848534968
 21
-685.9429198857137
 72
     2
 10
485.3684848534968
 20
-685.4429198857137
 40
0.5
 50
270.0
 51
360.0
 73
     1
 72
     1
 10
485.8684848534969
 20
-685.4429198857137
 11
485.8684848534969
 21
-680.0429198857141
 72
     2
 10
486.3684848534969
 20
-680.0429198857141
 40
0.5
 50
180.0
 51
270.0
 73
     0
 72
     1
 10
486.3684848534969
 20
-679.5429198857141
 11
491.7629335780331
 21
-679.5429198857141
 72
     2
 10
491.7629335780333
 20
-679.0429198857146
 40
0.4999999999995453
 50
269.9999999999804
 51
380.5270374374699
 73
     1
 72
     2
 10
495.3684848534977
 20
-677.6929198857146
 40
3.350000000000748
 50
159.4729625625176
 51
224.6397729586085
 73
     0
 72
     2
 10
493.5184848534971
 20
-675.8660372950698
 40
0.7500000000001054
 50
224.6397729586398
 51
404.6397729586305
 73
     0
 72
     2
 10
495.3684848534975
 20
-677.6929198857144
 40
1.850000000000236
 50
135.3602270414145
 51
404.6397729586202
 73
     1
 72
     2
 10
497.2184848534971
 20
-675.8660372950697
 40
0.7499999999995867
 50
135.3602270414065
 51
315.3602270414034
 73
     0
 72
     2
 10
495.368484853497
 20
-677.6929198857142
 40
3.349999999999566
 50
315.3602270413999
 51
380.5270374374852
 73
     0
 72
     2
 10
498.9740361289606
 20
-679.0429198857141
 40
0.4999999999999433
 50
159.4729625625171
 51
270.0000000000065
 73
     1
 72
     1
 10
498.9740361289606
 20
-679.5429198857141
 11
502.5684848534967
 21
-679.5429198857141
 72
     2
 10
502.5684848534967
 20
-680.0429198857141
 40
0.5
 50
270.0
 51
360.0
 73
     0
 72
     1
 10
503.0684848534967
 20
-680.0429198857141
 11
503.0684848534967
 21
-685.4429198857137
 72
     2
 10
503.5684848534967
 20
-685.4429198857137
 40
0.5
 50
180.0
 51
270.0
 73
     1
 72
     1
 10
503.5684848534967
 20
-685.9429198857137
 11
510.0684848534966
 21
-685.9429198857137
 72
     1
 10
510.0684848534966
 20
-685.9429198857137
 11
510.0684848534966
 21
-632.0428593213669
 72
     2
 10
509.0684848534967
 20
-632.0428593213669
 40
1.0
 50
0.0
 51
90.0
 73
     1
 72
     1
 10
509.0684848534967
 20
-631.0428593213669
 11
498.9740361289606
 21
-631.0428593213669
 72
     2
 10
498.9740361289606
 20
-631.5428593213667
 40
0.4999999999997727
 50
90.0
 51
200.5270374374798
 73
     1
 72
     2
 10
495.3684848534966
 20
-632.892859321367
 40
3.350000000000495
 50
339.4729625625098
 51
404.639772958596
 73
     0
 72
     2
 10
497.218484853497
 20
-634.7197419120111
 40
0.750000000000429
 50
44.6397729586154
 51
224.6397729586092
 73
     0
 72
     2
 10
495.3684848534967
 20
-632.892859321367
 40
1.849999999999593
 50
315.3602270414146
 51
584.6397729586201
 73
     1
 97
        1
330
3147
 92
        1
 93
       59
 72
     1
 10
476.3952615487935
 20
-578.4696360166613
 11
475.4684848534973
 21
-577.5428593213651
 72
     1
 10
475.4684848534973
 20
-577.5428593213651
 11
473.9684848534972
 21
-577.5428593213651
 72
     1
 10
473.9684848534972
 20
-577.5428593213651
 11
473.9684848534972
 21
-693.5429198857141
 72
     1
 10
473.9684848534972
 20
-693.5429198857141
 11
475.6684848534971
 21
-693.5429198857141
 72
     1
 10
475.6684848534971
 20
-693.5429198857141
 11
475.6684848534971
 21
-688.5429198857141
 72
     2
 10
476.668484853497
 20
-688.5429198857141
 40
1.0
 50
180.0
 51
270.0
 73
     0
 72
     1
 10
476.668484853497
 20
-687.542919885714
 11
485.3684848534968
 21
-687.5429198857138
 72
     2
 10
485.368484853497
 20
-685.4429198857135
 40
2.10000000000025
 50
269.9999999999954
 51
359.9999999999938
 73
     1
 72
     1
 10
487.4684848534973
 20
-685.4429198857137
 11
487.4684848534973
 21
-681.0429198857141
 72
     1
 10
487.4684848534973
 20
-681.0429198857141
 11
501.4684848534972
 21
-681.0429198857141
 72
     1
 10
501.4684848534972
 20
-681.0429198857141
 11
501.4684848534967
 21
-685.4429198857137
 72
     2
 10
503.5684848534969
 20
-685.442919885714
 40
2.100000000000193
 50
179.9999999999938
 51
269.9999999999954
 73
     1
 72
     1
 10
503.5684848534967
 20
-687.542919885714
 11
510.0684848534966
 21
-687.542919885714
 72
     1
 10
510.0684848534966
 20
-687.542919885714
 11
510.0684848534966
 21
-693.5428405563448
 72
     1
 10
510.0684848534966
 20
-693.5428405563448
 11
522.6184848534983
 21
-693.5428405563448
 72
     1
 10
522.6184848534983
 20
-693.5428405563448
 11
522.6184848534983
 21
-690.5428405563439
 72
     1
 10
522.6184848534983
 20
-690.5428405563439
 11
521.4184848534984
 21
-690.5428405563439
 72
     1
 10
521.4184848534984
 20
-690.5428405563439
 11
521.4184848534984
 21
-692.0428405563439
 72
     1
 10
521.4184848534984
 20
-692.0428405563439
 11
511.9684848534972
 21
-692.0428405563447
 72
     1
 10
511.9684848534972
 20
-692.0428405563447
 11
511.9684848534972
 21
-556.5428593213651
 72
     1
 10
511.9684848534972
 20
-556.5428593213651
 11
508.4684848534973
 21
-556.5428593213651
 72
     1
 10
508.4684848534973
 20
-556.5428593213651
 11
508.4684848534973
 21
-558.5928593213662
 72
     2
 10
508.9684848534973
 20
-558.5928593213662
 40
0.5
 50
180.0
 51
360.0
 73
     1
 72
     1
 10
509.4684848534972
 20
-558.5928593213662
 11
509.4684848534972
 21
-557.8428593213661
 72
     1
 10
509.4684848534972
 20
-557.8428593213661
 11
510.9684848534972
 21
-557.8428593213661
 72
     1
 10
510.9684848534972
 20
-557.8428593213661
 11
510.9684848534972
 21
-563.3428593213661
 72
     1
 10
510.9684848534972
 20
-563.3428593213661
 11
509.4684848534972
 21
-563.3428593213661
 72
     1
 10
509.4684848534972
 20
-563.3428593213661
 11
509.4684848534972
 21
-562.5928593213662
 72
     2
 10
508.9684848534973
 20
-562.5928593213662
 40
0.5
 50
0.0
 51
180.0
 73
     1
 72
     1
 10
508.4684848534973
 20
-562.5928593213662
 11
508.4684848534973
 21
-564.6428593213654
 72
     1
 10
508.4684848534973
 20
-564.6428593213654
 11
510.4684848534972
 21
-564.6428593213654
 72
     1
 10
510.4684848534972
 20
-564.6428593213654
 11
510.4684848534972
 21
-566.1428593213654
 72
     1
 10
510.4684848534972
 20
-566.1428593213654
 11
510.7184848534973
 21
-566.1428593213654
 72
     1
 10
510.7184848534973
 20
-566.1428593213654
 11
510.7184848534973
 21
-567.8428593213643
 72
     1
 10
510.7184848534973
 20
-567.8428593213643
 11
511.0184848534983
 21
-568.1428593213654
 72
     1
 10
511.0184848534983
 20
-568.1428593213654
 11
510.7184848534973
 21
-568.4428593213647
 72
     1
 10
510.7184848534973
 20
-568.4428593213647
 11
510.7184848534973
 21
-570.1428593213655
 72
     1
 10
510.7184848534973
 20
-570.1428593213655
 11
510.4684848534972
 21
-570.1428593213655
 72
     1
 10
510.4684848534972
 20
-570.1428593213655
 11
510.4684848534972
 21
-577.5428593213651
 72
     1
 10
510.4684848534972
 20
-577.5428593213651
 11
500.1184848534968
 21
-577.5428593213651
 72
     1
 10
500.1184848534968
 20
-577.5428593213651
 11
499.7184848534972
 21
-577.9428593213647
 72
     1
 10
499.7184848534972
 20
-577.9428593213647
 11
499.3184848534976
 21
-577.5428593213651
 72
     1
 10
499.3184848534976
 20
-577.5428593213651
 11
487.1184848534968
 21
-577.5428593213651
 72
     2
 10
487.1184848534968
 20
-578.0428593213651
 40
0.5
 50
90.0
 51
270.0
 73
     1
 72
     1
 10
487.1184848534968
 20
-578.5428593213651
 11
489.6184848534969
 21
-578.5428593213651
 72
     1
 10
489.6184848534969
 20
-578.5428593213651
 11
489.6184848534969
 21
-579.042859321365
 72
     1
 10
489.6184848534969
 20
-579.042859321365
 11
492.1988643633508
 21
-579.042859321365
 72
     2
 10
492.1988643633508
 20
-579.2928593213651
 40
0.25
 50
270.0
 51
388.3032891697143
 73
     0
 72
     2
 10
495.3684848534979
 20
-580.9997588346471
 40
3.350000000000338
 50
151.6967108302926
 51
173.7993377284715
 73
     1
 72
     2
 10
491.7895458774783
 20
-580.6109197857725
 40
0.249999999999968
 50
6.200662271554886
 51
89.86132714557657
 73
     0
 72
     2
 10
491.7955966163005
 20
-583.1109124634735
 40
2.249999999999897
 50
90.13867285436257
 51
165.3763923539134
 73
     1
 72
     1
 10
489.6184848534969
 20
-582.5428593213632
 11
480.8684848534968
 21
-582.5428593213632
 72
     1
 10
480.8684848534968
 20
-582.5428593213632
 11
480.4684848534972
 21
-582.9428593213647
 72
     1
 10
480.4684848534972
 20
-582.9428593213647
 11
480.0684848534976
 21
-582.5428593213632
 72
     1
 10
480.0684848534976
 20
-582.5428593213632
 11
475.9684848534972
 21
-582.5428593213632
 72
     2
 10
475.9684848534972
 20
-582.0428593213632
 40
0.5
 50
90.0
 51
180.0
 73
     0
 72
     1
 10
475.4684848534973
 20
-582.0428593213632
 11
475.4684848534973
 21
-580.4454508176345
 72
     1
 10
475.4684848534973
 20
-580.4454508176345
 11
476.4349912044433
 21
-578.7714127119593
 72
     2
 10
476.2184848534961
 20
-578.6464127119589
 40
0.2500000000011832
 50
330.0000000000362
 51
405.000000000046
 73
     1
 97
        1
330
3146
 92
       16
 93
       17
 72
     2
 10
493.4934848534971
 20
-582.8368761417363
 40
0.7750000000003052
 50
224.4153085971843
 51
404.415308597205
 73
     1
 72
     2
 10
495.3684848534972
 20
-580.9997588346487
 40
1.849999999999947
 50
135.5846914028105
 51
404.4153085972094
 73
     0
 72
     2
 10
497.2434848534969
 20
-582.8368761417359
 40
0.774999999999745
 50
135.584691402834
 51
315.584691402834
 73
     1
 72
     2
 10
495.3684848534971
 20
-580.9997588346484
 40
3.399999999999712
 50
315.5846914028097
 51
381.9355856718811
 73
     1
 72
     2
 10
498.9861420799617
 20
-579.542859321365
 40
0.4999999999999729
 50
158.0644143281249
 51
270.0
 73
     0
 72
     1
 10
498.9861420799617
 20
-579.042859321365
 11
509.0684848534971
 21
-579.042859321365
 72
     2
 10
509.0684848534971
 20
-580.042859321365
 40
1.0
 50
270.0
 51
360.0
 73
     0
 72
     1
 10
510.0684848534972
 20
-580.042859321365
 11
510.0684848534972
 21
-628.5428593213668
 72
     2
 10
509.0684848534971
 20
-628.5428593213668
 40
1.0
 50
360.0
 51
450.0
 73
     0
 72
     1
 10
509.0684848534971
 20
-629.5428593213669
 11
476.8684848534968
 21
-629.5428593213669
 72
     2
 10
476.8684848534968
 20
-628.5428593213668
 40
1.0
 50
90.0
 51
180.0
 73
     0
 72
     1
 10
475.8684848534969
 20
-628.5428593213668
 11
475.8684848534969
 21
-585.0428593213632
 72
     2
 10
476.8684848534968
 20
-585.0428593213632
 40
1.0
 50
180.0
 51
270.0
 73
     0
 72
     1
 10
476.8684848534968
 20
-584.0428593213633
 11
489.6184848534969
 21
-584.0428593213633
 72
     2
 10
489.6184848534968
 20
-582.5428593213634
 40
1.499999999999886
 50
270.0000000000021
 51
345.3763923539143
 73
     1
 72
     2
 10
491.7955966163004
 20
-583.1109124634735
 40
0.7499999999999162
 50
194.6236076460904
 51
329.4219440464731
 73
     0
 72
     2
 10
495.3684848535012
 20
-580.9997588346484
 40
3.400000000003593
 50
210.5780559534979
 51
224.4153085971477
 73
     1
 97
        1
330
3145
 75
     0
 76
     1
 98
        1
 10
0.0
 20
0.0
  0
HATCH
  5
3149
330
26FF
100
AcDbEntity
  8
APL Hatch
100
AcDbHatch
 10
0.0
 20
0.0
 30
0.0
210
0.0
220
0.0
230
1.0
  2
SOLID
 70
     1
 71
     1
 91
        3
 92
        7
 72
     1
 73
     1
 93
       59
 10
511.9684848534972
 20
-556.5428593213651
 42
0.0
 10
508.4684848534972
 20
-556.5428593213651
 42
0.0
 10
508.4684848534973
 20
-558.5928593213662
 42
1.0
 10
509.4684848534972
 20
-558.5928593213662
 42
0.0
 10
509.4684848534972
 20
-557.8428593213661
 42
0.0
 10
510.9684848534972
 20
-557.8428593213661
 42
0.0
 10
510.9684848534971
 20
-563.3428593213661
 42
0.0
 10
509.4684848534972
 20
-563.3428593213661
 42
0.0
 10
509.4684848534972
 20
-562.5928593213662
 42
1.0
 10
508.4684848534973
 20
-562.5928593213662
 42
0.0
 10
508.4684848534972
 20
-564.6428593213654
 42
0.0
 10
510.4684848534971
 20
-564.6428593213654
 42
0.0
 10
510.4684848534973
 20
-566.1428593213654
 42
0.0
 10
510.7184848534973
 20
-566.1428593213654
 42
0.0
 10
510.7184848534973
 20
-567.8428593213643
 42
0.0
 10
511.0184848534983
 20
-568.1428593213653
 42
0.0
 10
510.7184848534973
 20
-568.4428593213648
 42
0.0
 10
510.7184848534973
 20
-570.1428593213655
 42
0.0
 10
510.4684848534972
 20
-570.1428593213655
 42
0.0
 10
510.4684848534972
 20
-577.5428593213652
 42
0.0
 10
500.1184848534968
 20
-577.5428593213651
 42
0.0
 10
499.7184848534971
 20
-577.9428593213646
 42
0.0
 10
499.3184848534976
 20
-577.5428593213651
 42
0.0
 10
487.1184848534968
 20
-577.5428593213651
 42
1.0
 10
487.1184848534968
 20
-578.5428593213651
 42
0.0
 10
489.6184848534969
 20
-578.5428593213651
 42
0.0
 10
489.6184848534969
 20
-579.042859321365
 42
0.0
 10
492.1988643633508
 20
-579.042859321365
 42
-0.5675210391690618
 10
492.4189768973888
 20
-579.4113940097875
 42
0.0967410137952413
 10
492.0380833063685
 20
-580.6379224974998
 42
-0.3821661969550844
 10
491.7901509513605
 20
-580.8609190535425
 42
0.3406114348430137
 10
489.6184848534969
 20
-582.5428593213632
 42
0.0
 10
480.8684848534968
 20
-582.5428593213632
 42
0.0
 10
480.4684848534972
 20
-582.9428593213647
 42
0.0
 10
480.0684848534976
 20
-582.5428593213632
 42
0.0
 10
475.9684848534972
 20
-582.5428593213632
 42
-0.4142135623730951
 10
475.4684848534973
 20
-582.0428593213632
 42
0.0
 10
475.4684848534973
 20
-580.4454508176344
 42
0.0
 10
476.4349912044433
 20
-578.7714127119595
 42
0.3394542588634862
 10
476.3952615487936
 20
-578.4696360166614
 42
0.0
 10
475.4684848534973
 20
-577.5428593213651
 42
0.0
 10
473.9684848534973
 20
-577.5428593213651
 42
0.0
 10
473.9684848534973
 20
-693.5429198857141
 42
0.0
 10
475.6684848534971
 20
-693.5429198857141
 42
0.0
 10
475.6684848534971
 20
-688.5429198857141
 42
-0.4142135623730784
 10
476.668484853497
 20
-687.542919885714
 42
0.0
 10
485.3684848534971
 20
-687.5429198857138
 42
0.414213562373095
 10
487.4684848534973
 20
-685.4429198857135
 42
0.0
 10
487.4684848534972
 20
-681.042919885714
 42
0.0
 10
501.4684848534972
 20
-681.0429198857141
 42
0.0
 10
501.4684848534967
 20
-685.4429198857137
 42
0.4142135623731189
 10
503.5684848534969
 20
-687.542919885714
 42
0.0
 10
510.0684848534966
 20
-687.542919885714
 42
0.0
 10
510.0684848534967
 20
-693.5428405563449
 42
0.0
 10
522.6184848534983
 20
-693.5428405563448
 42
0.0
 10
522.6184848534983
 20
-690.5428405563439
 42
0.0
 10
521.4184848534984
 20
-690.542840556344
 42
0.0
 10
521.4184848534986
 20
-692.0428405563439
 42
0.0
 10
511.9684848534972
 20
-692.0428405563447
 42
0.0
 97
        1
330
3146
 92
       22
 72
     1
 73
     1
 93
       17
 10
476.8684848534968
 20
-629.5428593213669
 42
-0.4142135623730951
 10
475.8684848534969
 20
-628.5428593213668
 42
0.0
 10
475.8684848534969
 20
-585.0428593213632
 42
-0.4142135623730951
 10
476.8684848534968
 20
-584.0428593213633
 42
0.0
 10
489.6184848534968
 20
-584.0428593213633
 42
0.3412868470082055
 10
491.0698926953658
 20
-582.9215614161035
 42
-0.666906609035098
 10
492.4412993097698
 20
-582.729378675132
 42
0.0604498752215398
 10
492.9399134249249
 20
-583.3792631562093
 42
1.0
 10
494.0470562820685
 20
-582.2944891272624
 42
-2.379795897113117
 10
496.6899134249256
 20
-582.2944891272626
 42
1.0
 10
497.7970562820683
 20
-583.3792631562089
 42
0.2978796563631843
 10
498.5223398714406
 20
-579.7296413102475
 42
-0.5313489649887066
 10
498.9861420799617
 20
-579.042859321365
 42
0.0
 10
509.0684848534971
 20
-579.042859321365
 42
-0.4142135623730951
 10
510.0684848534972
 20
-580.042859321365
 42
0.0
 10
510.0684848534972
 20
-628.5428593213668
 42
-0.4142135623730951
 10
509.0684848534971
 20
-629.5428593213669
 42
0.0
 97
        1
330
3145
 92
       22
 72
     1
 73
     1
 93
       31
 10
498.9740361289606
 20
-631.0428593213669
 42
0.0
 10
509.0684848534967
 20
-631.0428593213669
 42
-0.4142135623730951
 10
510.0684848534966
 20
-632.0428593213669
 42
0.0
 10
510.0684848534967
 20
-685.9429198857139
 42
0.0
 10
503.5684848534967
 20
-685.9429198857137
 42
-0.4142135623730951
 10
503.0684848534967
 20
-685.4429198857137
 42
0.0
 10
503.0684848534967
 20
-680.0429198857141
 42
0.4142135623730951
 10
502.5684848534967
 20
-679.5429198857141
 42
0.0
 10
498.9740361289606
 20
-679.5429198857141
 42
-0.5234933716073927
 10
498.5057827165627
 20
-678.8675952103894
 42
0.2922632705254271
 10
497.7521386996507
 20
-675.3390519323841
 42
1.0
 10
496.6848310073436
 20
-676.3930226577554
 42
-2.392909508456716
 10
494.052138699651
 20
-676.3930226577557
 42
1.0
 10
492.9848310073435
 20
-675.3390519323836
 42
0.292263270525422
 10
492.2311869904308
 20
-678.8675952103901
 42
-0.5234933716073887
 10
491.7629335780333
 20
-679.5429198857141
 42
0.0
 10
486.3684848534969
 20
-679.5429198857141
 42
0.4142135623730951
 10
485.8684848534969
 20
-680.0429198857141
 42
0.0
 10
485.8684848534969
 20
-685.4429198857137
 42
-0.4142135623730951
 10
485.3684848534968
 20
-685.9429198857137
 42
0.0
 10
476.8684848534968
 20
-685.9429198857137
 42
-0.4142135623730951
 10
475.8684848534969
 20
-684.9429198857137
 42
0.0
 10
475.8684848534969
 20
-632.0428593213669
 42
-0.4142135623730951
 10
476.8684848534968
 20
-631.0428593213669
 42
0.0
 10
491.7629335780332
 20
-631.0428593213669
 42
-0.5234933716073927
 10
492.231186990431
 20
-631.7181839966915
 42
0.292263270525494
 10
492.9848310073435
 20
-635.2467272746972
 42
1.0
 10
494.052138699651
 20
-634.1927565493256
 42
-2.392909508456495
 10
496.6848310073428
 20
-634.1927565493251
 42
1.0
 10
497.7521386996511
 20
-635.2467272746975
 42
0.2922632705254084
 10
498.5057827165631
 20
-631.7181839966913
 42
-0.5234933716074974
 97
        1
330
3147
 75
     0
 76
     1
 47
0.4353575527548764
 98
        3
 10
498.7201451396177
 20
-629.938380724046
 10
498.7201451396177
 20
-629.938380724046
 10
498.7201451396177
 20
-629.938380724046
  0
ENDBLK
  5
2701
330
26FF
100
AcDbEntity
  8
0
100
AcDbBlockEnd
  0
BLOCK
  5
2711
330
2710
100
AcDbEntity
  8
0
100
AcDbBlockBegin
  2
9700526
 70
     0
 10
653.4667184294362
 20
273.233702793776
 30
0.0
  3
9700526
  1
9700526.dwg
  0
LWPOLYLINE
  5
314C
330
2710
100
AcDbEntity
  8
APL Joinery
  6
Continuous
 62
     8
100
AcDbPolyline
 90
       12
 70
     1
 43
0.0
 10
643.8667184294343
 20
406.9836840287536
 10
643.8667184294343
 20
274.6837027937757
 10
651.5167184294357
 20
274.6837027937757
 10
651.5167184294357
 20
277.2837027937752
 10
653.5167184294357
 20
277.2837027937752
 10
653.5167184294357
 20
273.3837027937755
 10
652.216718429436
 20
273.3837027937755
 10
652.216718429436
 20
271.7837027937751
 10
650.9167184294358
 20
271.7837027937751
 10
650.9167184294358
 20
273.3837027937755
 10
642.8667184294352
 20
273.3837027937755
 10
642.8667184294352
 20
406.9836840287536
  0
ENDBLK
  5
2712
330
2710
100
AcDbEntity
  8
0
100
AcDbBlockEnd
  0
BLOCK
  5
2716
330
2715
100
AcDbEntity
  8
0
100
AcDbBlockBegin
  2
Timber Profile 3
 70
     0
 10
367.2523893252912
 20
1076.862719891471
 30
0.0
  3
Timber Profile 3
  1
Timber Profile 3.dwg
  0
LWPOLYLINE
  5
314E
330
2715
100
AcDbEntity
  8
APL Joinery
  6
Continuous
 62
     3
100
AcDbPolyline
 90
        9
 70
     1
 43
0.0
 10
374.3023893252903
 20
1209.812719891472
 10
357.9023893252902
 20
1209.812719891472
 10
357.9023893252902
 20
1074.312719891472
 10
365.2023893252917
 20
1074.312719891472
 10
365.2023893252917
 20
1077.612719891473
 10
367.3023893252912
 20
1077.612719891473
 10
367.3023893252912
 20
1069.812719891472
 10
371.3023893252903
 20
1069.812719891472
 42
0.4142135623730951
 10
374.3023893252903
 20
1072.812719891472
  0
SPLINE
  5
314F
330
2715
100
AcDbEntity
  8
APL Joinery
 62
     8
100
AcDbSpline
210
0.0
220
0.0
230
1.0
 70
     8
 71
     3
 72
    11
 73
     7
 74
     5
 42
0.0000000001
 43
0.0000000001
 44
0.0000000001
 40
0.0
 40
0.0
 40
0.0
 40
0.0
 40
16.10174676032533
 40
22.59275029292009
 40
30.2492484102006
 40
34.11943844864421
 40
34.11943844864421
 40
34.11943844864421
 40
34.11943844864421
 10
372.4422608030706
 20
1208.33599893107
 30
0.0
 10
372.727561013626
 20
1202.711037848853
 30
0.0
 10
373.1278726389135
 20
1194.818518917238
 30
0.0
 10
366.8436721365675
 20
1186.535348043237
 30
0.0
 10
361.4622046837618
 20
1183.302894633392
 30
0.0
 10
359.9604896008543
 20
1179.694187136156
 30
0.0
 10
359.4562751486255
 20
1178.482530880797
 30
0.0
 11
372.4422608030706
 21
1208.33599893107
 31
0.0
 11
370.7107959679123
 21
1192.327617430797
 31
0.0
 11
366.8150003934272
 21
1187.135709910244
 31
0.0
 11
361.1877399837839
 21
1181.943802389691
 31
0.0
 11
359.4562751486255
 21
1178.482530880797
 31
0.0
  0
SPLINE
  5
3150
330
2715
100
AcDbEntity
  8
APL Joinery
 62
     8
100
AcDbSpline
210
0.0
220
0.0
230
1.0
 70
     8
 71
     3
 72
    10
 73
     6
 74
     4
 42
0.0000000001
 43
0.0000000001
 44
0.0000000001
 40
0.0
 40
0.0
 40
0.0
 40
0.0
 40
5.263591546577339
 40
10.30985873790608
 40
15.81802698952888
 40
15.81802698952888
 40
15.81802698952888
 40
15.81802698952888
 10
366.8150003934272
 20
1208.33599893107
 30
0.0
 10
366.6711144117776
 20
1206.561107150397
 30
0.0
 10
366.3892832453496
 20
1203.084605721312
 30
0.0
 10
363.4017991156954
 20
1198.532248961534
 30
0.0
 10
360.8092693620589
 20
1196.161054606647
 30
0.0
 10
359.4562751486255
 20
1194.923571319681
 30
0.0
 11
366.8150003934272
 21
1208.33599893107
 31
0.0
 11
365.9492681789288
 21
1203.144091410516
 31
0.0
 11
363.3520707231105
 21
1198.817501767186
 31
0.0
 11
359.4562751486255
 21
1194.923571319681
 31
0.0
  0
ENDBLK
  5
2717
330
2715
100
AcDbEntity
  8
0
100
AcDbBlockEnd
  0
BLOCK
  5
273A
330
2739
100
AcDbEntity
  8
0
100
AcDbBlockBegin
  2
07400
 70
     0
 10
694.724921185669
 20
-174.8068697620471
 30
0.0
  3
07400
  1
07400.dwg
  0
LWPOLYLINE
  5
3152
102
{ACAD_REACTORS
330
3154
102
}
330
2739
100
AcDbEntity
  8
APL Joinery
  6
Continuous
100
AcDbPolyline
 90
      127
 70
     1
 43
0.0
 10
738.6249211856693
 20
-126.9068697620467
 42
-0.4142135623731117
 10
739.224921185669
 20
-127.5068697620478
 10
739.224921185669
 20
-131.8068697620471
 42
-0.4142135623730951
 10
738.724921185669
 20
-132.3068697620471
 10
725.3249011856681
 20
-132.3068697620471
 10
724.9249011856703
 20
-132.7068697620485
 10
724.5249011856688
 20
-132.3068697620471
 10
711.7749011856687
 20
-132.3068697620471
 10
711.3749011856709
 20
-132.7068697620485
 10
710.9749011856695
 20
-132.3068697620471
 10
710.324901185668
 20
-132.3068697620471
 10
709.9249011856702
 20
-132.7068697620485
 10
709.5249011856687
 20
-132.3068697620471
 10
694.7249011856695
 20
-132.3068697620471
 10
694.7249011856688
 20
-124.2068697620478
 42
0.4142135623730784
 10
692.8249011856681
 20
-122.3068697620471
 10
687.6249011856673
 20
-122.3068697620471
 10
687.6249011856673
 20
-121.4068697620492
 10
686.6249011856673
 20
-121.4068697620492
 10
686.6249011856673
 20
-122.3068697620471
 10
686.6249011856673
 20
-122.4068697620492
 10
684.6249011856673
 20
-122.4068697620492
 10
684.6249011856673
 20
-122.3068697620471
 10
684.6249011856673
 20
-117.30686976205
 42
0.9999999999999998
 10
684.6249011856673
 20
-116.5068697620478
 10
684.6249011856673
 20
-111.5068697620478
 10
684.6249011856673
 20
-111.4068697620492
 10
686.6249011856673
 20
-111.4068697620492
 10
686.6249011856673
 20
-112.4068697620492
 10
687.6249011856673
 20
-112.4068697620492
 10
687.6249011856673
 20
-111.4068697620492
 10
688.6249011856673
 20
-111.4068697620492
 10
688.6249011856673
 20
-111.3068697620471
 10
688.6249011856673
 20
-109.3568697620463
 42
0.9999999999999998
 10
687.6249011856673
 20
-109.3568697620463
 10
687.6249011856673
 20
-110.1068697620463
 10
686.1249011856673
 20
-110.1068697620463
 10
686.1249011856673
 20
-109.1068697620463
 42
0.7704379051116978
 10
685.6574239148178
 20
-108.9835667342482
 10
685.0923784565201
 20
-109.9801727898445
 42
-0.77043790511173
 10
684.6249011856673
 20
-109.8568697620463
 10
684.6249011856673
 20
-104.8568697620463
 42
-0.7704379051116978
 10
685.0923784565168
 20
-104.7335667342482
 10
685.6574239148236
 20
-105.730172789844
 42
0.770437905111815
 10
686.1249011856673
 20
-105.6068697620463
 10
686.1249011856673
 20
-104.6068697620463
 10
687.6249011856673
 20
-104.6068697620463
 10
687.6249011856673
 20
-105.3568697620463
 42
0.9999999999999998
 10
688.6249011856673
 20
-105.3568697620463
 10
688.6249011856673
 20
-103.3068697620471
 10
684.1249011856673
 20
-103.3068697620471
 42
0.4142135623730951
 10
683.1249011856673
 20
-104.3068697620471
 10
683.1249011856673
 20
-125.7617243441669
 42
-0.1382175680980665
 10
682.8305882280112
 20
-126.8060574871739
 10
673.8464659739556
 20
-141.479632694653
 42
0.1382175680980486
 10
672.374901185671
 20
-146.7012984096869
 10
672.3749011856691
 20
-175.8068697620453
 42
0.4142135623730951
 10
675.374901185671
 20
-178.8068697620471
 10
680.0249211856683
 20
-178.8068697620471
 10
680.4249211856697
 20
-178.4068697620456
 10
680.8249211856676
 20
-178.8068697620471
 10
686.724921185669
 20
-178.8068697620471
 42
-0.4142135623730951
 10
687.724921185669
 20
-179.8068697620471
 10
687.724921185669
 20
-193.8068697620471
 42
0.4142135623730951
 10
688.724921185669
 20
-194.8068697620471
 10
694.474921185669
 20
-194.8068697620471
 42
0.4142135623730951
 10
694.724921185669
 20
-194.5568697620471
 10
694.724921185669
 20
-193.5568697620471
 42
0.4142135623730951
 10
694.474921185669
 20
-193.3068697620471
 10
693.9931561829182
 20
-193.3068697620471
 42
-0.5908090823375608
 10
693.7818405342754
 20
-192.9232819757881
 42
0.3201949615809479
 10
693.5850860208347
 20
-189.4147157115405
 42
0.9999999999999998
 10
692.4147563505052
 20
-190.352973918403
 42
-2.083394336380243
 10
690.0350860208366
 20
-190.3529739184032
 42
0.6557567563765638
 10
689.3936711856682
 20
-189.1359571646547
 42
-0.4363760893976877
 10
689.1249211856704
 20
-188.8866612812122
 10
689.1249211856704
 20
-167.3068697620471
 42
-0.4142135623730951
 10
690.1249211856704
 20
-166.3068697620471
 10
700.3249211856712
 20
-166.3068697620471
 10
700.724921185669
 20
-165.9068697620456
 10
701.1249211856704
 20
-166.3068697620471
 10
705.724921185669
 20
-166.3068697620471
 10
705.724921185669
 20
-169.8068697620471
 10
707.1249211856704
 20
-169.8068697620471
 10
707.1249211856704
 20
-166.3068697620471
 10
720.9249211856697
 20
-166.3068697620471
 10
720.9249211856697
 20
-169.8068697620471
 10
722.3249211856711
 20
-169.8068697620471
 10
722.3249211856711
 20
-166.3068697620471
 10
729.6450088916756
 20
-166.3068697620471
 10
732.3249211856675
 20
-164.7546883237661
 10
735.4249211856697
 20
-164.7546883237661
 10
735.8249211856676
 20
-164.3546883237683
 10
736.224921185669
 20
-164.7546883237661
 10
739.3249211856676
 20
-164.7546883237661
 10
739.3249211856676
 20
-169.8068697620471
 10
742.3249211856675
 20
-169.8068697620471
 10
742.3249211856675
 20
-168.3068697620471
 10
740.8249211856675
 20
-168.3068697620471
 10
740.8249211856675
 20
-163.2546883237661
 10
739.1982673356544
 20
-163.2546883237661
 42
-0.503317434040863
 10
738.7197785200548
 20
-162.6096074727021
 42
0.1409003909933486
 10
738.7439137391234
 20
-160.9380752317944
 42
-0.4943022706848817
 10
739.2263918471329
 20
-160.3068697620471
 10
740.8249211856675
 20
-160.3068697620471
 10
740.8249211856675
 20
-149.0568697620471
 10
741.0749211856675
 20
-149.306869762047
 10
744.0518962385943
 20
-149.306869762047
 10
744.5518962385906
 20
-148.8068697620471
 10
759.5518962385906
 20
-148.8068697620471
 10
760.0518962385906
 20
-149.306869762047
 10
761.3018962385906
 20
-149.306869762047
 42
0.9999999999999998
 10
761.3018962385906
 20
-147.8068697620471
 10
740.974921185669
 20
-147.8068697620471
 10
740.724921185669
 20
-148.0568697620471
 10
740.724921185669
 20
-139.0568697620471
 10
743.974921185669
 20
-139.0568697620471
 42
0.9999999999999998
 10
743.974921185669
 20
-137.5568697620471
 10
740.724921185669
 20
-137.5568697620471
 10
740.72492118567
 20
-126.0068697620488
 42
-0.4142135623730451
 10
741.3249211856675
 20
-125.4068697620456
 10
742.3749011856673
 20
-125.4068697620456
 42
0.9999999999999998
 10
742.3749011856673
 20
-123.9068697620456
 10
740.4749211856715
 20
-123.9068697620472
 42
0.1178085218647674
 10
740.2488918274869
 20
-123.9608756710109
 10
737.2358571483954
 20
-125.48787862549
 42
0.7892152017802648
 10
737.574901185668
 20
-126.9068697620456
  0
LWPOLYLINE
  5
3153
102
{ACAD_REACTORS
330
3154
102
}
330
2739
100
AcDbEntity
  8
APL Joinery
  6
Continuous
100
AcDbPolyline
 90
       63
 70
     1
 43
0.0
 10
702.8795710366416
 20
-134.1968697620465
 42
-0.5543676005432917
 10
701.6788170293144
 20
-134.6170345972114
 42
2.083394336381109
 10
701.6788170293153
 20
-136.9967049268836
 42
-0.500684192467919
 10
702.8416859975384
 20
-137.2968697620464
 42
0.3041393325453008
 10
703.3041792407313
 20
-137.6068697620463
 10
703.974921185669
 20
-137.6068697620463
 42
-0.4142135623730951
 10
704.224921185669
 20
-137.8568697620463
 10
704.224921185669
 20
-139.0568697620471
 42
-0.4142135623730951
 10
703.974921185669
 20
-139.3068697620471
 10
697.474921185669
 20
-139.3068697620471
 42
-0.4142135623730951
 10
697.224921185669
 20
-139.0568697620471
 10
697.224921185669
 20
-134.3068697620471
 42
0.4142135623730951
 10
696.724921185669
 20
-133.8068697620471
 10
694.6249011856703
 20
-133.8068697620463
 42
-0.4142135623731117
 10
693.2249011856695
 20
-132.4068697620456
 10
693.2249011856695
 20
-124.4068697620456
 42
0.4142135623730951
 10
692.7249011856694
 20
-123.9068697620456
 10
685.1249011856673
 20
-123.9068697620456
 42
0.4142135623730951
 10
684.6249011856673
 20
-124.4068697620456
 10
684.6249011856673
 20
-125.5739872768023
 42
-0.1467762076559503
 10
684.0468639242573
 20
-127.5006771206277
 10
675.0662303347001
 20
-142.1685543668063
 42
0.1405260033004331
 10
673.7749011856688
 20
-146.6724487441603
 10
673.7749011856699
 20
-175.8068697620445
 42
0.4142135623730951
 10
675.374901185671
 20
-177.4068697620456
 10
687.724921185669
 20
-177.4068697620456
 10
687.7249211856697
 20
-167.3068697620464
 42
-0.4142135623730951
 10
690.1249211856704
 20
-164.9068697620492
 10
700.3249211856712
 20
-164.9068697620456
 10
701.1249211856704
 20
-164.9068697620456
 10
729.2688448146439
 20
-164.9068697620456
 10
731.9487571086358
 20
-163.3546883237683
 10
732.4835292230857
 20
-163.3546883237683
 42
0.5126846898737019
 10
732.9574855298367
 20
-162.6954230755408
 42
-0.0533698343756272
 10
732.8185046926363
 20
-162.0666591098093
 42
-0.9998342416707583
 10
734.3114701391449
 20
-161.9005300457492
 42
2.079753269819509
 10
735.9935829076522
 20
-160.2184172772421
 42
-1.000165406734293
 10
736.160206380692
 20
-158.7255069286581
 42
-0.0367112246053569
 10
736.5962890706253
 20
-158.8068697620471
 10
738.8249211856675
 20
-158.8068697620471
 42
0.4142135623730951
 10
739.3249211856676
 20
-158.3068697620471
 10
739.3249211856676
 20
-146.0068697620478
 10
736.3249211856675
 20
-146.0068697620478
 10
736.3249211856675
 20
-143.8068697620471
 10
737.3249211856675
 20
-143.8068697620471
 10
737.3249211856675
 20
-144.8068697620471
 10
739.3249211856676
 20
-144.8068697620471
 10
739.3249211856676
 20
-139.7068697620478
 42
-0.9999999999999998
 10
739.3249211856676
 20
-138.9068697620456
 10
739.3249211856676
 20
-133.8068697620471
 10
737.3249211856675
 20
-133.8068697620471
 10
737.3249211856675
 20
-134.8068697620471
 10
736.3249211856675
 20
-134.8068697620471
 10
736.3249211856675
 20
-133.8068697620471
 10
727.4249011856702
 20
-133.8068697620471
 10
727.4249011856702
 20
-134.8068697620471
 10
722.4249011856702
 20
-134.8068697620471
 10
722.4249011856702
 20
-133.8068697620471
 10
713.874901185671
 20
-133.8068697620471
 10
713.874901185671
 20
-134.8068697620471
 10
707.4249011856702
 20
-134.8068697620471
 10
707.4249011856702
 20
-133.8068697620471
 10
703.3673209725723
 20
-133.8068697620496
 42
0.3506406766913512
  0
HATCH
  5
3154
330
2739
100
AcDbEntity
  8
APL Hatch
100
AcDbHatch
 10
0.0
 20
0.0
 30
0.0
210
0.0
220
0.0
230
1.0
  2
SOLID
 70
     1
 71
     1
 91
        2
 92
       16
 93
       63
 72
     2
 10
702.1479461327459
 20
-134.031869762046
 40
0.7500000000002972
 50
12.70903299442532
 51
128.7192973222118
 73
     0
 72
     2
 10
700.7249211856695
 20
-135.8068697620479
 40
1.525000000001419
 50
51.28070267777454
 51
308.7192973222748
 73
     1
 72
     2
 10
702.1479461327482
 20
-137.5818697620473
 40
0.7499999999998268
 50
231.2807026776281
 51
337.6663173421177
 73
     0
 72
     2
 10
703.304179240732
 20
-137.1068697620467
 40
0.4999999999995545
 50
202.3336826577872
 51
269.9999999999349
 73
     1
 72
     1
 10
703.3041792407313
 20
-137.6068697620463
 11
703.974921185669
 21
-137.6068697620463
 72
     2
 10
703.974921185669
 20
-137.8568697620463
 40
0.25
 50
270.0
 51
360.0
 73
     0
 72
     1
 10
704.224921185669
 20
-137.8568697620463
 11
704.224921185669
 21
-139.0568697620471
 72
     2
 10
703.974921185669
 20
-139.0568697620471
 40
0.25
 50
360.0
 51
450.0
 73
     0
 72
     1
 10
703.974921185669
 20
-139.3068697620471
 11
697.474921185669
 21
-139.3068697620471
 72
     2
 10
697.474921185669
 20
-139.0568697620471
 40
0.25
 50
90.0
 51
180.0
 73
     0
 72
     1
 10
697.224921185669
 20
-139.0568697620471
 11
697.224921185669
 21
-134.3068697620471
 72
     2
 10
696.724921185669
 20
-134.3068697620471
 40
0.5
 50
0.0
 51
90.0
 73
     1
 72
     1
 10
696.724921185669
 20
-133.8068697620471
 11
694.6249011856703
 21
-133.8068697620463
 72
     2
 10
694.6249011856702
 20
-132.4068697620456
 40
1.400000000000659
 50
89.99999999999536
 51
180.0
 73
     0
 72
     1
 10
693.2249011856695
 20
-132.4068697620456
 11
693.2249011856695
 21
-124.4068697620456
 72
     2
 10
692.7249011856694
 20
-124.4068697620456
 40
0.5
 50
0.0
 51
90.0
 73
     1
 72
     1
 10
692.7249011856694
 20
-123.9068697620456
 11
685.1249011856673
 21
-123.9068697620456
 72
     2
 10
685.1249011856673
 20
-124.4068697620456
 40
0.5
 50
90.0
 51
180.0
 73
     1
 72
     1
 10
684.6249011856673
 20
-124.4068697620456
 11
684.6249011856673
 21
-125.5739872768023
 72
     2
 10
681.1249011856674
 20
-125.5739872768046
 40
3.499999999999886
 50
359.9999999999614
 51
393.4001422318161
 73
     0
 72
     1
 10
684.0468639242573
 20
-127.5006771206277
 11
675.0662303347001
 21
-142.1685543668063
 72
     2
 10
682.2749011856678
 20
-146.6724487441639
 40
8.499999999998989
 50
148.0033332759154
 51
179.9999999999758
 73
     1
 72
     1
 10
673.7749011856688
 20
-146.6724487441603
 11
673.7749011856699
 21
-175.8068697620445
 72
     2
 10
675.374901185671
 20
-175.8068697620445
 40
1.600000000001045
 50
179.999999999999
 51
270.0
 73
     1
 72
     1
 10
675.374901185671
 20
-177.4068697620456
 11
687.724921185669
 21
-177.4068697620456
 72
     1
 10
687.724921185669
 20
-177.4068697620456
 11
687.7249211856697
 21
-167.3068697620464
 72
     2
 10
690.1249211856686
 20
-167.3068697620482
 40
2.399999999998954
 50
180.0000000000434
 51
270.0000000000434
 73
     0
 72
     1
 10
690.1249211856704
 20
-164.9068697620492
 11
700.3249211856712
 21
-164.9068697620456
 72
     1
 10
700.3249211856712
 20
-164.9068697620456
 11
701.1249211856704
 21
-164.9068697620456
 72
     1
 10
701.1249211856704
 20
-164.9068697620456
 11
729.2688448146439
 21
-164.9068697620456
 72
     1
 10
729.2688448146439
 20
-164.9068697620456
 11
731.9487571086358
 21
-163.3546883237683
 72
     1
 10
731.9487571086358
 20
-163.3546883237683
 11
732.4835292230857
 21
-163.3546883237683
 72
     2
 10
732.4835292230864
 20
-162.8546883237673
 40
0.5000000000010232
 50
269.9999999999219
 51
378.5740787974956
 73
     1
 72
     2
 10
735.8249211856842
 20
-161.7318683237687
 40
3.025000000014492
 50
161.4259212025172
 51
173.645792940687
 73
     0
 72
     2
 10
733.5650011856699
 20
-161.9837183237651
 40
0.7510900000007761
 50
173.6600560797403
 51
353.6410600000352
 73
     0
 72
     2
 10
735.8249204054408
 20
-161.731867543538
 40
1.522819341945461
 50
186.358939999977
 51
443.6410600000154
 73
     1
 72
     2
 10
736.076771185669
 20
-159.4719483237674
 40
0.7510900000007628
 50
96.35894000003517
 51
276.3778926480996
 73
     0
 72
     2
 10
735.824921185671
 20
-161.7318683237735
 40
3.025000000006643
 50
276.3636295087823
 51
284.7734457791045
 73
     0
 72
     1
 10
736.5962890706253
 20
-158.8068697620471
 11
738.8249211856675
 21
-158.8068697620471
 72
     2
 10
738.8249211856675
 20
-158.3068697620471
 40
0.5
 50
270.0
 51
360.0
 73
     1
 72
     1
 10
739.3249211856676
 20
-158.3068697620471
 11
739.3249211856676
 21
-146.0068697620478
 72
     1
 10
739.3249211856676
 20
-146.0068697620478
 11
736.3249211856675
 21
-146.0068697620478
 72
     1
 10
736.3249211856675
 20
-146.0068697620478
 11
736.3249211856675
 21
-143.8068697620471
 72
     1
 10
736.3249211856675
 20
-143.8068697620471
 11
737.3249211856675
 21
-143.8068697620471
 72
     1
 10
737.3249211856675
 20
-143.8068697620471
 11
737.3249211856675
 21
-144.8068697620471
 72
     1
 10
737.3249211856675
 20
-144.8068697620471
 11
739.3249211856676
 21
-144.8068697620471
 72
     1
 10
739.3249211856676
 20
-144.8068697620471
 11
739.3249211856676
 21
-139.7068697620478
 72
     2
 10
739.3249211856676
 20
-139.3068697620467
 40
0.4000000000010857
 50
90.0
 51
270.0
 73
     0
 72
     1
 10
739.3249211856676
 20
-138.9068697620456
 11
739.3249211856676
 21
-133.8068697620471
 72
     1
 10
739.3249211856676
 20
-133.8068697620471
 11
737.3249211856675
 21
-133.8068697620471
 72
     1
 10
737.3249211856675
 20
-133.8068697620471
 11
737.3249211856675
 21
-134.8068697620471
 72
     1
 10
737.3249211856675
 20
-134.8068697620471
 11
736.3249211856675
 21
-134.8068697620471
 72
     1
 10
736.3249211856675
 20
-134.8068697620471
 11
736.3249211856675
 21
-133.8068697620471
 72
     1
 10
736.3249211856675
 20
-133.8068697620471
 11
727.4249011856702
 21
-133.8068697620471
 72
     1
 10
727.4249011856702
 20
-133.8068697620471
 11
727.4249011856702
 21
-134.8068697620471
 72
     1
 10
727.4249011856702
 20
-134.8068697620471
 11
722.4249011856702
 21
-134.8068697620471
 72
     1
 10
722.4249011856702
 20
-134.8068697620471
 11
722.4249011856702
 21
-133.8068697620471
 72
     1
 10
722.4249011856702
 20
-133.8068697620471
 11
713.874901185671
 21
-133.8068697620471
 72
     1
 10
713.874901185671
 20
-133.8068697620471
 11
713.874901185671
 21
-134.8068697620471
 72
     1
 10
713.874901185671
 20
-134.8068697620471
 11
707.4249011856702
 21
-134.8068697620471
 72
     1
 10
707.4249011856702
 20
-134.8068697620471
 11
707.4249011856702
 21
-133.8068697620471
 72
     1
 10
707.4249011856702
 20
-133.8068697620471
 11
703.3673209725723
 21
-133.8068697620496
 72
     2
 10
703.3673209725698
 20
-134.3068697620481
 40
0.4999999999984937
 50
89.9999999997134
 51
167.2909670053677
 73
     1
 97
        1
330
3153
 92
        1
 93
      127
 72
     2
 10
738.6249211856686
 20
-127.5068697620471
 40
0.6000000000003638
 50
270.0000000000652
 51
360.0000000000678
 73
     0
 72
     1
 10
739.224921185669
 20
-127.5068697620478
 11
739.224921185669
 21
-131.8068697620471
 72
     2
 10
738.724921185669
 20
-131.8068697620471
 40
0.5
 50
360.0
 51
450.0
 73
     0
 72
     1
 10
738.724921185669
 20
-132.3068697620471
 11
725.3249011856681
 21
-132.3068697620471
 72
     1
 10
725.3249011856681
 20
-132.3068697620471
 11
724.9249011856703
 21
-132.7068697620485
 72
     1
 10
724.9249011856703
 20
-132.7068697620485
 11
724.5249011856688
 21
-132.3068697620471
 72
     1
 10
724.5249011856688
 20
-132.3068697620471
 11
711.7749011856687
 21
-132.3068697620471
 72
     1
 10
711.7749011856687
 20
-132.3068697620471
 11
711.3749011856709
 21
-132.7068697620485
 72
     1
 10
711.3749011856709
 20
-132.7068697620485
 11
710.9749011856695
 21
-132.3068697620471
 72
     1
 10
710.9749011856695
 20
-132.3068697620471
 11
710.324901185668
 21
-132.3068697620471
 72
     1
 10
710.324901185668
 20
-132.3068697620471
 11
709.9249011856702
 21
-132.7068697620485
 72
     1
 10
709.9249011856702
 20
-132.7068697620485
 11
709.5249011856687
 21
-132.3068697620471
 72
     1
 10
709.5249011856687
 20
-132.3068697620471
 11
694.7249011856695
 21
-132.3068697620471
 72
     1
 10
694.7249011856695
 20
-132.3068697620471
 11
694.7249011856688
 21
-124.2068697620478
 72
     2
 10
692.8249011856681
 20
-124.2068697620479
 40
1.900000000000773
 50
0.0000000000029998
 51
90.0
 73
     1
 72
     1
 10
692.8249011856681
 20
-122.3068697620471
 11
687.6249011856673
 21
-122.3068697620471
 72
     1
 10
687.6249011856673
 20
-122.3068697620471
 11
687.6249011856673
 21
-121.4068697620492
 72
     1
 10
687.6249011856673
 20
-121.4068697620492
 11
686.6249011856673
 21
-121.4068697620492
 72
     1
 10
686.6249011856673
 20
-121.4068697620492
 11
686.6249011856673
 21
-122.3068697620471
 72
     1
 10
686.6249011856673
 20
-122.3068697620471
 11
686.6249011856673
 21
-122.4068697620492
 72
     1
 10
686.6249011856673
 20
-122.4068697620492
 11
684.6249011856673
 21
-122.4068697620492
 72
     1
 10
684.6249011856673
 20
-122.4068697620492
 11
684.6249011856673
 21
-122.3068697620471
 72
     1
 10
684.6249011856673
 20
-122.3068697620471
 11
684.6249011856673
 21
-117.30686976205
 72
     2
 10
684.6249011856673
 20
-116.9068697620489
 40
0.4000000000010857
 50
270.0
 51
450.0
 73
     1
 72
     1
 10
684.6249011856673
 20
-116.5068697620478
 11
684.6249011856673
 21
-111.5068697620478
 72
     1
 10
684.6249011856673
 20
-111.5068697620478
 11
684.6249011856673
 21
-111.4068697620492
 72
     1
 10
684.6249011856673
 20
-111.4068697620492
 11
686.6249011856673
 21
-111.4068697620492
 72
     1
 10
686.6249011856673
 20
-111.4068697620492
 11
686.6249011856673
 21
-112.4068697620492
 72
     1
 10
686.6249011856673
 20
-112.4068697620492
 11
687.6249011856673
 21
-112.4068697620492
 72
     1
 10
687.6249011856673
 20
-112.4068697620492
 11
687.6249011856673
 21
-111.4068697620492
 72
     1
 10
687.6249011856673
 20
-111.4068697620492
 11
688.6249011856673
 21
-111.4068697620492
 72
     1
 10
688.6249011856673
 20
-111.4068697620492
 11
688.6249011856673
 21
-111.3068697620471
 72
     1
 10
688.6249011856673
 20
-111.3068697620471
 11
688.6249011856673
 21
-109.3568697620463
 72
     2
 10
688.1249011856673
 20
-109.3568697620463
 40
0.5
 50
0.0
 51
180.0
 73
     1
 72
     1
 10
687.6249011856673
 20
-109.3568697620463
 11
687.6249011856673
 21
-110.1068697620463
 72
     1
 10
687.6249011856673
 20
-110.1068697620463
 11
686.1249011856673
 21
-110.1068697620463
 72
     1
 10
686.1249011856673
 20
-110.1068697620463
 11
686.1249011856673
 21
-109.1068697620463
 72
     2
 10
685.8749011856669
 20
-109.1068697620464
 40
0.2500000000003411
 50
0.0000000000260551
 51
150.4480761241025
 73
     1
 72
     1
 10
685.6574239148178
 20
-108.9835667342482
 11
685.0923784565201
 21
-109.9801727898445
 72
     2
 10
684.8749011856693
 20
-109.8568697620458
 40
0.250000000002121
 50
29.55192387580099
 51
179.9999999998892
 73
     0
 72
     1
 10
684.6249011856673
 20
-109.8568697620463
 11
684.6249011856673
 21
-104.8568697620463
 72
     2
 10
684.8749011856677
 20
-104.8568697620464
 40
0.2500000000003411
 50
180.000000000026
 51
330.4480761241026
 73
     0
 72
     1
 10
685.0923784565168
 20
-104.7335667342482
 11
685.6574239148236
 21
-105.730172789844
 72
     2
 10
685.87490118567
 20
-105.6068697620468
 40
0.2499999999974362
 50
209.5519238760203
 51
360.0000000001107
 73
     1
 72
     1
 10
686.1249011856673
 20
-105.6068697620463
 11
686.1249011856673
 21
-104.6068697620463
 72
     1
 10
686.1249011856673
 20
-104.6068697620463
 11
687.6249011856673
 21
-104.6068697620463
 72
     1
 10
687.6249011856673
 20
-104.6068697620463
 11
687.6249011856673
 21
-105.3568697620463
 72
     2
 10
688.1249011856673
 20
-105.3568697620463
 40
0.5
 50
180.0
 51
360.0
 73
     1
 72
     1
 10
688.6249011856673
 20
-105.3568697620463
 11
688.6249011856673
 21
-103.3068697620471
 72
     1
 10
688.6249011856673
 20
-103.3068697620471
 11
684.1249011856673
 21
-103.3068697620471
 72
     2
 10
684.1249011856673
 20
-104.3068697620471
 40
1.0
 50
90.0
 51
180.0
 73
     1
 72
     1
 10
683.1249011856673
 20
-104.3068697620471
 11
683.1249011856673
 21
-125.7617243441669
 72
     2
 10
681.124901185668
 20
-125.7617243441685
 40
1.999999999999317
 50
359.9999999999568
 51
391.4776933548461
 73
     0
 72
     1
 10
682.8305882280112
 20
-126.8060574871739
 11
673.8464659739556
 21
-141.479632694653
 72
     2
 10
682.3749011856696
 20
-146.7012984096878
 40
9.999999999998642
 50
148.5223066451097
 51
179.9999999999947
 73
     1
 72
     1
 10
672.374901185671
 20
-146.7012984096869
 11
672.3749011856691
 21
-175.8068697620453
 72
     2
 10
675.374901185671
 20
-175.8068697620453
 40
3.000000000001818
 50
180.0000000000005
 51
270.0
 73
     1
 72
     1
 10
675.374901185671
 20
-178.8068697620471
 11
680.0249211856683
 21
-178.8068697620471
 72
     1
 10
680.0249211856683
 20
-178.8068697620471
 11
680.4249211856697
 21
-178.4068697620456
 72
     1
 10
680.4249211856697
 20
-178.4068697620456
 11
680.8249211856676
 21
-178.8068697620471
 72
     1
 10
680.8249211856676
 20
-178.8068697620471
 11
686.724921185669
 21
-178.8068697620471
 72
     2
 10
686.724921185669
 20
-179.8068697620471
 40
1.0
 50
270.0
 51
360.0
 73
     0
 72
     1
 10
687.724921185669
 20
-179.8068697620471
 11
687.724921185669
 21
-193.8068697620471
 72
     2
 10
688.724921185669
 20
-193.8068697620471
 40
1.0
 50
180.0
 51
270.0
 73
     1
 72
     1
 10
688.724921185669
 20
-194.8068697620471
 11
694.474921185669
 21
-194.8068697620471
 72
     2
 10
694.474921185669
 20
-194.5568697620471
 40
0.25
 50
270.0
 51
360.0
 73
     1
 72
     1
 10
694.724921185669
 20
-194.5568697620471
 11
694.724921185669
 21
-193.5568697620471
 72
     2
 10
694.474921185669
 20
-193.5568697620471
 40
0.25
 50
0.0
 51
90.0
 73
     1
 72
     1
 10
694.474921185669
 20
-193.3068697620471
 11
693.9931561829182
 21
-193.3068697620471
 72
     2
 10
693.9931561829192
 20
-193.0568697620479
 40
0.2499999999991189
 50
90.00000000023449
 51
212.2999183636862
 73
     0
 72
     2
 10
691.2249211856681
 20
-191.3068697620483
 40
3.025000000001685
 50
327.7000816365552
 51
398.7192973222258
 73
     1
 72
     2
 10
692.99992118567
 20
-189.8838448149717
 40
0.7499999999997315
 50
38.71929732222746
 51
218.7192973222275
 73
     1
 72
     2
 10
691.224921185671
 20
-191.3068697620463
 40
1.524999999998681
 50
321.2807026777646
 51
578.7192973222259
 73
     0
 72
     2
 10
689.4499211856706
 20
-189.8838448149735
 40
0.749999999999694
 50
321.2807026779288
 51
454.301222304853
 73
     1
 72
     2
 10
689.3749211856706
 20
-188.8866612812146
 40
0.2500000000001896
 50
85.69877769589206
 51
180.0000000005471
 73
     0
 72
     1
 10
689.1249211856704
 20
-188.8866612812122
 11
689.1249211856704
 21
-167.3068697620471
 72
     2
 10
690.1249211856704
 20
-167.3068697620471
 40
1.0
 50
180.0
 51
270.0
 73
     0
 72
     1
 10
690.1249211856704
 20
-166.3068697620471
 11
700.3249211856712
 21
-166.3068697620471
 72
     1
 10
700.3249211856712
 20
-166.3068697620471
 11
700.724921185669
 21
-165.9068697620456
 72
     1
 10
700.724921185669
 20
-165.9068697620456
 11
701.1249211856704
 21
-166.3068697620471
 72
     1
 10
701.1249211856704
 20
-166.3068697620471
 11
705.724921185669
 21
-166.3068697620471
 72
     1
 10
705.724921185669
 20
-166.3068697620471
 11
705.724921185669
 21
-169.8068697620471
 72
     1
 10
705.724921185669
 20
-169.8068697620471
 11
707.1249211856704
 21
-169.8068697620471
 72
     1
 10
707.1249211856704
 20
-169.8068697620471
 11
707.1249211856704
 21
-166.3068697620471
 72
     1
 10
707.1249211856704
 20
-166.3068697620471
 11
720.9249211856697
 21
-166.3068697620471
 72
     1
 10
720.9249211856697
 20
-166.3068697620471
 11
720.9249211856697
 21
-169.8068697620471
 72
     1
 10
720.9249211856697
 20
-169.8068697620471
 11
722.3249211856711
 21
-169.8068697620471
 72
     1
 10
722.3249211856711
 20
-169.8068697620471
 11
722.3249211856711
 21
-166.3068697620471
 72
     1
 10
722.3249211856711
 20
-166.3068697620471
 11
729.6450088916756
 21
-166.3068697620471
 72
     1
 10
729.6450088916756
 20
-166.3068697620471
 11
732.3249211856675
 21
-164.7546883237661
 72
     1
 10
732.3249211856675
 20
-164.7546883237661
 11
735.4249211856697
 21
-164.7546883237661
 72
     1
 10
735.4249211856697
 20
-164.7546883237661
 11
735.8249211856676
 21
-164.3546883237683
 72
     1
 10
735.8249211856676
 20
-164.3546883237683
 11
736.224921185669
 21
-164.7546883237661
 72
     1
 10
736.224921185669
 20
-164.7546883237661
 11
739.3249211856676
 21
-164.7546883237661
 72
     1
 10
739.3249211856676
 20
-164.7546883237661
 11
739.3249211856676
 21
-169.8068697620471
 72
     1
 10
739.3249211856676
 20
-169.8068697620471
 11
742.3249211856675
 21
-169.8068697620471
 72
     1
 10
742.3249211856675
 20
-169.8068697620471
 11
742.3249211856675
 21
-168.3068697620471
 72
     1
 10
742.3249211856675
 20
-168.3068697620471
 11
740.8249211856675
 21
-168.3068697620471
 72
     1
 10
740.8249211856675
 20
-168.3068697620471
 11
740.8249211856675
 21
-163.2546883237661
 72
     1
 10
740.8249211856675
 20
-163.2546883237661
 11
739.1982673356544
 21
-163.2546883237661
 72
     2
 10
739.1982673356551
 20
-162.7546883237661
 40
0.4999999999999716
 50
90.00000000007815
 51
196.8676371392674
 73
     0
 72
     2
 10
735.824921185668
 20
-161.7318683237776
 40
3.025000000001354
 50
343.132362860991
 51
375.2131669852913
 73
     1
 72
     2
 10
739.2263918471329
 20
-160.8068697620471
 40
0.4999999999999912
 50
164.7868330149345
 51
270.0
 73
     0
 72
     1
 10
739.2263918471329
 20
-160.3068697620471
 11
740.8249211856675
 21
-160.3068697620471
 72
     1
 10
740.8249211856675
 20
-160.3068697620471
 11
740.8249211856675
 21
-149.0568697620471
 72
     1
 10
740.8249211856675
 20
-149.0568697620471
 11
741.0749211856675
 21
-149.306869762047
 72
     1
 10
741.0749211856675
 20
-149.306869762047
 11
744.0518962385943
 21
-149.306869762047
 72
     1
 10
744.0518962385943
 20
-149.306869762047
 11
744.5518962385906
 21
-148.8068697620471
 72
     1
 10
744.5518962385906
 20
-148.8068697620471
 11
759.5518962385906
 21
-148.8068697620471
 72
     1
 10
759.5518962385906
 20
-148.8068697620471
 11
760.0518962385906
 21
-149.306869762047
 72
     1
 10
760.0518962385906
 20
-149.306869762047
 11
761.3018962385906
 21
-149.306869762047
 72
     2
 10
761.3018962385906
 20
-148.5568697620471
 40
0.75
 50
270.0
 51
450.0
 73
     1
 72
     1
 10
761.3018962385906
 20
-147.8068697620471
 11
740.974921185669
 21
-147.8068697620471
 72
     1
 10
740.974921185669
 20
-147.8068697620471
 11
740.724921185669
 21
-148.0568697620471
 72
     1
 10
740.724921185669
 20
-148.0568697620471
 11
740.724921185669
 21
-139.0568697620471
 72
     1
 10
740.724921185669
 20
-139.0568697620471
 11
743.974921185669
 21
-139.0568697620471
 72
     2
 10
743.974921185669
 20
-138.3068697620471
 40
0.75
 50
270.0
 51
450.0
 73
     1
 72
     1
 10
743.974921185669
 20
-137.5568697620471
 11
740.724921185669
 21
-137.5568697620471
 72
     1
 10
740.724921185669
 20
-137.5568697620471
 11
740.72492118567
 21
-126.0068697620488
 72
     2
 10
741.3249211856704
 20
-126.006869762046
 40
0.6000000000003638
 50
179.999999999734
 51
269.9999999997286
 73
     0
 72
     1
 10
741.3249211856675
 20
-125.4068697620456
 11
742.3749011856673
 21
-125.4068697620456
 72
     2
 10
742.3749011856673
 20
-124.6568697620456
 40
0.75
 50
270.0
 51
450.0
 73
     1
 72
     1
 10
742.3749011856673
 20
-123.9068697620456
 11
740.4749211856715
 21
-123.9068697620472
 72
     2
 10
740.4749211856717
 20
-124.4068697620537
 40
0.5000000000065086
 50
90.00000000002605
 51
116.8758459678373
 73
     1
 72
     1
 10
740.2488918274869
 20
-123.9608756710109
 11
737.2358571483954
 21
-125.48787862549
 72
     2
 10
737.5749011856679
 20
-126.1568697620456
 40
0.7499999999999659
 50
116.8758459678083
 51
270.0000000000086
 73
     1
 72
     1
 10
737.574901185668
 20
-126.9068697620456
 11
738.6249211856693
 21
-126.9068697620467
 97
        1
330
3152
 75
     0
 76
     1
 98
        1
 10
0.0
 20
0.0
  0
ENDBLK
  5
273B
330
2739
100
AcDbEntity
  8
0
100
AcDbBlockEnd
  0
BLOCK
  5
2740
330
273F
100
AcDbEntity
  8
0
100
AcDbBlockBegin
  2
9010105
 70
     0
 10
-699.1766184388435
 20
122.4686902193799
 30
0.0
  3
9010105
  1
9010105.dwg
  0
LWPOLYLINE
  5
3157
330
273F
100
AcDbEntity
  8
APL Joinery
 62
     8
100
AcDbPolyline
 90
       32
 70
     1
 43
0.0
 10
-694.989457981319
 20
121.0188442993936
 42
0.4142135623730951
 10
-695.1894579813191
 20
121.2188442993939
 10
-696.289457981319
 20
121.2188442993936
 42
0.4142135623730951
 10
-696.4894579813193
 20
121.0188442993936
 10
-696.4894579813193
 20
120.4188442993925
 42
-0.4142135623730951
 10
-696.6894579813193
 20
120.2188442993925
 10
-697.0894579813193
 20
120.2188442993925
 42
-0.4142135623730951
 10
-697.2894579813194
 20
120.4188442993925
 10
-697.2894579813193
 20
121.1421943832515
 42
-0.1507556722887463
 10
-697.2894579813194
 20
123.7954942155335
 10
-697.2894579813194
 20
124.5188442993925
 42
-0.4142135623730951
 10
-697.0894579813193
 20
124.7188442993925
 10
-696.6894579813193
 20
124.7188442993925
 42
-0.4142135623730951
 10
-696.4894579813193
 20
124.5188442993925
 10
-696.4894579813191
 20
123.9188442993937
 42
0.4142135623730951
 10
-696.289457981319
 20
123.7188442993934
 10
-694.9790823876496
 20
123.7188442993945
 42
0.3413141577352088
 10
-694.7855564024309
 20
123.8683696221286
 10
-693.5169074166717
 20
128.7325224640047
 42
-0.9434046943884498
 10
-692.9294985672434
 20
128.6153401949065
 10
-693.6574848160792
 20
123.3995731307144
 42
-0.3741548586647572
 10
-694.1526846020791
 20
122.9686902193799
 10
-695.3894579813189
 20
122.9686902193799
 42
0.9999999999999998
 10
-695.3894579813189
 20
121.9686902193799
 10
-694.1894579813194
 20
121.9686902193799
 42
-0.4142135623730951
 10
-693.9894579813193
 20
121.7686902193799
 10
-693.9894579813193
 20
119.7188442993925
 10
-693.469935529248
 20
119.6678892035351
 42
-0.9067177514850476
 10
-693.469935529248
 20
119.2697993952499
 10
-693.9894579813193
 20
119.2188442993925
 10
-694.7894579813194
 20
119.2188442993925
 42
-0.4142135623730951
 10
-694.9894579813193
 20
119.4188442993925
  0
ENDBLK
  5
2741
330
273F
100
AcDbEntity
  8
0
100
AcDbBlockEnd
  0
BLOCK
  5
2745
330
2744
100
AcDbEntity
  8
0
100
AcDbBlockBegin
  2
9070140
 70
     0
 10
289.9467297632527
 20
192.7973809706925
 30
0.0
  3
9070140
  1
9070140.dwg
  0
LWPOLYLINE
  5
315A
330
2744
100
AcDbEntity
  8
APL Joinery
  6
Continuous
 62
     8
100
AcDbPolyline
 90
       29
 70
   129
 43
0.0
 10
289.2724271041985
 20
191.2456577595769
 42
-0.2826140708667944
 10
288.5142371494354
 20
190.7799076684856
 42
-0.4142135623730951
 10
287.6642371494355
 20
191.6299076684857
 10
287.6642371494355
 20
192.6799276684858
 42
0.4142135623730951
 10
287.1642371494355
 20
193.1799276684858
 10
286.6642371494355
 20
193.1799276684858
 42
0.4142135623730951
 10
286.1642371494355
 20
192.6799276684858
 10
286.1642371494355
 20
189.2799076684857
 42
0.4142135623730951
 10
286.6642371494355
 20
188.7799076684857
 10
289.5635721864352
 20
188.7799076684857
 42
0.267935309311624
 10
289.9965719346352
 20
189.0298852332855
 10
292.3642371494353
 20
193.1303110242859
 10
292.3642371494353
 20
197.5299076684857
 42
0.4142135623730951
 10
291.1142371494353
 20
198.7799076684858
 10
286.1142371494353
 20
198.7799076684858
 42
0.4142135623730951
 10
285.8642371494353
 20
198.5299076684857
 10
285.8642371494353
 20
197.5299076684857
 42
0.4142135623730951
 10
286.1142371494353
 20
197.2799076684857
 10
287.4142371494355
 20
197.2799076684857
 42
-0.4142135623730951
 10
287.6642371494355
 20
197.0299076684858
 10
287.6642371494355
 20
195.3799276684856
 42
0.4142135623730951
 10
288.1642371494355
 20
194.8799276684856
 10
288.6642371494355
 20
194.8799276684856
 42
0.4142135623730951
 10
289.1642371494355
 20
195.3799276684856
 10
289.1642371494354
 20
196.4299076684858
 42
-0.4142135623730951
 10
290.0142371494354
 20
197.2799076684859
 42
-0.4142135623730951
 10
290.8642371494353
 20
196.4299076684858
 10
290.8642371494354
 20
194.5299276684857
 42
-0.1178085218647168
 10
290.7994300586353
 20
194.2586924386858
  0
ENDBLK
  5
2746
330
2744
100
AcDbEntity
  8
0
100
AcDbBlockEnd
  0
BLOCK
  5
2B05
330
2B04
100
AcDbEntity
  8
0
100
AcDbBlockBegin
  2
smartwood a4 SM border
 70
     0
 10
0.0
 20
0.0
 30
0.0
  3
smartwood a4 SM border
  1
smartwood a4 SM border.dwg
  0
TEXT
  5
315E
330
2B04
100
AcDbEntity
  8
APL Border
100
AcDbText
 10
50.59500000000003
 20
260.4903256579735
 30
0.0
 40
2.5
  1
Cad Ref.
  7
Arial-Bold
100
AcDbText
  0
TEXT
  5
315F
330
2B04
100
AcDbEntity
  8
APL Border
100
AcDbText
 10
86.34500000000002
 20
260.4903256579735
 30
0.0
 40
2.5
  1
Scale
  7
Arial-Bold
100
AcDbText
  0
TEXT
  5
3160
330
2B04
100
AcDbEntity
  8
APL Border
100
AcDbText
 10
106.595
 20
260.4903256579735
 30
0.0
 40
2.5
  1
Date
  7
Arial-Bold
100
AcDbText
  0
TEXT
  5
3161
330
2B04
100
AcDbEntity
  8
APL Border
100
AcDbText
 10
38.28915075034109
 20
2.689999999999997
 30
0.0
 40
1.75
  1
Product Manual 2011:1       Architectural Profiles Ltd. NB. Technical specifications subject to change without notice.
  7
Arial-Regular
 72
     1
 11
100.595
 21
2.689999999999997
 31
0.0
100
AcDbText
  0
MTEXT
  5
3162
330
2B04
100
AcDbEntity
  8
APL Border
100
AcDbMText
 10
65.62154724931708
 20
2.589999999999999
 30
0.0
 40
1.75
 41
2.550279071751219
 71
     8
 72
     5
  1
{\fCommercialPi BT|b0|i0|c2|p18;a}
  7
Arial-Regular
 73
     1
 44
1.0
1001
ACAD
1000
MTEXTBEGIN
1070
    73
1070
     1
1070
    44
1040
1.0
1070
    74
1070
     0
1000
MTEXTEND
  0
LWPOLYLINE
  5
3163
330
2B04
100
AcDbEntity
  8
APL Border
100
AcDbPolyline
 90
        2
 70
     0
 43
0.1
 10
189.595
 20
264.94
 10
50.59500000000003
 20
264.94
  0
LWPOLYLINE
  5
3164
330
2B04
100
AcDbEntity
  8
APL Border
100
AcDbPolyline
 90
        2
 70
     0
 43
0.1
 10
11.59500000000003
 20
5.939999999999997
 10
189.595
 20
5.939999999999997
  0
MTEXT
  5
3165
330
2B04
100
AcDbEntity
  8
APL Border
100
AcDbMText
 10
23.67538783647292
 20
270.7761693860163
 30
0.0
 40
5.299999999999999
 41
19.73351692440951
 71
     1
 72
     5
  1
{\fBook Antiqua|b0|i0|c0|p18;w}ood
  7
Times New Roman - Regular
 73
     1
 44
1.0
1001
ACAD
1000
MTEXTBEGIN
1070
    73
1070
     1
1070
    44
1040
1.0
1070
    74
1070
     0
1000
MTEXTEND
  0
ELLIPSE
  5
3167
102
{ACAD_REACTORS
330
316C
102
}
330
2B04
100
AcDbEntity
  8
APL Border
100
AcDbEllipse
 10
29.84950874715276
 20
269.0814048081144
 30
0.0
 11
-16.84682124459841
 21
0.4533421263139781
 31
0.0
210
0.0
220
0.0
230
1.0
 40
0.4004023718890052
 41
3.319153797531644
 42
4.72316325263933
  0
ELLIPSE
  5
3168
102
{ACAD_REACTORS
330
316C
102
}
330
2B04
100
AcDbEntity
  8
APL Border
100
AcDbEllipse
 10
29.74950874715276
 20
269.5814048081144
 30
0.0
 11
18.29645482212482
 21
0.1554481253131277
 31
0.0
210
0.0
220
0.0
230
1.0
 40
0.4217850638291509
 41
4.55200959415153
 42
5.610358989911128
  0
ELLIPSE
  5
3169
102
{ACAD_REACTORS
330
316C
102
}
330
2B04
100
AcDbEntity
  8
APL Border
100
AcDbEllipse
 10
29.74950874715276
 20
268.5814048081144
 30
0.0
 11
17.46996531743542
 21
1.044704257257092
 31
0.0
210
0.0
220
0.0
230
0.9999999999999998
 40
0.4379375984541014
 41
4.521982387362084
 42
5.649576101878832
  0
ELLIPSE
  5
316A
102
{ACAD_REACTORS
330
316C
102
}
330
2B04
100
AcDbEntity
  8
APL Border
100
AcDbEllipse
 10
30.84950874715276
 20
269.8814048081144
 30
0.0
 11
-16.74489455126359
 21
0.1068617375822129
 31
0.0
210
0.0
220
0.0
230
1.0
 40
0.3957593505602212
 41
-0.0140565277795168
 42
2.526331138818026
  0
ELLIPSE
  5
316B
102
{ACAD_REACTORS
330
316C
102
}
330
2B04
100
AcDbEntity
  8
APL Border
100
AcDbEllipse
 10
30.34950874715276
 20
269.5814048081144
 30
0.0
 11
-16.75
 21
0.0
 31
0.0
210
0.0
220
0.0
230
1.0
 40
0.4029850746268657
 41
6.209043324945823
 42
12.10581662267785
  0
HATCH
  5
316C
330
2B04
100
AcDbEntity
  8
APL Border
100
AcDbHatch
 10
0.0
 20
0.0
 30
0.0
210
0.0
220
0.0
230
1.0
  2
SOLID
 70
     1
 71
     1
 91
        3
 92
        5
 93
        5
 72
     3
 10
29.84950874715276
 20
269.0814048081144
 11
-16.84682124459841
 21
0.4533421263139781
 40
0.4004023718890052
 50
88.45856240750569
 51
175.8902112425113
 73
     0
 72
     2
 10
44.67714020925939
 20
269.2071355523921
 40
1.890748898226122
 50
340.8735689376148
 51
382.2290912344739
 73
     0
 72
     2
 10
41.51959182547458
 20
270.2447528778072
 40
5.211423477554833
 50
19.65518680593698
 51
55.12585124074014
 73
     0
 72
     3
 10
30.34950874715276
 20
269.5814048081144
 11
-16.75
 21
0.0
 40
0.4029850746268657
 50
525.6794536794745
 51
348.6935611181874
 73
     1
 72
     2
 10
29.60957360403146
 20
242.9098529133927
 40
32.92242621724226
 50
244.3237283389977
 51
270.4175692479047
 73
     0
 97
        5
330
316B
330
316F
330
3167
330
317A
330
3179
 92
        5
 93
        4
 72
     3
 10
30.84950874715276
 20
269.8814048081144
 11
-16.74489455126359
 21
0.1068617375822129
 40
0.3957593505602212
 50
195.6270825703936
 51
360.318754259222
 73
     0
 72
     2
 10
17.870699176928
 20
269.9064821669413
 40
3.767898811686352
 50
182.6608816075128
 51
206.3929086446277
 73
     0
 72
     2
 10
16.28271146983885
 20
269.5778144790396
 40
2.684837801621857
 50
131.7324572923458
 51
169.189096032782
 73
     1
 72
     3
 10
30.34950874715276
 20
269.5814048081144
 11
-16.75
 21
0.0
 40
0.4029850746268657
 50
358.2854785228978
 51
525.6794536794776
 73
     1
 97
        4
330
316A
330
3173
330
3174
330
316B
 92
        5
 93
        9
 72
     2
 10
23.33536788863245
 20
278.6194209938267
 40
17.2590652710141
 50
239.5349412106921
 51
252.4590542466208
 73
     1
 72
     2
 10
26.60089549689329
 20
289.2363088326019
 40
28.36660625123186
 50
252.6329792468225
 51
270.588845138434
 73
     1
 72
     3
 10
29.74950874715276
 20
268.5814048081144
 11
17.46996531743545
 21
1.044704257257094
 40
0.4379375984541014
 50
246.2451393282852
 51
342.165250303591
 73
     1
 72
     3
 10
29.74950874715276
 20
269.5814048081144
 11
18.29645482212482
 21
0.1554481253131277
 40
0.4217850638291509
 50
18.57778891659629
 51
110.9834979725197
 73
     0
 72
     3
 10
29.74950874715276
 20
269.5814048081144
 11
17.34970603451196
 21
0.3014458951867201
 40
0.4441716687466341
 50
111.492116901814
 51
177.6950000689094
 73
     0
 72
     2
 10
15.8463477617491
 20
269.5207324823547
 40
3.491202579869705
 50
164.4648671532029
 51
195.6449073964833
 73
     0
 72
     2
 10
12.41226765070615
 20
270.4824469054599
 40
0.0750000000000129
 50
344.3550926036264
 51
501.1312117459546
 73
     1
 72
     2
 10
15.55515394903143
 20
268.1982842226753
 40
3.960153949031391
 50
143.9372392604366
 51
199.8052767528797
 73
     1
 72
     2
 10
18.12711839863348
 20
269.6545364822648
 40
6.891465295079229
 50
203.9548519902146
 51
239.068349295085
 73
     1
 97
        9
330
3170
330
3178
330
3177
330
3176
330
3175
330
3172
330
3171
330
3169
330
3168
 75
     0
 76
     1
 47
0.0305803701263538
 98
        3
 10
35.28102042538729
 20
275.5954279676816
 10
16.9851601393558
 20
265.9626110897854
 10
14.87409983201144
 20
264.188949598939
  0
MTEXT
  5
316D
330
2B04
100
AcDbEntity
  8
APL Border
100
AcDbMText
 10
18.74489831846832
 20
273.6217875585393
 30
0.0
 40
3.8
 41
22.4226
 71
     1
 72
     5
  1
{\fCalisto MT|b0|i0|c0|p18;S}MART
  7
Times New Roman - Regular
 73
     1
 44
1.0
1001
ACAD
1000
MTEXTBEGIN
1070
    73
1070
     1
1070
    44
1040
1.0
1070
    74
1070
     0
1000
MTEXTEND
  0
MTEXT
  5
316E
330
2B04
100
AcDbEntity
  8
APL Border
100
AcDbMText
 10
18.65989831846832
 20
273.6217875585393
 30
0.0
 40
3.8
 41
22.4226
 71
     1
 72
     5
  1
{\fCalisto MT|b0|i0|c0|p18;S}MART
  7
Times New Roman - Regular
 73
     1
 44
1.0
1001
ACAD
1000
MTEXTBEGIN
1070
    73
1070
     1
1070
    44
1040
1.0
1070
    74
1070
     0
1000
MTEXTEND
  0
ARC
  5
316F
102
{ACAD_REACTORS
330
316C
102
}
330
2B04
100
AcDbEntity
  8
APL Border
100
AcDbCircle
 10
29.60957360403142
 20
242.9098529133927
 30
0.0
 40
32.92242621724227
100
AcDbArc
 50
89.58243075209727
 51
115.6762716610028
  0
ELLIPSE
  5
3170
102
{ACAD_REACTORS
330
316C
102
}
330
2B04
100
AcDbEntity
  8
APL Border
100
AcDbEllipse
 10
29.74950874715276
 20
269.5814048081144
 30
0.0
 11
17.34970603451196
 21
0.3014458951867201
 31
0.0
210
0.0
220
0.0
230
1.0
 40
0.4441716687466341
 41
3.231967416867259
 42
4.539246861848816
  0
ARC
  5
3171
102
{ACAD_REACTORS
330
316C
102
}
330
2B04
100
AcDbEntity
  8
APL Border
100
AcDbCircle
 10
26.60089549689345
 20
289.2363088326019
 30
0.0
 40
28.36660625123188
100
AcDbArc
 50
252.6329792467665
 51
270.5888451384333
  0
ARC
  5
3172
102
{ACAD_REACTORS
330
316C
102
}
330
2B04
100
AcDbEntity
  8
APL Border
100
AcDbCircle
 10
23.33536788863257
 20
278.6194209938267
 30
0.0
 40
17.25906527101414
100
AcDbArc
 50
239.5349412106916
 51
252.4590542465295
  0
ARC
  5
3173
102
{ACAD_REACTORS
330
316C
102
}
330
2B04
100
AcDbEntity
  8
APL Border
100
AcDbCircle
 10
17.87069917692793
 20
269.9064821669413
 30
0.0
 40
3.767898811686282
100
AcDbArc
 50
153.6070913553711
 51
177.3391183924929
  0
ARC
  5
3174
102
{ACAD_REACTORS
330
316C
102
}
330
2B04
100
AcDbEntity
  8
APL Border
100
AcDbCircle
 10
16.28271146983881
 20
269.5778144790396
 30
0.0
 40
2.684837801621823
100
AcDbArc
 50
131.7324572923451
 51
169.1890960327197
  0
ARC
  5
3175
102
{ACAD_REACTORS
330
316C
102
}
330
2B04
100
AcDbEntity
  8
APL Border
100
AcDbCircle
 10
18.12711839863346
 20
269.6545364822648
 30
0.0
 40
6.891465295079221
100
AcDbArc
 50
203.9548519902172
 51
239.0683492950841
  0
ARC
  5
3176
102
{ACAD_REACTORS
330
316C
102
}
330
2B04
100
AcDbEntity
  8
APL Border
100
AcDbCircle
 10
15.55515394903143
 20
268.1982842226753
 30
0.0
 40
3.960153949031401
100
AcDbArc
 50
143.9372392604394
 51
199.8052767528839
  0
ARC
  5
3177
102
{ACAD_REACTORS
330
316C
102
}
330
2B04
100
AcDbEntity
  8
APL Border
100
AcDbCircle
 10
12.41226765070622
 20
270.48244690546
 30
0.0
 40
0.075
100
AcDbArc
 50
344.355092603511
 51
141.1312117461879
  0
ARC
  5
3178
102
{ACAD_REACTORS
330
316C
102
}
330
2B04
100
AcDbEntity
  8
APL Border
100
AcDbCircle
 10
15.8463477617491
 20
269.5207324823547
 30
0.0
 40
3.491202579869703
100
AcDbArc
 50
164.355092603516
 51
195.5351328468004
  0
ARC
  5
3179
102
{ACAD_REACTORS
330
316C
102
}
330
2B04
100
AcDbEntity
  8
APL Border
100
AcDbCircle
 10
41.51959182547463
 20
270.2447528778072
 30
0.0
 40
5.211423477554786
100
AcDbArc
 50
304.8741487592643
 51
340.3448131940653
  0
ARC
  5
317A
102
{ACAD_REACTORS
330
316C
102
}
330
2B04
100
AcDbEntity
  8
APL Border
100
AcDbCircle
 10
44.67714020925941
 20
269.2071355523921
 30
0.0
 40
1.890748898226107
100
AcDbArc
 50
337.7709087655318
 51
19.12643106237982
  0
ENDBLK
  5
2B06
330
2B04
100
AcDbEntity
  8
0
100
AcDbBlockEnd
  0
BLOCK
  5
2B29
330
2B20
100
AcDbEntity
  8
0
100
AcDbBlockBegin
  2
smartwood a4 SM attributes (2)
 70
     2
 10
0.0
 20
0.0
 30
0.0
  3
smartwood a4 SM attributes (2)
  1

  0
ATTDEF
  5
2EBF
330
2B20
100
AcDbEntity
  8
APL Border
100
AcDbText
 10
50.59500000000003
 20
272.44
 30
0.0
 40
3.5
  1
DRAWING TITLE LINE 1
  7
Arial-Regular
100
AcDbAttributeDefinition
  3
Drawing Title Line 1
  2
DRAWINGTITLE_1
 70
     0
  0
ATTDEF
  5
2EC0
330
2B20
100
AcDbEntity
  8
APL Border
100
AcDbText
 10
50.59500000000003
 20
266.94
 30
0.0
 40
3.5
  1
DRAWING TITLE LINE 2
  7
Arial-Regular
100
AcDbAttributeDefinition
  3
Drawing Title Line 2
  2
DRAWINGTITLE_2
 70
     0
  0
ATTDEF
  5
2EC1
330
2B20
100
AcDbEntity
  8
APL Border
100
AcDbText
 10
65.59500000000003
 20
260.4903256579735
 30
0.0
 40
2.5
  1
VSAW01-0
  7
Arial-Regular
100
AcDbAttributeDefinition
  3
CAD Reference
  2
VSAW01-0
 70
     0
  0
ATTDEF
  5
2EC2
330
2B20
100
AcDbEntity
  8
APL Border
100
AcDbText
 10
96.34500000000002
 20
260.4903256579735
 30
0.0
 40
2.5
  1
1:2
  7
Arial-Regular
100
AcDbAttributeDefinition
  3
Scale
  2
1:2
 70
     0
  0
ATTDEF
  5
2EC3
330
2B20
100
AcDbEntity
  8
APL Border
100
AcDbText
 10
115.595
 20
260.4903256579735
 30
0.0
 40
2.5
  1
20.09.02
  7
Arial-Regular
100
AcDbAttributeDefinition
  3
Scale
  2
20.09.02
 70
     0
  0
ATTDEF
  5
2EC4
330
2B20
100
AcDbEntity
  8
APL Border
100
AcDbText
 10
11.59500000000003
 20
2.689999999999997
 30
0.0
 40
4.5
  1
1.2.34
  7
Arial-Regular
100
AcDbAttributeDefinition
  3
Page Number (Left)
  2
1.2.34
 70
     0
  0
ATTDEF
  5
2EC5
330
2B20
100
AcDbEntity
  8
APL Border
100
AcDbText
 10
172.1168281036835
 20
2.689999999999997
 30
0.0
 40
4.5
  1
1.2.34
  7
Arial-Regular
 72
     2
 11
189.595
 21
2.689999999999997
 31
0.0
100
AcDbAttributeDefinition
  3
Page Number (Right)
  2
1.2.34
 70
     0
  0
ENDBLK
  5
2B2A
330
2B20
100
AcDbEntity
  8
0
100
AcDbBlockEnd
  0
ENDSEC
  0
SECTION
  2
ENTITIES
  0
INSERT
  5
2676
330
1F
100
AcDbEntity
  8
APL Joinery
100
AcDbBlockReference
  2
07401
 10
212.9999991921504
 20
436.3955223776035
 30
0.0
 41
-1.0
 50
180.0
  0
INSERT
  5
267B
330
1F
100
AcDbEntity
  8
APL Joinery
100
AcDbBlockReference
  2
sw30mmliner
 10
260.0999991921504
 20
409.3955223776063
 30
0.0
 41
-1.0
 50
180.0
  0
INSERT
  5
2682
330
1F
100
AcDbEntity
  8
APL Joinery
100
AcDbBlockReference
  2
02431
 10
199.64999919215
 20
422.3955223776053
 30
0.0
 41
-1.0
 50
180.0
  0
INSERT
  5
2687
330
1F
100
AcDbEntity
  8
APL Joinery
100
AcDbBlockReference
  2
9010331
 10
196.2499991921505
 20
410.7955223776054
 30
0.0
 50
90.0
  0
INSERT
  5
268C
330
1F
100
AcDbEntity
  8
APL Joinery
100
AcDbBlockReference
  2
9700158
 10
257.9999991921504
 20
397.4455223776055
 30
0.0
 41
-1.0
 50
180.0
  0
INSERT
  5
2693
330
1F
100
AcDbEntity
  8
APL Joinery
100
AcDbBlockReference
  2
07402
 10
246.4011521638526
 20
395.245522377605
 30
0.0
 50
270.0
  0
INSERT
  5
2699
330
1F
100
AcDbEntity
  8
APL Joinery
100
AcDbBlockReference
  2
Timber Profile 1
 10
246.4511521638521
 20
391.1955223776059
 30
0.0
 41
-1.0
 50
180.0
  0
INSERT
  5
269F
330
1F
100
AcDbEntity
  8
APL Joinery
100
AcDbBlockReference
  2
9700524
 10
246.4011521638526
 20
395.245522377605
 30
0.0
 41
-1.0
 50
180.0
  0
INSERT
  5
26EF
330
1F
100
AcDbEntity
  8
APL Joinery
100
AcDbBlockReference
  2
07123Glaze
 10
197.7511521638511
 20
191.6044590791493
 30
0.0
 41
-1.0
 50
180.0
  0
INSERT
  5
2703
330
1F
100
AcDbEntity
  8
APL Joinery
100
AcDbBlockReference
  2
07403
 10
246.4011521638521
 20
78.60447784417051
 30
0.0
  0
INSERT
  5
270B
330
1F
100
AcDbEntity
  8
APL Joinery
100
AcDbBlockReference
  2
07401
 10
212.9999991921495
 20
45.60447784417038
 30
0.0
  0
INSERT
  5
2714
330
1F
100
AcDbEntity
  8
APL Joinery
100
AcDbBlockReference
  2
9700526
 10
246.4011521638521
 20
78.60447784417051
 30
0.0
  0
INSERT
  5
2719
330
1F
100
AcDbEntity
  8
APL Joinery
100
AcDbBlockReference
  2
Timber Profile 3
 10
246.4511521638517
 20
82.65447784416961
 30
0.0
  0
INSERT
  5
271A
330
1F
100
AcDbEntity
  8
APL Joinery
100
AcDbBlockReference
  2
9700158
 10
257.9999991921495
 20
84.55447784416838
 30
0.0
  0
INSERT
  5
2720
330
1F
100
AcDbEntity
  8
APL Joinery
100
AcDbBlockReference
  2
Timber Profile 3
 10
74.94884622044731
 20
111.5584808946217
 30
0.0
  0
INSERT
  5
2721
330
1F
100
AcDbEntity
  8
APL Joinery
100
AcDbBlockReference
  2
9700526
 10
74.89884622044775
 20
107.5084808946226
 30
0.0
  0
INSERT
  5
2722
330
1F
100
AcDbEntity
  8
APL Joinery
100
AcDbBlockReference
  2
07403
 10
74.89884622044775
 20
107.5084808946226
 30
0.0
  0
INSERT
  5
2726
330
1F
100
AcDbEntity
  8
APL Joinery
100
AcDbBlockReference
  2
07123Glaze
 10
26.2488462204467
 20
220.5084621296015
 30
0.0
 41
-1.0
 50
180.0
  0
INSERT
  5
272C
330
1F
100
AcDbEntity
  8
APL Joinery
100
AcDbBlockReference
  2
9700524
 10
74.8988462204482
 20
366.0480042208418
 30
0.0
 41
-1.0
 50
180.0
  0
INSERT
  5
272D
330
1F
100
AcDbEntity
  8
APL Joinery
100
AcDbBlockReference
  2
Timber Profile 1
 10
74.94884622044788
 20
361.9480042208435
 30
0.0
 41
-1.0
 50
180.0
  0
INSERT
  5
272E
330
1F
100
AcDbEntity
  8
APL Joinery
100
AcDbBlockReference
  2
07402
 10
74.8988462204482
 20
366.0480042208418
 30
0.0
 50
270.0
  0
INSERT
  5
273D
330
1F
100
AcDbEntity
  8
APL Joinery
100
AcDbBlockReference
  2
07400
 10
30.35001919214847
 20
435.6980042208421
 30
0.0
 41
-1.0
 50
180.0
  0
INSERT
  5
2743
330
1F
100
AcDbEntity
  8
APL Joinery
100
AcDbBlockReference
  2
9010105
 10
20.24999919214679
 20
368.2480042208414
 30
0.0
 41
-1.0
 50
180.0
  0
INSERT
  5
2748
330
1F
100
AcDbEntity
  8
APL Joinery
100
AcDbBlockReference
  2
9070140
 10
74.36747249442055
 20
385.6155116070456
 30
0.0
 50
270.0
  0
INSERT
  5
2749
330
1F
100
AcDbEntity
  8
APL Joinery
100
AcDbBlockReference
  2
sw30mmliner
 10
77.45001919214939
 20
408.6980042208423
 30
0.0
 41
-1.0
 50
180.0
  0
INSERT
  5
274C
330
1F
100
AcDbEntity
  8
APL Joinery
100
AcDbBlockReference
  2
07400
 10
30.35001919214875
 20
46.00848089462334
 30
0.0
  0
INSERT
  5
274E
330
1F
100
AcDbEntity
  8
APL Joinery
100
AcDbBlockReference
  2
9070140
 10
74.36747249442089
 20
96.0909735084199
 30
0.0
 41
-1.0
 50
270.0
  0
INSERT
  5
2750
330
1F
100
AcDbEntity
  8
APL Joinery
100
AcDbBlockReference
  2
9010105
 10
20.24999919214707
 20
113.458480894624
 30
0.0
  0
LINE
  5
277D
330
1F
100
AcDbEntity
  8
APL Joinery
  6
Continuous
 62
     8
100
AcDbLine
 10
133.8150191921492
 20
169.0000001108869
 30
0.0
 11
133.8150191921492
 21
193.0000001108869
 31
0.0
  0
LINE
  5
277F
330
1F
100
AcDbEntity
  8
APL Joinery
  6
Continuous
 62
     2
100
AcDbLine
 10
152.9000191921494
 20
179.950000110887
 30
0.0
 11
152.9000191921494
 21
302.050000110887
 31
0.0
  0
LINE
  5
2783
330
1F
100
AcDbEntity
  8
APL Joinery
  6
Continuous
 62
     2
100
AcDbLine
 10
114.7300191921491
 20
179.950000110887
 30
0.0
 11
114.7300191921491
 21
240.337930025327
 31
0.0
  0
LINE
  5
2788
330
1F
100
AcDbEntity
  8
APL Joinery
  6
Continuous
 62
     2
100
AcDbLine
 10
152.9000191921494
 20
189.450000110887
 30
0.0
 11
114.7300191921491
 21
189.450000110887
 31
0.0
  0
LINE
  5
278F
330
1F
100
AcDbEntity
  8
APL Joinery
  6
Continuous
 62
     2
100
AcDbLine
 10
158.4000191921494
 20
197.5500001108869
 30
0.0
 11
160.0500191921493
 21
197.5500001108869
 31
0.0
  0
LINE
  5
2790
330
1F
100
AcDbEntity
  8
APL Joinery
  6
Continuous
 62
     2
100
AcDbLine
 10
158.4000191921494
 20
190.950000110887
 30
0.0
 11
160.0500191921493
 21
190.950000110887
 31
0.0
  0
LINE
  5
2791
330
1F
100
AcDbEntity
  8
APL Joinery
  6
Continuous
 62
     2
100
AcDbLine
 10
114.7300191921491
 20
296.550000110887
 30
0.0
 11
152.9000191921494
 21
296.550000110887
 31
0.0
  0
LINE
  5
2798
330
1F
100
AcDbEntity
  8
APL Joinery
  6
Continuous
 62
     2
100
AcDbLine
 10
160.0500191921493
 20
286.100000110887
 30
0.0
 11
158.4000191921494
 21
286.100000110887
 31
0.0
  0
LINE
  5
2799
330
1F
100
AcDbEntity
  8
APL Joinery
  6
Continuous
 62
     2
100
AcDbLine
 10
160.0500191921493
 20
292.700000110887
 30
0.0
 11
158.4000191921494
 21
292.700000110887
 31
0.0
  0
TEXT
  5
279A
330
1F
100
AcDbEntity
  8
APL Joinery
  6
Continuous
 62
     7
100
AcDbText
 10
113.7716259088004
 20
166.452948962964
 30
0.0
 40
5.0
  1
A
  7
Arial-Bold
100
AcDbText
  0
LEADER
  5
279C
330
1F
100
AcDbEntity
  8
APL Joinery
 62
     8
100
AcDbLeader
  3
ISO-25
 76
     2
 10
118.8150191921492
 20
169.0000001108869
 30
0.0
 10
133.8150191921492
 20
169.0000001108869
 30
0.0
211
-0.0000000000000002
221
-1.0
231
0.0
1001
ACAD
1000
DSTYLE
1002
{
1070
   147
1040
0.625
1070
    77
1070
     0
1002
}
  0
TEXT
  5
279F
330
1F
100
AcDbEntity
  8
APL Notes
100
AcDbText
 10
215.8838375806599
 20
451.3873073255497
 30
0.0
 40
5.0
  1
07401
  7
Arial-Bold
100
AcDbText
  0
TEXT
  5
27A0
330
1F
100
AcDbEntity
  8
APL Notes
100
AcDbText
 10
203.2499991921505
 20
410.7205223776054
 30
0.0
 40
5.0
  1
02431
  7
Arial-Bold
100
AcDbText
  0
TEXT
  5
27A1
330
1F
100
AcDbEntity
  8
APL Notes
100
AcDbText
 10
176.3275505267434
 20
374.3955714247994
 30
0.0
 40
5.0
  1
07402
  7
Arial-Bold
 72
     2
 11
195.7511521638512
 21
374.3955714247994
 31
0.0
100
AcDbText
  0
TEXT
  5
27A6
330
1F
100
AcDbEntity
  8
APL Notes
100
AcDbText
 10
176.3275505267433
 20
200.7509059114393
 30
0.0
 40
5.0
  1
07123
  7
Arial-Bold
 72
     2
 11
195.7511521638511
 21
200.7509059114393
 31
0.0
100
AcDbText
  0
TEXT
  5
27A7
330
1F
100
AcDbEntity
  8
APL Notes
100
AcDbText
 10
176.3275505267433
 20
133.6044287969748
 30
0.0
 40
5.0
  1
07403
  7
Arial-Bold
 72
     2
 11
195.7511521638511
 21
133.6044287969748
 31
0.0
100
AcDbText
  0
TEXT
  5
27A8
330
1F
100
AcDbEntity
  8
APL Notes
100
AcDbText
 10
212.9999991921495
 20
35.60447784417039
 30
0.0
 40
5.0
  1
07401
  7
Arial-Bold
 11
212.9999991921495
 21
40.60447784417038
 31
0.0
100
AcDbText
 73
     3
  0
TEXT
  5
27AA
330
1F
100
AcDbEntity
  8
APL Notes
100
AcDbText
 10
33.7181458863231
 20
444.0661309150168
 30
0.0
 40
5.0
  1
Frame
  7
Arial-Regular
100
AcDbText
  0
TEXT
  5
27AB
330
1F
100
AcDbEntity
  8
APL Notes
100
AcDbText
 10
4.825244583339031
 20
345.1980532680362
 30
0.0
 40
5.0
  1
07402
  7
Arial-Bold
 72
     2
 11
24.24884622044681
 21
345.1980532680362
 31
0.0
100
AcDbText
  0
TEXT
  5
27AD
330
1F
100
AcDbEntity
  8
APL Notes
100
AcDbText
 10
4.825244583338918
 20
229.6549089618915
 30
0.0
 40
5.0
  1
07123
  7
Arial-Bold
 72
     2
 11
24.2488462204467
 21
229.6549089618915
 31
0.0
100
AcDbText
  0
TEXT
  5
27AE
330
1F
100
AcDbEntity
  8
APL Notes
100
AcDbText
 10
4.825244583338918
 20
162.5084318474269
 30
0.0
 40
5.0
  1
07403
  7
Arial-Bold
 72
     2
 11
24.2488462204467
 21
162.5084318474269
 31
0.0
100
AcDbText
  0
TEXT
  5
27AF
330
1F
100
AcDbEntity
  8
APL Notes
100
AcDbText
 10
30.35001919214875
 20
36.00848089462335
 30
0.0
 40
5.0
  1
07400
  7
Arial-Bold
 11
30.35001919214875
 21
41.00848089462334
 31
0.0
100
AcDbText
 73
     3
  0
INSERT
  5
27B9
330
1F
100
AcDbEntity
  8
APL Joinery
100
AcDbBlockReference
  2
9700183
 10
62.7488462204467
 20
220.5084621296015
 30
0.0
  0
INSERT
  5
27BA
330
1F
100
AcDbEntity
  8
APL Joinery
100
AcDbBlockReference
  2
9700183
 10
234.2511521638511
 20
191.6044590791493
 30
0.0
  0
TEXT
  5
2A04
330
1F
100
AcDbEntity
  8
APL Notes
100
AcDbText
 10
287.809890051631
 20
35.60447784417039
 30
0.0
 40
5.0
  1
OPEN OUT
  7
Arial-Bold
 72
     1
 11
306.0499991921495
 21
35.60447784417039
 31
0.0
100
AcDbText
  0
TEXT
  5
2A05
330
1F
100
AcDbEntity
  8
APL Notes
100
AcDbText
 10
283.5499991921495
 20
47.60447784417038
 30
0.0
 40
5.0
  1
SECTION A-A
  7
Arial-Bold
100
AcDbText
  0
LWPOLYLINE
  5
2A06
330
1F
100
AcDbEntity
  8
APL Notes
100
AcDbPolyline
 90
        4
 70
     1
 43
0.3
 10
331.5499991921495
 20
44.60447784417039
 10
331.5499991921495
 20
55.60447784417039
 10
280.5499991921495
 20
55.60447784417039
 10
280.5499991921495
 20
44.60447784417039
  0
TEXT
  5
2A0F
330
1F
100
AcDbEntity
  8
APL Notes
100
AcDbText
 10
108.8826249220269
 20
36.00848089462608
 30
0.0
 40
5.0
  1
OPEN IN
  7
Arial-Bold
 72
     1
 11
123.4000191921497
 21
36.00848089462608
 31
0.0
100
AcDbText
  0
LWPOLYLINE
  5
2A10
330
1F
100
AcDbEntity
  8
APL Notes
100
AcDbPolyline
 90
        4
 70
     1
 43
0.3
 10
148.9000191921497
 20
45.00848089462607
 10
148.9000191921497
 20
56.00848089462608
 10
97.90001919214972
 20
56.00848089462608
 10
97.90001919214972
 20
45.00848089462607
  0
TEXT
  5
2A11
330
1F
100
AcDbEntity
  8
APL Notes
100
AcDbText
 10
100.9000191921497
 20
48.00848089462608
 30
0.0
 40
5.0
  1
SECTION A-A
  7
Arial-Bold
100
AcDbText
  0
LEADER
  5
2A1A
330
1F
100
AcDbEntity
  8
APL Joinery
 62
     8
100
AcDbLeader
  3
ISO-25
 76
     2
 10
118.8150191921492
 20
313.000000110887
 30
0.0
 10
133.8150191921492
 20
313.000000110887
 30
0.0
211
-0.0000000000000002
221
1.0
231
0.0
210
0.0
220
0.0
230
-1.0
1001
ACAD
1000
DSTYLE
1002
{
1070
   147
1040
0.625
1070
    77
1070
     0
1002
}
  0
TEXT
  5
2A1B
330
1F
100
AcDbEntity
  8
APL Joinery
  6
Continuous
 62
     7
100
AcDbText
 10
113.7716259088004
 20
310.5470512588099
 30
0.0
 40
5.0
  1
A
  7
Arial-Bold
100
AcDbText
  0
LINE
  5
2A1C
330
1F
100
AcDbEntity
  8
APL Joinery
  6
Continuous
 62
     8
100
AcDbLine
 10
133.8150191921492
 20
313.000000110887
 30
0.0
 11
133.8150191921492
 21
293.000000110887
 31
0.0
  0
LINE
  5
2A2A
330
1F
100
AcDbEntity
  8
APL Joinery
 62
     7
100
AcDbLine
 10
34.74884622044675
 20
250.5084621296014
 30
0.0
 11
34.74884622044675
 21
258.8532425577317
 31
-12.49999999999998
  0
LINE
  5
2A2B
330
1F
100
AcDbEntity
  8
APL Joinery
 62
     8
100
AcDbLine
 10
36.74884622044672
 20
250.5084621296014
 30
0.0
 11
36.74884622044672
 21
258.8532425577316
 31
-12.49999999999998
  0
LINE
  5
2A2C
330
1F
100
AcDbEntity
  8
APL Joinery
 62
     8
100
AcDbLine
 10
38.74884622044672
 20
250.5084621296014
 30
0.0
 11
38.74884622044672
 21
258.8532425577316
 31
-12.49999999999998
  0
LINE
  5
2A2D
330
1F
100
AcDbEntity
  8
APL Joinery
 62
     7
100
AcDbLine
 10
40.74884622044672
 20
250.5084621296014
 30
0.0
 11
40.74884622044672
 21
258.8532425577316
 31
-12.49999999999998
  0
LINE
  5
2A2E
330
1F
100
AcDbEntity
  8
APL Joinery
 62
     7
100
AcDbLine
 10
52.74884622044675
 20
250.5084621296014
 30
0.0
 11
52.74884622044675
 21
258.8532425577317
 31
-12.49999999999998
  0
LINE
  5
2A2F
330
1F
100
AcDbEntity
  8
APL Joinery
 62
     8
100
AcDbLine
 10
54.74884622044672
 20
250.5084621296014
 30
0.0
 11
54.74884622044672
 21
258.8532425577316
 31
-12.49999999999998
  0
LINE
  5
2A30
330
1F
100
AcDbEntity
  8
APL Joinery
 62
     8
100
AcDbLine
 10
56.74884622044672
 20
250.5084621296014
 30
0.0
 11
56.74884622044672
 21
258.8532425577316
 31
-12.49999999999998
  0
LINE
  5
2A31
330
1F
100
AcDbEntity
  8
APL Joinery
 62
     7
100
AcDbLine
 10
58.74884622044672
 20
250.5084621296014
 30
0.0
 11
58.74884622044672
 21
258.8532425577316
 31
-12.49999999999998
  0
LINE
  5
2A36
330
1F
100
AcDbEntity
  8
APL Joinery
 62
     7
100
AcDbLine
 10
230.2511521638511
 20
221.6044590791494
 30
0.0
 11
230.2511521638511
 21
258.8532425577317
 31
-12.50000000000001
  0
LINE
  5
2A38
330
1F
100
AcDbEntity
  8
APL Joinery
 62
     8
100
AcDbLine
 10
228.2511521638511
 20
221.6044590791494
 30
0.0
 11
228.2511521638511
 21
258.8532425577317
 31
-12.50000000000001
  0
LINE
  5
2A39
330
1F
100
AcDbEntity
  8
APL Joinery
 62
     8
100
AcDbLine
 10
226.2511521638511
 20
221.6044590791494
 30
0.0
 11
226.2511521638511
 21
258.8532425577317
 31
-12.50000000000001
  0
LINE
  5
2A3A
330
1F
100
AcDbEntity
  8
APL Joinery
 62
     7
100
AcDbLine
 10
224.2511521638511
 20
221.6044590791494
 30
0.0
 11
224.2511521638511
 21
258.8532425577317
 31
-12.50000000000001
  0
LINE
  5
2A3B
330
1F
100
AcDbEntity
  8
APL Joinery
 62
     7
100
AcDbLine
 10
212.2511521638511
 20
221.6044590791494
 30
0.0
 11
212.2511521638511
 21
258.8532425577317
 31
-12.50000000000001
  0
LINE
  5
2A3C
330
1F
100
AcDbEntity
  8
APL Joinery
 62
     8
100
AcDbLine
 10
210.2511521638511
 20
221.6044590791494
 30
0.0
 11
210.2511521638511
 21
258.8532425577317
 31
-12.50000000000001
  0
LINE
  5
2A3D
330
1F
100
AcDbEntity
  8
APL Joinery
 62
     8
100
AcDbLine
 10
208.2511521638511
 20
221.6044590791494
 30
0.0
 11
208.2511521638511
 21
258.8532425577317
 31
-12.50000000000001
  0
LINE
  5
2A3E
330
1F
100
AcDbEntity
  8
APL Joinery
 62
     7
100
AcDbLine
 10
206.2511521638512
 20
221.6044590791494
 30
0.0
 11
206.2511521638512
 21
258.8532425577317
 31
-12.50000000000001
  0
TEXT
  5
2A81
330
1F
100
AcDbEntity
  8
APL Notes
100
AcDbText
 10
33.7181458863231
 20
451.0661309150168
 30
0.0
 40
5.0
  1
07400
  7
Arial-Bold
100
AcDbText
  0
TEXT
  5
2A82
330
1F
100
AcDbEntity
  8
APL Notes
100
AcDbText
 10
12.21269342372102
 20
338.1980532680362
 30
0.0
 40
5.0
  1
Top
  7
Arial-Regular
 72
     2
 11
24.24884622044681
 21
338.1980532680362
 31
0.0
100
AcDbText
  0
TEXT
  5
2A83
330
1F
100
AcDbEntity
  8
APL Notes
100
AcDbText
 10
11.83411225046045
 20
331.1980532680362
 30
0.0
 40
5.0
  1
Rail
  7
Arial-Regular
 72
     2
 11
24.24884622044681
 21
331.1980532680362
 31
0.0
100
AcDbText
  0
TEXT
  5
2A87
330
1F
100
AcDbEntity
  8
APL Notes
100
AcDbText
 10
1.697686602438508
 20
155.5084318474269
 30
0.0
 40
5.0
  1
Bottom
  7
Arial-Regular
 72
     2
 11
24.2488462204467
 21
155.5084318474269
 31
0.0
100
AcDbText
  0
TEXT
  5
2A88
330
1F
100
AcDbEntity
  8
APL Notes
100
AcDbText
 10
11.83411225046033
 20
148.5084318474269
 30
0.0
 40
5.0
  1
Rail
  7
Arial-Regular
 72
     2
 11
24.2488462204467
 21
148.5084318474269
 31
0.0
100
AcDbText
  0
POLYLINE
  5
2AD8
330
1F
100
AcDbEntity
  8
APL Joinery
  6
Continuous
 62
     9
100
AcDb3dPolyline
 66
     1
 10
0.0
 20
0.0
 30
0.0
 70
     9
  0
VERTEX
  5
2AD9
330
2AD8
100
AcDbEntity
  8
APL Joinery
  6
Continuous
 62
     9
100
AcDbVertex
100
AcDb3dPolylineVertex
 10
119.6433330724211
 20
240.337930025327
 30
0.0
 70
    32
  0
VERTEX
  5
2ADA
330
2AD8
100
AcDbEntity
  8
APL Joinery
  6
Continuous
 62
     9
100
AcDbVertex
100
AcDb3dPolylineVertex
 10
111.509329163701
 20
240.337930025327
 30
0.0
 70
    32
  0
VERTEX
  5
2ADB
330
2AD8
100
AcDbEntity
  8
APL Joinery
  6
Continuous
 62
     9
100
AcDbVertex
100
AcDb3dPolylineVertex
 10
111.509329163701
 20
241.346798727215
 30
0.0
 70
    32
  0
VERTEX
  5
2ADC
330
2AD8
100
AcDbEntity
  8
APL Joinery
  6
Continuous
 62
     9
100
AcDbVertex
100
AcDb3dPolylineVertex
 10
119.6433330724211
 20
241.3467987272151
 30
0.0
 70
    32
  0
VERTEX
  5
2ADD
330
2AD8
100
AcDbEntity
  8
APL Joinery
  6
Continuous
 62
     9
100
AcDbVertex
100
AcDb3dPolylineVertex
 10
119.6433330724211
 20
240.337930025327
 30
0.0
 70
    32
  0
SEQEND
  5
2ADE
330
2AD8
100
AcDbEntity
  8
APL Joinery
  6
Continuous
 62
     9
  0
LINE
  5
2AE4
330
1F
100
AcDbEntity
  8
APL Joinery
  6
Continuous
 62
     2
100
AcDbLine
 10
114.7300191921491
 20
241.3467987272151
 30
0.0
 11
114.7300191921491
 21
302.050000110887
 31
0.0
  0
LWPOLYLINE
  5
2C32
330
1F
100
AcDbEntity
  8
0
100
AcDbPolyline
 90
        4
 70
     1
 43
0.0
 10
353.9999991921495
 20
0.0000001108869583
 10
353.9999991921495
 20
482.0000001108869
 10
-0.0000008078504834
 20
482.0000001108869
 10
-0.0000008078504834
 20
0.0000001108869583
  0
LWPOLYLINE
  5
2C38
330
1F
100
AcDbEntity
  8
APL Joinery
  6
Continuous
 62
     9
100
AcDbPolyline
 90
        2
 70
     0
 43
0.0
 10
112.5181978654451
 20
248.5349882279511
 10
112.5181978654451
 20
241.346798727215
  0
LWPOLYLINE
  5
2C39
330
1F
100
AcDbEntity
  8
APL Joinery
  6
Continuous
 62
     9
100
AcDbPolyline
 90
        2
 70
     0
 43
0.0
 10
110.941840518853
 20
248.5349882279511
 10
112.5181978654451
 20
248.5349882279511
  0
LWPOLYLINE
  5
2C3A
330
1F
100
AcDbEntity
  8
APL Joinery
  6
Continuous
 62
     9
100
AcDbPolyline
 90
        2
 70
     0
 43
0.0
 10
112.5181978654451
 20
233.4650119938231
 10
110.941840518853
 20
233.465011993823
  0
LWPOLYLINE
  5
2C3B
330
1F
100
AcDbEntity
  8
APL Joinery
  6
Continuous
 62
     9
100
AcDbPolyline
 90
        2
 70
     0
 43
0.0
 10
112.5181978654451
 20
240.3379300253271
 10
112.5181978654451
 20
233.4650119938231
  0
LWPOLYLINE
  5
2C3C
330
1F
100
AcDbEntity
  8
APL Joinery
  6
Continuous
 62
     9
100
AcDbPolyline
 90
        2
 70
     0
 43
0.0
 10
110.941840518853
 20
233.465011993823
 10
110.941840518853
 20
248.5349882279511
  0
LWPOLYLINE
  5
2C3D
330
1F
100
AcDbEntity
  8
APL Joinery
  6
DASHED
 62
     7
 48
20.0
100
AcDbPolyline
 90
        3
 70
     0
 43
0.0
 10
109.230019192149
 20
179.950000110887
 10
160.0500191921493
 20
241.000000110887
 10
109.230019192149
 20
302.050000110887
  0
LWPOLYLINE
  5
2C3F
330
1F
100
AcDbEntity
  8
APL Joinery
  6
Continuous
 62
     2
100
AcDbPolyline
 90
        4
 70
     1
 43
0.0
 10
104.280019192149
 20
175.0000001108869
 10
104.280019192149
 20
307.000000110887
 10
163.3500191921493
 20
307.000000110887
 10
163.3500191921493
 20
175.0000001108869
  0
LWPOLYLINE
  5
2C41
330
1F
100
AcDbEntity
  8
APL Joinery
  6
Continuous
 62
     2
100
AcDbPolyline
 90
        4
 70
     1
 43
0.0
 10
107.5800191921491
 20
178.3000001108869
 10
107.5800191921491
 20
303.700000110887
 10
160.0500191921493
 20
303.700000110887
 10
160.0500191921493
 20
178.3000001108869
  0
LWPOLYLINE
  5
2C44
330
1F
100
AcDbEntity
  8
APL Joinery
  6
Continuous
 62
     2
100
AcDbPolyline
 90
        4
 70
     1
 43
0.0
 10
109.230019192149
 20
179.950000110887
 10
109.230019192149
 20
302.050000110887
 10
158.4000191921494
 20
302.050000110887
 10
158.4000191921494
 20
179.950000110887
  0
INSERT
  5
2D88
330
1F
100
AcDbEntity
  8
APL Joinery
100
AcDbBlockReference
  2
07123Glaze
 10
26.2488462204467
 20
313.1980229858625
 30
0.0
  0
TEXT
  5
2D89
330
1F
100
AcDbEntity
  8
APL Notes
100
AcDbText
 10
4.825244583338918
 20
299.1163783363828
 30
0.0
 40
5.0
  1
07123
  7
Arial-Bold
 72
     2
 11
24.2488462204467
 21
299.1163783363828
 31
0.0
100
AcDbText
  0
LINE
  5
2D8A
330
1F
100
AcDbEntity
  8
APL Joinery
 62
     7
100
AcDbLine
 10
34.74884622044675
 20
283.1980229858625
 30
0.0
 11
34.74884622044675
 21
274.8532425577323
 31
-12.49999999999998
  0
LINE
  5
2D8B
330
1F
100
AcDbEntity
  8
APL Joinery
 62
     8
100
AcDbLine
 10
36.74884622044672
 20
283.1980229858625
 30
0.0
 11
36.74884622044672
 21
274.8532425577323
 31
-12.49999999999998
  0
LINE
  5
2D8C
330
1F
100
AcDbEntity
  8
APL Joinery
 62
     8
100
AcDbLine
 10
38.74884622044672
 20
283.1980229858625
 30
0.0
 11
38.74884622044672
 21
274.8532425577323
 31
-12.49999999999998
  0
LINE
  5
2D8D
330
1F
100
AcDbEntity
  8
APL Joinery
 62
     7
100
AcDbLine
 10
40.74884622044672
 20
283.1980229858625
 30
0.0
 11
40.74884622044672
 21
274.8532425577323
 31
-12.49999999999998
  0
LINE
  5
2D8E
330
1F
100
AcDbEntity
  8
APL Joinery
 62
     7
100
AcDbLine
 10
52.74884622044675
 20
283.1980229858625
 30
0.0
 11
52.74884622044675
 21
274.8532425577323
 31
-12.49999999999998
  0
LINE
  5
2D8F
330
1F
100
AcDbEntity
  8
APL Joinery
 62
     8
100
AcDbLine
 10
54.74884622044672
 20
283.1980229858625
 30
0.0
 11
54.74884622044672
 21
274.8532425577323
 31
-12.49999999999998
  0
LINE
  5
2D90
330
1F
100
AcDbEntity
  8
APL Joinery
 62
     8
100
AcDbLine
 10
56.74884622044672
 20
283.1980229858625
 30
0.0
 11
56.74884622044672
 21
274.8532425577323
 31
-12.49999999999998
  0
LINE
  5
2D91
330
1F
100
AcDbEntity
  8
APL Joinery
 62
     7
100
AcDbLine
 10
58.74884622044672
 20
283.1980229858625
 30
0.0
 11
58.74884622044672
 21
274.8532425577323
 31
-12.49999999999998
  0
INSERT
  5
2D92
330
1F
100
AcDbEntity
  8
APL Joinery
100
AcDbBlockReference
  2
07123Glaze
 10
197.7511521638511
 20
342.3955411426249
 30
0.0
  0
TEXT
  5
2D93
330
1F
100
AcDbEntity
  8
APL Notes
100
AcDbText
 10
176.3275505267433
 20
328.3138964931453
 30
0.0
 40
5.0
  1
07123
  7
Arial-Bold
 72
     2
 11
195.7511521638511
 21
328.3138964931453
 31
0.0
100
AcDbText
  0
LINE
  5
2D94
330
1F
100
AcDbEntity
  8
APL Joinery
 62
     7
100
AcDbLine
 10
230.2511521638511
 20
312.3955411426249
 30
0.0
 11
230.2511521638511
 21
275.1467576640425
 31
-12.50000000000001
  0
LINE
  5
2D95
330
1F
100
AcDbEntity
  8
APL Joinery
 62
     8
100
AcDbLine
 10
228.2511521638511
 20
312.3955411426249
 30
0.0
 11
228.2511521638511
 21
275.1467576640425
 31
-12.50000000000001
  0
LINE
  5
2D96
330
1F
100
AcDbEntity
  8
APL Joinery
 62
     8
100
AcDbLine
 10
226.2511521638511
 20
312.3955411426249
 30
0.0
 11
226.2511521638511
 21
275.1467576640425
 31
-12.50000000000001
  0
LINE
  5
2D97
330
1F
100
AcDbEntity
  8
APL Joinery
 62
     7
100
AcDbLine
 10
224.2511521638511
 20
312.3955411426249
 30
0.0
 11
224.2511521638511
 21
275.1467576640425
 31
-12.50000000000001
  0
LINE
  5
2D98
330
1F
100
AcDbEntity
  8
APL Joinery
 62
     7
100
AcDbLine
 10
212.2511521638511
 20
312.3955411426249
 30
0.0
 11
212.2511521638511
 21
275.1467576640425
 31
-12.50000000000001
  0
LINE
  5
2D99
330
1F
100
AcDbEntity
  8
APL Joinery
 62
     8
100
AcDbLine
 10
210.2511521638511
 20
312.3955411426249
 30
0.0
 11
210.2511521638511
 21
275.1467576640425
 31
-12.50000000000001
  0
LINE
  5
2D9A
330
1F
100
AcDbEntity
  8
APL Joinery
 62
     8
100
AcDbLine
 10
208.2511521638511
 20
312.3955411426249
 30
0.0
 11
208.2511521638511
 21
275.1467576640425
 31
-12.50000000000001
  0
LINE
  5
2D9B
330
1F
100
AcDbEntity
  8
APL Joinery
 62
     7
100
AcDbLine
 10
206.2511521638512
 20
312.3955411426249
 30
0.0
 11
206.2511521638512
 21
275.1467576640425
 31
-12.50000000000001
  0
LWPOLYLINE
  5
2E71
330
1F
100
AcDbEntity
  8
APL Joinery
  6
Continuous
 62
     8
100
AcDbPolyline
 90
        2
 70
     0
 43
0.0
 10
87.209396834046
 20
75.50848089462323
 10
89.86759979597975
 20
89.50848089462324
  0
LWPOLYLINE
  5
2E72
330
1F
100
AcDbEntity
  8
APL Joinery
  6
Continuous
 62
     8
100
AcDbPolyline
 90
        2
 70
     0
 43
0.0
 10
95.5310380241449
 20
75.50848089462331
 42
0.1359368393509733
 10
84.35001919214982
 20
78.96277211225094
  0
LWPOLYLINE
  5
2E73
330
1F
100
AcDbEntity
  8
APL Joinery
  6
Continuous
 62
     3
100
AcDbPolyline
 90
       10
 70
     1
 43
0.0
 10
77.45001919214974
 20
83.70848089462322
 10
81.85001919214974
 20
83.70848089462322
 10
81.85001919214974
 20
81.20848089462322
 10
77.45001919214974
 20
81.20848089462322
 10
77.45001919214974
 20
73.00848089462323
 10
100.2343626881239
 20
73.00848089462323
 42
0.4142135623730951
 10
103.2343626881239
 20
76.00848089462323
 10
103.2343626881239
 20
89.00848089462323
 42
0.4142135623730951
 10
100.2343626881239
 20
92.00848089462324
 10
77.45001919214974
 20
92.00848089462324
  0
LWPOLYLINE
  5
2E8B
330
1F
100
AcDbEntity
  8
APL Joinery
  6
Continuous
 62
     3
100
AcDbPolyline
 90
       10
 70
     1
 43
0.0
 10
260.350019192151
 20
83.3044789808331
 10
264.7500191921509
 20
83.3044789808331
 10
264.7500191921509
 20
80.8044789808331
 10
260.350019192151
 20
80.8044789808331
 10
260.350019192151
 20
72.6044789808331
 10
283.1343626881252
 20
72.6044789808331
 42
0.4142135623730951
 10
286.1343626881252
 20
75.6044789808331
 10
286.1343626881252
 20
88.60447898083311
 42
0.4142135623730951
 10
283.1343626881252
 20
91.6044789808331
 10
260.350019192151
 20
91.6044789808331
  0
LWPOLYLINE
  5
2E8C
330
1F
100
AcDbEntity
  8
APL Joinery
  6
Continuous
 62
     8
100
AcDbPolyline
 90
        2
 70
     0
 43
0.0
 10
278.4310380241461
 20
75.10447898083318
 42
0.1359368393509733
 10
267.2500191921511
 20
78.55877019846082
  0
LWPOLYLINE
  5
2E8D
330
1F
100
AcDbEntity
  8
APL Joinery
  6
Continuous
 62
     8
100
AcDbPolyline
 90
        2
 70
     0
 43
0.0
 10
270.1093968340472
 20
75.1044789808331
 10
272.767599795981
 20
89.1044789808331
  0
VIEWPORT
  5
2F13
102
{ACAD_XDICTIONARY
360
3083
102
}
330
2F11
100
AcDbEntity
 67
     1
  8
0
100
AcDbViewport
 10
111.5002714459251
 20
145.0127252867498
 30
0.0
 40
504.4533174094326
 41
299.2029704978584
 68
     1
 69
     1
 12
111.5002714459251
 22
145.0127252867498
 13
0.0
 23
0.0
 14
10.0
 24
10.0
 15
10.0
 25
10.0
 16
0.0
 26
0.0
 36
1.0
 17
0.0
 27
0.0
 37
0.0
 42
50.0
 43
0.0
 44
0.0
 45
299.2029704978584
 50
0.0
 51
0.0
 72
 20000
 90
    32800
  1

281
     0
 71
     1
 74
     0
110
0.0
120
0.0
130
0.0
111
1.0
121
0.0
131
0.0
112
0.0
122
1.0
132
0.0
 79
     0
146
0.0
  0
VIEWPORT
  5
2F16
102
{ACAD_XDICTIONARY
360
3085
102
}
330
2F11
100
AcDbEntity
 67
     1
  8
0
100
AcDbViewport
 10
112.1900000000001
 20
133.6899999999999
 30
0.0
 40
178.0
 41
241.9999999999999
 68
     2
 69
     2
 12
177.0000000163699
 22
241.0000012331306
 13
0.0
 23
0.0
 14
10.0
 24
10.0
 15
10.0
 25
10.0
 16
0.0
 26
0.0
 36
1.0
 17
0.0
 27
0.0
 37
0.0
 42
50.0
 43
0.0
 44
0.0
 45
483.9999999999998
 50
0.0
 51
0.0
 72
 20000
 90
    32864
  1

281
     0
 71
     1
 74
     0
110
0.0
120
0.0
130
0.0
111
1.0
121
0.0
131
0.0
112
0.0
122
1.0
132
0.0
 79
     0
146
0.0
  0
INSERT
  5
2F19
330
2F11
100
AcDbEntity
 67
     1
  8
APL Border
100
AcDbBlockReference
  2
smartwood a4 SM border
 10
11.59500000000003
 20
2.689999999999997
 30
0.0
  0
INSERT
  5
2F1A
330
2F11
100
AcDbEntity
 67
     1
  8
APL Border
100
AcDbBlockReference
 66
     1
  2
smartwood a4 SM attributes (2)
 10
11.59500000000003
 20
2.689999999999997
 30
0.0
  0
ATTRIB
  5
2F1B
330
2F1A
100
AcDbEntity
 67
     1
  8
APL Border
100
AcDbText
 10
62.19000000000005
 20
275.13
 30
0.0
 40
3.5
  1
HINGED DOOR, OPEN IN AND OPEN OUT
  7
Arial-Regular
100
AcDbAttribute
  2
DRAWINGTITLE_1
 70
     0
  0
ATTRIB
  5
2F1C
330
2F1A
100
AcDbEntity
 67
     1
  8
APL Border
100
AcDbText
 10
62.19000000000005
 20
269.63
 30
0.0
 40
3.5
  1
CROSS SECTION
  7
Arial-Regular
100
AcDbAttribute
  2
DRAWINGTITLE_2
 70
     0
  0
ATTRIB
  5
2F1D
330
2F1A
100
AcDbEntity
 67
     1
  8
APL Border
100
AcDbText
 10
77.19000000000005
 20
263.1803256579735
 30
0.0
 40
2.5
  1
SHD03-0
  7
Arial-Regular
100
AcDbAttribute
  2
VSAW01-0
 70
     0
  0
ATTRIB
  5
2F1E
330
2F1A
100
AcDbEntity
 67
     1
  8
APL Border
100
AcDbText
 10
107.94
 20
263.1803256579735
 30
0.0
 40
2.5
  1
1:2
  7
Arial-Regular
100
AcDbAttribute
  2
1:2
 70
     0
  0
ATTRIB
  5
2F1F
330
2F1A
100
AcDbEntity
 67
     1
  8
APL Border
100
AcDbText
 10
127.19
 20
263.1803256579735
 30
0.0
 40
2.5
  1
01.06.11
  7
Arial-Regular
100
AcDbAttribute
  2
20.09.02
 70
     0
  0
ATTRIB
  5
2F20
330
2F1A
100
AcDbEntity
 67
     1
  8
APL Border
100
AcDbText
 10
23.19000000000006
 20
5.379999999999995
 30
0.0
 40
4.5
  1

  7
Arial-Regular
100
AcDbAttribute
  2
1.2.34
 70
     0
  0
ATTRIB
  5
2F21
330
2F1A
100
AcDbEntity
 67
     1
  8
APL Border
100
AcDbText
 10
201.1900000000001
 20
5.379999999999995
 30
0.0
 40
4.5
  1

  7
Arial-Regular
 72
     2
 11
201.1900000000001
 21
5.379999999999995
 31
0.0
100
AcDbAttribute
  2
1.2.34
 70
     0
  0
SEQEND
  5
2F22
330
2F1A
100
AcDbEntity
 67
     1
  8
APL Joinery
  0
ENDSEC
  0
SECTION
  2
OBJECTS
  0
DICTIONARY
  5
C
330
0
100
AcDbDictionary
281
     1
  3
ACAD_COLOR
350
2BC7
  3
ACAD_GROUP
350
D
  3
ACAD_LAYOUT
350
1A
  3
ACAD_MATERIAL
350
2B9D
  3
ACAD_MLEADERSTYLE
350
2BEC
  3
ACAD_MLINESTYLE
350
17
  3
ACAD_PLOTSETTINGS
350
19
  3
ACAD_PLOTSTYLENAME
350
E
  3
ACAD_SCALELIST
350
2BCA
  3
ACAD_TABLESTYLE
350
2BC8
  3
ACAD_VISUALSTYLE
350
2BB6
  3
AcadDim
350
86
  3
ACDB_RECOMPOSE_DATA
350
2CE7
  3
ACDBHEADERROUNDTRIPXREC
350
31A6
  3
AcDbVariableDictionary
350
3B
  3
DWGPROPS
350
31A5
  0
DICTIONARY
  5
2CE9
330
8
100
AcDbDictionary
280
     1
281
     1
  3
ACAD_XREC_ROUNDTRIP
360
3055
  0
DICTIONARY
  5
2C1E
330
2
100
AcDbDictionary
280
     1
281
     1
  3
ACAD_LAYERSTATES
360
2C1F
  0
DICTIONARY
  5
2C4B
330
10
100
AcDbDictionary
280
     1
281
     1
  3
ACAD_XREC_ROUNDTRIP
360
3056
  3
ADSK_XREC_LAYER_RECONCILED
360
2C4C
  0
DICTIONARY
  5
2C4D
330
2B
100
AcDbDictionary
280
     1
281
     1
  3
ACAD_XREC_ROUNDTRIP
360
3059
  3
ADSK_XREC_LAYER_RECONCILED
360
2C4E
  0
DICTIONARY
  5
2C4F
330
75
100
AcDbDictionary
280
     1
281
     1
  3
ACAD_XREC_ROUNDTRIP
360
305A
  3
ADSK_XREC_LAYER_RECONCILED
360
2C50
  0
DICTIONARY
  5
2C51
330
27D5
100
AcDbDictionary
280
     1
281
     1
  3
ACAD_XREC_ROUNDTRIP
360
305B
  3
ADSK_XREC_LAYER_RECONCILED
360
2C52
  0
DICTIONARY
  5
2C55
330
2BF6
100
AcDbDictionary
280
     1
281
     1
  3
ACAD_XREC_ROUNDTRIP
360
3065
  3
ADSK_XREC_LAYER_RECONCILED
360
2C56
  0
DICTIONARY
  5
2C33
330
1F
100
AcDbDictionary
280
     1
281
     1
  3
ACAD_SORTENTS
360
2C34
  0
DICTIONARY
  5
30D7
330
2672
100
AcDbDictionary
280
     1
281
     1
  3
ACAD_SORTENTS
360
30D8
  0
DICTIONARY
  5
30DC
330
267D
100
AcDbDictionary
280
     1
281
     1
  0
DICTIONARY
  5
30F8
330
268F
100
AcDbDictionary
280
     1
281
     1
  0
DICTIONARY
  5
3128
330
26D1
100
AcDbDictionary
280
     1
281
     1
  0
DICTIONARY
  5
314A
330
26FF
100
AcDbDictionary
280
     1
281
     1
  0
DICTIONARY
  5
3155
330
2739
100
AcDbDictionary
280
     1
281
     1
  0
DICTIONARY
  5
3083
330
2F13
100
AcDbDictionary
280
     1
281
     1
  3
ACAD_XREC_ROUNDTRIP
360
3084
  0
DICTIONARY
  5
3085
330
2F16
100
AcDbDictionary
280
     1
281
     1
  3
ACAD_XREC_ROUNDTRIP
360
3086
  0
DICTIONARY
  5
2BC7
102
{ACAD_REACTORS
330
C
102
}
330
C
100
AcDbDictionary
281
     1
  0
DICTIONARY
  5
D
102
{ACAD_REACTORS
330
C
102
}
330
C
100
AcDbDictionary
281
     1
  0
DICTIONARY
  5
1A
102
{ACAD_REACTORS
330
C
102
}
330
C
100
AcDbDictionary
281
     1
  3
Model
350
22
  3
Vantage A4
350
2F24
  0
DICTIONARY
  5
2B9D
102
{ACAD_REACTORS
330
C
102
}
330
C
100
AcDbDictionary
281
     1
  3
ByBlock
350
2BA6
  3
ByLayer
350
2B9E
  3
Global
350
2BAE
  0
DICTIONARY
  5
2BEC
102
{ACAD_REACTORS
330
C
102
}
330
C
100
AcDbDictionary
281
     1
  3
Standard
350
2BED
  0
DICTIONARY
  5
17
102
{ACAD_REACTORS
330
C
102
}
330
C
100
AcDbDictionary
281
     1
  3
Standard
350
18
  0
DICTIONARY
  5
19
102
{ACAD_REACTORS
330
C
102
}
330
C
100
AcDbDictionary
281
     1
  3
A4 Specifier Manual Hardcopy
350
2924
  3
A4 Specifier Manual PDF
350
2925
  0
ACDBDICTIONARYWDFLT
  5
E
102
{ACAD_REACTORS
330
C
102
}
330
C
100
AcDbDictionary
281
     1
  3
Normal
350
F
100
AcDbDictionaryWithDefault
340
F
  0
DICTIONARY
  5
2BCA
102
{ACAD_REACTORS
330
C
102
}
330
C
100
AcDbDictionary
281
     1
  3
A0
350
2BCB
  3
A1
350
2BCC
  3
A2
350
2BCD
  3
A3
350
2BCE
  3
A4
350
2BCF
  3
A5
350
2BD0
  3
A6
350
2BD1
  3
A7
350
2BD2
  3
A8
350
2BD3
  3
A9
350
2BD4
  3
B0
350
2BD5
  3
B1
350
2BD6
  3
B2
350
2BD7
  3
B3
350
2BD8
  3
B4
350
2BD9
  3
B5
350
2BDA
  3
B6
350
2BDB
  3
B7
350
2BDC
  3
B8
350
2BDD
  3
B9
350
2BDE
  3
C0
350
2BDF
  3
C1
350
2BE0
  3
C2
350
2BE1
  3
C3
350
2BE2
  3
C4
350
2BE3
  3
C5
350
2BE4
  3
C6
350
2BE5
  3
C7
350
2BE6
  3
C8
350
2BE7
  3
C9
350
2BE8
  3
D0
350
2BE9
  3
D1
350
2BEA
  3
D2
350
2BEB
  0
DICTIONARY
  5
2BC8
102
{ACAD_REACTORS
330
C
102
}
330
C
100
AcDbDictionary
281
     1
  3
Standard
350
2BC9
  0
DICTIONARY
  5
2BB6
102
{ACAD_REACTORS
330
C
102
}
330
C
100
AcDbDictionary
281
     1
  3
2dWireframe
350
2BBC
  3
3D Hidden
350
2BBE
  3
3dWireframe
350
2BBD
  3
Basic
350
2BBB
  3
Brighten
350
2BC2
  3
ColorChange
350
2BC6
  3
Conceptual
350
2BBF
  3
Dim
350
2BC1
  3
Facepattern
350
2BC5
  3
Flat
350
2BB7
  3
FlatWithEdges
350
2BB8
  3
Gouraud
350
2BB9
  3
GouraudWithEdges
350
2BBA
  3
Linepattern
350
2BC4
  3
Realistic
350
2BC0
  3
Thicken
350
2BC3
  0
XRECORD
  5
86
102
{ACAD_REACTORS
330
C
102
}
330
C
100
AcDbXrecord
280
     1
 90
   990106
  3

 60
     0
 61
     0
 62
     1
 63
     3
 64
     0
 65
     0
 66
     0
 67
     3
 68
     1
 69
     0
 70
     0
 71
     0
 72
     0
 40
8.188652110585962
170
     0
  0
XRECORD
  5
2CE7
102
{ACAD_REACTORS
330
C
102
}
330
C
100
AcDbXrecord
280
     1
 90
        1
330
2BC9
  0
DICTIONARY
  5
31A6
102
{ACAD_REACTORS
330
C
102
}
330
C
100
AcDbDictionary
281
     1
  0
DICTIONARY
  5
3B
102
{ACAD_REACTORS
330
C
102
}
330
C
100
AcDbDictionary
281
     1
  3
CANNOSCALE
350
2D29
  3
CMLEADERSTYLE
350
2D28
  3
CTABLESTYLE
350
2D27
  3
DIMASSOC
350
3D
  3
HIDETEXT
350
3C
  3
INDEXCTL
350
2D2B
  3
PROJECTNAME
350
2EB1
  3
SORTENTS
350
2D2A
  0
XRECORD
  5
31A5
102
{ACAD_REACTORS
330
C
102
}
330
C
100
AcDbXrecord
280
     1
  1
DWGPROPS COOKIE
  2

  3

  4

  6

  7

  8
homer
  9

300
=
301
=
302
=
303
=
304
=
305
=
306
=
307
=
308
=
309
=
 40
0.8336477199074073
 41
2452284.566801979
 42
2455812.474136169
  1

 90
        0
  0
XRECORD
  5
3055
102
{ACAD_REACTORS
330
2CE9
102
}
330
2CE9
100
AcDbXrecord
280
     1
102
VTR_0.000_0.000_1.000_1.000_VISUALSTYLE
340
2BBC
102
VTR_0.000_0.000_1.000_1.000_GRIDDISPLAY
 70
     3
102
VTR_0.000_0.000_1.000_1.000_GRIDMAJOR
 70
     5
102
VTR_0.000_0.000_1.000_1.000_DEFAULTLIGHTING
280
     1
102
VTR_0.000_0.000_1.000_1.000_DEFAULTLIGHTINGTYPE
 70
     1
102
VTR_0.000_0.000_1.000_1.000_BRIGHTNESS
141
0.0
102
VTR_0.000_0.000_1.000_1.000_CONTRAST
142
0.0
  0
DICTIONARY
  5
2C1F
102
{ACAD_REACTORS
330
2C1E
102
}
330
2C1E
100
AcDbDictionary
281
     1
  0
XRECORD
  5
3056
102
{ACAD_REACTORS
330
2C4B
102
}
330
2C4B
100
AcDbXrecord
280
     1
102
MATERIAL
340
2BAE
  0
XRECORD
  5
2C4C
102
{ACAD_REACTORS
330
2C4B
102
}
330
2C4B
100
AcDbXrecord
280
     1
290
     1
  0
XRECORD
  5
3059
102
{ACAD_REACTORS
330
2C4D
102
}
330
2C4D
100
AcDbXrecord
280
     1
102
MATERIAL
340
2BAE
  0
XRECORD
  5
2C4E
102
{ACAD_REACTORS
330
2C4D
102
}
330
2C4D
100
AcDbXrecord
280
     1
290
     1
  0
XRECORD
  5
305A
102
{ACAD_REACTORS
330
2C4F
102
}
330
2C4F
100
AcDbXrecord
280
     1
102
MATERIAL
340
2BAE
  0
XRECORD
  5
2C50
102
{ACAD_REACTORS
330
2C4F
102
}
330
2C4F
100
AcDbXrecord
280
     1
290
     1
  0
XRECORD
  5
305B
102
{ACAD_REACTORS
330
2C51
102
}
330
2C51
100
AcDbXrecord
280
     1
102
MATERIAL
340
2BAE
  0
XRECORD
  5
2C52
102
{ACAD_REACTORS
330
2C51
102
}
330
2C51
100
AcDbXrecord
280
     1
290
     1
  0
XRECORD
  5
3065
102
{ACAD_REACTORS
330
2C55
102
}
330
2C55
100
AcDbXrecord
280
     1
102
MATERIAL
340
2BAE
  0
XRECORD
  5
2C56
102
{ACAD_REACTORS
330
2C55
102
}
330
2C55
100
AcDbXrecord
280
     1
290
     1
  0
SORTENTSTABLE
  5
2C34
102
{ACAD_REACTORS
330
2C33
102
}
330
2C33
100
AcDbSortentsTable
330
1F
331
26EF
  5
270F
331
278F
  5
2A40
331
27AD
  5
2C45
331
2E72
  5
2A37
331
2AE4
  5
2E60
331
2A30
  5
2D96
331
2687
  5
2699
331
2D94
  5
2E75
331
2743
  5
274D
331
2C39
  5
2E5E
331
272C
  5
2736
331
2790
  5
2A41
331
27AE
  5
2C46
331
2A1A
  5
2D8D
331
2E73
  5
2A36
331
279F
  5
2C3A
331
2A31
  5
2D97
331
2D95
  5
2E76
331
27A0
  5
2C3B
331
2C3A
  5
2E5D
331
272D
  5
273D
331
2791
  5
2A81
331
27AF
  5
2C47
331
2A1B
  5
2D8E
331
2D96
  5
2E77
331
2783
  5
2A3D
331
27A1
  5
2C3F
331
2C3B
  5
2E5C
331
2AD8
  5
2E5A
331
272E
  5
2743
331
2A1C
  5
2D8F
331
267B
  5
268D
331
2A81
  5
2E55
331
2D97
  5
2E78
331
2720
  5
2729
331
2D88
  5
2E61
331
2C3C
  5
2E5B
331
27B9
  5
2C48
331
2A82
  5
2E56
331
2D98
  5
2E79
331
2699
  5
26EF
331
270B
  5
2719
331
2721
  5
272C
331
2D89
  5
2E62
331
2C3D
  5
2A3E
331
27BA
  5
2C49
331
2A0F
  5
2D8A
331
2A83
  5
2E57
331
2D99
  5
2E7A
331
2722
  5
272D
331
2748
  5
274E
331
2A10
  5
2D8B
331
2D8A
  5
2E63
331
268C
  5
269F
331
2A36
  5
2D98
331
2D9A
  5
2E7B
331
2749
  5
274F
331
2A11
  5
2D8C
331
2D8B
  5
2E64
331
2C3F
  5
2ADF
331
2D9B
  5
2E7C
331
2788
  5
2A3F
331
27A6
  5
2C40
331
2A38
  5
2D99
331
2D8C
  5
2E65
331
2C41
  5
2A82
331
2C32
  5
262B
331
27A7
  5
2C41
331
2A39
  5
2D9A
331
2D8D
  5
2E66
331
2798
  5
2AE2
331
2A04
  5
2C4A
331
2A2A
  5
2D90
331
2A87
  5
2E58
331
2726
  5
272E
331
274C
  5
2750
331
27A8
  5
2C42
331
2A3A
  5
2D9B
331
2A88
  5
2E59
331
2D8E
  5
2E67
331
2682
  5
2693
331
273D
  5
274C
331
2799
  5
2C37
331
2A05
  5
2D88
331
2A2B
  5
2D91
331
269F
  5
2703
331
2A3B
  5
2E51
331
2D8F
  5
2E68
331
2C44
  5
2AE1
331
279A
  5
2C38
331
2A06
  5
2D89
331
2A2C
  5
2D92
331
2D90
  5
2E71
331
2703
  5
2714
331
2719
  5
2722
331
274E
  5
2A39
331
27AA
  5
2C43
331
2A3C
  5
2E52
331
277D
  5
2A3B
331
2A2D
  5
2D93
331
2D91
  5
2E72
331
271A
  5
2726
331
2A3D
  5
2E53
331
27AB
  5
2C44
331
2676
  5
268C
331
2A2E
  5
2D94
331
279C
  5
2C39
331
2D92
  5
2E73
331
2693
  5
26C7
331
2A3E
  5
2E54
331
2714
  5
2721
331
2750
  5
2A3A
331
2E71
  5
2A38
331
277F
  5
2A3C
331
2A2F
  5
2D95
331
2D93
  5
2E74
331
2C38
  5
2E5F
  0
SORTENTSTABLE
  5
30D8
102
{ACAD_REACTORS
330
30D7
102
}
330
30D7
100
AcDbSortentsTable
330
2672
  0
XRECORD
  5
3084
102
{ACAD_REACTORS
330
3083
102
}
330
3083
100
AcDbXrecord
280
     1
102
VISUALSTYLE
340
2BBC
102
GRIDDISPLAY
 70
     0
102
GRIDMAJOR
 70
     5
102
DEFAULTLIGHTING
280
     1
102
DEFAULTLIGHTINGTYPE
 70
     1
102
BRIGHTNESS
141
0.0
102
CONTRAST
142
0.0
102
SHADEPLOT
 70
     0
  0
XRECORD
  5
3086
102
{ACAD_REACTORS
330
3085
102
}
330
3085
100
AcDbXrecord
280
     1
102
VISUALSTYLE
340
2BBC
102
GRIDDISPLAY
 70
     0
102
GRIDMAJOR
 70
     5
102
DEFAULTLIGHTING
280
     1
102
DEFAULTLIGHTINGTYPE
 70
     1
102
BRIGHTNESS
141
0.0
102
CONTRAST
142
0.0
102
SHADEPLOT
 70
     0
  0
LAYOUT
  5
22
102
{ACAD_XDICTIONARY
360
31A7
102
}
102
{ACAD_REACTORS
330
1A
102
}
330
1A
100
AcDbPlotSettings
  1

  2
\\APL01\HP LaserJet 4MV
  4
A4
  6

 40
6.043083190917968
 41
6.720414161682128
 42
7.821090698242187
 43
5.027069091796875
 44
210.0579986572266
 45
296.9259948730469
 46
0.0
 47
0.0
 48
55.19893561856474
 49
77.41415496436935
140
329.6878846931311
141
251.7976535946928
142
1.0
143
1.0
 70
 11936
 72
     1
 73
     1
 74
     4
  7

 75
     0
147
1.0
148
-55.19893561856474
149
-77.41415496436935
100
AcDbLayout
  1
Model
 70
     1
 71
     0
 10
0.0
 20
0.0
 11
12.0
 21
9.0
 12
0.0
 22
0.0
 32
0.0
 14
0.0
 24
0.0
 34
0.0
 15
0.0
 25
0.0
 35
0.0
146
0.0
 13
0.0
 23
0.0
 33
0.0
 16
1.0
 26
0.0
 36
0.0
 17
0.0
 27
1.0
 37
0.0
 76
     0
330
1F
  0
LAYOUT
  5
2F24
102
{ACAD_XDICTIONARY
360
2F25
102
}
102
{ACAD_REACTORS
330
1A
102
}
330
1A
100
AcDbPlotSettings
  1

  2
\\Aplfp01\APL Technical HP5100 PSLaser
  4
A4
  6

 40
5.027082920074462
 41
5.408084392547607
 42
5.70440673828125
 43
5.365753173828125
 44
209.8886566162109
 45
297.0530090332031
 46
0.0
 47
0.0
 48
0.0
 49
0.0
140
0.0
141
0.0
142
1.0
143
1.0
 70
   688
 72
     1
 73
     0
 74
     5
  7
A4 Specifier Manual.ctb
 75
    16
147
1.0
148
-11.58302605789407
149
-1.8943051626959
100
AcDbLayout
  1
Vantage A4
 70
     1
 71
     1
 10
6.55594313781961
 20
-3.513779229851706
 11
216.4445997540306
 21
293.5392298033514
 12
0.0
 22
0.0
 32
0.0
 14
23.1872881558757
 24
4.590634010144299
 34
-0.0015258207003583
 15
201.1903938122528
 25
279.565011319025
 35
0.0000000349246037
146
0.0
 13
0.0
 23
0.0
 33
0.0
 16
1.0
 26
0.0
 36
0.0
 17
0.0
 27
1.0
 37
0.0
 76
     0
330
2F11
331
2F13
1001
ACAD_PSEXT
1000
\\Aplfp01\APL Technical HP5100 PSLaser
1000
HP LaserJet 5100 PS
1000
APL Technical Office
1000

1070
     0
  0
MATERIAL
  5
2BA6
102
{ACAD_XDICTIONARY
360
2BA7
102
}
102
{ACAD_REACTORS
330
2B9D
102
}
330
2B9D
100
AcDbMaterial
  1
ByBlock
 72
     0
 73
     2
 43
0.0008202099737533
 43
0.0
 43
0.0
 43
0.0
 43
0.0
 43
0.0008202099737533
 43
0.0
 43
0.0
 43
0.0
 43
0.0
 43
1.0
 43
0.0
 43
0.0
 43
0.0
 43
0.0
 43
1.0
 77
     0
 78
     2
 47
0.0008202099737533
 47
0.0
 47
0.0
 47
0.0
 47
0.0
 47
0.0008202099737533
 47
0.0
 47
0.0
 47
0.0
 47
0.0
 47
1.0
 47
0.0
 47
0.0
 47
0.0
 47
0.0
 47
1.0
171
     0
172
     2
 49
0.0008202099737533
 49
0.0
 49
0.0
 49
0.0
 49
0.0
 49
0.0008202099737533
 49
0.0
 49
0.0
 49
0.0
 49
0.0
 49
1.0
 49
0.0
 49
0.0
 49
0.0
 49
0.0
 49
1.0
175
     0
176
     2
142
0.0008202099737533
142
0.0
142
0.0
142
0.0
142
0.0
142
0.0008202099737533
142
0.0
142
0.0
142
0.0
142
0.0
142
1.0
142
0.0
142
0.0
142
0.0
142
0.0
142
1.0
179
     0
270
     2
144
0.0008202099737533
144
0.0
144
0.0
144
0.0
144
0.0
144
0.0008202099737533
144
0.0
144
0.0
144
0.0
144
0.0
144
1.0
144
0.0
144
0.0
144
0.0
144
0.0
144
1.0
274
     2
147
0.0008202099737533
147
0.0
147
0.0
147
0.0
147
0.0
147
0.0008202099737533
147
0.0
147
0.0
147
0.0
147
0.0
147
1.0
147
0.0
147
0.0
147
0.0
147
0.0
147
1.0
  0
MATERIAL
  5
2B9E
102
{ACAD_XDICTIONARY
360
2B9F
102
}
102
{ACAD_REACTORS
330
2B9D
102
}
330
2B9D
100
AcDbMaterial
  1
ByLayer
 72
     0
 73
     2
 43
0.0008202099737533
 43
0.0
 43
0.0
 43
0.0
 43
0.0
 43
0.0008202099737533
 43
0.0
 43
0.0
 43
0.0
 43
0.0
 43
1.0
 43
0.0
 43
0.0
 43
0.0
 43
0.0
 43
1.0
 77
     0
 78
     2
 47
0.0008202099737533
 47
0.0
 47
0.0
 47
0.0
 47
0.0
 47
0.0008202099737533
 47
0.0
 47
0.0
 47
0.0
 47
0.0
 47
1.0
 47
0.0
 47
0.0
 47
0.0
 47
0.0
 47
1.0
171
     0
172
     2
 49
0.0008202099737533
 49
0.0
 49
0.0
 49
0.0
 49
0.0
 49
0.0008202099737533
 49
0.0
 49
0.0
 49
0.0
 49
0.0
 49
1.0
 49
0.0
 49
0.0
 49
0.0
 49
0.0
 49
1.0
175
     0
176
     2
142
0.0008202099737533
142
0.0
142
0.0
142
0.0
142
0.0
142
0.0008202099737533
142
0.0
142
0.0
142
0.0
142
0.0
142
1.0
142
0.0
142
0.0
142
0.0
142
0.0
142
1.0
179
     0
270
     2
144
0.0008202099737533
144
0.0
144
0.0
144
0.0
144
0.0
144
0.0008202099737533
144
0.0
144
0.0
144
0.0
144
0.0
144
1.0
144
0.0
144
0.0
144
0.0
144
0.0
144
1.0
274
     2
147
0.0008202099737533
147
0.0
147
0.0
147
0.0
147
0.0
147
0.0008202099737533
147
0.0
147
0.0
147
0.0
147
0.0
147
1.0
147
0.0
147
0.0
147
0.0
147
0.0
147
1.0
  0
MATERIAL
  5
2BAE
102
{ACAD_XDICTIONARY
360
2BAF
102
}
102
{ACAD_REACTORS
330
2B9D
102
}
330
2B9D
100
AcDbMaterial
  1
Global
 72
     0
 73
     2
 43
0.0008202099737533
 43
0.0
 43
0.0
 43
0.0
 43
0.0
 43
0.0008202099737533
 43
0.0
 43
0.0
 43
0.0
 43
0.0
 43
1.0
 43
0.0
 43
0.0
 43
0.0
 43
0.0
 43
1.0
 77
     0
 78
     2
 47
0.0008202099737533
 47
0.0
 47
0.0
 47
0.0
 47
0.0
 47
0.0008202099737533
 47
0.0
 47
0.0
 47
0.0
 47
0.0
 47
1.0
 47
0.0
 47
0.0
 47
0.0
 47
0.0
 47
1.0
171
     0
172
     2
 49
0.0008202099737533
 49
0.0
 49
0.0
 49
0.0
 49
0.0
 49
0.0008202099737533
 49
0.0
 49
0.0
 49
0.0
 49
0.0
 49
1.0
 49
0.0
 49
0.0
 49
0.0
 49
0.0
 49
1.0
175
     0
176
     2
142
0.0008202099737533
142
0.0
142
0.0
142
0.0
142
0.0
142
0.0008202099737533
142
0.0
142
0.0
142
0.0
142
0.0
142
1.0
142
0.0
142
0.0
142
0.0
142
0.0
142
1.0
179
     0
270
     2
144
0.0008202099737533
144
0.0
144
0.0
144
0.0
144
0.0
144
0.0008202099737533
144
0.0
144
0.0
144
0.0
144
0.0
144
1.0
144
0.0
144
0.0
144
0.0
144
0.0
144
1.0
274
     2
147
0.0008202099737533
147
0.0
147
0.0
147
0.0
147
0.0
147
0.0008202099737533
147
0.0
147
0.0
147
0.0
147
0.0
147
1.0
147
0.0
147
0.0
147
0.0
147
0.0
147
1.0
  0
ACAD_PROXY_OBJECT
  5
2BED
102
{ACAD_REACTORS
330
2BEC
102
}
330
2BEC
100
AcDbProxyObject
 90
      499
 91
      509
 95
   983063
 70
     0
 93
      618
310
40901902A4063FBFFFFFE000000000000002040AD7A3703D0AD73F4254DD185B99185C99000000000000000104090141901A00000000000004100000000000000041025764000000000000300FCF
340
14
340
0
340
11
340
0
 94
        0
1001
ACAD_MLEADERVER
1070
     2
1001
ACAD
1000
AcRTDxfName
1000
MLEADERSTYLE
1000
AcRTDxfName
1000
MLEADERSTYLE
1000
AcRTDxfName
1000
MLEADERSTYLE
1000
AcRTDxfName
1000
MLEADERSTYLE
1000
AcRTDxfName
1000
MLEADERSTYLE
1000
AcRTDxfName
1000
MLEADERSTYLE
1000
AcRTDxfName
1000
MLEADERSTYLE
  0
MLINESTYLE
  5
18
102
{ACAD_REACTORS
330
17
102
}
330
17
100
AcDbMlineStyle
  2
STANDARD
 70
     0
  3

 62
   256
 51
90.0
 52
90.0
 71
     2
 49
0.5
 62
   256
  6
BYLAYER
 49
-0.5
 62
   256
  6
BYLAYER
  0
PLOTSETTINGS
  5
2924
102
{ACAD_XDICTIONARY
360
31A9
102
}
102
{ACAD_REACTORS
330
19
102
}
330
19
100
AcDbPlotSettings
  1
A4 Specifier Manual Hardcopy
  2
A4 Specifier Manual.pc3
  4
A4
  6

 40
6.0
 41
5.0
 42
6.97332763671875
 43
5.96832275390625
 44
209.9733276367187
 45
296.9683227539062
 46
10.5
 47
-1.0
 48
55.19893561856474
 49
77.41415496436935
140
329.6878846931311
141
251.7976535946928
142
1.0
143
2.0
 70
  1712
 72
     1
 73
     0
 74
     1
  7
A4 specifier manual.ctb
 75
    17
147
0.5
148
2.225667800726114
149
26.13925412475783
  0
PLOTSETTINGS
  5
2925
102
{ACAD_XDICTIONARY
360
31AB
102
}
102
{ACAD_REACTORS
330
19
102
}
330
19
100
AcDbPlotSettings
  1
A4 Specifier Manual PDF
  2
Acrobat Distiller.pc3
  4
A4
  6

 40
3.174999952316284
 41
3.174999952316284
 42
3.175003051757812
 43
3.17498779296875
 44
209.9098358154297
 45
297.0318298339844
 46
12.0
 47
3.0
 48
55.19893561856474
 49
77.41415496436935
140
329.6878846931311
141
251.7976535946928
142
1.0
143
2.0
 70
  1712
 72
     1
 73
     0
 74
     1
  7
A4 Specifier Manual.ctb
 75
    17
147
0.5
148
2.231438335389952
149
26.15846035871732
  0
ACDBPLACEHOLDER
  5
F
102
{ACAD_REACTORS
330
E
102
}
330
E
  0
ACAD_PROXY_OBJECT
  5
2BCB
102
{ACAD_REACTORS
330
2BCA
102
}
330
2BCA
100
AcDbProxyObject
 90
      499
 91
      508
 95
   983063
 70
     0
 93
       49
310
904313A3100580
 94
        0
1001
ACAD
1000
AcRTDxfName
1000
SCALE
1000
AcRTDxfName
1000
SCALE
1000
AcRTDxfName
1000
SCALE
1000
AcRTDxfName
1000
SCALE
1000
AcRTDxfName
1000
SCALE
1000
AcRTDxfName
1000
SCALE
1000
AcRTDxfName
1000
SCALE
  0
ACAD_PROXY_OBJECT
  5
2BCC
102
{ACAD_REACTORS
330
2BCA
102
}
330
2BCA
100
AcDbProxyObject
 90
      499
 91
      508
 95
   983063
 70
     0
 93
      113
310
904313A32004000000000000004040
 94
        0
1001
ACAD
1000
AcRTDxfName
1000
SCALE
1000
AcRTDxfName
1000
SCALE
1000
AcRTDxfName
1000
SCALE
1000
AcRTDxfName
1000
SCALE
1000
AcRTDxfName
1000
SCALE
1000
AcRTDxfName
1000
SCALE
1000
AcRTDxfName
1000
SCALE
  0
ACAD_PROXY_OBJECT
  5
2BCD
102
{ACAD_REACTORS
330
2BCA
102
}
330
2BCA
100
AcDbProxyObject
 90
      499
 91
      508
 95
   983063
 70
     0
 93
      113
310
904313A34004000000000000104040
 94
        0
1001
ACAD
1000
AcRTDxfName
1000
SCALE
1000
AcRTDxfName
1000
SCALE
1000
AcRTDxfName
1000
SCALE
1000
AcRTDxfName
1000
SCALE
1000
AcRTDxfName
1000
SCALE
1000
AcRTDxfName
1000
SCALE
1000
AcRTDxfName
1000
SCALE
  0
ACAD_PROXY_OBJECT
  5
2BCE
102
{ACAD_REACTORS
330
2BCA
102
}
330
2BCA
100
AcDbProxyObject
 90
      499
 91
      508
 95
   983063
 70
     0
 93
      113
310
904313A35004000000000000144040
 94
        0
1001
ACAD
1000
AcRTDxfName
1000
SCALE
1000
AcRTDxfName
1000
SCALE
1000
AcRTDxfName
1000
SCALE
1000
AcRTDxfName
1000
SCALE
1000
AcRTDxfName
1000
SCALE
1000
AcRTDxfName
1000
SCALE
1000
AcRTDxfName
1000
SCALE
  0
ACAD_PROXY_OBJECT
  5
2BCF
102
{ACAD_REACTORS
330
2BCA
102
}
330
2BCA
100
AcDbProxyObject
 90
      499
 91
      508
 95
   983063
 70
     0
 93
      113
310
904313A38004000000000000204040
 94
        0
1001
ACAD
1000
AcRTDxfName
1000
SCALE
1000
AcRTDxfName
1000
SCALE
1000
AcRTDxfName
1000
SCALE
1000
AcRTDxfName
1000
SCALE
1000
AcRTDxfName
1000
SCALE
1000
AcRTDxfName
1000
SCALE
1000
AcRTDxfName
1000
SCALE
  0
ACAD_PROXY_OBJECT
  5
2BD0
102
{ACAD_REACTORS
330
2BCA
102
}
330
2BCA
100
AcDbProxyObject
 90
      499
 91
      508
 95
   983063
 70
     0
 93
      121
310
905313A3130004000000000000244040
 94
        0
1001
ACAD
1000
AcRTDxfName
1000
SCALE
1000
AcRTDxfName
1000
SCALE
1000
AcRTDxfName
1000
SCALE
1000
AcRTDxfName
1000
SCALE
1000
AcRTDxfName
1000
SCALE
1000
AcRTDxfName
1000
SCALE
1000
AcRTDxfName
1000
SCALE
  0
ACAD_PROXY_OBJECT
  5
2BD1
102
{ACAD_REACTORS
330
2BCA
102
}
330
2BCA
100
AcDbProxyObject
 90
      499
 91
      508
 95
   983063
 70
     0
 93
      121
310
905313A3136004000000000000304001
 94
        0
1001
ACAD
1000
AcRTDxfName
1000
SCALE
1000
AcRTDxfName
1000
SCALE
1000
AcRTDxfName
1000
SCALE
1000
AcRTDxfName
1000
SCALE
1000
AcRTDxfName
1000
SCALE
1000
AcRTDxfName
1000
SCALE
1000
AcRTDxfName
1000
SCALE
  0
ACAD_PROXY_OBJECT
  5
2BD2
102
{ACAD_REACTORS
330
2BCA
102
}
330
2BCA
100
AcDbProxyObject
 90
      499
 91
      508
 95
   983063
 70
     0
 93
      121
310
905313A3230004000000000000344040
 94
        0
1001
ACAD
1000
AcRTDxfName
1000
SCALE
1000
AcRTDxfName
1000
SCALE
1000
AcRTDxfName
1000
SCALE
1000
AcRTDxfName
1000
SCALE
1000
AcRTDxfName
1000
SCALE
1000
AcRTDxfName
1000
SCALE
1000
AcRTDxfName
1000
SCALE
  0
ACAD_PROXY_OBJECT
  5
2BD3
102
{ACAD_REACTORS
330
2BCA
102
}
330
2BCA
100
AcDbProxyObject
 90
      499
 91
      508
 95
   983063
 70
     0
 93
      121
310
905313A33300040000000000003E4001
 94
        0
1001
ACAD
1000
AcRTDxfName
1000
SCALE
1000
AcRTDxfName
1000
SCALE
1000
AcRTDxfName
1000
SCALE
1000
AcRTDxfName
1000
SCALE
1000
AcRTDxfName
1000
SCALE
1000
AcRTDxfName
1000
SCALE
1000
AcRTDxfName
1000
SCALE
  0
ACAD_PROXY_OBJECT
  5
2BD4
102
{ACAD_REACTORS
330
2BCA
102
}
330
2BCA
100
AcDbProxyObject
 90
      499
 91
      508
 95
   983063
 70
     0
 93
      121
310
905313A3430004000000000000444040
 94
        0
1001
ACAD
1000
AcRTDxfName
1000
SCALE
1000
AcRTDxfName
1000
SCALE
1000
AcRTDxfName
1000
SCALE
1000
AcRTDxfName
1000
SCALE
1000
AcRTDxfName
1000
SCALE
1000
AcRTDxfName
1000
SCALE
1000
AcRTDxfName
1000
SCALE
  0
ACAD_PROXY_OBJECT
  5
2BD5
102
{ACAD_REACTORS
330
2BCA
102
}
330
2BCA
100
AcDbProxyObject
 90
      499
 91
      508
 95
   983063
 70
     0
 93
      121
310
905313A3530004000000000000494001
 94
        0
1001
ACAD
1000
AcRTDxfName
1000
SCALE
1000
AcRTDxfName
1000
SCALE
1000
AcRTDxfName
1000
SCALE
1000
AcRTDxfName
1000
SCALE
1000
AcRTDxfName
1000
SCALE
1000
AcRTDxfName
1000
SCALE
1000
AcRTDxfName
1000
SCALE
  0
ACAD_PROXY_OBJECT
  5
2BD6
102
{ACAD_REACTORS
330
2BCA
102
}
330
2BCA
100
AcDbProxyObject
 90
      499
 91
      508
 95
   983063
 70
     0
 93
      129
310
906313A313030004000000000000594000
 94
        0
1001
ACAD
1000
AcRTDxfName
1000
SCALE
1000
AcRTDxfName
1000
SCALE
1000
AcRTDxfName
1000
SCALE
1000
AcRTDxfName
1000
SCALE
1000
AcRTDxfName
1000
SCALE
1000
AcRTDxfName
1000
SCALE
1000
AcRTDxfName
1000
SCALE
  0
ACAD_PROXY_OBJECT
  5
2BD7
102
{ACAD_REACTORS
330
2BCA
102
}
330
2BCA
100
AcDbProxyObject
 90
      499
 91
      508
 95
   983063
 70
     0
 93
      113
310
904323A31000000000000000010165
 94
        0
1001
ACAD
1000
AcRTDxfName
1000
SCALE
1000
AcRTDxfName
1000
SCALE
1000
AcRTDxfName
1000
SCALE
1000
AcRTDxfName
1000
SCALE
1000
AcRTDxfName
1000
SCALE
1000
AcRTDxfName
1000
SCALE
1000
AcRTDxfName
1000
SCALE
  0
ACAD_PROXY_OBJECT
  5
2BD8
102
{ACAD_REACTORS
330
2BCA
102
}
330
2BCA
100
AcDbProxyObject
 90
      499
 91
      508
 95
   983063
 70
     0
 93
      113
310
904343A31000000000000000410101
 94
        0
1001
ACAD
1000
AcRTDxfName
1000
SCALE
1000
AcRTDxfName
1000
SCALE
1000
AcRTDxfName
1000
SCALE
1000
AcRTDxfName
1000
SCALE
1000
AcRTDxfName
1000
SCALE
1000
AcRTDxfName
1000
SCALE
1000
AcRTDxfName
1000
SCALE
  0
ACAD_PROXY_OBJECT
  5
2BD9
102
{ACAD_REACTORS
330
2BCA
102
}
330
2BCA
100
AcDbProxyObject
 90
      499
 91
      508
 95
   983063
 70
     0
 93
      113
310
904383A31000000000000000810165
 94
        0
1001
ACAD
1000
AcRTDxfName
1000
SCALE
1000
AcRTDxfName
1000
SCALE
1000
AcRTDxfName
1000
SCALE
1000
AcRTDxfName
1000
SCALE
1000
AcRTDxfName
1000
SCALE
1000
AcRTDxfName
1000
SCALE
1000
AcRTDxfName
1000
SCALE
  0
ACAD_PROXY_OBJECT
  5
2BDA
102
{ACAD_REACTORS
330
2BCA
102
}
330
2BCA
100
AcDbProxyObject
 90
      499
 91
      508
 95
   983063
 70
     0
 93
      121
310
90531303A31000000000000000910120
 94
        0
1001
ACAD
1000
AcRTDxfName
1000
SCALE
1000
AcRTDxfName
1000
SCALE
1000
AcRTDxfName
1000
SCALE
1000
AcRTDxfName
1000
SCALE
1000
AcRTDxfName
1000
SCALE
1000
AcRTDxfName
1000
SCALE
1000
AcRTDxfName
1000
SCALE
  0
ACAD_PROXY_OBJECT
  5
2BDB
102
{ACAD_REACTORS
330
2BCA
102
}
330
2BCA
100
AcDbProxyObject
 90
      499
 91
      508
 95
   983063
 70
     0
 93
      129
310
9063130303A31000000000000001650100
 94
        0
1001
ACAD
1000
AcRTDxfName
1000
SCALE
1000
AcRTDxfName
1000
SCALE
1000
AcRTDxfName
1000
SCALE
1000
AcRTDxfName
1000
SCALE
1000
AcRTDxfName
1000
SCALE
1000
AcRTDxfName
1000
SCALE
1000
AcRTDxfName
1000
SCALE
  0
ACAD_PROXY_OBJECT
  5
2BDC
102
{ACAD_REACTORS
330
2BCA
102
}
330
2BCA
100
AcDbProxyObject
 90
      499
 91
      508
 95
   983063
 70
     0
 93
      265
310
90F312F31323822203D2031272D302200000000000000200FC00000000000028406F
 94
        0
1001
ACAD
1000
AcRTDxfName
1000
SCALE
1000
AcRTDxfName
1000
SCALE
1000
AcRTDxfName
1000
SCALE
1000
AcRTDxfName
1000
SCALE
1000
AcRTDxfName
1000
SCALE
1000
AcRTDxfName
1000
SCALE
1000
AcRTDxfName
1000
SCALE
  0
ACAD_PROXY_OBJECT
  5
2BDD
102
{ACAD_REACTORS
330
2BCA
102
}
330
2BCA
100
AcDbProxyObject
 90
      499
 91
      508
 95
   983063
 70
     0
 93
      257
310
90E312F363422203D2031272D302200000000000000240FC000000000000284040
 94
        0
1001
ACAD
1000
AcRTDxfName
1000
SCALE
1000
AcRTDxfName
1000
SCALE
1000
AcRTDxfName
1000
SCALE
1000
AcRTDxfName
1000
SCALE
1000
AcRTDxfName
1000
SCALE
1000
AcRTDxfName
1000
SCALE
1000
AcRTDxfName
1000
SCALE
  0
ACAD_PROXY_OBJECT
  5
2BDE
102
{ACAD_REACTORS
330
2BCA
102
}
330
2BCA
100
AcDbProxyObject
 90
      499
 91
      508
 95
   983063
 70
     0
 93
      257
310
90E312F333222203D2031272D302200000000000000280FC000000000000284062
 94
        0
1001
ACAD
1000
AcRTDxfName
1000
SCALE
1000
AcRTDxfName
1000
SCALE
1000
AcRTDxfName
1000
SCALE
1000
AcRTDxfName
1000
SCALE
1000
AcRTDxfName
1000
SCALE
1000
AcRTDxfName
1000
SCALE
1000
AcRTDxfName
1000
SCALE
  0
ACAD_PROXY_OBJECT
  5
2BDF
102
{ACAD_REACTORS
330
2BCA
102
}
330
2BCA
100
AcDbProxyObject
 90
      499
 91
      508
 95
   983063
 70
     0
 93
      257
310
90E312F313622203D2031272D3022000000000000002C0FC000000000000284040
 94
        0
1001
ACAD
1000
AcRTDxfName
1000
SCALE
1000
AcRTDxfName
1000
SCALE
1000
AcRTDxfName
1000
SCALE
1000
AcRTDxfName
1000
SCALE
1000
AcRTDxfName
1000
SCALE
1000
AcRTDxfName
1000
SCALE
1000
AcRTDxfName
1000
SCALE
  0
ACAD_PROXY_OBJECT
  5
2BE0
102
{ACAD_REACTORS
330
2BCA
102
}
330
2BCA
100
AcDbProxyObject
 90
      499
 91
      508
 95
   983063
 70
     0
 93
      257
310
90E332F333222203D2031272D3022000000000000002E0FC000000000000284062
 94
        0
1001
ACAD
1000
AcRTDxfName
1000
SCALE
1000
AcRTDxfName
1000
SCALE
1000
AcRTDxfName
1000
SCALE
1000
AcRTDxfName
1000
SCALE
1000
AcRTDxfName
1000
SCALE
1000
AcRTDxfName
1000
SCALE
1000
AcRTDxfName
1000
SCALE
  0
ACAD_PROXY_OBJECT
  5
2BE1
102
{ACAD_REACTORS
330
2BCA
102
}
330
2BCA
100
AcDbProxyObject
 90
      499
 91
      508
 95
   983063
 70
     0
 93
      249
310
90D312F3822203D2031272D302200000000000000300FC000000000000284028
 94
        0
1001
ACAD
1000
AcRTDxfName
1000
SCALE
1000
AcRTDxfName
1000
SCALE
1000
AcRTDxfName
1000
SCALE
1000
AcRTDxfName
1000
SCALE
1000
AcRTDxfName
1000
SCALE
1000
AcRTDxfName
1000
SCALE
1000
AcRTDxfName
1000
SCALE
  0
ACAD_PROXY_OBJECT
  5
2BE2
102
{ACAD_REACTORS
330
2BCA
102
}
330
2BCA
100
AcDbProxyObject
 90
      499
 91
      508
 95
   983063
 70
     0
 93
      257
310
90E332F313622203D2031272D302200000000000000320FC000000000000284062
 94
        0
1001
ACAD
1000
AcRTDxfName
1000
SCALE
1000
AcRTDxfName
1000
SCALE
1000
AcRTDxfName
1000
SCALE
1000
AcRTDxfName
1000
SCALE
1000
AcRTDxfName
1000
SCALE
1000
AcRTDxfName
1000
SCALE
1000
AcRTDxfName
1000
SCALE
  0
ACAD_PROXY_OBJECT
  5
2BE3
102
{ACAD_REACTORS
330
2BCA
102
}
330
2BCA
100
AcDbProxyObject
 90
      499
 91
      508
 95
   983063
 70
     0
 93
      249
310
90D312F3422203D2031272D302200000000000000340FC000000000000284028
 94
        0
1001
ACAD
1000
AcRTDxfName
1000
SCALE
1000
AcRTDxfName
1000
SCALE
1000
AcRTDxfName
1000
SCALE
1000
AcRTDxfName
1000
SCALE
1000
AcRTDxfName
1000
SCALE
1000
AcRTDxfName
1000
SCALE
1000
AcRTDxfName
1000
SCALE
  0
ACAD_PROXY_OBJECT
  5
2BE4
102
{ACAD_REACTORS
330
2BCA
102
}
330
2BCA
100
AcDbProxyObject
 90
      499
 91
      508
 95
   983063
 70
     0
 93
      249
310
90D332F3822203D2031272D302200000000000000360FC000000000000284062
 94
        0
1001
ACAD
1000
AcRTDxfName
1000
SCALE
1000
AcRTDxfName
1000
SCALE
1000
AcRTDxfName
1000
SCALE
1000
AcRTDxfName
1000
SCALE
1000
AcRTDxfName
1000
SCALE
1000
AcRTDxfName
1000
SCALE
1000
AcRTDxfName
1000
SCALE
  0
ACAD_PROXY_OBJECT
  5
2BE5
102
{ACAD_REACTORS
330
2BCA
102
}
330
2BCA
100
AcDbProxyObject
 90
      499
 91
      508
 95
   983063
 70
     0
 93
      249
310
90D312F3222203D2031272D302200000000000000380FC000000000000284028
 94
        0
1001
ACAD
1000
AcRTDxfName
1000
SCALE
1000
AcRTDxfName
1000
SCALE
1000
AcRTDxfName
1000
SCALE
1000
AcRTDxfName
1000
SCALE
1000
AcRTDxfName
1000
SCALE
1000
AcRTDxfName
1000
SCALE
1000
AcRTDxfName
1000
SCALE
  0
ACAD_PROXY_OBJECT
  5
2BE6
102
{ACAD_REACTORS
330
2BCA
102
}
330
2BCA
100
AcDbProxyObject
 90
      499
 91
      508
 95
   983063
 70
     0
 93
      249
310
90D332F3422203D2031272D3022000000000000003A0FC000000000000284062
 94
        0
1001
ACAD
1000
AcRTDxfName
1000
SCALE
1000
AcRTDxfName
1000
SCALE
1000
AcRTDxfName
1000
SCALE
1000
AcRTDxfName
1000
SCALE
1000
AcRTDxfName
1000
SCALE
1000
AcRTDxfName
1000
SCALE
1000
AcRTDxfName
1000
SCALE
  0
ACAD_PROXY_OBJECT
  5
2BE7
102
{ACAD_REACTORS
330
2BCA
102
}
330
2BCA
100
AcDbProxyObject
 90
      499
 91
      508
 95
   983063
 70
     0
 93
      169
310
90B3122203D2031272D3022004000000000000284000
 94
        0
1001
ACAD
1000
AcRTDxfName
1000
SCALE
1000
AcRTDxfName
1000
SCALE
1000
AcRTDxfName
1000
SCALE
1000
AcRTDxfName
1000
SCALE
1000
AcRTDxfName
1000
SCALE
1000
AcRTDxfName
1000
SCALE
1000
AcRTDxfName
1000
SCALE
  0
ACAD_PROXY_OBJECT
  5
2BE8
102
{ACAD_REACTORS
330
2BCA
102
}
330
2BCA
100
AcDbProxyObject
 90
      499
 91
      508
 95
   983063
 70
     0
 93
      265
310
90F312D312F3222203D2031272D3022000000000000003E0FC000000000000284018
 94
        0
1001
ACAD
1000
AcRTDxfName
1000
SCALE
1000
AcRTDxfName
1000
SCALE
1000
AcRTDxfName
1000
SCALE
1000
AcRTDxfName
1000
SCALE
1000
AcRTDxfName
1000
SCALE
1000
AcRTDxfName
1000
SCALE
1000
AcRTDxfName
1000
SCALE
  0
ACAD_PROXY_OBJECT
  5
2BE9
102
{ACAD_REACTORS
330
2BCA
102
}
330
2BCA
100
AcDbProxyObject
 90
      499
 91
      508
 95
   983063
 70
     0
 93
      233
310
90B3322203D2031272D30220000000000000002100000000000000284000
 94
        0
1001
ACAD
1000
AcRTDxfName
1000
SCALE
1000
AcRTDxfName
1000
SCALE
1000
AcRTDxfName
1000
SCALE
1000
AcRTDxfName
1000
SCALE
1000
AcRTDxfName
1000
SCALE
1000
AcRTDxfName
1000
SCALE
1000
AcRTDxfName
1000
SCALE
  0
ACAD_PROXY_OBJECT
  5
2BEA
102
{ACAD_REACTORS
330
2BCA
102
}
330
2BCA
100
AcDbProxyObject
 90
      499
 91
      508
 95
   983063
 70
     0
 93
      233
310
90B3622203D2031272D3022000000000000000610000000000000028405D
 94
        0
1001
ACAD
1000
AcRTDxfName
1000
SCALE
1000
AcRTDxfName
1000
SCALE
1000
AcRTDxfName
1000
SCALE
1000
AcRTDxfName
1000
SCALE
1000
AcRTDxfName
1000
SCALE
1000
AcRTDxfName
1000
SCALE
1000
AcRTDxfName
1000
SCALE
  0
ACAD_PROXY_OBJECT
  5
2BEB
102
{ACAD_REACTORS
330
2BCA
102
}
330
2BCA
100
AcDbProxyObject
 90
      499
 91
      508
 95
   983063
 70
     0
 93
      257
310
90E31272D3022203D2031272D3022000000000000000A100000000000000284062
 94
        0
1001
ACAD
1000
AcRTDxfName
1000
SCALE
1000
AcRTDxfName
1000
SCALE
1000
AcRTDxfName
1000
SCALE
1000
AcRTDxfName
1000
SCALE
1000
AcRTDxfName
1000
SCALE
1000
AcRTDxfName
1000
SCALE
1000
AcRTDxfName
1000
SCALE
  0
TABLESTYLE
  5
2BC9
102
{ACAD_XDICTIONARY
360
2CE5
102
}
102
{ACAD_REACTORS
330
2BC8
102
}
330
2BC8
100
AcDbTableStyle
  3
Standard
 70
     0
 71
     0
 40
1.5
 41
1.5
280
     0
281
     0
  7
Standard
140
4.5
170
     2
 62
     0
 63
     7
283
     0
274
    -2
284
     1
 64
     0
275
    -2
285
     1
 65
     0
276
    -2
286
     1
 66
     0
277
    -2
287
     1
 67
     0
278
    -2
288
     1
 68
     0
279
    -2
289
     1
 69
     0
  7
Standard
140
6.0
170
     5
 62
     0
 63
     7
283
     0
274
    -2
284
     1
 64
     0
275
    -2
285
     1
 65
     0
276
    -2
286
     1
 66
     0
277
    -2
287
     1
 67
     0
278
    -2
288
     1
 68
     0
279
    -2
289
     1
 69
     0
  7
Standard
140
4.5
170
     5
 62
     0
 63
     7
283
     0
274
    -2
284
     1
 64
     0
275
    -2
285
     1
 65
     0
276
    -2
286
     1
 66
     0
277
    -2
287
     1
 67
     0
278
    -2
288
     1
 68
     0
279
    -2
289
     1
 69
     0
  0
ACAD_PROXY_OBJECT
  5
2BBC
102
{ACAD_REACTORS
330
2BB6
102
}
330
2BB6
100
AcDbProxyObject
 90
      499
 91
      506
 95
   983063
 70
     0
 93
      444
310
430C9915DA5C99599C985B59401049028333333333333E3BF0000000000000FB0107901411070040501600405405064090741402480A0340
 94
        0
1001
ACAD
1000
AcRTDxfName
1000
VISUALSTYLE
1000
AcRTDxfName
1000
VISUALSTYLE
1000
AcRTDxfName
1000
VISUALSTYLE
1000
AcDbSavedByObjectVersion
1070
     0
1000
AcRTDxfName
1000
VISUALSTYLE
1000
AcRTDxfName
1000
VISUALSTYLE
1000
AcRTDxfName
1000
VISUALSTYLE
1000
AcRTDxfName
1000
VISUALSTYLE
  0
ACAD_PROXY_OBJECT
  5
2BBE
102
{ACAD_REACTORS
330
2BB6
102
}
330
2BB6
100
AcDbProxyObject
 90
      499
 91
      506
 95
   983063
 70
     0
 93
      508
310
428CD108121A5919195B8010640502408333333333333E3BF0000000000000FB01079024090700405020000000000001110200405405064090740C02480A034A
 94
        0
1001
ACAD
1000
AcRTDxfName
1000
VISUALSTYLE
1000
AcRTDxfName
1000
VISUALSTYLE
1000
AcRTDxfName
1000
VISUALSTYLE
1000
AcDbSavedByObjectVersion
1070
     0
1000
AcRTDxfName
1000
VISUALSTYLE
1000
AcRTDxfName
1000
VISUALSTYLE
1000
AcRTDxfName
1000
VISUALSTYLE
1000
AcRTDxfName
1000
VISUALSTYLE
  0
ACAD_PROXY_OBJECT
  5
2BBD
102
{ACAD_REACTORS
330
2BB6
102
}
330
2BB6
100
AcDbProxyObject
 90
      499
 91
      506
 95
   983063
 70
     0
 93
      444
310
430CD915DA5C99599C985B59401059028333333333333E3BF0000000000000FB0107901411070040501600405405064090741402480A0340
 94
        0
1001
ACAD
1000
AcRTDxfName
1000
VISUALSTYLE
1000
AcRTDxfName
1000
VISUALSTYLE
1000
AcRTDxfName
1000
VISUALSTYLE
1000
AcDbSavedByObjectVersion
1070
     0
1000
AcRTDxfName
1000
VISUALSTYLE
1000
AcRTDxfName
1000
VISUALSTYLE
1000
AcRTDxfName
1000
VISUALSTYLE
1000
AcRTDxfName
1000
VISUALSTYLE
  0
ACAD_PROXY_OBJECT
  5
2BBB
102
{ACAD_REACTORS
330
2BB6
102
}
330
2BB6
100
AcDbProxyObject
 90
      499
 91
      506
 95
   983063
 70
     0
 93
      396
310
4190985CDA58C0107406404333333333333E3BF0000000000000FB0107A41107004050150841D405064090741402480A0354
 94
        0
1001
ACAD
1000
AcRTDxfName
1000
VISUALSTYLE
1000
AcRTDxfName
1000
VISUALSTYLE
1000
AcRTDxfName
1000
VISUALSTYLE
1000
AcDbSavedByObjectVersion
1070
     0
1000
AcRTDxfName
1000
VISUALSTYLE
1000
AcRTDxfName
1000
VISUALSTYLE
1000
AcRTDxfName
1000
VISUALSTYLE
1000
AcRTDxfName
1000
VISUALSTYLE
  0
ACAD_PROXY_OBJECT
  5
2BC2
102
{ACAD_REACTORS
330
2BB6
102
}
330
2BB6
100
AcDbProxyObject
 90
      499
 91
      506
 95
   983063
 70
     0
 93
      436
310
42509C9A59DA1D195B8010C409028333333333333E3BF0000000000000FB010790141107004050150841D405064090741402480A02995A
 94
        0
1001
ACAD
1000
AcRTDxfName
1000
VISUALSTYLE
1000
AcRTDxfName
1000
VISUALSTYLE
1000
AcRTDxfName
1000
VISUALSTYLE
1000
AcDbSavedByObjectVersion
1070
     0
1000
AcRTDxfName
1000
VISUALSTYLE
1000
AcRTDxfName
1000
VISUALSTYLE
1000
AcRTDxfName
1000
VISUALSTYLE
1000
AcRTDxfName
1000
VISUALSTYLE
  0
ACAD_PROXY_OBJECT
  5
2BC6
102
{ACAD_REACTORS
330
2BB6
102
}
330
2BB6
100
AcDbProxyObject
 90
      499
 91
      506
 95
   983063
 70
     0
 93
      460
310
4310DBDB1BDC90DA185B99D9401104090240C333333333333E3BF0000000000000FB0108901411070040501508421405064090741402480A0356
 94
        0
1001
ACAD
1000
AcRTDxfName
1000
VISUALSTYLE
1000
AcRTDxfName
1000
VISUALSTYLE
1000
AcRTDxfName
1000
VISUALSTYLE
1000
AcDbSavedByObjectVersion
1070
     0
1000
AcRTDxfName
1000
VISUALSTYLE
1000
AcRTDxfName
1000
VISUALSTYLE
1000
AcRTDxfName
1000
VISUALSTYLE
1000
AcRTDxfName
1000
VISUALSTYLE
  0
ACAD_PROXY_OBJECT
  5
2BBF
102
{ACAD_REACTORS
330
2BB6
102
}
330
2BB6
100
AcDbProxyObject
 90
      499
 91
      506
 95
   983063
 70
     0
 93
      508
310
42D0DBDB98D95C1D1D585B0010940D028333333333333E3BF0000000000000FB0107902409070040501000000000000111010841D405064090740C02480A0342
 94
        0
1001
ACAD
1000
AcRTDxfName
1000
VISUALSTYLE
1000
AcRTDxfName
1000
VISUALSTYLE
1000
AcRTDxfName
1000
VISUALSTYLE
1000
AcDbSavedByObjectVersion
1070
     0
1000
AcRTDxfName
1000
VISUALSTYLE
1000
AcRTDxfName
1000
VISUALSTYLE
1000
AcRTDxfName
1000
VISUALSTYLE
1000
AcRTDxfName
1000
VISUALSTYLE
  0
ACAD_PROXY_OBJECT
  5
2BC1
102
{ACAD_REACTORS
330
2BB6
102
}
330
2BB6
100
AcDbProxyObject
 90
      499
 91
      506
 95
   983063
 70
     0
 93
      420
310
41111A5B4010B409028333333333333E3BF0000000000000FB010790141107004050150841D405064090741402480A02677FFFFFD2
 94
        0
1001
ACAD
1000
AcRTDxfName
1000
VISUALSTYLE
1000
AcRTDxfName
1000
VISUALSTYLE
1000
AcRTDxfName
1000
VISUALSTYLE
1000
AcDbSavedByObjectVersion
1070
     0
1000
AcRTDxfName
1000
VISUALSTYLE
1000
AcRTDxfName
1000
VISUALSTYLE
1000
AcRTDxfName
1000
VISUALSTYLE
1000
AcRTDxfName
1000
VISUALSTYLE
  0
ACAD_PROXY_OBJECT
  5
2BC5
102
{ACAD_REACTORS
330
2BB6
102
}
330
2BB6
100
AcDbProxyObject
 90
      499
 91
      506
 95
   983063
 70
     0
 93
      452
310
43119858D95C185D1D195C9B8010F409028333333333333E3BF0000000000000FB010790141107004050150841D405064090741402480A0352
 94
        0
1001
ACAD
1000
AcRTDxfName
1000
VISUALSTYLE
1000
AcRTDxfName
1000
VISUALSTYLE
1000
AcRTDxfName
1000
VISUALSTYLE
1000
AcDbSavedByObjectVersion
1070
     0
1000
AcRTDxfName
1000
VISUALSTYLE
1000
AcRTDxfName
1000
VISUALSTYLE
1000
AcRTDxfName
1000
VISUALSTYLE
1000
AcRTDxfName
1000
VISUALSTYLE
  0
ACAD_PROXY_OBJECT
  5
2BB7
102
{ACAD_REACTORS
330
2BB6
102
}
330
2BB6
100
AcDbProxyObject
 90
      499
 91
      506
 95
   983063
 70
     0
 93
      396
310
41519B185D00240901404333333333333E3BF0000000000000F9010740A41107004050150841D405064090741402480A1B58
 94
        0
1001
ACAD
1000
AcRTDxfName
1000
VISUALSTYLE
1000
AcRTDxfName
1000
VISUALSTYLE
1000
AcRTDxfName
1000
VISUALSTYLE
1000
AcDbSavedByObjectVersion
1070
     0
1000
AcRTDxfName
1000
VISUALSTYLE
1000
AcRTDxfName
1000
VISUALSTYLE
1000
AcRTDxfName
1000
VISUALSTYLE
1000
AcRTDxfName
1000
VISUALSTYLE
  0
ACAD_PROXY_OBJECT
  5
2BB8
102
{ACAD_REACTORS
330
2BB6
102
}
330
2BB6
100
AcDbProxyObject
 90
      499
 91
      506
 95
   983063
 70
     0
 93
      484
310
43919B185D15DA5D1A115919D95CC010140901404333333333333E3BF0000000000000F9010740901411070040501600405405064090741402480A1B58
 94
        0
1001
ACAD
1000
AcRTDxfName
1000
VISUALSTYLE
1000
AcRTDxfName
1000
VISUALSTYLE
1000
AcRTDxfName
1000
VISUALSTYLE
1000
AcDbSavedByObjectVersion
1070
     0
1000
AcRTDxfName
1000
VISUALSTYLE
1000
AcRTDxfName
1000
VISUALSTYLE
1000
AcRTDxfName
1000
VISUALSTYLE
1000
AcRTDxfName
1000
VISUALSTYLE
  0
ACAD_PROXY_OBJECT
  5
2BB9
102
{ACAD_REACTORS
330
2BB6
102
}
330
2BB6
100
AcDbProxyObject
 90
      499
 91
      506
 95
   983063
 70
     0
 93
      420
310
4211DBDD5C985D590010240902404333333333333E3BF0000000000000F9010740A411070040501641D405064090741402480A1B58
 94
        0
1001
ACAD
1000
AcRTDxfName
1000
VISUALSTYLE
1000
AcRTDxfName
1000
VISUALSTYLE
1000
AcRTDxfName
1000
VISUALSTYLE
1000
AcDbSavedByObjectVersion
1070
     0
1000
AcRTDxfName
1000
VISUALSTYLE
1000
AcRTDxfName
1000
VISUALSTYLE
1000
AcRTDxfName
1000
VISUALSTYLE
1000
AcRTDxfName
1000
VISUALSTYLE
  0
ACAD_PROXY_OBJECT
  5
2BBA
102
{ACAD_REACTORS
330
2BB6
102
}
330
2BB6
100
AcDbProxyObject
 90
      499
 91
      506
 95
   983063
 70
     0
 93
      508
310
4451DBDD5C985D5915DA5D1A115919D95CC010340902404333333333333E3BF0000000000000F9010740901411070040501600405405064090741402480A1B5A
 94
        0
1001
ACAD
1000
AcRTDxfName
1000
VISUALSTYLE
1000
AcRTDxfName
1000
VISUALSTYLE
1000
AcRTDxfName
1000
VISUALSTYLE
1000
AcDbSavedByObjectVersion
1070
     0
1000
AcRTDxfName
1000
VISUALSTYLE
1000
AcRTDxfName
1000
VISUALSTYLE
1000
AcRTDxfName
1000
VISUALSTYLE
1000
AcRTDxfName
1000
VISUALSTYLE
  0
ACAD_PROXY_OBJECT
  5
2BC4
102
{ACAD_REACTORS
330
2BB6
102
}
330
2BB6
100
AcDbProxyObject
 90
      499
 91
      506
 95
   983063
 70
     0
 93
      452
310
43131A5B995C185D1D195C9B8010E409028333333333333E3BF0000000000000FB010790141107004050750841D405064090741402483A0353
 94
        0
1001
ACAD
1000
AcRTDxfName
1000
VISUALSTYLE
1000
AcRTDxfName
1000
VISUALSTYLE
1000
AcRTDxfName
1000
VISUALSTYLE
1000
AcDbSavedByObjectVersion
1070
     0
1000
AcRTDxfName
1000
VISUALSTYLE
1000
AcRTDxfName
1000
VISUALSTYLE
1000
AcRTDxfName
1000
VISUALSTYLE
1000
AcRTDxfName
1000
VISUALSTYLE
  0
ACAD_PROXY_OBJECT
  5
2BC0
102
{ACAD_REACTORS
330
2BB6
102
}
330
2BB6
100
AcDbProxyObject
 90
      499
 91
      506
 95
   983063
 70
     0
 93
      428
310
429499585B1A5CDD1A58C0108409028333333333333E3BF0000000000000FB01079019070040501508421405064090741402480A1B49
 94
        0
1001
ACAD
1000
AcRTDxfName
1000
VISUALSTYLE
1000
AcRTDxfName
1000
VISUALSTYLE
1000
AcRTDxfName
1000
VISUALSTYLE
1000
AcDbSavedByObjectVersion
1070
     0
1000
AcRTDxfName
1000
VISUALSTYLE
1000
AcRTDxfName
1000
VISUALSTYLE
1000
AcRTDxfName
1000
VISUALSTYLE
1000
AcRTDxfName
1000
VISUALSTYLE
  0
ACAD_PROXY_OBJECT
  5
2BC3
102
{ACAD_REACTORS
330
2BB6
102
}
330
2BB6
100
AcDbProxyObject
 90
      499
 91
      506
 95
   983063
 70
     0
 93
      420
310
42151A1A58DAD95B8010D409028333333333333E3BF0000000000000FB010790141107004050150C41D405064090741402480A0352
 94
        0
1001
ACAD
1000
AcRTDxfName
1000
VISUALSTYLE
1000
AcRTDxfName
1000
VISUALSTYLE
1000
AcRTDxfName
1000
VISUALSTYLE
1000
AcDbSavedByObjectVersion
1070
     0
1000
AcRTDxfName
1000
VISUALSTYLE
1000
AcRTDxfName
1000
VISUALSTYLE
1000
AcRTDxfName
1000
VISUALSTYLE
1000
AcRTDxfName
1000
VISUALSTYLE
  0
DICTIONARYVAR
  5
2D29
102
{ACAD_REACTORS
330
3B
102
}
330
3B
100
DictionaryVariables
280
     0
  1
1:1
  0
DICTIONARYVAR
  5
2D28
102
{ACAD_REACTORS
330
3B
102
}
330
3B
100
DictionaryVariables
280
     0
  1
STANDARD
  0
DICTIONARYVAR
  5
2D27
102
{ACAD_REACTORS
330
3B
102
}
330
3B
100
DictionaryVariables
280
     0
  1
STANDARD
  0
DICTIONARYVAR
  5
3D
102
{ACAD_REACTORS
330
3B
102
}
330
3B
100
DictionaryVariables
280
     0
  1
2
  0
DICTIONARYVAR
  5
3C
102
{ACAD_REACTORS
330
3B
102
}
330
3B
100
DictionaryVariables
280
     0
  1
1
  0
DICTIONARYVAR
  5
2D2B
102
{ACAD_REACTORS
330
3B
102
}
330
3B
100
DictionaryVariables
280
     0
  1
0
  0
DICTIONARYVAR
  5
2EB1
102
{ACAD_REACTORS
330
3B
102
}
330
3B
100
DictionaryVariables
280
     0
  1

  0
DICTIONARYVAR
  5
2D2A
102
{ACAD_REACTORS
330
3B
102
}
330
3B
100
DictionaryVariables
280
     0
  1
127
  0
DICTIONARY
  5
31A7
330
22
100
AcDbDictionary
280
     1
281
     1
  3
ACAD_XREC_ROUNDTRIP
360
31A8
  0
DICTIONARY
  5
2F25
330
2F24
100
AcDbDictionary
280
     1
281
     1
  3
ACAD_XREC_ROUNDTRIP
360
31AD
  3
ADSK_XREC_LAYOUTTHUMBNAIL
360
2F26
  0
DICTIONARY
  5
2BA7
330
2BA6
100
AcDbDictionary
280
     1
281
     1
  3
ACAD_XREC_ROUNDTRIP
360
3061
  3
BUMPTILE
360
2BA9
  3
DIFFUSETILE
360
2BA8
  3
OPACITYTILE
360
2BAC
  3
REFLECTIONTILE
360
2BAB
  3
REFRACTIONTILE
360
2BAD
  3
SPECULARTILE
360
2BAA
  0
DICTIONARY
  5
2B9F
330
2B9E
100
AcDbDictionary
280
     1
281
     1
  3
ACAD_XREC_ROUNDTRIP
360
3060
  3
BUMPTILE
360
2BA1
  3
DIFFUSETILE
360
2BA0
  3
OPACITYTILE
360
2BA4
  3
REFLECTIONTILE
360
2BA3
  3
REFRACTIONTILE
360
2BA5
  3
SPECULARTILE
360
2BA2
  0
DICTIONARY
  5
2BAF
330
2BAE
100
AcDbDictionary
280
     1
281
     1
  3
ACAD_XREC_ROUNDTRIP
360
3062
  3
BUMPTILE
360
2BB1
  3
DIFFUSETILE
360
2BB0
  3
OPACITYTILE
360
2BB4
  3
REFLECTIONTILE
360
2BB3
  3
REFRACTIONTILE
360
2BB5
  3
SPECULARTILE
360
2BB2
  0
DICTIONARY
  5
31A9
330
2924
100
AcDbDictionary
280
     1
281
     1
  3
ACAD_XREC_ROUNDTRIP
360
31AA
  0
DICTIONARY
  5
31AB
330
2925
100
AcDbDictionary
280
     1
281
     1
  3
ACAD_XREC_ROUNDTRIP
360
31AC
  0
DICTIONARY
  5
2CE5
330
2BC9
100
AcDbDictionary
280
     1
281
     1
  3
ACAD_ROUNDTRIP_2008_TABLESTYLE_CELLSTYLEMAP
360
3053
  3
ACAD_XREC_ROUNDTRIP
360
3063
  0
XRECORD
  5
31A8
102
{ACAD_REACTORS
330
31A7
102
}
330
31A7
100
AcDbXrecord
280
     1
102
SHADEPLOT
 70
     0
102
SHADEPLOTRESLEVEL
 70
     2
102
SHADEPLOTCUSTOMDPI
 70
   300
  0
XRECORD
  5
31AD
102
{ACAD_REACTORS
330
2F25
102
}
330
2F25
100
AcDbXrecord
280
     1
102
SHADEPLOT
 70
     0
102
SHADEPLOTRESLEVEL
 70
     2
102
SHADEPLOTCUSTOMDPI
 70
   300
  0
XRECORD
  5
2F26
102
{ACAD_REACTORS
330
2F25
102
}
330
2F25
100
AcDbXrecord
280
     1
310
28000000630000008C0000000100080000000000B0360000000000000000000000010000000000000000000000000000FFFFFF000000000000000000000000000000000000000000000000000000000000000000330000006600000099000000CC000000FF00000000330000333300006633000099330000CC330000FF3300
310
0000660000336600006666000099660000CC660000FF66000000990000339900006699000099990000CC990000FF99000000CC000033CC000066CC000099CC0000CCCC0000FFCC000000FF000033FF000066FF000099FF0000CCFF0000FFFF000000003300330033006600330099003300CC003300FF003300003333003333
310
33006633330099333300CC333300FF33330000663300336633006666330099663300CC663300FF66330000993300339933006699330099993300CC993300FF99330000CC330033CC330066CC330099CC3300CCCC3300FFCC330000FF330033FF330066FF330099FF3300CCFF3300FFFF330000006600330066006600660099
310
006600CC006600FF00660000336600333366006633660099336600CC336600FF33660000666600336666006666660099666600CC666600FF66660000996600339966006699660099996600CC996600FF99660000CC660033CC660066CC660099CC6600CCCC6600FFCC660000FF660033FF660066FF660099FF6600CCFF6600
310
FFFF660000009900330099006600990099009900CC009900FF00990000339900333399006633990099339900CC339900FF33990000669900336699006666990099669900CC669900FF66990000999900339999006699990099999900CC999900FF99990000CC990033CC990066CC990099CC9900CCCC9900FFCC990000FF99
310
0033FF990066FF990099FF9900CCFF9900FFFF99000000CC003300CC006600CC009900CC00CC00CC00FF00CC000033CC003333CC006633CC009933CC00CC33CC00FF33CC000066CC003366CC006666CC009966CC00CC66CC00FF66CC000099CC003399CC006699CC009999CC00CC99CC00FF99CC0000CCCC0033CCCC0066CC
310
CC0099CCCC00CCCCCC00FFCCCC0000FFCC0033FFCC0066FFCC0099FFCC00CCFFCC00FFFFCC000000FF003300FF006600FF009900FF00CC00FF00FF00FF000033FF003333FF006633FF009933FF00CC33FF00FF33FF000066FF003366FF006666FF009966FF00CC66FF00FF66FF000099FF003399FF006699FF009999FF00CC
310
99FF00FF99FF0000CCFF0033CCFF0066CCFF0099CCFF00CCCCFF00FFCCFF0000FFFF0033FFFF0066FFFF0099FFFF00CCFFFF00FFFFFF00000000000D0D0D001A1A1A00282828003535350043434300505050005D5D5D006B6B6B00787878008686860093939300A1A1A100AEAEAE00BBBBBB00C9C9C900D6D6D600E4E4E400
310
F1F1F100FFFFFF0000000000000000000000000000000000000000000000000000000000000000000000000000000000F5F5F5F5F5F5F5F5F5F5F5F5F5F5F5F5F5F5F5F5F5F5F5F5F5F5F5F5F5F5F5F5F5F5F5F5F5F5F5F5F5F5F5F5F5F5F5F5F5F5F5F5F5F5F5F5F5F5F5F5F5F5F5F5F5F5F5F5F5F5F5F5F5F5F5F5F5F5F5
310
F5F5F5F5F5F5F5F5F5F5F5F5F5F5F5F5F5F5F5EF00E2E2E2E2E2E2E2E2E2E2E2E2E2E2E2E2E2E2E2E2E2E2E2E2E2E2E2E2E2E2E2E2E2E2E2E2E2E2E2E2E2E2E2E2E2E2E2E2E2E2E2E2E2E2E2E2E2E2E2E2E2E2E2E2E2E2E2E2E2E2E2E2E2E2E2E2E2E2E2E2E2E2E2E2E2E2E2E2E2E2E2E2E2E2E2E2E2F5EF00E2E2E2E2E2E2
310
E2E2E2E2E2E2E2E2E2E2E2E2E2E2E2E2E2E2E2E2E2E2E2E2E2E2E2E2E2E2E2E2E2E2E2E2E2E2E2E2E2E2E2E2E2E2E2E2E2E2E2E2E2E2E2E2E2E2E2E2E2E2E2E2E2E2E2E2E2E2E2E2E2E2E2E2E2E2E2E2E2E2E2E2E2E2E2E2E2E2E2F5EF00E2F5F5F5F5F5F5F5F5E2E2E2E2E2E2E2E2F5F5F5F5F5F5F5F5F5F5F5F5F5F5F5F5
310
F5E2E2E2E2E2E2E2F5F5F5F5F5F5F5F5F5F5F5F5F5F5E2E2E2E2E2E2E2E2E2F5F5F5F5F5F5F5F5F5F5F5F5F5F5F5E2E2E2E2E2E2E2E2F5F5F5F5F5F5F5F5E2E2F5EF00E2F5E2E2E2E2E2E2E2E2E2E2E2E2E2E2E2E2E2F5F5F5F5F5F5F5F5F5F5F5F5F5F5F5F5F5F5F5F5F5F5F5F5F5F5F5F5F5F5F5F5F5F5F5F5F5F5F5F5F5
310
F5F5F5F5F5F5F5F5F5F5F5F5F5F5F5F5F5E2E2E2E2E2E2E2E2E2E2E2E2E2E2E2E2E2F5E2E2F5EF00E2F5E2E2E2E2E2E2E2E2E2E2E2E2E2E2E2E2E2F5F5F5F5F5F5F5F5F5F5F5F5F5F5F5F5F5F5F5F5F5F5F5F5F5F5F5F5F5F5F5F5F5F5F5F5F5F5F5F5F5F5F5F5F5F5F5F5F5F5F5F5F5F5F5F5F5F5E2E2E2E2E2E2E2E2E2E2
310
E2E2E2E2E2E2E2F5E2E2F5EF00E2F5E2E2E2E2E2F5F5F5F5F5F5F5F5F5F5F5F5F5F5F5F5F5F5F5F5F5F5F5F5F5F5F5F5F5F5F5F5F5F5F5F5F5F5F5F5F5F5F5F5F5F5F5F5F5F5F5F5F5F5F5F5F5F5F5F5F5F5F5F5F5F5F5F5F5F5F5F5F5F5F5F5F5F5F5F5F5F5F5F5E2E2E2F5E2E2F5EF00E2F5E2E2E2E2E2E2E2E2E2E2E2E2
310
E2E2E2E2E2E2E2E2E2E2E2E2E2E2E2E2E2E2E2E2E2E2E2E2E2E2E2E2E2E2E2E2E2E2E2E2E2E2E2E2E2E2E2E2E2E2E2E2E2E2E2E2E2E2E2E2E2E2E2E2E2E2E2E2E2E2E2E2E2E2E2E2E2E2E2E2E2E2E2E2F5E2E2F5EF00E2F5E2E2E2E2E2F5F5F5F5F5F5F5F5F5F5F5F5F5F5F5F5F5F5F5F5F5F5F5F5F5F5F5F5F5F5F5F5F5F5
310
F5F5F5F5F5F5F5F5F5F5F5F5F5F5F5F5F5F5F5F5F5F5F5F5F5F5F5F5F5F5F5F5F5F5F5F5F5F5F5F5F5F5F5F5F5F5F5F5F5F5E2E2E2F5E2E2F5EF00E2F5E2E2E2E2E2F5E2E2E2E2E2E2E2E2E2E2E2E2E2E2E2E2E2E2E2E2E2E2E2E2E2E2E2E2E2E2E2E2E2E2E2E2E2E2E2E2E2E2E2E2E2E2E2E2E2E2E2E2E2E2E2E2E2E2E2E2
310
E2E2E2E2E2E2E2E2E2E2E2E2E2E2E2E2E2E2E2E2E2E2F5E2E2E2F5E2E2F5EF00E2F5E2E2E2E2E2F5E2E2E2E2E2E2E2E2E2E2E2E2E2E2E2E2E2E2E2E2E2E2E2E2E2E2E2E2E2E2E2E2E2E2E2E2E2E2E2E2E2E2E2E2E2E2E2E2E2E2E2E2E2E2E2E2E2E2E2E2E2E2E2E2E2E2E2E2E2E2E2E2E2E2E2E2E2E2E2E2E2E2F5E2E2E2F5
310
E2E2F5EF00E2F5E2E2E2E2E2F5E2E2E2E2E2E2E2E2E2E2E2E2E2E2E2E2E2E2E2E2E2E2E2E2E2E2E2E2E2E2E2E2E2E2E2E2E2E2E2E2E2E2E2E2E2E2E2E2E2E2E2E2E2E2E2E2E2E2E2E2E2E2E2E2E2E2E2E2E2E2E2E2E2E2E2E2E2E2E2E2E2E2F5E2E2E2F5E2E2F5EF00E2E2E2E2E2E2E2F5E2E2E2E2E2E2E2E2E2E2E2E2E2E2
310
E2E2E2E2E2E2E2E2E2E2E2E2E2E2E2E2E2E2E2E2E2E2E2E2E2E2E2E2E2E2E2E2E2E2E2E2E2E2E2E2E2E2E2E2E2E2E2E2E2E2E2E2E2E2E2E2E2E2E2E2E2E2E2E2E2E2E2E2F5E2E2E2E2E2E2F5EF00E2E2E2E2E2E2E2F5E2E2E2E2E2E2E2E2E2E2E2E2E2E2E2E2E2E2E2E2E2E2E2E2E2E2E2E2E2E2E2E2E2E2E2E2E2E2E2E2E2
310
E2E2E2E2E2E2E2E2E2E2E2E2E2E2E2E2E2E2E2E2E2E2E2E2E2E2E2E2E2E2E2E2E2E2E2E2E2E2E2E2E2F5E2E2E2E2E2E2F5EF00E2E2E2E2E2E2E2F5E2E2E2E2E2EFEFE2E2E2E2E2E2E2E2E2E2E2E2E2E2E2E2E2E2E2E2E2E2E2E2E2E2E2E2E2E2E2E2E2E2E2E2E2EFEFEFEFEFEFE2E2E2E2E2E2E2E2E2E2E2E2E2E2E2E2E2E2
310
E2E2E2E2E2E2E2E2E2E2E2E2E2E2F5E2E2E2E2E2E2F5EF00E2E2E2E2E2E2E2F5E2E2E2E2E2EFEFE2E2E2E2E2E2E2E2E2E2E2E2E2E2E2E2E2E2E2E2E2E2E2E2E2E2E2E2E2E2E2E2E2E2E2E2E2EFEFE2EFEFEFE2E2E2E2E2E2E2E2E2E2E2E2E2E2E2E2E2E2E2E2E2E2E2E2E2E2E2E2E2E2E2E2F5E2E2E2E2E2E2F5EF00E2E2E2
310
E2E2E2E2F5E2E2E2E2E2EFF5F5F5F5F5E2E2E2E2E2E2E2E2E2E2E2E2E2E2F5F5F5F5F5F5E2E2E2E2E2E2E2E2E2E2E2E2E2EFEFE2EFEFF5F5F5F5E2E2E2E2E2E2E2E2E2E2E2E2E2F5F5F5F5F5F5F5F5F5E2E2E2E2E2E2E2F5E2E2E2E2E2E2F5EF00E2E2E2E2E2E2E2F5E2E2E2E2E2EFF5F5F5F5F5E2E2E2E2E2E2E2E2E2E2E2
310
E2E2E2F5F5F5F5F5F5E2E2E2E2E2E2E2E2E2E2E2E2E2EFEFE2E2EFF5F5F5F5E2E2E2E2E2E2E2E2E2E2E2E2E2F5F5F5F5F5F5F5F5F5E2E2E2E2E2E2E2F5E2E2E2E2E2E2F5EF00E2E2E2E2E2E2E2F5E2EFEFEFEFEFE2E2E2E2E2E2E2E2E2E2E2E2E2E2E2E2F5F5F5F5F5F5F5F5F5F5F5F5F5E2E2E2E2E2E2E2E2E2EFEFE2E2EF
310
E2E2E2E2E2E2E2E2E2E2E2E2E2E2E2E2F5F5F5F5F5F5F5F5F5F5F5F5F5E2E2E2E2F5E2E2E2E2E2E2F5EF00E2E2E2E2E2E2E2F5E2EFE2E2E2EFE2E2E2E2E2E2E2E2E2E2E2E2E2E2E2E2F5F5F5F5F5F5F5F5F5F5F5F5F5E2E2E2E2E2E2E2E2E2EFEFE2E2EFE2E2E2E2E2E2E2E2E2E2E2E2E2E2E2E2F5F5F5F5F5F5F5F5F5F5F5
310
E2F5E2E2E2E2F5E2E2E2E2E2E2F5EF00E2E2E2E2E2E2E2F5E2EFE2E2E2EFE2E2E2EFE2E2EFEFE2E2E2EFE2E2E2E2F5F5F5F5F5F5F5F5F5F5F5E2F5E2E2E2E2E2E2E2E2E2EFEFE2E2EFEFEFEFEFEFEFEFEFEFE2EFEFE2E2E2E2F5F5F5F5F5F5F5F5F5F5F5E2F5E2E2E2E2F5E2E2E2E2E2E2F5EF00E2E2E2E2E2E2E2F5E2EFE2
310
E2E2EFEFEFEFEFEFEFEFEFEFEFEFEFE2E2E2E2F5F5F5F5F5F5F5F5F5F5F5F5F5E2E2E2E2E2E2E2E2E2EFEFE2EFEFEFEFEFEFEFE2E2E2EFEFEFEFE2E2E2E2F5F5F5F5F5F5F5F5F5F5F5F5F5E2E2E2E2F5E2E2E2E2E2E2F5EF00E2F5E2E2E2E2E2F5E2EFE2E2E2E2E2E2E2E2E2E2E2E2E2EFEFEFE2E2E2E2E2E2E2E2E2E2E2E2
310
E2E2E2E2E2E2E2E2E2E2E2E2E2E2EFEFEFEFEFEFEFEFEFEFEFEFEFE2EFEFEFE2E2E2E2E2E2E2E2E2E2E2E2E2E2E2E2E2E2E2E2E2F5E2E2E2F5E2E2F5EF00E2F5E2E2E2E2E2F5E2EFE2E2E2E2E2E2E2E2E2E2E2E2E2E2E2EFE2E2E2E2E2E2E2E2E2E2E2E2E2E2E2E2E2E2E2E2E2E2E2E2E2E2EFEFEFE2E2E2E2E2E2E2E2EFEF
310
EFEFEFEFE2E2E2E2E2E2E2E2E2E2E2E2E2E2E2E2E2E2E2E2E2F5E2E2E2F5E2E2F5EF00E2F5E2E2E2E2E2F5E2EFE2E2E2E2E2E2E2E2E2E2E2E2E2E2E2EFE2E2E2E2E2E2E2E2E2E2E2E2E2E2E2E2E2E2E2E2E2E2E2E2E2E2EFEFEFE2E2E2E2E2E2E2E2EFEFEFEFEFEFE2E2E2E2E2E2E2E2E2E2E2E2E2E2E2E2E2E2E2E2E2F5E2
310
E2E2F5E2E2F5EF00E2F5E2E2E2E2E2F5E2EFE2E2E2E2E2E2E2E2E2E2E2E2E2E2EF28282828282828E2E2E2E2E2E2E2E2E2E2E2E2E2E2E2E2E2E2E2E2E2E2E2E2E2E2E2E2E2E2E2E2E2E2E2EF2828EC28EC2828E2E2E2E2E2E2E2E2E2E2E2E2E2E2E2F5E2E2E2F5E2E2F5EF00E2F5E2E2E2E2E2F5E2EFEFE2E2E2E2E2E2E2E2
310
E2E2E2E2E2EF28E2ECECECE228E2E2E2E2E2E2E2E2E2E2E2E2E2E2E2E2E2E2E2E2E2EFEFE2E2E2E2E2E2E2ECECEC2828EF28E2ECECECE228E2E2E2E2E2E2E2E2E2E2E2E2E2E2E2F5E2E2E2F5E2E2F5EF00E2F5E2E2E2E2E2F5E2E2EFDCE2E2E2EFEFE2E2E2E2E2E2E2EF2828ECE2E2E228E2E2E2E2E2E2E2E2E2E2E2E2E2E2
310
E2E2E2E2E2E2E2EFEFEFEFEFE2E2EFEFEC282828ECEC2828E2ECE2E228E2E2E2E2E2E2E2E2E2E2E2E2E2E2E2F5E2E2E2F5E2E2F5EF00E2F5E2E2E2E2E2F5E2E2EFEFE2E2EFEFEFEFEFEFEFEFEFEFEF28E2E2ECE2E228E2E2E2E2E2E2E2E2E2E2E2E2E2E2E2E2E2E2E2E2E2EFEFE2EFEFEFEFEFE2EC28E2E2ECEC28E2E2ECE2
310
E228E2E2E2E2E2E2E2E2E2E2E2E2E2E2E2F5E2E2E2F5E2E2F5EF00E2F5E2E2E2E2E2F5E2E2E2EFDCE2EFEFEFEFEFEFEFEFEFEFEC28EC28EC282828E2E2E2E2E2E2E2E2E2E2E2E2E2E2E2E2E2E2E2E2E2EFEFE2EFEFEFEFEFE2EC28E2E2ECEC282828EC282828E2E2E2E2E2E2E2E2E2E2E2E2E2E2E2F5E2E2E2F5E2E2F5EF00
310
E2F5E2E2E2E2E2F5E2E2E2EFEFE2EFE2E2E2E2E2E2E2E2E2ECECECE2E2E2E2E2E2E2E2E2E2E2E2E2E2E2E2E2E2E2E2E2E2E2E2E2E2EFEFE2E2E2EFEFE2E2EC28E2E228E2E2E2E2E2E2E2E2E2E2E2E2E2E2E2E2E2E2E2E2E2E2E2F5E2E2E2F5E2E2F5EF00E2F5E2E2E2E2E2F5E2E2E2EFEFEFEFE2E2E2E2E2E2E2E2E2E2ECEC
310
E2E2E2E2E2E2E2E2E2E2E2E2E2E2E2E2E2E2E2E2E2E2E2E2E2E2EFEFE2E2E2E2E2E2E2EC28E2E228E2E2E2E2E2E2E2E2E2E2E2E2E2E2E2E2E2E2E2E2E2E2E2F5E2E2E2F5E2E2F5EF00E2F5E2E2E2E2E2F5E2E2E2EFEFEFEFE2E2E2E2E2E2E2EFEFEFEF28E2E2E2E2E2E2E2E2E2E2E2E2E2E2E2E2E2E2E2E2E2E2E2E2E2E2EF
310
EFE2E2E2E2E2E2E2EC28E2E228E2E2E2E2E2E2E2E2E2E2E2E2E2E2E2E2E2E2E2E2E2E2E2F5E2E2E2F5E2E2F5EF00E2F5E2E2E2E2E2F5E2E2E2EFEFEFEFE2E2E2E2E2E2E2EFEFEFEF28E2E2E2E2E2E2E2E2E2E2E2E2E2E2E2E2E2E2E2E2E2E2E2E2E2E2EFEFE2E2E2E2E2E2E2EC28E2E228E2E2E2E2E2E2E2E2E2E2E2E2E2E2
310
E2E2E2E2E2E2E2E2E2F5E2E2E2F5E2E2F5EF00E2F5E2E2E2E2E2F5E2E2E2EFECECEFEFEFE2E2E2EFEFEFE2ECEC28E2E2E2E2E2E2E2E2E2E2E2E2E2E2E2E2E2E2E2E2E2E2E2E2E2E2EFEFE2E2E2E2E2E2E2EC28E2E228E2E2E2E2E2E2E2E2E2E2E2E2E2E2E2E2E2E2E2E2E2E2E2F5E2E2E2F5E2E2F5EF00E2F5E2E2E2E2E2F5
310
E2E2E2EFECECEFE2EFEFEFEFEFE2EFE2E2E228E2E2E2E2E2E2E2E2E2E2E2E2E2E2E2E2E2E2E2E2E2E2E2E2E2E2EFEFE2E2E2E2E2E2E2EC28E2E228E2E2E2E2E2E2E2E2E2E2E2E2E2E2E2E2E2E2E2E2E2E2E2F5E2E2E2F5E2E2F5EF00E2F5E2E2E2E2E2F5E2E2E2E2E2ECEFE2EFEFEFEFEFE2EFE2E2E228E2E2E2E2E2E2E2E2
310
E2E2E2E2E2E2E2E2E2E2E2E2E2E2E2E2E2E2EFEFE2E2E2E2E2E2E2EC28E2E228E2E2E2E2E2E2E2E2E2E2E2E2E2E2E2E2E2E2E2E2E2E2E2F5E2E2E2F5E2E2F5EF00E2F5E2E2E2E2E2F5E2E2E2E2E2EFEFE2E2E2EFEFE2E2EFE2E2E228E2E2E2E2E2E2E2E2E2E2E2E2E2E2E2E2E2E2E2E2E2E2E2E2E2E2EFEFE2E2E2E2E2E2E2
310
EC28E2E228E2E2E2E2E2E2E2E2E2E2E2E2E2E2E2E2E2E2E2E2E2E2E2F5E2E2E2F5E2E2F5EF00E2F5E2E2E2E2E2F5E2E2E2E2E2EFEFE2E2E2E2E2E2E2EFE2E2E228E2E2E2E2E2E2E2E2E2E2E2E2E2E2E2E2E2E2E2E2E2E2E2E2E2E2EFEFE2E2E2E2E2E2E2EC28E2E228E2E2E2E2E2E2E2E2E2E2E2E2E2E2E2E2E2E2E2E2E2E2
310
E2F5E2E2E2F5E2E2F5EF00E2E2E2E2E2E2E2F5E2E2E2E2E2EFEFE2E2E2E2E2E2E2EFE2E2E228E2E2E2E2E2E2E2E2E2E2E2E2E2E2E2E2E2E2E2E2E2F5F5F5F5F5EFEFE2E2E2EFEFE2E2EC28E2E228E2E2E2E2E2E2E2E2E2E2E2E2E2E2E2E2E2E2E2E2E2E2E2F5E2E2E2E2E2E2F5EF00E2E2E2E2E2E2E2F5E2E2E2E2E2EFEFE2
310
E2E2E2E2E2E2EFE2E2E228E2E2E2E2E2E2E2E2E2E2E2E2E2E2E2E2E2E2E2E2E2F5F5F5F5F5EFEFEFEFEFEFEFEFEFEC28E2E228E2E2E2E2E2E2E2E2E2E2E2E2E2E2E2E2E2E2E2E2E2E2E2F5E2E2E2E2E2E2F5EF00E2E2E2E2E2E2E2F5E2E2E2E2E2EFEFE2E2E2E2E2E2E2EFE2E2E228E2E2E2E2E2E2E2E2E2E2E2E2E2E2E2E2
310
E2E2E2E2E2E2E2E2E2E2EFEFE2E2E2E2E2E2E2EC28E2E228E2E2E2E2E2E2E2E2E2E2E2E2E2E2E2E2E2E2E2E2E2E2E2F5E2E2E2E2E2E2F5EF00E2E2E2E2E2E2E2F5E2E2F5F5F5EFEFE2E2E2E2E2E2E2EFE2E2E228E2E2E2E2E2E2E2E2E2E2E2E2E2E2E2E2E2E2E2E2E2E2E2E2E2E2EFEFE2E2E2E2E2E2E2EC28E2E228E2E2E2
310
E2E2E2E2E2E2E2E2E2E2E2E2E2E2E2E2E2E2E2E2F5E2E2E2E2E2E2F5EF00E2E2E2E2E2E2E2F5E2E2F5F5F5EFEFE2E2E2E2E2E2E2EFE2E2E228E2E2E2E2E2E2E2E2E2E2E2E2E2E2E2E2E2E2E2E2E2E2E2E2E2E2EFEFE2E2E2E2E2E2E2EC28E2E228E2E2E2E2E2E2E2E2E2E2E2E2E2E2E2E2E2E2E2E2E2E2E2F5E2E2E2E2E2E2
310
F5EF00E2E2E2E2E2E2E2F5F5F5F5F5F5EFEFE2E2E2E2E2E2E2EFE2E2E228E2E2E2E2E2E2E2E2E2E2E2E2E2E2E2E2E2E2E2E2E2E2E2E2E2E2EFEFE2E2E2E2E2E2E2EC28E2E228E2E2E2E2E2E2E2E2E2E2E2E2E2E2E2E2E2E2E2E2E2E2E2F5E2E2E2E2E2E2F5EF00E2E2E2E2E2E2E2F5F5F5F5F5F5EFEFE2E2E2E2E2E2E2EFE2
310
E2E228E2E2E2E2E2E2E2E2E2E2E2E2E2E2E2E2E2E2E2E2E2E2E2E2E2E2EFEFE2E2E2E2E2E2E2EC28E2E228E2E2E2E2E2E2E2E2E2E2E2E2E2E2E2E2E2E2E2E2E2E2E2F5E2E2E2E2E2E2F5EF00E2E2E2E2E2E2E2F5F5F5F5F5F5EFEFE2E2EFEFEFE2E2EFE2E2E228E2E2E2E2E2E2E2F5F5E2E2E2E2E2E2E2E2E2E2E2E2E2E2E2
310
E2E2EFEFE2E2E2E2E2E2E2EC28E2E228E2E2E2E2E2E2E2E2E2E2E2E2E2E2E2E2E2E2E2E2E2E2E2F5E2E2E2E2E2E2F5EF00E2E2E2E2E2E2E2F5E2E2E2E2E2EFEFEFEFEFEFEFEFEFEFE2E2E228E2E2E2E2E2E2E2F5ECECECECE2E2E2E2E2E2E2E2E2E2E2E2E2E2EFEFE2E2E2E2E2E2E2EC28E2E228E2E2E2E2E2E2E2E2E2E2E2
310
E2E2E2E2E2E2E2E2E2E2E2E2F5E2E2E2E2E2E2F5EF00E2F5E2E2E2E2E2F5E2E2E2E2E2EFEFE2E2E2E2E2E2E2EFE2E2E228E2E2E2E2E2E2E2E2E2E2E2ECE2E2E2E2E2E2E2E2E2E2E2E2E2E2EFEFE2E2E2E2E2E2E2EC28E2E228E2E2E2E2E2E2E2E2E2E2E2E2E2E2E2E2E2E2E2E2E2E2E2F5E2E2E2F5E2E2F5EF00E2F5E2E2E2
310
E2E2F5E2E2E2E2E2EFEFE2E2E2E2E2E2E2EFE2E2E228E2E2E2E2DCDCDCDCDCDCDCDCDCDCDCDCDCDCDCE2E2E2E2E2E2E2EFEFE2E2E2E2E2E2E2EC28E2E228E2E2E2E2E2E2E2E2E2E2E2E2E2E2E2E2E2E2E2E2E2E2E2F5E2E2E2F5E2E2F5EF00E2F5E2E2E2E2E2F5E2E2E2E2E2EFEFE2E2E2E2E2E2E2EFE2E2E228E2E2E2E2DC
310
DCDCDCDCDCDCDCDCDCDCDCDCDCDCE2E2E2E2E2E2E2EFEFE2E2E2E2E2E2E2EC28E2E228E2E2E2E2E2E2E2E2E2E2E2E2E2E2E2E2E2E2E2E2E2E2E2F5E2E2E2F5E2E2F5EF00E2F5E2E2E2E2E2F5E2E2E2E2E2EFEFE2E2E2E2E2E2E2EFE2E2E228E2E2E2E2DCDCDCDCE2E2E2ECE2E2E2E2DCDCDCE2E2E2E2E2E2E2EFEFEFEFEFEF
310
EFE2E2ECECE2E228E2E2E2E2E2E2E2E2E2E2E2E2E2E2E2E2E2E2E2E2E2E2E2F5E2E2E2F5E2E2F5EF00E2F5E2E2E2E2E2F5E2E2E2E2E2EFEFE2E2E2E2E2E2E2EFE2E2E228E2E2E2E2DCDCDCDCDCDCDCDCDCDCDCDCDCDCDCE2E2E2E2E2E2E2EFEFEFEFEFEFEFEFEFECECECE228E2E2E2E2E2E2E2E2E2E2E2E2E2E2E2E2E2E2E2
310
E2E2E2E2F5E2E2E2F5E2E2F5EF00E2F5E2E2E2E2E2F5E2E2E2E2E2EFEFE2E2E2E2E2E2E2EFE2E2E228E2E2E2E2DCDCDCDCF5E2E2ECE2E2E2E2DCDCDCE2E2E2E2E2E2E2EFEFECECECEFEFECECEC28ECEC28E2E2E2E2E2E2E2E2E2E2E2E2E2E2E2E2E2E2E2E2E2E2E2F5E2E2E2F5E2E2F5EF00E2F5E2E2E2E2E2F5E2E2E2E2E2
310
EFEFE2E2E2E2E2E2E2EFE2E2E228E2E2E2E2DCDCDCDCE2F5E2E2E2E2E2E2DCDCDCE2E2F5F5F5F5F5EFEFECE2ECECECECECEC28E2ECECE2E2E2E2E2E2E2E2E2E2E2E2E2E2E2E2E2E2E2E2E2E2E2F5E2E2E2F5E2E2F5EF00E2F5E2E2E2E2E2F5E2E2E2E2E2EFEFE2E2E2E2E2E2E2EFE2E2E228E2E2E2E2DCDCDCDCE2E2F5E2E2
310
E2E2E2DCDCDCE2E2F5F5F5F5F5EFEFECECECECECECECECECECE2ECE2E2E2E2E2E2E2E2E2E2E2E2E2E2E2E2E2E2E2E2E2E2E2F5E2E2E2F5E2E2F5EF00E2F5E2E2E2E2E2F5E2E2E2E2E2EFEFE2E2E2E2E2E2E2EFE2E2E228E2E2E2E2DCDCDCDCE2E2E2F5E2E2E2E2DCDCDCE2E2E2E2E2E2E2EFEFECECF5F5F5F5EFEC28ECE2EC
310
E2E2E2E2E2E2E2E2E2E2E2E2E2E2E2E2E2E2E2E2E2E2E2F5E2E2E2F5E2E2F5EF00E2F5E2E2E2E2E2F5E2E2E2E2E2EFEFE2E2E2E2E2E2E2EFE2E2E228E2E2E2E2DCDCDCDCE2E2E2F5F5E2E2E2DCDCDCE2E2E2E2E2E2E2EFEFECECF5E2E2ECEFEC28ECECECE2E2E2E2E2E2E2E2E2E2E2E2E2E2E2E2E2E2E2E2E2E2E2F5E2E2E2
310
F5E2E2F5EF00E2F5E2E2E2E2E2F5E2E2E2E2E2EFEFEFEFEFEFEFE2E2EFECE2E228E2E2E2E2DCDCDCDCE2E2E2E2F5E2E2E2DCDCDCE2E2E2E2E2E2E2E2E2ECECF5E2E2ECECEC2828ECECE2E2E2E2E2E2E2E2E2E2E2E2E2E2E2E2E2E2E2E2E2E2E2F5E2E2E2F5E2E2F5EF00E2F5E2E2E2E2E2F5E2E2E2E2E2EFEFECECECEFECEC
310
ECEFECECE228E2E2E2E2DCDCDCDCE2E2E2E2E2F5F5E2DCDCDCE2E2E2E2E2E2E2E2E2F5ECF5E2E2F5ECE2E2E2E2E2E2E2E2E2E2E2E2E2E2E2E2E2E2E2E2E2E2E2E2E2E2E2E2F5E2E2E2F5E2E2F5EF00E2F5E2E2E2E2E2F5E2E2E2E2E2EFEFECE2ECE2ECE2ECEFE2ECEC28E2E2E2E2DCDCDCDCE2E2E2E2E2E2F5E2DCDCDCE2E2
310
E2E2E2E2E2E2E2F5ECF5E2E2F5ECE2E2E2E2E2E2E2E2E2E2E2E2E2E2E2E2E2E2E2E2E2E2E2E2E2E2E2E2F5E2E2E2F5E2E2F5EF00E2F5E2E2E2E2E2F5F5F5F5F5F5EFEFECE2ECECECE2ECECECE2ECECE2E2E2E2DCDCDCDCE2E2E2E2E2E2E2F5DCDCDCE2E2E2E2E2E2E2E2E2F5ECF5E2E2F5ECE2E2E2E2E2E2E2E2E2E2E2E2E2
310
E2E2E2E2E2E2E2E2E2E2E2E2E2E2E2F5E2E2E2F5E2E2F5EF00E2F5E2E2E2E2E2F5F5F5F5F5F5EFEFECECECECECECECECECECE2ECE2E2E2E2DCDCF0DCE2E2E2E2E2E2E2F5F5DCDCE2E2E2E2E2E2E2E2E2F5ECF5E2E2F5ECE2E2E2E2E2E2E2E2E2E2E2E2E2E2E2E2E2E2E2E2E2E2E2E2E2E2E2E2F5E2E2E2F5E2E2F5EF00E2F5
310
E2E2E2E2E2F5E2E2E2E2E2EFEFECECF5F5F5ECECECE2ECE2ECE2E2E2E2DCDCF0DCE2E2E2E2E2E2E2E2DCDCDCE2E2E2E2E2E2E2E2E2F5ECF5E2E2F5ECE2E2E2E2E2E2E2E2E2E2E2E2E2E2E2E2E2E2E2E2E2E2E2E2E2E2E2E2F5E2E2E2F5E2E2F5EF00E2F5E2E2E2E2E2F5E2E2E2E2E2EFEFECECF5E2F5ECECECE2ECE2ECE2E2
310
E2E2DCDCF0DCF0E2E2E2E2E2E2E2DCDCDCE2E2E2E2E2E2E2E2E2F5ECF5E2E2F5ECE2E2E2E2E2E2E2E2E2E2E2E2E2E2E2E2E2E2E2E2E2E2E2E2E2E2E2E2F5E2E2E2F5E2E2F5EF00E2E2E2E2E2E2E2F5E2E2E2E2E2E2E2ECECF5E2F5ECECEC28282828E2E2E2E2DCDCF0DCE2E2E2E2E2E2E2E2DCDCDCE2E2E2E2E2E2E2E2E2F5
310
ECF5E2E2F5ECE2E2E2E2E2E2E2E2E2E2E2E2E2E2E2E2E2E2E2E2E2E2E2E2E2E2E2E2F5E2E2E2E2E2E2F5EF00E2E2E2E2E2E2E2F5E2E2E2E2E2E2E2F5ECF5E2F5ECF5E2E2E2E2E2E2E2E2E2DCDCF0DCE2E2E2E2E2E2E2F5F5DCDCE2E2E2E2E2E2E2E2E2F5ECF5E2E2F5ECE2E2E2E2E2E2E2E2E2E2E2E2E2E2E2E2E2E2E2E2E2
310
E2E2E2E2E2E2E2F5E2E2E2E2E2E2F5EF00E2E2E2E2E2E2E2F5E2E2E2E2E2E2E2F5ECF5E2F5ECF5E2E2E2E2E2E2E2E2E2DCDCDCDCE2E2E2E2E2E2E2F5DCDCDCE2E2E2E2E2E2E2E2E2F5ECF5E2E2F5ECE2E2E2E2E2E2E2E2E2E2E2E2E2E2E2E2E2E2E2E2E2E2E2E2E2E2E2E2F5E2E2E2E2E2E2F5EF00E2E2E2E2E2E2E2F5E2E2
310
E2E2E2E2E2F5ECF5E2F5ECF5E2E2E2E2E2E2E2E2E2DCDCDCDCE2E2E2E2E2E2F5E2DCDCDCE2E2E2E2E2E2E2E2E2F5ECF5E2E2F5ECE2E2E2E2E2E2E2E2E2E2E2E2E2E2E2E2E2E2E2E2E2E2E2E2E2E2E2E2F5E2E2E2E2E2E2F5EF00E2E2E2E2E2E2E2F5E2E2E2E2E2E2E2E2E2E2E2E2E2E2E2E2E2E2E2E2E2E2E2DCDCDCDCE2E2
310
E2E2E2F5F5E2DCDCDCE2E2E2E2E2E2E2E2E2E2E2E2E2E2E2E2E2E2E2E2E2E2E2E2E2E2E2E2E2E2E2E2E2E2E2E2E2E2E2E2E2E2E2E2F5E2E2E2E2E2E2F5EF00E2E2E2E2E2E2E2F5E2E2E2E2E2E2E2E2E2E2E2E2E2E2E2E2E2E2E2E2E2E2E2DCDCDCDCE2E2E2E2F5E2E2E2DCDCDCE2E2E2E2E2E2E2E2E2E2E2E2E2E2E2E2E2E2
310
E2E2E2E2E2E2E2E2E2E2E2E2E2E2E2E2E2E2E2E2E2E2E2E2E2E2F5E2E2E2E2E2E2F5EF00E2E2E2E2E2E2E2F5E2E2E2E2E2E2E2E2E2E2E2E2E2E2E2E2E2E2E2E2E2E2E2DCDCDCDCE2E2E2F5F5E2E2E2DCDCDCE2E2E2E2E2E2E2E2E2E2E2E2E2E2E2E2E2E2E2E2E2E2E2E2E2E2E2E2E2E2E2E2E2E2E2E2E2E2E2E2E2E2E2E2F5
310
E2E2E2E2E2E2F5EF00E2E2E2E2E2E2E2F5E2E2E2E2E2E2E2F5ECF5E2F5ECF5E2E2E2E2E2E2E2E2E2DCDCDCDCE2E2E2F5E2E2E2E2DCDCDCE2E2E2E2E2E2E2E2E2F5ECF5E2E2F5ECE2E2E2E2E2E2E2E2E2E2E2E2E2E2E2E2E2E2E2E2E2E2E2E2E2E2E2E2F5E2E2E2E2E2E2F5EF00E2E2E2E2E2E2E2F5E2E2E2E2E2E2E2F5ECF5
310
E2F5ECF5E2E2E2E2E2E2E2E2E2DCDCDCDCE2E2F5E2E2E2E2E2DCDCDCE2E2E2E2E2E2E2E2E2F5ECF5E2E2F5ECE2E2E2E2E2E2E2E2E2E2E2E2E2E2E2E2E2E2E2E2E2E2E2E2E2E2E2E2F5E2E2E2E2E2E2F5EF40E2E2E2E2E2E2E2F5E2E2E2E2E2E2E2F5ECF5E2F5ECF5E2E2E2E2E2E2E2E2E2DCDCDCDCE2F5E2E2E2E2E2E2DCDC
310
DCE2E2E2E2E2E2E2E2E2F5ECF5E2E2F5ECE2E2E2E2E2E2E2E2E2E2E2E2E2E2E2E2E2E2E2E2E2E2E2E2E2E2E2E2F5E2E2E2E2E2E2F5EFE1E2F5E2E2E2E2E2F5E2E2E2E2E2E2E2ECECF5E2F5ECECEC28282828E2E2E2E2DCDCDCDCF5E2E2E2E2E2E2E2DCDCDCE2E2E2E2E2E2E2E2E2F5ECF5E2E2F5ECE2E2E2E2E2E2E2E2E2E2
310
E2E2E2E2E2E2E2E2E2E2E2E2E2E2E2E2E2E2F5E2E2E2F5E2E2F5EF40E2F5E2E2E2E2E2F5E2E2E2E2E2EFEFECECF5E2F5ECECECE2ECE228E2E2E2E2DCDCDCDCF5E2E2ECE2E2E2E2DCDCDCE2E2E2E2E2E2E2E2E2F5ECF5E2E2F5ECE2E2E2E2E2E2E2E2E2E2E2E2E2E2E2E2E2E2E2E2E2E2E2E2E2E2E2E2F5E2E2E2F5E2E2F5EF
310
8DE2F5E2E2E2E2E2F5F5F5F5F5F5EFEFECECF5F5F5ECECECE2ECE228E2E2E2E2DCDCDCDCDCDCDCECDCDCDCDCDCDCDCE2E2E2E2E2E2E2E2E2F5ECF5E2E2F5ECE2E2E2E2E2E2E2E2E2E2E2E2E2E2E2E2E2E2E2E2E2E2E2E2E2E2E2E2F5E2E2E2F5E2E2F5EF40E2F5E2E2E2E2E2F5F5F5F5F5F5EFEFECECF5F5F5ECECEFECECE2
310
28E2E2E2E2DCDCDCDCDCDCDCECDCDCDCDCDCDCDCE2E2E2E2E2E2E2E2E2F5ECF5E2E2F5ECE2E2E2E2E2E2E2E2E2E2E2E2E2E2E2E2E2E2E2E2E2E2E2E2E2E2E2E2F5E2E2E2F5E2E2F5EF4DE2F5E2E2E2E2E2F5E2E2E2E2E2EFEFECE2E2E2E2E2E2EFECE2EC28E2E2E2E2DCDCDCF5F5DCDCECDCDCDCDCDCDCDCE2E2E2E2E2E2E2
310
E2E2F5ECF5E2E2F5ECE2E2E2E2E2E2E2E2E2E2E2E2E2E2E2E2E2E2E2E2E2E2E2E2E2E2E2E2F5E2E2E2F5E2E2F5EF40E2F5E2E2E2E2E2F5E2E2E2E2E2EFEFDCE2E2E2E2E2E2EFE2E2EC28E2E2E2E2E2E2E2F5F5E2E2ECE2E2E2E2E2E2E2E2E2E2E2E2E2E2E2E2F5ECF5E2E2F5ECE2E2E2E2E2E2E2E2E2E2E2E2E2E2E2E2E2E2
310
E2E2E2E2E2E2E2E2E2E2F5E2E2E2F5E2E2F5EF12E2F5E2E2E2E2E2F5E2E2E2E2E2EFEFEFEFEFEFEFEFEFEFECECEC28E2E2E2E2E2E2E2F5F5ECECECE2E2E2E2E2E2E2E2E2E2E2E2E2E2E2E2F5ECF5E2E2F5ECE2E2E2E2E2E2E2E2E2E2E2E2E2E2E2E2E2E2E2E2E2E2E2E2E2E2E2E2F5E2E2E2F5E2E2F5EF40E2F5E2E2E2E2E2
310
F5E2E2E2E2E2EFEFEFEFEFEFEFE2E2EFECE2E228E2E2E2E2E2E2E2E2E2E2E2E2E2E2E2E2E2E2E2E2E2E2E2E2E2E2E2E2ECECF5E2E2ECECECEC28EC28E2E2E2E2E2E2E2E2E2E2E2E2E2E2E2E2E2E2E2E2E2E2E2F5E2E2E2F5E2E2F5EF29E2F5E2E2E2E2E2F5E2E2E2E2E2EFEFE2E2E2E2E2E2E2EFECE2E228E2E2E2E2E2E2E2
310
E2E2E2E2E2E2E2E2E2E2E2E2E2E2E2E2E2E2E2EFEFECECF5E2E2ECECECECE2EC28E2E2E2E2E2E2E2E2E2E2E2E2E2E2E2E2E2E2E2E2E2E2E2F5E2E2E2F5E2E2F5EF40E2F5E2E2E2E2E2F5E2E2E2E2E2EFEFE2E2E2E2E2E2E2EFE2E2E228E2E2E2E2E2E2E2E2E2E2E2E2E2E2E2E2E2E2E2E2E2F5F5F5F5F5EFEFECECF5F5F5F5
310
ECECECECEC28E2E2E2E2E2E2E2E2E2E2E2E2E2E2E2E2E2E2E2E2E2E2E2F5E2E2E2F5E2E2F5EFC5E2F5E2E2E2E2E2F5E2E2F5F5F5EFEFE2E2E2E2E2E2E2EFE2E2E228E2E2E2E2E2E2E2E2E2E2E2E2E2E2E2E2E2E2E2E2E2F5F5F5F5F5EFEFECECF5F5F5F5ECECECECE228E2E2E2E2E2E2E2E2E2E2E2E2E2E2E2E2E2E2E2E2E2
310
E2E2F5E2E2E2F5E2E2F5EF40E2F5E2E2E2E2E2F5E2E2F5F5F5EFEFE2E2E2E2E2E2E2EFE2E2E228E2E2E2E2E2E2E2E2E2E2E2E2E2E2E2E2E2E2E2E2E2E2E2E2E2E2EFEFECE2E2E2E2E2E2ECECE2EC28E2E2E2E2E2E2E2E2E2E2E2E2E2E2E2E2E2E2E2E2E2E2E2F5E2E2E2F5E2E2F5EFBAE2F5E2E2E2E2E2F5E2E2F5F5F5EFEF
310
E2E2E2E2E2E2E2EFE2E2E228E2E2E2E2E2E2E2E2E2E2E2E2E2E2E2E2E2E2E2E2E2E2E2E2E2E2EFEFEFE2E2E2E2E2E2ECECE2EC28E2E2E2E2E2E2E2E2E2E2E2E2E2E2E2E2E2E2E2E2E2E2E2F5E2E2E2F5E2E2F5EF40E2F5E2E2E2E2E2F5F5F5F5F5F5EFEFE2E2E2E2E2E2E2EFE2E2E228E2E2E2E2E2E2E2E2E2E2E2E2E2E2E2
310
E2E2E2E2E2E2E2E2E2E2E2EFEFEFEFEFEFEFEFEFECECECEC28E2E2E2E2E2E2E2E2E2E2E2E2E2E2E2E2E2E2E2E2E2E2E2F5E2E2E2F5E2E2F5EFC8E2F5E2E2E2E2E2F5F5F5F5F5F5EFEFE2E2E2E2E2E2E2EFE2E2E228E2E2E2E2E2E2E2E2E2E2E2E2E2E2E2E2E2E2E2E2E2E2E2E2E2E2EFEFEFEFEFEFEFE2E2ECECE2E228E2E2
310
E2E2E2E2E2E2E2E2E2E2E2E2E2E2E2E2E2E2E2E2E2F5E2E2E2F5E2E2F5EF40E2F5E2E2E2E2E2F5E2E2E2E2E2EFEFE2E2E2E2E2E2E2EFE2E2E228E2E2E2E2E2E2E2E2E2E2E2E2E2E2E2E2E2E2E2E2E2E2E2E2E2E2EFEFE2E2E2E2E2E2E2ECECE2E228E2E2E2E2E2E2E2E2E2E2E2E2E2E2E2E2E2E2E2E2E2E2E2F5E2E2E2F5E2
310
E2F5EF5CE2F5E2E2E2E2E2F5E2E2E2E2E2EFEFE2E2E2EFEFE2E2EFE2E2E228E2E2E2E2E2E2E2E2E2E2E2E2E2E2E2E2E2E2E2E2E2E2E2E2E2E2EFEFE2E2E2E2E2E2E2ECECE2E228E2E2E2E2E2E2E2E2E2E2E2E2E2E2E2E2E2E2E2E2E2E2E2F5E2E2E2F5E2E2F5EF40E2E2E2E2E2E2E2F5E2E2E2E2E2ECEFE2EFEFEFEFEFE2EF
310
E2282828E2E2E2E2E2E2E2E2E2E2E2E2E2E2E2E2E2E2E2E2E2E2E2E2E2E2EFEFE2E2E2E2E2E2E2ECECE2E228E2E2E2E2E2E2E2E2E2E2E2E2E2E2E2E2E2E2E2E2E2E2E2F5E2E2E2E2E2E2F5EFDDE2E2E2E2E2E2E2F5E2E2E2EFECECEFE2EFEFEFEFEFE2EF28EFEF28E2E2E2E2E2E2E2E2E2E2E2E2E2E2E2E2E2E2E2E2E2E2E2
310
E2E2E2EFEFE2E2E2E2E2E2E2ECECE2E228E2E2E2E2E2E2E2E2E2E2E2E2E2E2E2E2E2E2E2E2E2E2E2F5E2E2E2E2E2E2F5EF40E2E2E2E2E2E2E2F5E2E2E2EFECECEFEFEFE2E2E2EFEFEFE2EFEF28E2E2E2E2E2E2E2E2E2E2E2E2E2E2E2E2E2E2E2E2E2E2E2E2E2E2EFEFE2E2E2E2E2E2E2ECECE2E228E2E2E2E2E2E2E2E2E2E2
310
E2E2E2E2E2E2E2E2E2E2E2E2E2F5E2E2E2E2E2E2F5EF19E2E2E2E2E2E2E2F5E2E2E2EFEFEFEFE2E2E2E2E2E2E2EFEFEFEF28E2E2E2E2E2E2E2E2E2E2E2E2E2E2E2E2E2E2E2E2E2F5F5F5F5F5EFEFE2E2E2E2E2E2E2ECECE2E228E2E2E2E2E2E2E2E2E2E2E2E2E2E2E2E2E2E2E2E2E2E2E2F5E2E2E2E2E2E2F5EF40E2E2E2E2
310
E2E2E2F5E2E2E2EFEFEFEFE2E2E2E2E2E2E2EFEFEFEF28E2E2E2E2E2E2E2E2E2E2E2E2E2E2E2E2E2E2E2E2E2E2E2E2E2E2EFEFE2E2E2E2E2E2E2ECECE2E228E2E2E2E2E2E2E2E2E2E2E2E2E2E2E2E2E2E2E2E2E2E2E2F5E2E2E2E2E2E2F5EF16E2E2E2E2E2E2E2F5E2E2E2EFEFEFEFE2E2E2E2E2E2E2E2E2E2ECECE2E2E2E2
310
E2E2E2E2E2E2E2E2E2E2E2E2E2E2E2E2E2E2E2E2E2E2EFEFE2E2E2E2E2E2E2ECECE2E228E2E2E2E2E2E2E2E2E2E2E2E2E2E2E2E2E2E2E2E2E2E2E2F5E2E2E2E2E2E2F5EF40E2E2E2E2E2E2E2F5E2E2E2EFEFE2EFE2E2E2E2E2E2E2E2E2ECECECE2E2E2E2E2E2E2E2E2E2E2E2E2E2E2E2E2E2E2E2E2E2E2E2E2E2EFEFE2E2E2
310
EFEFE2E2ECECE2E228E2E2E2E2E2E2E2E2E2E2E2E2E2E2E2E2E2E2E2E2E2E2E2F5E2E2E2E2E2E2F5EF90E2E2E2E2E2E2E2F5E2E2EFEFDCE2EFEFEFEFEFEFEFEFEFEFEF282828EC28282828ECEC28282828EC28282828EC2828E2E2E2E2E2E2EFEFE2EFEFEFEFEFE2ECECECEC28ECEC2828EC28282828ECEC28282828EC2828
310
2828EC2828F5E2E2E2E2E2E2F5EF40E2E2E2E2E2E2E2F5E2E2EFEFE2E2EFEFEFEFEFEFEFEFEFEFEF2828E2ECE2E2E2E2ECECE2E2E2E2ECECE2E2E2ECEC28E2E2E2E2E2E2EFEFE2EFEFEFEFEFE2ECECECEC28EC28E2E2ECE2E2E2E2ECECE2E2E2E2ECE2E2E2E2ECE228F5E2E2E2E2E2E2F5EF72E2F5E2E2E2E2E2F5E2EFEFDC
310
E2E2E2EFEFE2E2E2E2E2E2E2EF2828ECE2E2E2E2E2ECECECE2E2E2E2ECE2E2E2ECEC28E2E2E2E2E2E2EFEFEFEFEFE2E2EFEFEFE2EF2828EC2828E2ECE2E2E2E2ECECECE2E2E2E2ECE2E2E2ECEC28F5E2E2E2F5E2E2F5EF40E2F5E2E2E2E2E2F5E2EFEFE2E2E2E2E2E2E2E2E2E2E2E2E2EF28E2ECECECE2E2E2ECE2ECE2E2E2
310
E2ECECECECE2EC28E2E2E2E2E2ECEFEFE2E2E2E2E2E2E2EFEFEF2828EF28E2ECECECE2E2ECE2E2ECE2E2E2E2ECECECECE2EC28F5E2E2E2F5E2E2F5EFB7E2F5E2E2E2E2E2F5E2EFE2E2E2E2E2E2E2E2E2E2E2E2E2E2EF28282828282828ECE2E2E2ECE2ECECECECE2E2E2EC28E2E2E2E2E2ECECECF5F5F5F5E2E2E2E2E2E2E2
310
E2EF2828EC28EC28ECE2E2E2ECECECECECECE2E2E2E2EC28F5E2E2E2F5E2E2F5EF40E2F5E2E2E2E2E2F5E2EFE2E2E2E2E2E2E2E2E2E2E2E2E2E2E2EFE2E2E2E2E228E2E2E2ECECECE2E2E2282828E2E228E2E2E2E2E2EFEFEFF5F5F5F5E2E2E2E2EFEFEFEFEFEFE2E2E2E2E228E2E2ECECECE2E2E2E2282828E2E228F5E2E2
310
E2F5E2E2F5EF0BE2F5E2E2E2E2E2F5E2EFE2E2E2E2E2E2E2E2E2E2E2E2E2E2EFEFE2E2E2E2E228E2ECECE2ECE2E2E2E228E228E22828E2E2E2E2E2EFEFEFE2E2E2E2E2E2E2E2EFEFEFEFEFEFE2E2E2E2E228ECECE2E2ECE2E2E2E228E228E2E228F5E2E2E2F5E2E2F5EF40E2F5E2E2E2E2E2F5E2EFE2E2E2E2E2E2E2E2E2E2
310
E2E2E2EFEFEFE2E2E2E2E22828282828282828282828E2282828E2E2E2E2E2E2EFEFEFEFEFEFEFEFEFEFEFEFEFE2EFEFEFE2E2E2E2E22828282828282828282828E228282828F5E2E2E2F5E2E2F5EFD1E2F5E2E2E2E2E2F5E2EFE2E2E2EFEFEFEFEFEFEFEFEFEFEFEFEFE2E2E2E2E2E2E2E2E2E2E2E2E2E2E2E2E2E2E2E2E2
310
E2E2E2E2E2EFEFE2EFEFEFEFEFEFEFE2E2E2EFEFEFEFE2E2E2E2E2E2E2E2E2E2E2E2E2E2E2E2E2E2E2E2E2F5E2E2E2F5E2E2F5EF40E2F5E2E2E2E2E2F5E2EFE2E2E2EFE2E2E2EFE2E2EFEFE2E2E2EFE2E2E2E2E2E2E2E2E2E2E2E2E2E2E2E2E2E2E2E2E2E2E2E2E2E2EFEFE2E2EFEFEFEFEFEFEFEFEFEFE2EFEFE2E2E2E2E2
310
E2E2E2E2E2E2E2E2E2E2E2E2E2E2E2E2F5E2E2E2F5E2E2F5EFBCE2F5E2E2E2E2E2F5E2EFE2E2E2EFE2E2E2E2E2E2E2E2E2E2E2E2E2E2E2E2E2E2E2E2E2E2E2E2E2E2E2E2E2E2E2E2E2E2E2E2E2E2EFEFE2E2EFE2E2E2E2E2E2E2E2E2E2E2E2E2E2E2E2E2E2E2E2E2E2E2E2E2E2E2E2E2E2E2E2E2F5E2E2E2F5E2E2F5EF40E2
310
F5E2E2E2E2E2F5E2EFEFEFEFEFE2E2E2E2E2E2E2E2E2E2E2E2E2E2E2E2E2E2E2E2E2E2E2E2E2E2E2E2E2E2E2E2E2E2E2E2E2E2EFEFE2E2EFE2E2E2E2E2E2E2E2E2E2E2E2E2E2E2E2E2E2E2E2E2E2E2E2E2E2E2E2E2E2E2E2E2F5E2E2E2F5E2E2F5EF1BE2F5E2E2E2E2E2F5E2E2E2E2E2EFE2F5F5F5F5F5E2E2E2E2E2E2E2E2
310
E2E2E2E2E2E2E2E2E2E2E2E2E2E2E2E2E2E2E2E2E2E2E2E2EFEFE2E2EFE2E2E2E2E2E2E2E2E2E2E2E2E2E2E2E2E2E2E2E2E2E2E2E2E2E2E2E2E2E2E2E2E2F5E2E2E2F5E2E2F5EF40E2F5E2E2E2E2E2F5E2E2E2E2E2EFE2F5F5F5F5F5E2E2E2E2E2E2E2E2E2E2E2E2E2E2E2E2E2E2E2E2E2E2E2E2E2E2E2E2E2E2E2E2EFEFE2
310
EFEFE2E2E2E2E2E2E2E2E2E2E2E2E2E2E2E2E2E2E2E2E2E2E2E2E2E2E2E2E2E2E2E2E2F5E2E2E2F5E2E2F5EF00E2F5E2E2E2E2E2F5E2E2E2E2E2EFEFF5F5F5F5E2E2E2E2E2E2E2E2E2E2E2E2E2E2E2E2E2E2E2E2E2E2E2E2E2E2E2E2E2E2E2E2E2EFEFE2EFEFEFF5F5F5F5E2E2E2E2E2E2E2E2E2E2E2E2E2E2E2E2E2E2E2E2
310
E2E2E2E2E2E2E2E2F5E2E2E2F5E2E2F5EF00E2F5E2E2E2E2E2F5E2E2E2E2E2EFEFE2E2E2E2E2E2E2E2E2E2E2E2E2E2E2E2E2E2E2E2E2E2E2E2E2E2E2E2E2E2E2E2E2E2E2E2E2EFEFEFEFEFEFE2E2E2E2E2E2E2E2E2E2E2E2E2E2E2E2E2E2E2E2E2E2E2E2E2E2E2E2E2E2E2E2F5E2E2E2F5E2E2F5EF00E2F5E2E2E2E2E2F5E2
310
E2E2E2E2E2E2E2E2E2E2E2E2E2E2E2E2E2E2E2E2E2E2E2E2E2E2E2E2E2E2E2E2E2E2E2E2E2E2E2E2E2E2E2E2E2E2E2E2E2E2E2E2E2E2E2E2E2E2E2E2E2E2E2E2E2E2E2E2E2E2E2E2E2E2E2E2E2E2E2E2E2F5E2E2E2F5E2E2F5EF00E2F5E2E2E2E2E2F5E2E2E2E2E2E2E2E2E2E2E2E2E2E2E2E2E2E2E2E2E2E2E2E2E2E2E2E2
310
E2E2E2E2E2E2E2E2E2E2E2E2E2E2E2E2E2E2E2E2E2E2E2E2E2E2E2E2E2E2E2E2E2E2E2E2E2E2E2E2E2E2E2E2E2E2E2E2E2E2E2E2E2E2F5E2E2E2F5E2E2F5EF00E2F5E2E2E2E2E2F5E2E2E2E2E2E2E2E2E2E2E2E2E2E2E2E2E2E2E2E2E2E2E2E2E2E2E2E2E2E2E2E2E2E2E2E2E2E2E2E2E2E2E2E2E2E2E2E2E2E2E2E2E2E2E2
310
E2E2E2E2E2E2E2E2E2E2E2E2E2E2E2E2E2E2E2E2E2E2E2E2E2E2E2F5E2E2E2F5E2E2F5EF00E2E2E2E2E2E2E2F5E2E2E2E2E2E2E2E2E2E2E2E2E2E2E2E2E2E2E2E2E2E2E2E2E2E2E2E2E2E2E2E2E2E2E2E2E2E2E2E2E2E2E2E2E2E2E2E2E2E2E2E2E2E2E2E2E2E2E2E2E2E2E2E2E2E2E2E2E2E2E2E2E2E2E2E2E2E2E2E2E2E2
310
F5E2E2E2E2E2E2F5EF00E2E2E2E2E2E2E2F5E2E2E2E2E2E2E2E2E2E2E2E2E2E2E2E2E2E2E2E2E2E2E2E2E2E2E2E2E2E2E2E2E2E2E2E2E2E2E2E2E2E2E2E2E2E2E2E2E2E2E2E2E2E2E2E2E2E2E2E2E2E2E2E2E2E2E2E2E2E2E2E2E2E2E2E2E2E2E2E2E2E2F5E2E2E2E2E2E2F5EF00E2E2E2E2E2E2E2F5F5F5F5F5F5F5F5F5F5
310
F5F5F5F5F5F5F5F5F5F5F5F5F5F5F5F5F5F5F5F5F5F5F5F5F5F5F5F5F5F5F5F5F5F5F5F5F5F5F5F5F5F5F5F5F5F5F5F5F5F5F5F5F5F5F5F5F5F5F5F5F5F5F5F5F5F5F5F5F5F5F5F5F5F5E2E2E2E2E2E2F5EF00E2E2E2E2E2E2E2E2E2E2E2E2E2E2E2E2E2E2E2E2E2E2E2E2E2E2E2E2E2E2E2E2E2E2E2E2E2E2E2E2E2E2E2E2
310
E2E2E2E2E2E2E2E2E2E2E2E2E2E2E2E2E2E2E2E2E2E2E2E2E2E2E2E2E2E2E2E2E2E2E2E2E2E2E2E2E2E2E2E2E2E2E2E2E2E2E2E2E2F5EF00E2E2E2E2E2E2E2E2E2E2E2E2E2E2E2E2E2E2E2E2E2E2E2E2E2E2E2E2E2E2E2E2E2E2E2E2E2E2E2E2E2E2E2E2E2E2E2E2E2E2E2E2E2E2E2E2E2E2E2E2E2E2E2E2E2E2E2E2E2E2E2
310
E2E2E2E2E2E2E2E2E2E2E2E2E2E2E2E2E2E2E2E2E2E2E2E2E2E2F5EF00E2E2E2E2E2E2E2E2E2E2E2E2E2E2E2E2E2E2E2E2E2E2E2E2E2E2E2E2E2E2E2E2E2E2E2E2E2E2E2E2E2E2E2E2E2E2E2E2E2E2E2E2E2E2E2E2E2E2E2E2E2E2E2E2E2E2E2E2E2E2E2E2E2E2E2E2E2E2E2E2E2E2E2E2E2E2E2E2E2E2E2E2E2E2E2E2E2F5
310
EF00E2E2E2E2E2E2E2E2E2E2E2E2E2E2E2E2E2E2E2E2E2E2E2E2E2F5F5F5F5F5F5F5F5F5F5F5F5F5F5E2E2E2F5F5F5F5F5F5F5E2E2F5F5F5F5F5F5F5F5F5F5F5E2E2E2E2E2E2E2E2E2E2E2E2E2E2E2E2E2E2E2E2E2E2E2E2E2E2E2E2E2E2E2E2E2E2E2F5EF00E2E2E2E2E2E2E2E2E2F5F5F5F5F5F5F5F5F5F5F5F5E2E2E2E2
310
F5F5F5F5F5F5F5F5F5F5F5F5F5F5E2E2E2F5F5F5F5F5F5F5E2E2F5F5F5F5F5F5F5F5F5F5F5E2E2E2E2E2E2E2E2E2E2E2E2E2E2E2E2E2E2E2E2E2E2E2E2E2E2E2E2E2E2E2E2E2E2E2F5EF74E2E2E2E2E2E2E2E2F5F5F5F5F5F5F5F5F5F5F5F5F5F5F5E2E2F5F5F5F5F5F5F5F5F5F5F5F5F5F5F5F5F5F5F5F5F5F5F5F5F5F5F5
310
F5F5F5F5F5F5F5F5F5F5F5F5F5F5F5F5F5F5F5F5F5F5F5F5F5F5F5F5F5F5F5F5F5F5F5F5F5F5F5E2E2E2E2E2E2F5EF53E2E2E2E2E2E2E2F5F5F5F5F5F5F5F5F5F5F5F5F5F5F5F5F5E2F5F5F5F5F5F5F5F5F5F5F5F5F5F5F5F5F5F5F5F5F5F5F5F5F5F5F5F5F5F5F5F5F5F5F5F5F5F5F5F5F5F5F5F5F5F5F5F5F5F5F5F5F5F5
310
F5F5F5F5F5F5F5F5F5F5F5F5E2E2E2E2E2E2F5EF00E2F5E2E2E2E2E2F5F5F5F5F5F5F5F5F5F5F5F5F5F5E2E2F5E2F5F5F5F5F5F5F5F5F5F5F5F5F5F5F5F5F5F5F5E2E2E2E2E2E2E2E2E2E2E2E2E2E2E2E2E2E2E2E2E2E2E2E2E2E2E2E2E2E2E2E2E2E2E2E2E2E2E2E2E2E2E2E2E2E2E2E2E2E2F5E2E2F5EF00E2F5E2E2E2E2
310
E2F5F5E2F5F5F5F5F5F5F5F5F5F5F5E2E2F5E2E2E2E2E2E2E2E2E2E2E2E2E2E2E2E2E2E2E2E2E2E2E2E2E2E2E2E2E2E2E2E2E2E2E2E2E2E2E2E2E2E2E2E2E2E2E2E2E2E2E2E2E2E2E2E2E2E2E2E2E2E2E2E2E2E2E2E2E2E2F5E2E2F5EF00E2F5E2E2E2E2E2E2F5F5F5F5F5F5F5F5F5F5F5E2E2F5F5F5E2F5F5F5F5F5F5F5F5
310
F5F5F5F5F5F5F5F5F5F5F5F5F5F5F5F5F5F5F5F5F5F5F5F5F5F5F5F5F5F5F5F5F5F5F5F5F5F5F5F5F5F5F5F5F5F5F5F5F5F5F5F5F5F5F5F5E2E2E2E2E2F5E2E2F5EF00E2F5E2E2E2E2E2E2E2F5F5F5F5F5F5E2E2F5F5F5F5F5F5E2E2F5F5F5F5F5F5F5F5F5F5F5F5F5F5F5F5F5F5F5F5F5F5F5F5F5F5F5F5F5F5F5F5F5F5F5
310
F5F5F5F5F5F5F5F5F5F5F5F5F5F5F5F5F5F5F5F5F5F5F5F5F5F5F5F5F5E2E2E2E2E2F5E2E2F5EF00E2F5E2E2E2E2E2E2E2E2E2E2F5F5F5F5F5F5F5F5E2E2E2E2E2E2E2E2E2E2E2E2E2E2E2E2E2E2E2E2E2E2E2E2E2E2E2E2E2E2E2E2E2E2E2E2E2E2E2E2E2E2E2E2E2E2E2E2E2E2E2E2E2E2E2E2E2E2E2E2E2E2E2E2E2E2E2
310
E2E2E2E2E2E2E2F5E2E2F5EF00E2F5E2E2E2E2E2E2E2E2E2E2E2E2E2E2E2E2E2E2E2E2E2E2E2E2E2E2E2E2E2E2E2E2E2E2E2E2E2E2E2E2E2E2E2E2E2E2E2E2E2E2E2E2E2E2E2E2E2E2E2E2E2E2E2E2E2E2E2E2E2E2E2E2E2E2E2E2E2E2E2E2E2E2E2E2E2E2E2E2E2E2E2E2F5E2E2F5EF00E2F5E2E2E2E2E2E2E2E2E2E2E2E2
310
E2E2E2E2E2E2E2E2E2E2E2E2E2E2E2E2E2E2E2E2E2E2E2E2E2E2E2E2E2E2E2E2E2E2E2E2E2E2E2E2E2E2E2E2E2E2E2E2E2E2E2E2E2E2E2E2E2E2E2E2E2E2E2E2E2E2E2E2E2E2E2E2E2E2E2E2E2E2E2E2F5E2E2F5EF00E2F5E2E2E2E2E2E2E2E2E2E2E2E2E2E2E2E2E2E2E2E2E2E2E2E2E2E2E2E2E2E2E2E2E2E2E2E2E2E2E2
310
E2E2E2E2E2E2E2E2E2E2E2E2E2E2E2E2E2E2E2E2E2E2E2E2E2E2E2E2E2E2E2E2E2E2E2E2E2E2E2E2E2E2E2E2E2E2E2E2E2E2E2E2E2F5E2E2F5EF00E2F5F5F5F5F5F5F5F5E2E2E2E2E2E2E2E2F5F5F5F5F5F5F5F5F5F5F5F5F5F5F5E2E2E2E2E2E2E2E2E2F5F5F5F5F5F5F5F5F5F5F5F5F5F5E2E2E2E2E2E2E2E2E2F5F5F5F5
310
F5F5F5F5F5F5F5F5F5F5F5E2E2E2E2E2E2E2E2F5F5F5F5F5F5F5F5E2E2F5EF00E2E2E2E2E2E2E2E2E2E2E2E2E2E2E2E2E2E2E2E2E2E2E2E2E2E2E2E2E2E2E2E2E2E2E2E2E2E2E2E2E2E2E2E2E2E2E2E2E2E2E2E2E2E2E2E2E2E2E2E2E2E2E2E2E2E2E2E2E2E2E2E2E2E2E2E2E2E2E2E2E2E2E2E2E2E2E2E2E2E2E2E2E2E2E2
310
E2E2F5EF00E2E2E2E2E2E2E2E2E2E2E2E2E2E2E2E2E2E2E2E2E2E2E2E2E2E2E2E2E2E2E2E2E2E2E2E2E2E2E2E2E2E2E2E2E2E2E2E2E2E2E2E2E2E2E2E2E2E2E2E2E2E2E2E2E2E2E2E2E2E2E2E2E2E2E2E2E2E2E2E2E2E2E2E2E2E2E2E2E2E2E2E2E2E2E2E2E2F5EF00F5F5F5F5F5F5F5F5F5F5F5F5F5F5F5F5F5F5F5F5F5F5
310
F5F5F5F5F5F5F5F5F5F5F5F5F5F5F5F5F5F5F5F5F5F5F5F5F5F5F5F5F5F5F5F5F5F5F5F5F5F5F5F5F5F5F5F5F5F5F5F5F5F5F5F5F5F5F5F5F5F5F5F5F5F5F5F5F5F5F5F5F5F5F5F5F5F5F5F5EF00
  0
XRECORD
  5
3061
102
{ACAD_REACTORS
330
2BA7
102
}
330
2BA7
100
AcDbXrecord
280
     1
102
MATERIAL
148
0.0
149
0.0
149
0.0
 93
        0
 94
      127
282
     0
 72
     0
 77
     0
171
     0
175
     0
179
     0
273
     0
  0
XRECORD
  5
2BA9
102
{ACAD_REACTORS
330
2BA7
102
}
330
2BA7
100
AcDbXrecord
280
     1
270
     1
271
     1
  0
XRECORD
  5
2BA8
102
{ACAD_REACTORS
330
2BA7
102
}
330
2BA7
100
AcDbXrecord
280
     1
270
     1
271
     1
  0
XRECORD
  5
2BAC
102
{ACAD_REACTORS
330
2BA7
102
}
330
2BA7
100
AcDbXrecord
280
     1
270
     1
271
     1
  0
XRECORD
  5
2BAB
102
{ACAD_REACTORS
330
2BA7
102
}
330
2BA7
100
AcDbXrecord
280
     1
270
     1
271
     1
  0
XRECORD
  5
2BAD
102
{ACAD_REACTORS
330
2BA7
102
}
330
2BA7
100
AcDbXrecord
280
     1
270
     1
271
     1
  0
XRECORD
  5
2BAA
102
{ACAD_REACTORS
330
2BA7
102
}
330
2BA7
100
AcDbXrecord
280
     1
270
     1
271
     1
  0
XRECORD
  5
3060
102
{ACAD_REACTORS
330
2B9F
102
}
330
2B9F
100
AcDbXrecord
280
     1
102
MATERIAL
148
0.0
149
0.0
149
0.0
 93
        0
 94
      127
282
     0
 72
     0
 77
     0
171
     0
175
     0
179
     0
273
     0
  0
XRECORD
  5
2BA1
102
{ACAD_REACTORS
330
2B9F
102
}
330
2B9F
100
AcDbXrecord
280
     1
270
     1
271
     1
  0
XRECORD
  5
2BA0
102
{ACAD_REACTORS
330
2B9F
102
}
330
2B9F
100
AcDbXrecord
280
     1
270
     1
271
     1
  0
XRECORD
  5
2BA4
102
{ACAD_REACTORS
330
2B9F
102
}
330
2B9F
100
AcDbXrecord
280
     1
270
     1
271
     1
  0
XRECORD
  5
2BA3
102
{ACAD_REACTORS
330
2B9F
102
}
330
2B9F
100
AcDbXrecord
280
     1
270
     1
271
     1
  0
XRECORD
  5
2BA5
102
{ACAD_REACTORS
330
2B9F
102
}
330
2B9F
100
AcDbXrecord
280
     1
270
     1
271
     1
  0
XRECORD
  5
2BA2
102
{ACAD_REACTORS
330
2B9F
102
}
330
2B9F
100
AcDbXrecord
280
     1
270
     1
271
     1
  0
XRECORD
  5
3062
102
{ACAD_REACTORS
330
2BAF
102
}
330
2BAF
100
AcDbXrecord
280
     1
102
MATERIAL
148
0.0
149
0.0
149
0.0
 93
        0
 94
      127
282
     0
 72
     0
 77
     0
171
     0
175
     0
179
     0
273
     0
  0
XRECORD
  5
2BB1
102
{ACAD_REACTORS
330
2BAF
102
}
330
2BAF
100
AcDbXrecord
280
     1
270
     1
271
     1
  0
XRECORD
  5
2BB0
102
{ACAD_REACTORS
330
2BAF
102
}
330
2BAF
100
AcDbXrecord
280
     1
270
     1
271
     1
  0
XRECORD
  5
2BB4
102
{ACAD_REACTORS
330
2BAF
102
}
330
2BAF
100
AcDbXrecord
280
     1
270
     1
271
     1
  0
XRECORD
  5
2BB3
102
{ACAD_REACTORS
330
2BAF
102
}
330
2BAF
100
AcDbXrecord
280
     1
270
     1
271
     1
  0
XRECORD
  5
2BB5
102
{ACAD_REACTORS
330
2BAF
102
}
330
2BAF
100
AcDbXrecord
280
     1
270
     1
271
     1
  0
XRECORD
  5
2BB2
102
{ACAD_REACTORS
330
2BAF
102
}
330
2BAF
100
AcDbXrecord
280
     1
270
     1
271
     1
  0
XRECORD
  5
31AA
102
{ACAD_REACTORS
330
31A9
102
}
330
31A9
100
AcDbXrecord
280
     1
102
SHADEPLOT
 70
     0
102
SHADEPLOTRESLEVEL
 70
     2
102
SHADEPLOTCUSTOMDPI
 70
   300
  0
XRECORD
  5
31AC
102
{ACAD_REACTORS
330
31AB
102
}
330
31AB
100
AcDbXrecord
280
     1
102
SHADEPLOT
 70
     0
102
SHADEPLOTRESLEVEL
 70
     2
102
SHADEPLOTCUSTOMDPI
 70
   300
  0
ACAD_PROXY_OBJECT
  5
3053
102
{ACAD_REACTORS
330
2CE5
102
}
330
2CE5
100
AcDbProxyObject
 90
      499
 91
      514
 95
   983063
 70
     0
 93
     5304
310
40D054060020000020000003200101A000080002A5058000000C10000000000000006101010000000000003E0FC000000000000F83F0000000000003E0FC000000000000F83F02B5E8DC0F42B1CFC0AD7A3703D0AC73F419019018000000C1003FBFFFFFE0000000000003C8FD029018000000C1003FBFFFFFE00000000000
310
03C8FD049018000000C1003FBFFFFFE0000000000003C8FD089018000000C1003FBFFFFFE0000000000003C8FD109018000000C1003FBFFFFFE0000000000003C8FD209018000000C1003FBFFFFFE0000000000003C8FD01405075F5449544C450041501A8000000C800406800020000A94160000003040000000000000012
310
40404000000000000F83F0000000000003E0FC000000000000F83F0000000000003E0FC0AD7A3703D0AC73F02B5E8DC0F42B1CFD0640640600000030400FEFFFFFF8000000000000F23F40A40600000030400FEFFFFFF8000000000000F23F41240600000030400FEFFFFFF8000000000000F23F42240600000030400FEFFF
310
FFF8000000000000F23F44240600000030400FEFFFFFF8000000000000F23F48240600000030400FEFFFFFF8000000000000F23F409014217D2115051115480105406A0000003200101A000080002A5028000000C10000000000000004901010000000000003E0FC000000000000F83F0000000000003E0FC000000000000F
310
83F02B5E8DC0F42B1CFC0AD7A3703D0AC73F419019018000000C1003FBFFFFFE0000000000003C8FD029018000000C1003FBFFFFFE0000000000003C8FD049018000000C1003FBFFFFFE0000000000003C8FD089018000000C1003FBFFFFFE0000000000003C8FD109018000000C1003FBFFFFFE0000000000003C8FD20901
310
8000000C1003FBFFFFFE0000000000003C8FD03409065F444154410000
340
11
340
0
340
0
340
0
340
0
340
0
340
0
340
11
340
0
340
0
340
0
340
0
340
0
340
0
340
11
340
0
340
0
340
0
340
0
340
0
340
0
 94
        0
1001
ACAD
1000
AcRTDxfName
1000
CELLSTYLEMAP
1000
AcRTDxfName
1000
CELLSTYLEMAP
1000
AcRTDxfName
1000
CELLSTYLEMAP
1000
AcRTDxfName
1000
CELLSTYLEMAP
  0
XRECORD
  5
3063
102
{ACAD_REACTORS
330
2CE5
102
}
330
2CE5
100
AcDbXrecord
280
     1
102
ACAD_ROUNDTRIP_PRE2007_TABLESTYLE
 90
      512
 91
        0
  1

 92
      512
 93
        0
  2

 94
      512
 95
        0
  3

  0
ENDSEC
  0
EOF
