  0
SECTION
  2
HEADER
  9
$ACADVER
  1
AC1015
  9
$ACADMAINTVER
 70
    20
  9
$DWGCODEPAGE
  3
ANSI_1252
  9
$INSBASE
 10
0.0
 20
0.0
 30
0.0
  9
$EXTMIN
 10
-0.0000008078504834
 20
0.0000001108869583
 30
0.0
  9
$EXTMAX
 10
353.9999991921495
 20
482.0000001108869
 30
0.0
  9
$LIMMIN
 10
-0.0000008078504834
 20
0.0000001108869583
  9
$LIMMAX
 10
353.9999991921495
 20
482.0000001108869
  9
$ORTHOMODE
 70
     0
  9
$REGENMODE
 70
     1
  9
$FILLMODE
 70
     1
  9
$QTEXTMODE
 70
     0
  9
$MIRRTEXT
 70
     0
  9
$LTSCALE
 40
1.0
  9
$ATTMODE
 70
     1
  9
$TEXTSIZE
 40
5.0
  9
$TRACEWID
 40
1.0
  9
$TEXTSTYLE
  7
Arial-Bold
  9
$CLAYER
  8
APL Joinery
  9
$CELTYPE
  6
ByLayer
  9
$CECOLOR
 62
   256
  9
$CELTSCALE
 40
1.0
  9
$DISPSILH
 70
     0
  9
$DIMSCALE
 40
1.0
  9
$DIMASZ
 40
4.0
  9
$DIMEXO
 40
0.625
  9
$DIMDLI
 40
3.75
  9
$DIMRND
 40
0.0
  9
$DIMDLE
 40
0.0
  9
$DIMEXE
 40
1.25
  9
$DIMTP
 40
0.0
  9
$DIMTM
 40
0.0
  9
$DIMTXT
 40
2.5
  9
$DIMCEN
 40
2.5
  9
$DIMTSZ
 40
0.0
  9
$DIMTOL
 70
     0
  9
$DIMLIM
 70
     0
  9
$DIMTIH
 70
     0
  9
$DIMTOH
 70
     0
  9
$DIMSE1
 70
     0
  9
$DIMSE2
 70
     0
  9
$DIMTAD
 70
     1
  9
$DIMZIN
 70
     8
  9
$DIMBLK
  1

  9
$DIMASO
 70
     1
  9
$DIMSHO
 70
     1
  9
$DIMPOST
  1

  9
$DIMAPOST
  1

  9
$DIMALT
 70
     0
  9
$DIMALTD
 70
     3
  9
$DIMALTF
 40
0.03937007874016
  9
$DIMLFAC
 40
1.0
  9
$DIMTOFL
 70
     1
  9
$DIMTVP
 40
0.0
  9
$DIMTIX
 70
     0
  9
$DIMSOXD
 70
     0
  9
$DIMSAH
 70
     0
  9
$DIMBLK1
  1

  9
$DIMBLK2
  1

  9
$DIMSTYLE
  2
ISO-25
  9
$DIMCLRD
 70
     0
  9
$DIMCLRE
 70
     0
  9
$DIMCLRT
 70
     0
  9
$DIMTFAC
 40
1.0
  9
$DIMGAP
 40
0.625
  9
$DIMJUST
 70
     0
  9
$DIMSD1
 70
     0
  9
$DIMSD2
 70
     0
  9
$DIMTOLJ
 70
     0
  9
$DIMTZIN
 70
     8
  9
$DIMALTZ
 70
     0
  9
$DIMALTTZ
 70
     0
  9
$DIMUPT
 70
     0
  9
$DIMDEC
 70
     2
  9
$DIMTDEC
 70
     2
  9
$DIMALTU
 70
     2
  9
$DIMALTTD
 70
     3
  9
$DIMTXSTY
  7
Standard
  9
$DIMAUNIT
 70
     0
  9
$DIMADEC
 70
     0
  9
$DIMALTRND
 40
0.0
  9
$DIMAZIN
 70
     0
  9
$DIMDSEP
 70
    44
  9
$DIMATFIT
 70
     3
  9
$DIMFRAC
 70
     0
  9
$DIMLDRBLK
  1

  9
$DIMLUNIT
 70
     2
  9
$DIMLWD
 70
    -2
  9
$DIMLWE
 70
    -2
  9
$DIMTMOVE
 70
     0
  9
$LUNITS
 70
     2
  9
$LUPREC
 70
     4
  9
$SKETCHINC
 40
1.0
  9
$FILLETRAD
 40
0.0
  9
$AUNITS
 70
     0
  9
$AUPREC
 70
     0
  9
$MENU
  1
.
  9
$ELEVATION
 40
0.0
  9
$PELEVATION
 40
0.0
  9
$THICKNESS
 40
0.0
  9
$LIMCHECK
 70
     0
  9
$CHAMFERA
 40
0.0
  9
$CHAMFERB
 40
0.0
  9
$CHAMFERC
 40
20.0
  9
$CHAMFERD
 40
0.0
  9
$SKPOLY
 70
     0
  9
$TDCREATE
 40
2452283.468413125
  9
$TDUCREATE
 40
2452282.968413125
  9
$TDUPDATE
 40
2455812.471543299
  9
$TDUUPDATE
 40
2455811.971543298
  9
$TDINDWG
 40
0.3822160301
  9
$TDUSRTIMER
 40
0.3822160301
  9
$USRTIMER
 70
     1
  9
$ANGBASE
 50
0.0
  9
$ANGDIR
 70
     0
  9
$PDMODE
 70
     3
  9
$PDSIZE
 40
3.0
  9
$PLINEWID
 40
0.0
  9
$SPLFRAME
 70
     0
  9
$SPLINETYPE
 70
     6
  9
$SPLINESEGS
 70
     8
  9
$HANDSEED
  5
3712
  9
$SURFTAB1
 70
     6
  9
$SURFTAB2
 70
     6
  9
$SURFTYPE
 70
     6
  9
$SURFU
 70
     6
  9
$SURFV
 70
     6
  9
$UCSBASE
  2

  9
$UCSNAME
  2

  9
$UCSORG
 10
0.0
 20
0.0
 30
0.0
  9
$UCSXDIR
 10
1.0
 20
0.0
 30
0.0
  9
$UCSYDIR
 10
0.0
 20
1.0
 30
0.0
  9
$UCSORTHOREF
  2

  9
$UCSORTHOVIEW
 70
     0
  9
$UCSORGTOP
 10
0.0
 20
0.0
 30
0.0
  9
$UCSORGBOTTOM
 10
0.0
 20
0.0
 30
0.0
  9
$UCSORGLEFT
 10
0.0
 20
0.0
 30
0.0
  9
$UCSORGRIGHT
 10
0.0
 20
0.0
 30
0.0
  9
$UCSORGFRONT
 10
0.0
 20
0.0
 30
0.0
  9
$UCSORGBACK
 10
0.0
 20
0.0
 30
0.0
  9
$PUCSBASE
  2

  9
$PUCSNAME
  2

  9
$PUCSORG
 10
0.0
 20
0.0
 30
0.0
  9
$PUCSXDIR
 10
1.0
 20
0.0
 30
0.0
  9
$PUCSYDIR
 10
0.0
 20
1.0
 30
0.0
  9
$PUCSORTHOREF
  2

  9
$PUCSORTHOVIEW
 70
     0
  9
$PUCSORGTOP
 10
0.0
 20
0.0
 30
0.0
  9
$PUCSORGBOTTOM
 10
0.0
 20
0.0
 30
0.0
  9
$PUCSORGLEFT
 10
0.0
 20
0.0
 30
0.0
  9
$PUCSORGRIGHT
 10
0.0
 20
0.0
 30
0.0
  9
$PUCSORGFRONT
 10
0.0
 20
0.0
 30
0.0
  9
$PUCSORGBACK
 10
0.0
 20
0.0
 30
0.0
  9
$USERI1
 70
     0
  9
$USERI2
 70
     0
  9
$USERI3
 70
     0
  9
$USERI4
 70
     0
  9
$USERI5
 70
     0
  9
$USERR1
 40
0.0
  9
$USERR2
 40
0.0
  9
$USERR3
 40
0.0
  9
$USERR4
 40
0.0
  9
$USERR5
 40
0.0
  9
$WORLDVIEW
 70
     1
  9
$SHADEDGE
 70
     3
  9
$SHADEDIF
 70
    70
  9
$TILEMODE
 70
     0
  9
$MAXACTVP
 70
    64
  9
$PINSBASE
 10
0.0
 20
0.0
 30
0.0
  9
$PLIMCHECK
 70
     0
  9
$PEXTMIN
 10
23.17511424685756
 20
4.592594417081727
 30
-0.0015258207003583
  9
$PEXTMAX
 10
201.1942331369429
 20
279.5669717259624
 30
0.0000000349246037
  9
$PLIMMIN
 10
6.559782462509701
 20
-3.511818822914278
  9
$PLIMMAX
 10
216.4484390787206
 20
293.5411902102888
  9
$UNITMODE
 70
     0
  9
$VISRETAIN
 70
     1
  9
$PLINEGEN
 70
     0
  9
$PSLTSCALE
 70
     1
  9
$TREEDEPTH
 70
  3020
  9
$CMLSTYLE
  2
Standard
  9
$CMLJUST
 70
     0
  9
$CMLSCALE
 40
20.0
  9
$PROXYGRAPHICS
 70
     1
  9
$MEASUREMENT
 70
     1
  9
$CELWEIGHT
370
    -1
  9
$ENDCAPS
280
     0
  9
$JOINSTYLE
280
     0
  9
$LWDISPLAY
290
     0
  9
$INSUNITS
 70
     4
  9
$HYPERLINKBASE
  1

  9
$STYLESHEET
  1
A4 Specifier Manual.ctb
  9
$XEDIT
290
     1
  9
$CEPSNTYPE
380
     0
  9
$PSTYLEMODE
290
     1
  9
$FINGERPRINTGUID
  2
{D079D194-C9C2-11D5-B123-005004D48FB5}
  9
$VERSIONGUID
  2
{80C6942F-C334-48A2-97EF-3599493908EC}
  9
$EXTNAMES
290
     1
  9
$PSVPSCALE
 40
0.0
  9
$OLESTARTUP
290
     0
  0
ENDSEC
  0
SECTION
  2
CLASSES
  0
CLASS
  1
ACDBDICTIONARYWDFLT
  2
AcDbDictionaryWithDefault
  3
ObjectDBX Classes
 90
        0
280
     0
281
     0
  0
CLASS
  1
ACDBPLACEHOLDER
  2
AcDbPlaceHolder
  3
ObjectDBX Classes
 90
        0
280
     0
281
     0
  0
CLASS
  1
LAYOUT
  2
AcDbLayout
  3
ObjectDBX Classes
 90
        0
280
     0
281
     0
  0
CLASS
  1
DICTIONARYVAR
  2
AcDbDictionaryVar
  3
ObjectDBX Classes
 90
        0
280
     0
281
     0
  0
CLASS
  1
PLOTSETTINGS
  2
AcDbPlotSettings
  3
ObjectDBX Classes
 90
        0
280
     0
281
     0
  0
CLASS
  1
DIMASSOC
  2
AcDbDimAssoc
  3
"AcDbDimAssoc|Product Desc:     AcDim ARX App For Dimension|Company:          Autodesk, Inc.|WEB Address:      www.autodesk.com"
 90
    32768
280
     0
281
     0
  0
CLASS
  1
SORTENTSTABLE
  2
AcDbSortentsTable
  3
ObjectDBX Classes
 90
        0
280
     0
281
     0
  0
CLASS
  1
MATERIAL
  2
AcDbMaterial
  3
ObjectDBX Classes
 90
        0
280
     0
281
     0
  0
CLASS
  1
VISUALSTYLE
  2
AcDbVisualStyle
  3
ObjectDBX Classes
 90
     4095
280
     0
281
     0
  0
CLASS
  1
TABLESTYLE
  2
AcDbTableStyle
  3
ObjectDBX Classes
 90
     2047
280
     0
281
     0
  0
CLASS
  1
SCALE
  2
AcDbScale
  3
ObjectDBX Classes
 90
     1153
280
     0
281
     0
  0
CLASS
  1
MLEADERSTYLE
  2
AcDbMLeaderStyle
  3
ACDB_MLEADERSTYLE_CLASS
 90
     4095
280
     0
281
     0
  0
CLASS
  1
EXACTERMXREFMAP
  2
ExAcTermXrefMap
  3
EXAC_SERVICE
 90
    33793
280
     0
281
     0
  0
CLASS
  1
NPOCOLLECTION
  2
AcDbImpNonPersistentObjectsCollection
  3
ObjectDBX Classes
 90
    33921
280
     0
281
     0
  0
CLASS
  1
EXACXREFPANELOBJECT
  2
ExAcXREFPanelObject
  3
EXAC_ESW
 90
    33793
280
     0
281
     0
  0
CLASS
  1
CELLSTYLEMAP
  2
AcDbCellStyleMap
  3
ObjectDBX Classes
 90
     1152
280
     0
281
     0
  0
ENDSEC
  0
SECTION
  2
TABLES
  0
TABLE
  2
VPORT
  5
8
102
{ACAD_XDICTIONARY
360
3290
102
}
330
0
100
AcDbSymbolTable
 70
     1
  0
VPORT
  5
34EB
330
8
100
AcDbSymbolTableRecord
100
AcDbViewportTableRecord
  2
*Active
 70
     0
 10
0.0
 20
0.0
 11
1.0
 21
1.0
 12
281.1184205436755
 22
122.5547165851975
 13
0.0
 23
0.0
 14
10.0
 24
10.0
 15
10.0
 25
10.0
 16
0.0
 26
0.0
 36
1.0
 17
0.0
 27
0.0
 37
0.0
 40
724.4398205709192
 41
1.614928909952606
 42
50.0
 43
0.0
 44
0.0
 50
0.0
 51
0.0
 71
     0
 72
 20000
 73
     1
 74
     3
 75
     0
 76
     0
 77
     0
 78
     0
281
     0
 65
     1
110
0.0
120
0.0
130
0.0
111
1.0
121
0.0
131
0.0
112
0.0
122
1.0
132
0.0
 79
     0
146
0.0
  0
ENDTAB
  0
TABLE
  2
LTYPE
  5
5
330
0
100
AcDbSymbolTable
 70
     2
  0
LTYPE
  5
14
330
5
100
AcDbSymbolTableRecord
100
AcDbLinetypeTableRecord
  2
ByBlock
 70
     0
  3

 72
    65
 73
     0
 40
0.0
  0
LTYPE
  5
15
330
5
100
AcDbSymbolTableRecord
100
AcDbLinetypeTableRecord
  2
ByLayer
 70
     0
  3

 72
    65
 73
     0
 40
0.0
  0
LTYPE
  5
16
330
5
100
AcDbSymbolTableRecord
100
AcDbLinetypeTableRecord
  2
Continuous
 70
     0
  3
Solid line
 72
    65
 73
     0
 40
0.0
  0
LTYPE
  5
1123
330
5
100
AcDbSymbolTableRecord
100
AcDbLinetypeTableRecord
  2
DASHED
 70
     0
  3
_ _ _ _ _ _ _ _ _ _ _ _ _ _ _ _
 72
    65
 73
     2
 40
0.2
 49
0.1
 74
     0
 49
-0.1
 74
     0
  0
ENDTAB
  0
TABLE
  2
LAYER
  5
2
102
{ACAD_XDICTIONARY
360
3223
102
}
330
0
100
AcDbSymbolTable
 70
     5
  0
LAYER
  5
10
102
{ACAD_XDICTIONARY
360
323D
102
}
330
2
100
AcDbSymbolTableRecord
100
AcDbLayerTableRecord
  2
0
 70
     4
 62
     7
  6
Continuous
290
     0
370
    -3
390
F
  0
LAYER
  5
2B
102
{ACAD_XDICTIONARY
360
323F
102
}
330
2
100
AcDbSymbolTableRecord
100
AcDbLayerTableRecord
  2
APL Joinery
 70
     0
 62
     2
  6
Continuous
370
    -3
390
F
  0
LAYER
  5
75
102
{ACAD_XDICTIONARY
360
3241
102
}
330
2
100
AcDbSymbolTableRecord
100
AcDbLayerTableRecord
  2
APL Notes
 70
     0
 62
     7
  6
Continuous
370
    -3
390
F
  0
LAYER
  5
2D06
102
{ACAD_XDICTIONARY
360
3243
102
}
330
2
100
AcDbSymbolTableRecord
100
AcDbLayerTableRecord
  2
APL Border
 70
     0
 62
     7
  6
Continuous
370
    -3
390
F
  0
LAYER
  5
31F9
102
{ACAD_XDICTIONARY
360
3247
102
}
330
2
100
AcDbSymbolTableRecord
100
AcDbLayerTableRecord
  2
APL Hatch
 70
     0
 62
   253
  6
Continuous
370
    -3
390
F
  0
ENDTAB
  0
TABLE
  2
STYLE
  5
3
330
0
100
AcDbSymbolTable
 70
     6
  0
STYLE
  5
11
330
3
100
AcDbSymbolTableRecord
100
AcDbTextStyleTableRecord
  2
Standard
 70
     0
 40
0.0
 41
1.0
 50
0.0
 71
     0
 42
3.0
  3
txt
  4

  0
STYLE
  5
56
330
3
100
AcDbSymbolTableRecord
100
AcDbTextStyleTableRecord
  2
Arial-Regular
 70
     0
 40
0.0
 41
1.0
 50
0.0
 71
     0
 42
2.5
  3
ARIAL.TTF
  4

1001
ACAD
1000
Arial
1071
       34
  0
STYLE
  5
58
330
3
100
AcDbSymbolTableRecord
100
AcDbTextStyleTableRecord
  2
Arial-Bold
 70
     0
 40
0.0
 41
1.0
 50
0.0
 71
     0
 42
5.0
  3
ARIALBD.TTF
  4

1001
ACAD
1000
Arial
1071
 33554466
  0
STYLE
  5
36CA
330
3
100
AcDbSymbolTableRecord
100
AcDbTextStyleTableRecord
  2
Times New Roman - Regular
 70
     0
 40
0.0
 41
1.0
 50
0.0
 71
     0
 42
2.5
  3
TIMES.TTF
  4

1001
ACAD
1000
Times New Roman
1071
       18
  0
ENDTAB
  0
TABLE
  2
VIEW
  5
6
330
0
100
AcDbSymbolTable
 70
     0
  0
ENDTAB
  0
TABLE
  2
UCS
  5
7
330
0
100
AcDbSymbolTable
 70
     0
  0
ENDTAB
  0
TABLE
  2
APPID
  5
9
330
0
100
AcDbSymbolTable
 70
     5
  0
APPID
  5
12
330
9
100
AcDbSymbolTableRecord
100
AcDbRegAppTableRecord
  2
ACAD
 70
     0
  0
APPID
  5
31F1
330
9
100
AcDbSymbolTableRecord
100
AcDbRegAppTableRecord
  2
ACAD_MLEADERVER
 70
     0
  0
APPID
  5
3215
330
9
100
AcDbSymbolTableRecord
100
AcDbRegAppTableRecord
  2
DCO15
 70
     0
  0
APPID
  5
328B
330
9
100
AcDbSymbolTableRecord
100
AcDbRegAppTableRecord
  2
ACAD_PSEXT
 70
     0
  0
APPID
  5
34B9
330
9
100
AcDbSymbolTableRecord
100
AcDbRegAppTableRecord
  2
ACAD_EXEMPT_FROM_CAD_STANDARDS
 70
     0
  0
ENDTAB
  0
TABLE
  2
DIMSTYLE
  5
A
330
0
100
AcDbSymbolTable
 70
     2
100
AcDbDimStyleTable
 71
     1
340
27
  0
DIMSTYLE
105
27
330
A
100
AcDbSymbolTableRecord
100
AcDbDimStyleTableRecord
  2
ISO-25
 70
     0
 41
4.0
 42
0.625
 43
3.75
 44
1.25
 73
     0
 74
     0
 77
     1
 78
     8
140
2.5
141
2.5
143
0.03937007874016
147
0.625
171
     3
172
     1
271
     2
272
     2
274
     3
278
    44
283
     0
284
     8
340
11
  0
ENDTAB
  0
TABLE
  2
BLOCK_RECORD
  5
1
330
0
100
AcDbSymbolTable
 70
    26
  0
BLOCK_RECORD
  5
1F
102
{ACAD_XDICTIONARY
360
3138
102
}
330
1
100
AcDbSymbolTableRecord
100
AcDbBlockTableRecord
  2
*Model_Space
340
22
  0
BLOCK_RECORD
  5
3086
330
1
100
AcDbSymbolTableRecord
100
AcDbBlockTableRecord
  2
*Paper_Space
340
3087
  0
BLOCK_RECORD
  5
2679
102
{ACAD_XDICTIONARY
360
3678
102
}
330
1
100
AcDbSymbolTableRecord
100
AcDbBlockTableRecord
  2
07100
340
0
102
{BLKREFS
331
267D
102
}
1001
ACAD
1000
DesignCenter Data
1002
{
1070
     1
1070
     4
1002
}
  0
BLOCK_RECORD
  5
267E
330
1
100
AcDbSymbolTableRecord
100
AcDbBlockTableRecord
  2
sw30mmliner
340
0
102
{BLKREFS
331
2682
102
}
  0
BLOCK_RECORD
  5
2683
102
{ACAD_XDICTIONARY
360
367D
102
}
330
1
100
AcDbSymbolTableRecord
100
AcDbBlockTableRecord
  2
07438
340
0
102
{BLKREFS
331
3132
102
}
1001
ACAD
1000
DesignCenter Data
1002
{
1070
     1
1070
     4
1002
}
  0
BLOCK_RECORD
  5
268E
330
1
100
AcDbSymbolTableRecord
100
AcDbBlockTableRecord
  2
9700520
340
0
102
{BLKREFS
331
3134
102
}
1001
ACAD
1000
DesignCenter Data
1002
{
1070
     1
1070
     4
1002
}
  0
BLOCK_RECORD
  5
26A8
330
1
100
AcDbSymbolTableRecord
100
AcDbBlockTableRecord
  2
6Glass
340
0
102
{BLKREFS
331
26F6
331
26F7
102
}
  0
BLOCK_RECORD
  5
26AE
330
1
100
AcDbSymbolTableRecord
100
AcDbBlockTableRecord
  2
9010604
340
0
102
{BLKREFS
331
26F2
102
}
1001
ACAD
1000
DesignCenter Data
1002
{
1070
     1
1070
     4
1002
}
  0
BLOCK_RECORD
  5
26B4
330
1
100
AcDbSymbolTableRecord
100
AcDbBlockTableRecord
  2
07438Sightline
340
0
310
2800000020000000200000000100080000000000000400000000000000000000000000000000000000000000000080000080000000808000800000008000800080800000C0C0C000C0DCC000F0CAA6000020400000206000002080000020A0000020C0000020E00000400000004020000040400000406000004080000040A0
310
000040C0000040E00000600000006020000060400000606000006080000060A0000060C0000060E00000800000008020000080400000806000008080000080A0000080C0000080E00000A0000000A0200000A0400000A0600000A0800000A0A00000A0C00000A0E00000C0000000C0200000C0400000C0600000C0800000C0
310
A00000C0C00000C0E00000E0000000E0200000E0400000E0600000E0800000E0A00000E0C00000E0E00040000000400020004000400040006000400080004000A0004000C0004000E00040200000402020004020400040206000402080004020A0004020C0004020E000404000004040200040404000404060004040800040
310
40A0004040C0004040E00040600000406020004060400040606000406080004060A0004060C0004060E00040800000408020004080400040806000408080004080A0004080C0004080E00040A0000040A0200040A0400040A0600040A0800040A0A00040A0C00040A0E00040C0000040C0200040C0400040C0600040C08000
310
40C0A00040C0C00040C0E00040E0000040E0200040E0400040E0600040E0800040E0A00040E0C00040E0E00080000000800020008000400080006000800080008000A0008000C0008000E00080200000802020008020400080206000802080008020A0008020C0008020E00080400000804020008040400080406000804080
310
008040A0008040C0008040E00080600000806020008060400080606000806080008060A0008060C0008060E00080800000808020008080400080806000808080008080A0008080C0008080E00080A0000080A0200080A0400080A0600080A0800080A0A00080A0C00080A0E00080C0000080C0200080C0400080C0600080C0
310
800080C0A00080C0C00080C0E00080E0000080E0200080E0400080E0600080E0800080E0A00080E0C00080E0E000C0000000C0002000C0004000C0006000C0008000C000A000C000C000C000E000C0200000C0202000C0204000C0206000C0208000C020A000C020C000C020E000C0400000C0402000C0404000C0406000C0
310
408000C040A000C040C000C040E000C0600000C0602000C0604000C0606000C0608000C060A000C060C000C060E000C0800000C0802000C0804000C0806000C0808000C080A000C080C000C080E000C0A00000C0A02000C0A04000C0A06000C0A08000C0A0A000C0A0C000C0A0E000C0C00000C0C02000C0C04000C0C06000
310
C0C08000C0C0A000F0FBFF00A4A0A000808080000000FF0000FF000000FFFF00FF000000FF00FF00FFFF0000FFFFFF000000000000000000000000000000000000000000000000000000000000000000000000000000000000000000000000000000000000000000000000F7F700000000000000000000000000000000F7F7
310
F7F7F7F7F7F7F7F7F7F7F7F7F7F7F70000000000000000000000000000F7F7F7F7F7F7F7F7F7F7F7F7F7F7F7F7F7F70000000000000000000000000000F7F7000000F7F7F7F700000000000000F7F70000000000000000000000000000F7F7000000F7F7F7F700000000000000F7F70000000000000000000000000000F7F7
310
0000000000000000000000000000F7F70000000000000000000000000000F7F70000000000000000000000000000F7F70000000000000000000000000000F7F70000000000000000000000000000F7F70000000000000000000000000000F7F70000000000000000000000000000F7F70000000000000000000000000000F7
310
F70000000000000000000000000000F7F70000000000000000000000000000F7F70000000000000000000000000000F7F70000000000000000000000000000F7F70000000000000000000000000000F7F700000000000000000000000000F7F7F70000000000000000000000000000F7F700000000FAFAFAFA0000000000F7
310
F7F70000000000000000000000000000F7F700000000FA0000FA0000000000F7F700000000F7F7F7F7F7F7F7F7F7F7F7F7F700000000FA0000FAF7F7F7F7F7F7F700000000F7F7F7F7F7F7F7F7F7F7F7F7F700000000FA0000FAA4A4F7F7F7F7F7F7F7F7F7F7F7F7F7F7F7F700000000F7F700000000FA0000A4A4A4A4A4A4
310
A4F7F7F7F7F7F7F7F7F7F7F7F700000000F7F700000000FA0000A4A400A4A4A4A400000000000000000000000000000000000000000000FA0000FAFAA40000A4A400000000000000000000000000000000000000000000FA000000A4000000A4A400000000000000000000000000000000000000000000FA0000A400000000
310
A4A400000000000000000000000000000000000000000000FA00A4000000A4A4A4A400000000000000000000000000000000000000000000FA00A40000A4A400A4A4F7000000000000000000000000000000000000000000FAA40000A4A40000A4A4F7000000000000000000000000000000000000000000FAA40000A40000
310
00A4A400000000000000000000000000000000000000000000FAA40000A4000000A4A4F7000000000000000000000000000000000000000000FAA40000A4000000A4A4F7000000000000000000000000000000000000000000FAA40000A4000000FA0000000000000000000000000000000000000000000000FAFAFAFAFAFA
310
FAFAFA0000000000000000000000000000000000000000000000000000000000000000000000000000000000000000000000000000000000
102
{BLKREFS
331
3135
331
3137
102
}
1001
ACAD
1000
DesignCenter Data
1002
{
1070
     1
1070
     4
1002
}
  0
BLOCK_RECORD
  5
26CC
102
{ACAD_XDICTIONARY
360
3698
102
}
330
1
100
AcDbSymbolTableRecord
100
AcDbBlockTableRecord
  2
07123
340
0
102
{BLKREFS
331
26F1
102
}
1001
ACAD
1000
DesignCenter Data
1002
{
1070
     1
1070
     4
1002
}
  0
BLOCK_RECORD
  5
26D2
330
1
100
AcDbSymbolTableRecord
100
AcDbBlockTableRecord
  2
9700158
340
0
102
{BLKREFS
331
26F3
331
2732
102
}
1001
ACAD
1000
DesignCenter Data
1002
{
1070
     1
1070
     4
1002
}
  0
BLOCK_RECORD
  5
26E1
330
1
100
AcDbSymbolTableRecord
100
AcDbBlockTableRecord
  2
07123Glaze
340
0
310
2800000020000000200000000100080000000000000400000000000000000000000000000000000000000000000080000080000000808000800000008000800080800000C0C0C000C0DCC000F0CAA6000020400000206000002080000020A0000020C0000020E00000400000004020000040400000406000004080000040A0
310
000040C0000040E00000600000006020000060400000606000006080000060A0000060C0000060E00000800000008020000080400000806000008080000080A0000080C0000080E00000A0000000A0200000A0400000A0600000A0800000A0A00000A0C00000A0E00000C0000000C0200000C0400000C0600000C0800000C0
310
A00000C0C00000C0E00000E0000000E0200000E0400000E0600000E0800000E0A00000E0C00000E0E00040000000400020004000400040006000400080004000A0004000C0004000E00040200000402020004020400040206000402080004020A0004020C0004020E000404000004040200040404000404060004040800040
310
40A0004040C0004040E00040600000406020004060400040606000406080004060A0004060C0004060E00040800000408020004080400040806000408080004080A0004080C0004080E00040A0000040A0200040A0400040A0600040A0800040A0A00040A0C00040A0E00040C0000040C0200040C0400040C0600040C08000
310
40C0A00040C0C00040C0E00040E0000040E0200040E0400040E0600040E0800040E0A00040E0C00040E0E00080000000800020008000400080006000800080008000A0008000C0008000E00080200000802020008020400080206000802080008020A0008020C0008020E00080400000804020008040400080406000804080
310
008040A0008040C0008040E00080600000806020008060400080606000806080008060A0008060C0008060E00080800000808020008080400080806000808080008080A0008080C0008080E00080A0000080A0200080A0400080A0600080A0800080A0A00080A0C00080A0E00080C0000080C0200080C0400080C0600080C0
310
800080C0A00080C0C00080C0E00080E0000080E0200080E0400080E0600080E0800080E0A00080E0C00080E0E000C0000000C0002000C0004000C0006000C0008000C000A000C000C000C000E000C0200000C0202000C0204000C0206000C0208000C020A000C020C000C020E000C0400000C0402000C0404000C0406000C0
310
408000C040A000C040C000C040E000C0600000C0602000C0604000C0606000C0608000C060A000C060C000C060E000C0800000C0802000C0804000C0806000C0808000C080A000C080C000C080E000C0A00000C0A02000C0A04000C0A06000C0A08000C0A0A000C0A0C000C0A0E000C0C00000C0C02000C0C04000C0C06000
310
C0C08000C0C0A000F0FBFF00A4A0A000808080000000FF0000FF000000FFFF00FF000000FF00FF00FFFF0000FFFFFF0000000000000000000000000000000000000000000000000000000000000000000000000000000000000000000000000000000000000000000000000000000000000000000000000000000000000000
310
00000000000000000000000000000000000000000000000000000000000000000000000000000000FB00000000000000000000000000000000000000000000000000000000FBFBFBFB000000000000000000000000000000000000000000000000000000FBFBFB00FB000000FB000000000000000000000000000000000000
310
0000000000FB0000FBFB000000FBFB00000000000000000000000000000000000000000000000000FBFBFB0000FBFBFBFB00000000000000000000000000000000000000000000000000FBFBFB00FBFBFB0000000000000000000000000000000000000000000000000000FB00FB00FBFB0000000000000000000000000000
310
00000000000000000000000000FB00FBFBFB00000000000000000000000000000000000000000000000000000000FB0000FB0000000000000000000000000000000000000000000000000000A40000FB00FB00000000000000FFFFA4A4FFFFFFFFFFFFFFFFFFFFFFFFFFFFA400A40000FBFB00000000000000FF00A4A4FF00
310
00000000000000FF00A4A4FFA4A4A40000FBFB00000000000000FF00A4A4FF0000000000000000FF00A4A4FFA4A4A4FBFBFBFB000000000000A4FF00A4A4FF0000000000000000FF00A4A4FF00A4A4FBFB00FB000000000000A4FF00A4A4FF0000000000000000FF00A4A4FFA4A4A4FBFBFBFB00000000A4A4A4FF00A4A4FF
310
FFFFFFFFFFFFFFFFFF00A4A4FF00A400A400FBFB00000000A4A4A4FF00A4A4FF0000000000000000FF00A4A4FFA4A4A4A4FBFBFB00000000A4A4A4FF00A4A4FF0000000000000000FF00A4A4FFA4A4A4FBFBFB00000000000000A4FF00A4A4FF0000000000000000FF00A4A4FF00A4A4A400FB00000000A4A4A4A4FF00A4A4
310
FF0000000000000000FF00A4A4FFA40000A4FB0000000000A40000A4FF00A4A4FF0000000000000000FF00A4A4FF00A4A4000000000000A4A4A4A400FF00A4A4FF0000000000000000FF00A4A4FFA400000000000000000000000000FF00A4A4FF0000000000000000FF00A4A4FF0000000000000000000000000000FF00A4
310
A4FF0000000000000000FF00A4A4FF0000000000000000000000000000FF00A4A4FF0000000000000000FF00A4A4FF0000000000000000000000000000FF00A4A4FF0000000000000000FF00A4A4FF000000000000000000000000000000000000000000000000000000000000000000000000000000000000000000000000
310
0000000000000000000000000000000000000000000000000000000000000000000000000000000000000000000000000000000000000000
102
{BLKREFS
331
26F8
331
32EB
331
332D
331
3336
331
3374
102
}
1001
ACAD
1000
DesignCenter Data
1002
{
1070
     1
1070
     4
1002
}
  0
BLOCK_RECORD
  5
26FB
102
{ACAD_XDICTIONARY
360
36A0
102
}
330
1
100
AcDbSymbolTableRecord
100
AcDbBlockTableRecord
  2
07116
340
0
102
{BLKREFS
331
26FF
102
}
1001
ACAD
1000
DesignCenter Data
1002
{
1070
     1
1070
     4
1002
}
  0
BLOCK_RECORD
  5
2700
102
{ACAD_XDICTIONARY
360
36A4
102
}
330
1
100
AcDbSymbolTableRecord
100
AcDbBlockTableRecord
  2
07117
340
0
102
{BLKREFS
331
2704
102
}
1001
ACAD
1000
DesignCenter Data
1002
{
1070
     1
1070
     4
1002
}
  0
BLOCK_RECORD
  5
2707
102
{ACAD_XDICTIONARY
360
36A9
102
}
330
1
100
AcDbSymbolTableRecord
100
AcDbBlockTableRecord
  2
07103
340
0
102
{BLKREFS
331
272E
102
}
1001
ACAD
1000
DesignCenter Data
1002
{
1070
     1
1070
     4
1002
}
  0
BLOCK_RECORD
  5
270E
330
1
100
AcDbSymbolTableRecord
100
AcDbBlockTableRecord
  2
Timber Profile 20
340
0
102
{BLKREFS
331
2713
102
}
1001
ACAD
1000
DesignCenter Data
1002
{
1070
     1
1070
     4
1002
}
  0
BLOCK_RECORD
  5
2715
330
1
100
AcDbSymbolTableRecord
100
AcDbBlockTableRecord
  2
9700532
340
0
102
{BLKREFS
331
2719
102
}
1001
ACAD
1000
DesignCenter Data
1002
{
1070
     1
1070
     4
1002
}
  0
BLOCK_RECORD
  5
271B
330
1
100
AcDbSymbolTableRecord
100
AcDbBlockTableRecord
  2
9700529
340
0
102
{BLKREFS
331
2731
102
}
1001
ACAD
1000
DesignCenter Data
1002
{
1070
     1
1070
     4
1002
}
  0
BLOCK_RECORD
  5
2720
330
1
100
AcDbSymbolTableRecord
100
AcDbBlockTableRecord
  2
Timber Profile 14
340
0
102
{BLKREFS
331
2730
102
}
1001
ACAD
1000
DesignCenter Data
1002
{
1070
     1
1070
     4
1002
}
  0
BLOCK_RECORD
  5
2726
330
1
100
AcDbSymbolTableRecord
100
AcDbBlockTableRecord
  2
9010100
340
0
102
{BLKREFS
331
272F
102
}
1001
ACAD
1000
DesignCenter Data
1002
{
1070
     1
1070
     4
1002
}
  0
BLOCK_RECORD
  5
272B
330
1
100
AcDbSymbolTableRecord
100
AcDbBlockTableRecord
  2
07103Sash
340
0
310
2800000020000000200000000100080000000000000400000000000000000000000000000000000000000000000080000080000000808000800000008000800080800000C0C0C000C0DCC000F0CAA6000020400000206000002080000020A0000020C0000020E00000400000004020000040400000406000004080000040A0
310
000040C0000040E00000600000006020000060400000606000006080000060A0000060C0000060E00000800000008020000080400000806000008080000080A0000080C0000080E00000A0000000A0200000A0400000A0600000A0800000A0A00000A0C00000A0E00000C0000000C0200000C0400000C0600000C0800000C0
310
A00000C0C00000C0E00000E0000000E0200000E0400000E0600000E0800000E0A00000E0C00000E0E00040000000400020004000400040006000400080004000A0004000C0004000E00040200000402020004020400040206000402080004020A0004020C0004020E000404000004040200040404000404060004040800040
310
40A0004040C0004040E00040600000406020004060400040606000406080004060A0004060C0004060E00040800000408020004080400040806000408080004080A0004080C0004080E00040A0000040A0200040A0400040A0600040A0800040A0A00040A0C00040A0E00040C0000040C0200040C0400040C0600040C08000
310
40C0A00040C0C00040C0E00040E0000040E0200040E0400040E0600040E0800040E0A00040E0C00040E0E00080000000800020008000400080006000800080008000A0008000C0008000E00080200000802020008020400080206000802080008020A0008020C0008020E00080400000804020008040400080406000804080
310
008040A0008040C0008040E00080600000806020008060400080606000806080008060A0008060C0008060E00080800000808020008080400080806000808080008080A0008080C0008080E00080A0000080A0200080A0400080A0600080A0800080A0A00080A0C00080A0E00080C0000080C0200080C0400080C0600080C0
310
800080C0A00080C0C00080C0E00080E0000080E0200080E0400080E0600080E0800080E0A00080E0C00080E0E000C0000000C0002000C0004000C0006000C0008000C000A000C000C000C000E000C0200000C0202000C0204000C0206000C0208000C020A000C020C000C020E000C0400000C0402000C0404000C0406000C0
310
408000C040A000C040C000C040E000C0600000C0602000C0604000C0606000C0608000C060A000C060C000C060E000C0800000C0802000C0804000C0806000C0808000C080A000C080C000C080E000C0A00000C0A02000C0A04000C0A06000C0A08000C0A0A000C0A0C000C0A0E000C0C00000C0C02000C0C04000C0C06000
310
C0C08000C0C0A000F0FBFF00A4A0A000808080000000FF0000FF000000FFFF00FF000000FF00FF00FFFF0000FFFFFF0000000000000000000000000000000000000000000000000000000000000000000000000000000000000000000000000000000000000000000000000000000000000000000000000000000000000000
310
000000000000000000000000000000000000000000000000000000000000000000000000000000000000000000000000000000000000000000000000FBFBFBFBFBFBFBFBFBFBFBFB0000000000000000000000000000000000000000FBFBFBFBFBFBFBFBFBFBFBFBFBFB0000000000000000000000000000000000000000FB
310
FB000000000000000000FBFBFB000000000000000000000000000000000000FBFB0000000000000000FB0000FBFBFB00000000000000000000000000000000FBFB00000000000000FBFB00000000FBFB00000000000000000000000000FB00FBFB000000000000FBFB000000FBFBFBFB00000000000000000000000000FBFB
310
FBFB0000000000FBFB00000000FBA4A4FB00000000000000000000000000FBFBFB00000000FBFBFBFB000000A4A4A4A4A4A4000000000000000000000000FBFB0000000000FBFBFB00000000000000000000000000000000000000000000FBFB0000000000FB00FB00000000000000000000000000000000000000000000FB
310
FB000000000000FBFB00000000000000000000000000000000000000000000FBFB00000000000000FB00000000000000000000000000000000000000000000FBFB0000000000FBFBFB00000000000000000000000000000000000000000000FBFB0000000000FBFBFB0000000000000000000000000000FB00FBFB00000000
310
FBFB0000000000FB00FB0000000000000000000000000000A4A4A4A4A4A4A4A4A4A4A4A4A4A4A4FB0000000000000000000000000000FAFAA4A4A4A4A4A4A4A4A4A4A4A4A4A4A4FB0000000000000000000000000000FA000000000000000000000000000000A4A4FBFBFB0000000000000000000000FA0000000000000000
310
0000000000FAA4A4A4A4A4FB0000000000000000000000FA000000000000000000000000000000000000FAFB0000000000000000000000FAFAFAFAFAFAFAFAFAFAFAFAFAFAFAA4A4A4A4A4FB0000000000000000000000000000000000000000000000000000A4A4A4A4A40000000000000000000000000000000000000000
310
00000000000000A4A4A4A400000000000000000000000000000000000000000000000000000000A4A40000000000000000000000000000000000000000000000000000000000000000000000000000000000000000000000000000000000000000000000000000000000000000000000000000000000000000000000000000
310
0000000000000000000000000000000000000000000000000000000000000000000000000000000000000000000000000000000000000000
102
{BLKREFS
331
2733
331
2F59
102
}
1001
ACAD
1000
DesignCenter Data
1002
{
1070
     1
1070
     4
1002
}
  0
BLOCK_RECORD
  5
2EB2
102
{ACAD_XDICTIONARY
360
36BC
102
}
330
1
100
AcDbSymbolTableRecord
100
AcDbBlockTableRecord
  2
07111
340
0
102
{BLKREFS
331
2EB7
102
}
1001
ACAD
1000
DesignCenter Data
1002
{
1070
     1
1070
     4
1002
}
  0
BLOCK_RECORD
  5
2EB8
102
{ACAD_XDICTIONARY
360
36C0
102
}
330
1
100
AcDbSymbolTableRecord
100
AcDbBlockTableRecord
  2
07112
340
0
102
{BLKREFS
331
2EBE
102
}
1001
ACAD
1000
DesignCenter Data
1002
{
1070
     1
1070
     4
1002
}
  0
BLOCK_RECORD
  5
2EBF
330
1
100
AcDbSymbolTableRecord
100
AcDbBlockTableRecord
  2
Timber Profile 24 - modified
340
0
102
{BLKREFS
331
3133
102
}
1001
ACAD
1000
DesignCenter Data
1002
{
1070
     1
1070
     4
1002
}
  0
BLOCK_RECORD
  5
3090
330
1
100
AcDbSymbolTableRecord
100
AcDbBlockTableRecord
  2
smartwood a4 SM border
340
0
102
{BLKREFS
331
3095
331
351D
331
3533
102
}
1001
ACAD
1000
DesignCenter Data
1002
{
1070
     1
1070
     4
1002
}
  0
BLOCK_RECORD
  5
30AC
330
1
100
AcDbSymbolTableRecord
100
AcDbBlockTableRecord
  2
smartwood a4 SM attributes (2)
340
0
102
{BLKREFS
331
30C4
331
351E
331
3534
102
}
1001
ACAD
1000
DesignCenter Data
1002
{
1070
     1
1070
     4
1002
}
  0
ENDTAB
  0
ENDSEC
  0
SECTION
  2
BLOCKS
  0
BLOCK
  5
20
330
1F
100
AcDbEntity
  8
0
100
AcDbBlockBegin
  2
*Model_Space
 70
     0
 10
0.0
 20
0.0
 30
0.0
  3
*Model_Space
  1

  0
ENDBLK
  5
21
330
1F
100
AcDbEntity
  8
0
100
AcDbBlockEnd
  0
BLOCK
  5
3088
330
3086
100
AcDbEntity
 67
     1
  8
0
100
AcDbBlockBegin
  2
*Paper_Space
 70
     0
 10
0.0
 20
0.0
 30
0.0
  3
*Paper_Space
  1

  0
ENDBLK
  5
3089
330
3086
100
AcDbEntity
 67
     1
  8
0
100
AcDbBlockEnd
  0
BLOCK
  5
267A
330
2679
100
AcDbEntity
  8
0
100
AcDbBlockBegin
  2
07100
 70
     0
 10
412.3820800908974
 20
422.2176400418753
 30
0.0
  3
07100
  1
07100.dwg
  0
LWPOLYLINE
  5
3676
102
{ACAD_REACTORS
330
3677
102
}
330
2679
100
AcDbEntity
  8
APL Joinery
  6
Continuous
100
AcDbPolyline
 90
      100
 70
     1
 43
0.0
 10
407.1258300908974
 20
407.8904305773189
 42
-0.406909285354144
 10
406.8820800908975
 20
408.1403524401081
 10
406.8820800908975
 20
424.7412301935552
 42
-0.3571470433414134
 10
408.0860084823975
 20
426.2117204528363
 10
413.0820800908972
 20
427.2176400418754
 10
421.8825800908957
 20
427.2176400418754
 10
421.8825800908957
 20
437.7176400418762
 10
437.5325800908972
 20
437.7176400418762
 10
437.5325800908972
 20
442.7176400418753
 10
450.7556760195601
 20
442.7176400418755
 42
0.2544747761516115
 10
450.696505755367
 20
439.8263709579055
 42
-0.5622195450562853
 10
450.4745161408605
 20
439.4613900418749
 10
450.1325800908957
 20
439.4613900418749
 42
0.4142135623730951
 10
449.8825800908957
 20
439.211390041875
 10
449.8825800908957
 20
437.9676400418771
 42
0.4142135623730951
 10
450.1325800908957
 20
437.7176400418762
 10
456.9825800908961
 20
437.7176400418772
 10
456.9825800908961
 20
427.2176400418754
 10
459.9825800908961
 20
427.2176400418754
 10
459.9825800908961
 20
428.7176400418736
 10
458.3825800908957
 20
428.7176400418736
 10
458.3825800908961
 20
437.7176400418772
 42
0.4142135623730951
 10
456.9825800908961
 20
439.1176400418768
 10
455.6830800908969
 20
439.1176400418768
 10
455.6830800908959
 20
439.3480285867577
 42
0.6243132269123214
 10
454.3195396190705
 20
440.0144227537007
 42
-2.046147069503621
 10
454.319539619071
 20
442.4208573300497
 42
0.4767438882633759
 10
455.5979130921818
 20
442.7176400418753
 10
456.9825800908961
 20
442.7176400418741
 42
0.4142135623730951
 10
458.3825800908957
 20
444.1176400418741
 10
458.3825800908957
 20
447.7176400418754
 10
461.709555143821
 20
447.7176400418754
 10
462.209555143821
 20
448.2176400418735
 10
477.209555143821
 20
448.2176400418735
 10
477.709555143821
 20
447.7176400418735
 10
478.959555143821
 20
447.7176400418735
 42
0.9999999999999998
 10
478.959555143821
 20
449.2176400418735
 10
458.3825800908957
 20
449.2176400418735
 10
458.3825800908957
 20
450.4176400418745
 10
458.8825800908957
 20
450.4176400418746
 42
0.9999999999999998
 10
458.8825800908957
 20
451.6176400418745
 10
458.3825800908957
 20
451.6176400418745
 10
458.3825800908966
 20
457.9676400418735
 10
462.732580090897
 20
457.9676400418735
 42
0.9999999999999145
 10
462.732580090897
 20
459.4676400418745
 10
458.3825800908957
 20
459.4676400418745
 10
458.3825800908957
 20
462.8176400418753
 10
458.8825800908957
 20
462.8176400418753
 42
0.9999999999999998
 10
458.8825800908957
 20
464.0176400418753
 10
458.3825800908957
 20
464.0176400418753
 10
458.3825800908957
 20
465.2176400418754
 10
454.8825800908957
 20
465.2176400418754
 10
454.8825800908957
 20
463.1676400418752
 42
0.9999999999999998
 10
455.8825800908957
 20
463.1676400418752
 10
455.8825800908957
 20
463.9176400418752
 10
457.3825800908958
 20
463.9176400418752
 10
457.3825800908958
 20
458.4176400418751
 10
455.8825800908957
 20
458.4176400418751
 10
455.8825800908957
 20
459.1676400418752
 42
0.9999999999999998
 10
454.8825800908957
 20
459.1676400418752
 10
454.8825800908957
 20
457.117640041875
 10
456.8825800908958
 20
457.117640041875
 10
456.8825800908958
 20
455.617640041875
 10
457.1325800908957
 20
455.617640041875
 10
457.1325800908957
 20
453.9176400418751
 10
457.4325800908968
 20
453.6176400418749
 10
457.1325800908957
 20
453.3176400418757
 10
457.1325800908957
 20
451.617640041875
 10
456.8825800908958
 20
451.617640041875
 10
456.8825800908958
 20
444.2176400418754
 10
446.5325800908954
 20
444.2176400418754
 10
446.1325800908958
 20
443.8176400418757
 10
445.7325800908961
 20
444.2176400418754
 10
433.5325800908972
 20
444.2176400418754
 42
0.9999999999999998
 10
433.5325800908972
 20
443.2176400418753
 10
436.0325800908972
 20
443.2176400418753
 10
436.0325800908972
 20
439.2176400418763
 10
427.2825800908972
 20
439.2176400418763
 10
426.8825800908957
 20
438.8176400418766
 10
426.4825800908961
 20
439.2176400418763
 10
421.8825800908957
 20
439.2176400418763
 10
421.8825800908957
 20
441.3150485456059
 10
422.8490864418419
 20
442.989086651282
 42
0.3394542588633784
 10
422.8093567861938
 20
443.2908633465792
 10
421.8825800908957
 20
444.2176400418754
 10
420.3825800908957
 20
444.2176400418754
 10
420.3825800908957
 20
430.2176400418753
 10
407.7899368739002
 20
427.6822107121177
 42
0.3571470433414134
 10
405.3820800908974
 20
424.7412301935552
 10
405.3820800908974
 20
403.2176400418753
 42
0.4142135623730951
 10
406.3820800908975
 20
402.2176400418754
 10
412.1320800908974
 20
402.2176400418754
 42
0.4142135623730951
 10
412.3820800908974
 20
402.4676400418753
 10
412.3820800908974
 20
403.4676400418753
 42
0.4142135623730951
 10
412.1320800908974
 20
403.7176400418753
 10
411.6503150881467
 20
403.7176400418753
 42
-0.5908090823378033
 10
411.4389994395025
 20
404.1012278281349
 42
0.3201949615811702
 10
411.2422449260619
 20
407.6097940923825
 42
0.9999999999999998
 10
410.0719152557326
 20
406.6715358855195
 42
-2.083394336380681
 10
407.6922449260608
 20
406.6715358855194
 42
0.6205504467590894
  0
HATCH
  5
3677
330
2679
100
AcDbEntity
  8
APL Hatch
100
AcDbHatch
 10
0.0
 20
0.0
 30
0.0
210
0.0
220
0.0
230
1.0
  2
SOLID
 70
     1
 71
     1
 91
        1
 92
        1
 93
      100
 72
     2
 10
407.1320800908974
 20
408.1403524401081
 40
0.2500000000000131
 50
91.43254373757162
 51
180.0
 73
     0
 72
     1
 10
406.8820800908975
 20
408.1403524401081
 11
406.8820800908975
 21
424.7412301935552
 72
     2
 10
408.3820800908967
 20
424.7412301935559
 40
1.499999999999317
 50
179.9999999999696
 51
258.6161471069981
 73
     0
 72
     1
 10
408.0860084823975
 20
426.2117204528363
 11
413.0820800908972
 21
427.2176400418754
 72
     1
 10
413.0820800908972
 20
427.2176400418754
 11
421.8825800908957
 21
427.2176400418754
 72
     1
 10
421.8825800908957
 20
427.2176400418754
 11
421.8825800908957
 21
437.7176400418762
 72
     1
 10
421.8825800908957
 20
437.7176400418762
 11
437.5325800908972
 21
437.7176400418762
 72
     1
 10
437.5325800908972
 20
437.7176400418762
 11
437.5325800908972
 21
442.7176400418753
 72
     1
 10
437.5325800908972
 20
442.7176400418753
 11
450.7556760195601
 21
442.7176400418755
 72
     2
 10
453.3825800908967
 20
441.217640041876
 40
3.025000000000496
 50
150.2730117288945
 51
207.3821817981256
 73
     1
 72
     2
 10
450.4745161408605
 20
439.711390041875
 40
0.2500000000000165
 50
332.6178182018861
 51
450.0
 73
     0
 72
     1
 10
450.4745161408605
 20
439.4613900418749
 11
450.1325800908957
 21
439.4613900418749
 72
     2
 10
450.1325800908957
 20
439.211390041875
 40
0.25
 50
90.0
 51
180.0
 73
     1
 72
     1
 10
449.8825800908957
 20
439.211390041875
 11
449.8825800908957
 21
437.9676400418771
 72
     2
 10
450.1325800908962
 20
437.9676400418767
 40
0.2500000000004547
 50
179.9999999998957
 51
269.9999999998958
 73
     1
 72
     1
 10
450.1325800908957
 20
437.7176400418762
 11
456.9825800908961
 21
437.7176400418772
 72
     1
 10
456.9825800908961
 20
437.7176400418772
 11
456.9825800908961
 21
427.2176400418754
 72
     1
 10
456.9825800908961
 20
427.2176400418754
 11
459.9825800908961
 21
427.2176400418754
 72
     1
 10
459.9825800908961
 20
427.2176400418754
 11
459.9825800908961
 21
428.7176400418736
 72
     1
 10
459.9825800908961
 20
428.7176400418736
 11
458.3825800908957
 21
428.7176400418736
 72
     1
 10
458.3825800908957
 20
428.7176400418736
 11
458.3825800908961
 21
437.7176400418772
 72
     2
 10
456.9825800908962
 20
437.717640041877
 40
1.399999999999806
 50
0.000000000006979
 51
90.00000000000698
 73
     1
 72
     1
 10
456.9825800908961
 20
439.1176400418768
 11
455.6830800908969
 21
439.1176400418768
 72
     1
 10
455.6830800908969
 20
439.1176400418768
 11
455.6830800908959
 21
439.3480285867577
 72
     2
 10
454.8384686357779
 20
439.3480285867576
 40
0.844611455118013
 50
0.0000000000115682
 51
127.908313681073
 73
     1
 72
     2
 10
453.3825800908961
 20
441.2176400418753
 40
1.524999999999786
 50
52.0916863189523
 51
307.9083136810661
 73
     0
 72
     2
 10
454.838468635778
 20
443.0872514969932
 40
0.8446114551181407
 50
232.0916863189533
 51
334.0484329360907
 73
     1
 72
     1
 10
455.5979130921818
 20
442.7176400418753
 11
456.9825800908961
 21
442.7176400418741
 72
     2
 10
456.9825800908959
 20
444.1176400418739
 40
1.399999999999806
 50
270.000000000007
 51
360.000000000007
 73
     1
 72
     1
 10
458.3825800908957
 20
444.1176400418741
 11
458.3825800908957
 21
447.7176400418754
 72
     1
 10
458.3825800908957
 20
447.7176400418754
 11
461.709555143821
 21
447.7176400418754
 72
     1
 10
461.709555143821
 20
447.7176400418754
 11
462.209555143821
 21
448.2176400418735
 72
     1
 10
462.209555143821
 20
448.2176400418735
 11
477.209555143821
 21
448.2176400418735
 72
     1
 10
477.209555143821
 20
448.2176400418735
 11
477.709555143821
 21
447.7176400418735
 72
     1
 10
477.709555143821
 20
447.7176400418735
 11
478.959555143821
 21
447.7176400418735
 72
     2
 10
478.959555143821
 20
448.4676400418735
 40
0.75
 50
270.0
 51
450.0
 73
     1
 72
     1
 10
478.959555143821
 20
449.2176400418735
 11
458.3825800908957
 21
449.2176400418735
 72
     1
 10
458.3825800908957
 20
449.2176400418735
 11
458.3825800908957
 21
450.4176400418745
 72
     1
 10
458.3825800908957
 20
450.4176400418745
 11
458.8825800908957
 21
450.4176400418746
 72
     2
 10
458.8825800908957
 20
451.0176400418745
 40
0.5999999999999659
 50
270.0
 51
450.0
 73
     1
 72
     1
 10
458.8825800908957
 20
451.6176400418745
 11
458.3825800908957
 21
451.6176400418745
 72
     1
 10
458.3825800908957
 20
451.6176400418745
 11
458.3825800908966
 21
457.9676400418735
 72
     1
 10
458.3825800908966
 20
457.9676400418735
 11
462.732580090897
 21
457.9676400418735
 72
     2
 10
462.732580090897
 20
458.717640041874
 40
0.7500000000004548
 50
270.0000000000043
 51
449.9999999999956
 73
     1
 72
     1
 10
462.732580090897
 20
459.4676400418745
 11
458.3825800908957
 21
459.4676400418745
 72
     1
 10
458.3825800908957
 20
459.4676400418745
 11
458.3825800908957
 21
462.8176400418753
 72
     1
 10
458.3825800908957
 20
462.8176400418753
 11
458.8825800908957
 21
462.8176400418753
 72
     2
 10
458.8825800908957
 20
463.4176400418753
 40
0.5999999999999659
 50
270.0
 51
450.0
 73
     1
 72
     1
 10
458.8825800908957
 20
464.0176400418753
 11
458.3825800908957
 21
464.0176400418753
 72
     1
 10
458.3825800908957
 20
464.0176400418753
 11
458.3825800908957
 21
465.2176400418754
 72
     1
 10
458.3825800908957
 20
465.2176400418754
 11
454.8825800908957
 21
465.2176400418754
 72
     1
 10
454.8825800908957
 20
465.2176400418754
 11
454.8825800908957
 21
463.1676400418752
 72
     2
 10
455.3825800908957
 20
463.1676400418752
 40
0.5
 50
180.0
 51
360.0
 73
     1
 72
     1
 10
455.8825800908957
 20
463.1676400418752
 11
455.8825800908957
 21
463.9176400418752
 72
     1
 10
455.8825800908957
 20
463.9176400418752
 11
457.3825800908958
 21
463.9176400418752
 72
     1
 10
457.3825800908958
 20
463.9176400418752
 11
457.3825800908958
 21
458.4176400418751
 72
     1
 10
457.3825800908958
 20
458.4176400418751
 11
455.8825800908957
 21
458.4176400418751
 72
     1
 10
455.8825800908957
 20
458.4176400418751
 11
455.8825800908957
 21
459.1676400418752
 72
     2
 10
455.3825800908957
 20
459.1676400418752
 40
0.5
 50
0.0
 51
180.0
 73
     1
 72
     1
 10
454.8825800908957
 20
459.1676400418752
 11
454.8825800908957
 21
457.117640041875
 72
     1
 10
454.8825800908957
 20
457.117640041875
 11
456.8825800908958
 21
457.117640041875
 72
     1
 10
456.8825800908958
 20
457.117640041875
 11
456.8825800908958
 21
455.617640041875
 72
     1
 10
456.8825800908958
 20
455.617640041875
 11
457.1325800908957
 21
455.617640041875
 72
     1
 10
457.1325800908957
 20
455.617640041875
 11
457.1325800908957
 21
453.9176400418751
 72
     1
 10
457.1325800908957
 20
453.9176400418751
 11
457.4325800908968
 21
453.6176400418749
 72
     1
 10
457.4325800908968
 20
453.6176400418749
 11
457.1325800908957
 21
453.3176400418757
 72
     1
 10
457.1325800908957
 20
453.3176400418757
 11
457.1325800908957
 21
451.617640041875
 72
     1
 10
457.1325800908957
 20
451.617640041875
 11
456.8825800908958
 21
451.617640041875
 72
     1
 10
456.8825800908958
 20
451.617640041875
 11
456.8825800908958
 21
444.2176400418754
 72
     1
 10
456.8825800908958
 20
444.2176400418754
 11
446.5325800908954
 21
444.2176400418754
 72
     1
 10
446.5325800908954
 20
444.2176400418754
 11
446.1325800908958
 21
443.8176400418757
 72
     1
 10
446.1325800908958
 20
443.8176400418757
 11
445.7325800908961
 21
444.2176400418754
 72
     1
 10
445.7325800908961
 20
444.2176400418754
 11
433.5325800908972
 21
444.2176400418754
 72
     2
 10
433.5325800908972
 20
443.7176400418754
 40
0.5
 50
90.0
 51
270.0
 73
     1
 72
     1
 10
433.5325800908972
 20
443.2176400418753
 11
436.0325800908972
 21
443.2176400418753
 72
     1
 10
436.0325800908972
 20
443.2176400418753
 11
436.0325800908972
 21
439.2176400418763
 72
     1
 10
436.0325800908972
 20
439.2176400418763
 11
427.2825800908972
 21
439.2176400418763
 72
     1
 10
427.2825800908972
 20
439.2176400418763
 11
426.8825800908957
 21
438.8176400418766
 72
     1
 10
426.8825800908957
 20
438.8176400418766
 11
426.4825800908961
 21
439.2176400418763
 72
     1
 10
426.4825800908961
 20
439.2176400418763
 11
421.8825800908957
 21
439.2176400418763
 72
     1
 10
421.8825800908957
 20
439.2176400418763
 11
421.8825800908957
 21
441.3150485456059
 72
     1
 10
421.8825800908957
 20
441.3150485456059
 11
422.8490864418419
 21
442.989086651282
 72
     2
 10
422.6325800908961
 20
443.1140866512832
 40
0.2500000000002443
 50
329.9999999997315
 51
404.9999999997329
 73
     1
 72
     1
 10
422.8093567861938
 20
443.2908633465792
 11
421.8825800908957
 21
444.2176400418754
 72
     1
 10
421.8825800908957
 20
444.2176400418754
 11
420.3825800908957
 21
444.2176400418754
 72
     1
 10
420.3825800908957
 20
444.2176400418754
 11
420.3825800908957
 21
430.2176400418753
 72
     1
 10
420.3825800908957
 20
430.2176400418753
 11
407.7899368739002
 21
427.6822107121177
 72
     2
 10
408.3820800908974
 20
424.7412301935552
 40
3.000000000000019
 50
101.3838528929718
 51
180.0
 73
     1
 72
     1
 10
405.3820800908974
 20
424.7412301935552
 11
405.3820800908974
 21
403.2176400418753
 72
     2
 10
406.3820800908975
 20
403.2176400418753
 40
1.0
 50
180.0
 51
270.0
 73
     1
 72
     1
 10
406.3820800908975
 20
402.2176400418754
 11
412.1320800908974
 21
402.2176400418754
 72
     2
 10
412.1320800908974
 20
402.4676400418753
 40
0.25
 50
270.0
 51
360.0
 73
     1
 72
     1
 10
412.3820800908974
 20
402.4676400418753
 11
412.3820800908974
 21
403.4676400418753
 72
     2
 10
412.1320800908974
 20
403.4676400418753
 40
0.25
 50
0.0
 51
90.0
 73
     1
 72
     1
 10
412.1320800908974
 20
403.7176400418753
 11
411.6503150881467
 21
403.7176400418753
 72
     2
 10
411.6503150881471
 20
403.9676400418751
 40
0.2499999999997726
 50
90.00000000009119
 51
212.2999183635763
 73
     0
 72
     2
 10
408.8820800908973
 20
405.717640041875
 40
3.024999999999915
 50
327.7000816365276
 51
398.7192973222455
 73
     1
 72
     2
 10
410.6570800908973
 20
407.140664988951
 40
0.749999999999785
 50
38.71929732224645
 51
218.7192973222437
 73
     1
 72
     2
 10
408.8820800908968
 20
405.7176400418747
 40
1.5250000000009
 50
321.2807026777562
 51
578.7192973222365
 73
     0
 72
     2
 10
407.1070800908966
 20
407.1406649889516
 40
0.7499999999998657
 50
321.2807026776973
 51
448.5674562623716
 73
     1
 97
        1
330
3676
 75
     0
 76
     1
 98
        1
 10
0.0
 20
0.0
  0
ENDBLK
  5
267B
330
2679
100
AcDbEntity
  8
0
100
AcDbBlockEnd
  0
BLOCK
  5
267F
330
267E
100
AcDbEntity
  8
0
100
AcDbBlockBegin
  2
sw30mmliner
 70
     0
 10
-8.320245268962722
 20
142.2739088327281
 30
0.0
  3
sw30mmliner
  1
sw30mmliner.dwg
  0
LWPOLYLINE
  5
30D7
330
267E
100
AcDbEntity
  8
APL Joinery
  6
Continuous
 62
     3
100
AcDbPolyline
 90
       16
 70
   129
 43
0.0
 10
-8.320245268962722
 20
161.273908832728
 10
-8.320245268962722
 20
152.973908832728
 10
-3.920245268962716
 20
152.973908832728
 10
-3.920245268962716
 20
150.473908832728
 10
-8.320245268962722
 20
150.473908832728
 10
-8.320245268962722
 20
142.2739088327281
 10
16.67975473103728
 20
142.2739088327281
 10
16.67975473103728
 20
131.273908832728
 10
58.57975473103727
 20
131.273908832728
 10
58.57975473103727
 20
139.2739088327281
 10
68.57975473103727
 20
139.2739088327281
 10
68.57975473103727
 20
131.273908832728
 10
77.57975473103726
 20
131.273908832728
 42
0.4142135623730951
 10
80.57975473103727
 20
134.273908832728
 10
80.57975473103727
 20
158.273908832728
 42
0.4142135623730951
 10
77.57975473103726
 20
161.273908832728
  0
ARC
  5
30D8
330
267E
100
AcDbEntity
  8
APL Joinery
  6
Continuous
 62
     8
100
AcDbCircle
 10
-2.065094850108238
 20
126.3181393429162
 30
0.0
 40
41.9195481519577
100
AcDbArc
 50
10.24507817588775
 51
50.73613270831355
  0
ARC
  5
30D9
330
267E
100
AcDbEntity
  8
APL Joinery
  6
Continuous
 62
     8
100
AcDbCircle
 10
-2.065094850108238
 20
126.3181393429162
 30
0.0
 40
61.9195481519577
100
AcDbArc
 50
14.45446489788398
 51
31.61173285031439
  0
ARC
  5
30DA
330
267E
100
AcDbEntity
  8
APL Joinery
  6
Continuous
 62
     8
100
AcDbCircle
 10
-2.065094850108238
 20
126.3181393429162
 30
0.0
 40
81.91954815195769
100
AcDbArc
 50
11.94794822801606
 51
23.34026053111568
  0
ARC
  5
30DB
330
267E
100
AcDbEntity
  8
APL Joinery
  6
Continuous
 62
     8
100
AcDbCircle
 10
-2.065094850108238
 20
126.3181393429162
 30
0.0
 40
21.9195481519577
100
AcDbArc
 50
57.3495468426925
 51
88.31417642809208
  0
LINE
  5
30DC
330
267E
100
AcDbEntity
  8
APL Joinery
  6
Continuous
 62
     8
100
AcDbLine
 10
1.439132372933531
 20
144.773908832728
 30
0.0
 11
4.097335334867297
 21
158.773908832728
 31
0.0
  0
LINE
  5
30DD
330
267E
100
AcDbEntity
  8
APL Joinery
  6
Continuous
 62
     8
100
AcDbLine
 10
19.17975473103728
 20
143.487533006339
 30
0.0
 11
31.20445811643854
 21
158.773908832728
 31
0.0
  0
LINE
  5
30DE
330
267E
100
AcDbEntity
  8
APL Joinery
  6
Continuous
 62
     8
100
AcDbLine
 10
23.56650084485508
 20
133.773908832728
 30
0.0
 11
78.07975473103725
 21
149.6308324496542
 31
0.0
  0
ENDBLK
  5
2680
330
267E
100
AcDbEntity
  8
0
100
AcDbBlockEnd
  0
BLOCK
  5
2684
330
2683
100
AcDbEntity
  8
0
100
AcDbBlockBegin
  2
07438
 70
     0
 10
436.325250536159
 20
36.66410654514334
 30
0.0
  3
07438
  1
07438.dwg
  0
LWPOLYLINE
  5
367A
102
{ACAD_REACTORS
330
367C
102
}
330
2683
100
AcDbEntity
  8
APL Joinery
  6
Continuous
100
AcDbPolyline
 90
       29
 70
     1
 43
0.0
 10
420.796679107587
 20
63.08270271029969
 42
-0.0604498752216261
 10
420.298064992431
 20
63.73258719137683
 42
0.6669066090348409
 10
418.9266583780278
 20
63.54040445040501
 42
-0.3412868470081918
 10
417.4752505361586
 20
62.41910654514526
 10
404.7252505361586
 20
62.41910654514526
 42
0.4142135623730951
 10
403.7252505361595
 20
61.41910654514527
 10
403.7252505361595
 20
39.16410654514334
 42
0.4142135623730951
 10
404.7252505361595
 20
38.16410654514334
 10
419.6075933096946
 20
38.16410654514334
 42
0.5313489649886676
 10
420.0713955182157
 20
38.85088853402529
 42
-0.2978796563631881
 10
420.796679107588
 20
42.50051037998724
 42
-1.000000000000019
 10
421.9038219647309
 20
41.41573635104039
 42
2.379795897113228
 10
424.546679107588
 20
41.41573635104029
 42
-0.9999999999999998
 10
425.6538219647309
 20
42.50051037998729
 42
-0.2978796563631958
 10
426.3791055541032
 20
38.85088853402587
 42
0.5313489649887251
 10
426.8429077626244
 20
38.16410654514334
 10
433.4252505361593
 20
38.16410654514334
 42
0.4142135623730951
 10
434.4252505361593
 20
39.16410654514334
 10
434.4252505361593
 20
58.66410654514334
 42
-0.4142135623730951
 10
435.9252505361594
 20
60.16410654514334
 10
437.4252505361593
 20
60.16410654514334
 42
0.4142135623730951
 10
437.9252505361593
 20
60.66410654514334
 10
437.9252505361593
 20
66.41910654514345
 42
0.4142135623730951
 10
436.9252505361593
 20
67.41910654514345
 10
426.8429077626235
 20
67.41910654514345
 42
0.5313489649887251
 10
426.3791055541024
 20
66.73232455626133
 42
-0.2978796563631958
 10
425.6538219647301
 20
63.08270271029866
 42
-0.9999999999999996
 10
424.5466791075871
 20
64.16747673924634
 42
2.379795897113631
 10
421.90382196473
 20
64.16747673924577
 42
-1.00000000000014
  0
LWPOLYLINE
  5
367B
102
{ACAD_REACTORS
330
367C
102
}
330
2683
100
AcDbEntity
  8
APL Joinery
  6
Continuous
100
AcDbPolyline
 90
       60
 70
     1
 43
0.0
 10
404.2520272314551
 20
67.99232984984723
 10
403.3252505361589
 20
68.91910654514345
 10
401.825250536159
 20
68.91910654514345
 10
401.825250536159
 20
37.16410654514334
 42
0.4142135623730951
 10
402.325250536159
 20
36.66410654514334
 10
404.575250536159
 20
36.66410654514334
 10
404.575250536159
 20
34.66410654514334
 10
405.5752505361589
 20
34.66410654514334
 10
405.5752505361589
 20
36.66410654514334
 10
434.3252505361589
 20
36.66410654514334
 42
0.4142135623730951
 10
436.325250536159
 20
38.66410654514334
 10
436.325250536159
 20
58.66410654514334
 10
439.825250536159
 20
58.66410654514334
 10
439.825250536159
 20
65.36410654514179
 10
440.1252505361582
 20
65.06410654514161
 10
450.4752505361604
 20
65.06410654514161
 10
450.4752505361604
 20
68.06410654514161
 10
449.2752505361606
 20
68.06410654514161
 10
449.2752505361606
 20
66.46410654514125
 10
440.1252505361582
 20
66.46410654514125
 10
439.825250536159
 20
66.16410654514197
 10
439.825250536159
 20
89.91910654514345
 10
436.325250536159
 20
89.91910654514345
 10
436.325250536159
 20
87.86910654514235
 42
0.9999999999999998
 10
437.3252505361589
 20
87.86910654514235
 10
437.3252505361589
 20
88.61910654514236
 10
438.825250536159
 20
88.61910654514236
 10
438.825250536159
 20
83.11910654514235
 10
437.3252505361589
 20
83.11910654514235
 10
437.3252505361589
 20
83.86910654514236
 42
0.9999999999999998
 10
436.325250536159
 20
83.86910654514236
 10
436.325250536159
 20
81.81910654514309
 10
438.3252505361589
 20
81.81910654514309
 10
438.3252505361589
 20
80.31910654514309
 10
438.575250536159
 20
80.31910654514309
 10
438.575250536159
 20
78.61910654514417
 10
438.87525053616
 20
78.31910654514309
 10
438.575250536159
 20
78.01910654514381
 10
438.575250536159
 20
76.31910654514308
 10
438.3252505361589
 20
76.31910654514308
 10
438.3252505361589
 20
68.91910654514345
 10
427.9752505361586
 20
68.91910654514345
 10
427.5752505361589
 20
68.51910654514381
 10
427.1752505361593
 20
68.91910654514345
 10
414.9752505361586
 20
68.91910654514345
 42
0.9999999999999998
 10
414.9752505361586
 20
67.91910654514345
 10
417.4752505361586
 20
67.91910654514345
 10
417.4752505361586
 20
67.41910654514345
 10
420.0556300460122
 20
67.41910654514345
 42
-0.5675210391690518
 10
420.2757425800504
 20
67.05057185672088
 42
0.096741013795249
 10
419.8948489890304
 20
65.82404336900829
 42
-0.3821661969546914
 10
419.646916634022
 20
65.60104681296603
 42
0.3406114348430476
 10
417.4752505361586
 20
63.91910654514527
 10
408.7252505361586
 20
63.91910654514527
 10
408.3252505361589
 20
63.51910654514381
 10
407.9252505361593
 20
63.91910654514527
 10
403.8252505361589
 20
63.91910654514527
 42
-0.4142135623730951
 10
403.3252505361589
 20
64.41910654514527
 10
403.3252505361589
 20
66.01651504887399
 10
404.2917568871051
 20
67.6905531545492
 42
0.3394542588633784
  0
HATCH
  5
367C
330
2683
100
AcDbEntity
  8
APL Hatch
100
AcDbHatch
 10
0.0
 20
0.0
 30
0.0
210
0.0
220
0.0
230
1.0
  2
SOLID
 70
     1
 71
     1
 91
        2
 92
        1
 93
       60
 72
     1
 10
404.2520272314551
 20
67.99232984984723
 11
403.3252505361589
 21
68.91910654514345
 72
     1
 10
403.3252505361589
 20
68.91910654514345
 11
401.825250536159
 21
68.91910654514345
 72
     1
 10
401.825250536159
 20
68.91910654514345
 11
401.825250536159
 21
37.16410654514334
 72
     2
 10
402.325250536159
 20
37.16410654514334
 40
0.5
 50
180.0
 51
270.0
 73
     1
 72
     1
 10
402.325250536159
 20
36.66410654514334
 11
404.575250536159
 21
36.66410654514334
 72
     1
 10
404.575250536159
 20
36.66410654514334
 11
404.575250536159
 21
34.66410654514334
 72
     1
 10
404.575250536159
 20
34.66410654514334
 11
405.5752505361589
 21
34.66410654514334
 72
     1
 10
405.5752505361589
 20
34.66410654514334
 11
405.5752505361589
 21
36.66410654514334
 72
     1
 10
405.5752505361589
 20
36.66410654514334
 11
434.3252505361589
 21
36.66410654514334
 72
     2
 10
434.3252505361589
 20
38.66410654514334
 40
2.0
 50
270.0
 51
360.0
 73
     1
 72
     1
 10
436.325250536159
 20
38.66410654514334
 11
436.325250536159
 21
58.66410654514334
 72
     1
 10
436.325250536159
 20
58.66410654514334
 11
439.825250536159
 21
58.66410654514334
 72
     1
 10
439.825250536159
 20
58.66410654514334
 11
439.825250536159
 21
65.36410654514179
 72
     1
 10
439.825250536159
 20
65.36410654514179
 11
440.1252505361582
 21
65.06410654514161
 72
     1
 10
440.1252505361582
 20
65.06410654514161
 11
450.4752505361604
 21
65.06410654514161
 72
     1
 10
450.4752505361604
 20
65.06410654514161
 11
450.4752505361604
 21
68.06410654514161
 72
     1
 10
450.4752505361604
 20
68.06410654514161
 11
449.2752505361606
 21
68.06410654514161
 72
     1
 10
449.2752505361606
 20
68.06410654514161
 11
449.2752505361606
 21
66.46410654514125
 72
     1
 10
449.2752505361606
 20
66.46410654514125
 11
440.1252505361582
 21
66.46410654514125
 72
     1
 10
440.1252505361582
 20
66.46410654514125
 11
439.825250536159
 21
66.16410654514197
 72
     1
 10
439.825250536159
 20
66.16410654514197
 11
439.825250536159
 21
89.91910654514345
 72
     1
 10
439.825250536159
 20
89.91910654514345
 11
436.325250536159
 21
89.91910654514345
 72
     1
 10
436.325250536159
 20
89.91910654514345
 11
436.325250536159
 21
87.86910654514235
 72
     2
 10
436.8252505361589
 20
87.86910654514235
 40
0.5
 50
180.0
 51
360.0
 73
     1
 72
     1
 10
437.3252505361589
 20
87.86910654514235
 11
437.3252505361589
 21
88.61910654514236
 72
     1
 10
437.3252505361589
 20
88.61910654514236
 11
438.825250536159
 21
88.61910654514236
 72
     1
 10
438.825250536159
 20
88.61910654514236
 11
438.825250536159
 21
83.11910654514235
 72
     1
 10
438.825250536159
 20
83.11910654514235
 11
437.3252505361589
 21
83.11910654514235
 72
     1
 10
437.3252505361589
 20
83.11910654514235
 11
437.3252505361589
 21
83.86910654514236
 72
     2
 10
436.8252505361589
 20
83.86910654514236
 40
0.5
 50
0.0
 51
180.0
 73
     1
 72
     1
 10
436.325250536159
 20
83.86910654514236
 11
436.325250536159
 21
81.81910654514309
 72
     1
 10
436.325250536159
 20
81.81910654514309
 11
438.3252505361589
 21
81.81910654514309
 72
     1
 10
438.3252505361589
 20
81.81910654514309
 11
438.3252505361589
 21
80.31910654514309
 72
     1
 10
438.3252505361589
 20
80.31910654514309
 11
438.575250536159
 21
80.31910654514309
 72
     1
 10
438.575250536159
 20
80.31910654514309
 11
438.575250536159
 21
78.61910654514417
 72
     1
 10
438.575250536159
 20
78.61910654514417
 11
438.87525053616
 21
78.31910654514309
 72
     1
 10
438.87525053616
 20
78.31910654514309
 11
438.575250536159
 21
78.01910654514381
 72
     1
 10
438.575250536159
 20
78.01910654514381
 11
438.575250536159
 21
76.31910654514308
 72
     1
 10
438.575250536159
 20
76.31910654514308
 11
438.3252505361589
 21
76.31910654514308
 72
     1
 10
438.3252505361589
 20
76.31910654514308
 11
438.3252505361589
 21
68.91910654514345
 72
     1
 10
438.3252505361589
 20
68.91910654514345
 11
427.9752505361586
 21
68.91910654514345
 72
     1
 10
427.9752505361586
 20
68.91910654514345
 11
427.5752505361589
 21
68.51910654514381
 72
     1
 10
427.5752505361589
 20
68.51910654514381
 11
427.1752505361593
 21
68.91910654514345
 72
     1
 10
427.1752505361593
 20
68.91910654514345
 11
414.9752505361586
 21
68.91910654514345
 72
     2
 10
414.9752505361586
 20
68.41910654514345
 40
0.5
 50
90.0
 51
270.0
 73
     1
 72
     1
 10
414.9752505361586
 20
67.91910654514345
 11
417.4752505361586
 21
67.91910654514345
 72
     1
 10
417.4752505361586
 20
67.91910654514345
 11
417.4752505361586
 21
67.41910654514345
 72
     1
 10
417.4752505361586
 20
67.41910654514345
 11
420.0556300460122
 21
67.41910654514345
 72
     2
 10
420.0556300460122
 20
67.16910654514326
 40
0.2500000000001847
 50
270.000000000013
 51
388.3032891696901
 73
     0
 72
     2
 10
423.2252505361599
 20
65.46220703186198
 40
3.350000000000415
 50
151.6967108303066
 51
173.7993377284854
 73
     1
 72
     2
 10
419.64631156014
 20
65.85104608073635
 40
0.2500000000001974
 50
6.200662271676968
 51
89.86132714568098
 73
     0
 72
     2
 10
419.652362298962
 20
63.35105340303538
 40
2.249999999999556
 50
90.13867285436694
 51
165.3763923539196
 73
     1
 72
     1
 10
417.4752505361586
 20
63.91910654514527
 11
408.7252505361586
 21
63.91910654514527
 72
     1
 10
408.7252505361586
 20
63.91910654514527
 11
408.3252505361589
 21
63.51910654514381
 72
     1
 10
408.3252505361589
 20
63.51910654514381
 11
407.9252505361593
 21
63.91910654514527
 72
     1
 10
407.9252505361593
 20
63.91910654514527
 11
403.8252505361589
 21
63.91910654514527
 72
     2
 10
403.8252505361589
 20
64.41910654514527
 40
0.5
 50
90.0
 51
180.0
 73
     0
 72
     1
 10
403.3252505361589
 20
64.41910654514527
 11
403.3252505361589
 21
66.01651504887399
 72
     1
 10
403.3252505361589
 20
66.01651504887399
 11
404.2917568871051
 21
67.6905531545492
 72
     2
 10
404.0752505361579
 20
67.8155531545496
 40
0.2500000000011548
 50
330.0000000000475
 51
405.0000000000552
 73
     1
 97
        1
330
367B
 92
       16
 93
       29
 72
     2
 10
423.2252505361584
 20
65.4622070318614
 40
3.400000000000602
 50
135.5846914027957
 51
149.4219440464481
 73
     0
 72
     2
 10
419.652362298962
 20
63.35105340303504
 40
0.7499999999996986
 50
30.57805595353652
 51
165.3763923539151
 73
     1
 72
     2
 10
417.4752505361586
 20
63.91910654514527
 40
1.500000000000006
 50
14.62360764609013
 51
90.0
 73
     0
 72
     1
 10
417.4752505361586
 20
62.41910654514526
 11
404.7252505361586
 21
62.41910654514526
 72
     2
 10
404.7252505361591
 20
61.41910654514572
 40
0.9999999999995452
 50
90.00000000002605
 51
180.000000000026
 73
     1
 72
     1
 10
403.7252505361595
 20
61.41910654514527
 11
403.7252505361595
 21
39.16410654514334
 72
     2
 10
404.7252505361595
 20
39.16410654514334
 40
1.0
 50
180.0
 51
270.0
 73
     1
 72
     1
 10
404.7252505361595
 20
38.16410654514334
 11
419.6075933096946
 21
38.16410654514334
 72
     2
 10
419.6075933096947
 20
38.66410654514309
 40
0.4999999999997442
 50
269.999999999987
 51
381.9355856718543
 73
     1
 72
     2
 10
423.2252505361596
 20
40.12100605842653
 40
3.4000000000001
 50
158.0644143281155
 51
224.415308597189
 73
     0
 72
     2
 10
421.3502505361594
 20
41.95812336551383
 40
0.7750000000000483
 50
224.4153085971889
 51
404.4153085971929
 73
     0
 72
     2
 10
423.2252505361594
 20
40.1210060584264
 40
1.849999999999965
 50
135.5846914028049
 51
404.4153085971892
 73
     1
 72
     2
 10
425.1002505361594
 20
41.95812336551379
 40
0.7750000000000317
 50
135.5846914028003
 51
315.5846914028037
 73
     0
 72
     2
 10
423.2252505361598
 20
40.12100605842674
 40
3.399999999999594
 50
315.5846914028062
 51
381.9355856718812
 73
     0
 72
     2
 10
426.8429077626244
 20
38.66410654514334
 40
0.5000000000000047
 50
158.0644143281158
 51
270.0
 73
     1
 72
     1
 10
426.8429077626244
 20
38.16410654514334
 11
433.4252505361593
 21
38.16410654514334
 72
     2
 10
433.4252505361593
 20
39.16410654514334
 40
1.0
 50
270.0
 51
360.0
 73
     1
 72
     1
 10
434.4252505361593
 20
39.16410654514334
 11
434.4252505361593
 21
58.66410654514334
 72
     2
 10
435.9252505361594
 20
58.66410654514334
 40
1.5
 50
180.0
 51
270.0
 73
     0
 72
     1
 10
435.9252505361594
 20
60.16410654514334
 11
437.4252505361593
 21
60.16410654514334
 72
     2
 10
437.4252505361593
 20
60.66410654514334
 40
0.5
 50
270.0
 51
360.0
 73
     1
 72
     1
 10
437.9252505361593
 20
60.66410654514334
 11
437.9252505361593
 21
66.41910654514345
 72
     2
 10
436.9252505361593
 20
66.41910654514345
 40
1.0
 50
0.0
 51
90.0
 73
     1
 72
     1
 10
436.9252505361593
 20
67.41910654514345
 11
426.8429077626235
 21
67.41910654514345
 72
     2
 10
426.8429077626233
 20
66.91910654514369
 40
0.4999999999997585
 50
89.99999999998697
 51
201.9355856718758
 73
     1
 72
     2
 10
423.225250536158
 20
65.46220703185989
 40
3.400000000000702
 50
338.064414328116
 51
404.4153085971912
 73
     0
 72
     2
 10
425.1002505361586
 20
63.6250897247725
 40
0.775000000000306
 50
44.41530859721433
 51
224.4153085972143
 73
     0
 72
     2
 10
423.2252505361583
 20
65.46220703186029
 40
1.850000000000179
 50
315.5846914028132
 51
584.4153085972116
 73
     1
 72
     2
 10
421.3502505361586
 20
63.62508972477264
 40
0.7749999999998038
 50
315.5846914028235
 51
495.5846914028409
 73
     0
 97
        1
330
367A
 75
     0
 76
     1
 98
        1
 10
0.0
 20
0.0
  0
ENDBLK
  5
2685
330
2683
100
AcDbEntity
  8
0
100
AcDbBlockEnd
  0
BLOCK
  5
268F
330
268E
100
AcDbEntity
  8
0
100
AcDbBlockBegin
  2
9700520
 70
     0
 10
430.5991069265696
 20
234.3886777084823
 30
0.0
  3
9700520
  1
9700520.dwg
  0
LWPOLYLINE
  5
367F
330
268E
100
AcDbEntity
  8
APL Joinery
  6
Continuous
 62
     8
100
AcDbPolyline
 90
       12
 70
     1
 43
0.0
 10
419.9991069265686
 20
255.4386777084819
 10
420.9991069265678
 20
255.4386777084819
 10
420.9991069265678
 20
235.8386777084819
 10
428.6491069265691
 20
235.8386777084819
 10
428.6491069265691
 20
238.4386777084814
 10
430.6491069265692
 20
238.4386777084814
 10
430.6491069265692
 20
234.5386777084818
 10
429.3491069265699
 20
234.5386777084818
 10
429.3491069265699
 20
232.9386777084814
 10
428.0491069265687
 20
232.9386777084814
 10
428.0491069265687
 20
234.5386777084818
 10
419.9991069265686
 20
234.5386777084818
  0
ENDBLK
  5
2690
330
268E
100
AcDbEntity
  8
0
100
AcDbBlockEnd
  0
BLOCK
  5
26A9
330
26A8
100
AcDbEntity
  8
0
100
AcDbBlockBegin
  2
6Glass
 70
     0
 10
101.8368839708302
 20
399.4111348733001
 30
0.0
  3
6Glass
  1
6Glass.dwg
  0
LINE
  5
30DF
330
26A8
100
AcDbEntity
  8
APL Joinery
 62
     7
100
AcDbLine
 10
95.33688397083029
 20
412.4111348732999
 30
0.0
 11
95.33688397083029
 21
392.4111348733
 31
0.0
  0
LINE
  5
30E0
330
26A8
100
AcDbEntity
  8
APL Joinery
 62
     7
100
AcDbLine
 10
89.33688397083029
 20
412.4111348732999
 30
0.0
 11
95.33688397083029
 21
412.4111348732999
 31
0.0
  0
LINE
  5
30E1
330
26A8
100
AcDbEntity
  8
APL Joinery
 62
     8
100
AcDbLine
 10
93.33688397083028
 20
412.4111348732999
 30
0.0
 11
93.33688397083028
 21
392.4111348733
 31
0.0
  0
LINE
  5
30E2
330
26A8
100
AcDbEntity
  8
APL Joinery
 62
     7
100
AcDbLine
 10
89.33688397083029
 20
412.4111348732999
 30
0.0
 11
89.33688397083029
 21
392.4111348733
 31
0.0
  0
LINE
  5
30E3
330
26A8
100
AcDbEntity
  8
APL Joinery
 62
     8
100
AcDbLine
 10
91.33688397083028
 20
412.4111348732999
 30
0.0
 11
91.33688397083028
 21
392.4111348733
 31
0.0
  0
ENDBLK
  5
26AA
330
26A8
100
AcDbEntity
  8
0
100
AcDbBlockEnd
  0
BLOCK
  5
26AF
330
26AE
100
AcDbEntity
  8
0
100
AcDbBlockBegin
  2
9010604
 70
     0
 10
-20.17351297792279
 20
130.681482016425
 30
0.0
  3
9010604
  1
9010604.dwg
  0
LWPOLYLINE
  5
3681
330
26AE
100
AcDbEntity
  8
APL Joinery
 62
   252
100
AcDbPolyline
 90
        2
 70
     0
 43
0.0
 10
16.60163658520415
 20
134.3235541766534
 42
0.6709480368361744
 10
16.17351297792268
 20
134.1481347349457
210
0.0
220
0.0
230
-1.0
  0
LWPOLYLINE
  5
3682
330
26AE
100
AcDbEntity
  8
APL Joinery
 62
   252
100
AcDbPolyline
 90
        2
 70
     0
 43
0.0
 10
16.67351297792268
 20
128.8441344391318
 42
0.9999999999999998
 10
16.17351297792268
 20
128.8441344391318
210
0.0
220
0.0
230
-1.0
  0
LWPOLYLINE
  5
3683
330
26AE
100
AcDbEntity
  8
APL Joinery
 62
   252
100
AcDbPolyline
 90
        2
 70
     0
 43
0.0
 10
16.67351297792269
 20
125.4689079447544
 42
0.9999999999999998
 10
16.17351297792269
 20
125.4689079447544
210
0.0
220
0.0
230
-1.0
  0
LWPOLYLINE
  5
3684
330
26AE
100
AcDbEntity
  8
APL Joinery
 62
   252
100
AcDbPolyline
 90
        2
 70
     0
 43
0.0
 10
-16.17351297792268
 20
128.8441344391318
 10
-16.1735129779228
 20
127.9621344391317
  0
LWPOLYLINE
  5
3685
330
26AE
100
AcDbEntity
  8
APL Joinery
 62
   252
100
AcDbPolyline
 90
        2
 70
     0
 43
0.0
 10
-16.17351297792268
 20
134.1481347349457
 10
-16.1735129779228
 20
132.4795000512589
  0
LWPOLYLINE
  5
3686
330
26AE
100
AcDbEntity
  8
APL Joinery
 62
   252
100
AcDbPolyline
 90
        2
 70
     0
 43
0.0
 10
16.17351297792542
 20
132.4795000512256
 42
0.2679491924311239
 10
17.67351297795256
 20
130.3216344391175
210
0.0
220
0.0
230
-1.0
  0
LWPOLYLINE
  5
3687
330
26AE
100
AcDbEntity
  8
APL Joinery
 62
   252
100
AcDbPolyline
 90
        6
 70
     0
 43
0.0
 10
-17.67351297792268
 20
130.3216344391317
 10
-17.67351297792259
 20
127.9076182450579
 42
0.493145426031304
 10
-17.48469012115723
 20
127.7627293711144
 10
-17.41469393282016
 20
127.7814847932528
 42
0.3394542588633749
 10
-16.67351297792268
 20
128.7474106195419
 10
-16.67351297792279
 20
128.8441344391318
  0
LWPOLYLINE
  5
3688
330
26AE
100
AcDbEntity
  8
APL Joinery
 62
   252
100
AcDbPolyline
 90
        2
 70
     0
 43
0.0
 10
16.17351297792268
 20
127.9621344391317
 42
0.4142135623730951
 10
17.67351297792268
 20
126.4621344391317
210
0.0
220
0.0
230
-1.0
  0
LWPOLYLINE
  5
3689
330
26AE
100
AcDbEntity
  8
APL Joinery
 62
   252
100
AcDbPolyline
 90
        2
 70
     0
 43
0.0
 10
16.67351297792269
 20
122.0936814503771
 42
0.9999999999999998
 10
16.17351297792269
 20
122.0936814503771
210
0.0
220
0.0
230
-1.0
  0
LWPOLYLINE
  5
368A
330
26AE
100
AcDbEntity
  8
APL Joinery
 62
   252
100
AcDbPolyline
 90
        2
 70
     0
 43
0.0
 10
-16.17351297792269
 20
122.0936814503771
 10
-16.1735129779228
 20
121.2116814503773
  0
LWPOLYLINE
  5
368B
330
26AE
100
AcDbEntity
  8
APL Joinery
 62
   252
100
AcDbPolyline
 90
        2
 70
     0
 43
0.0
 10
16.17351297792269
 20
121.2116814503773
 42
0.2513102605358356
 10
16.84402567435407
 20
119.9619011443961
210
0.0
220
0.0
230
-1.0
  0
LWPOLYLINE
  5
368C
330
26AE
100
AcDbEntity
  8
APL Joinery
 62
   252
100
AcDbPolyline
 90
        2
 70
     0
 43
0.0
 10
16.17351297792269
 20
124.5869079447544
 42
0.4142135623730951
 10
17.67351297792269
 20
123.0869079447544
210
0.0
220
0.0
230
-1.0
  0
LWPOLYLINE
  5
368D
330
26AE
100
AcDbEntity
  8
APL Joinery
 62
   252
100
AcDbPolyline
 90
        6
 70
     0
 43
0.0
 10
-17.67351297792269
 20
123.0869079447544
 10
-17.6735129779226
 20
121.1571652563034
 42
0.493145426031304
 10
-17.48469012115723
 20
121.01227638236
 10
-17.41469393282017
 20
121.0310318044981
 42
0.3394542588633749
 10
-16.67351297792269
 20
121.9969576307872
 10
-16.6735129779228
 20
122.0936814503773
  0
LWPOLYLINE
  5
368E
330
26AE
100
AcDbEntity
  8
APL Joinery
 62
   252
100
AcDbPolyline
 90
        6
 70
     0
 43
0.0
 10
-17.67351297792268
 20
126.4621344391317
 10
-17.6735129779226
 20
124.5323917506806
 42
0.493145426031304
 10
-17.48469012115701
 20
124.3875028767373
 10
-17.41469393282017
 20
124.4062582988755
 42
0.3394542588633749
 10
-16.67351297792269
 20
125.3721841251645
 10
-16.6735129779228
 20
125.4689079447544
  0
LWPOLYLINE
  5
368F
330
26AE
100
AcDbEntity
  8
APL Joinery
 62
   252
100
AcDbPolyline
 90
        2
 70
     0
 43
0.0
 10
-16.17351297792268
 20
125.4689079447544
 10
-16.1735129779228
 20
124.5869079447544
  0
LWPOLYLINE
  5
3690
330
26AE
100
AcDbEntity
  8
APL Joinery
 62
   252
100
AcDbPolyline
 90
        5
 70
     0
 43
0.0
 10
-16.84402567440342
 20
119.9619011443633
 10
-18.92388950453384
 20
118.5814820164251
 10
-20.17351297792281
 20
120.4886926987968
 10
-20.17351297792281
 20
125.131482016425
 10
-21.10930520105367
 20
127.2276565962382
  0
LWPOLYLINE
  5
3691
330
26AE
100
AcDbEntity
  8
APL Joinery
 62
   252
100
AcDbPolyline
 90
        2
 70
     0
 43
0.0
 10
21.10930520105035
 20
127.2276565962311
 42
0.543279747118861
 10
20.65273625983471
 20
127.931482016425
210
0.0
220
0.0
230
-1.0
  0
LWPOLYLINE
  5
3692
330
26AE
100
AcDbEntity
  8
APL Joinery
 62
   252
100
AcDbPolyline
 90
        5
 70
     0
 43
0.0
 10
-20.65273625983471
 20
127.931482016425
 10
-20.1735129779228
 20
127.931482016425
 10
-20.1735129779228
 20
130.7814820164249
 10
-21.1735129779228
 20
130.681482016425
 10
-21.1735129779228
 20
131.6862565916781
  0
LWPOLYLINE
  5
3693
330
26AE
100
AcDbEntity
  8
APL Joinery
 62
   252
100
AcDbPolyline
 90
        2
 70
     0
 43
0.0
 10
-21.17351297755487
 20
131.6862565917625
 42
0.149906020253322
 10
-16.6016365851351
 20
134.3235541767276
  0
ENDBLK
  5
26B0
330
26AE
100
AcDbEntity
  8
0
100
AcDbBlockEnd
  0
BLOCK
  5
26B5
330
26B4
100
AcDbEntity
  8
0
100
AcDbBlockBegin
  2
07438Sightline
 70
     0
 10
0.0
 20
0.0
 30
0.0
  3
07438Sightline
  1

  0
INSERT
  5
3132
330
26B4
100
AcDbEntity
  8
APL Joinery
100
AcDbBlockReference
  2
07438
 10
34.5
 20
0.0
 30
0.0
 43
-1.0
210
0.0
220
0.0
230
-1.0
  0
INSERT
  5
3133
330
26B4
100
AcDbEntity
  8
APL Joinery
100
AcDbBlockReference
  2
Timber Profile 24 - modified
 10
-46.70000000000095
 20
32.89999999999907
 30
0.0
 50
180.0
  0
INSERT
  5
3134
330
26B4
100
AcDbEntity
  8
APL Joinery
100
AcDbBlockReference
  2
9700520
 10
48.65000000000145
 20
31.39999999999827
 30
0.0
 43
-1.0
210
0.0
220
0.0
230
-1.0
  0
ENDBLK
  5
26B6
330
26B4
100
AcDbEntity
  8
0
100
AcDbBlockEnd
  0
BLOCK
  5
26CD
330
26CC
100
AcDbEntity
  8
0
100
AcDbBlockBegin
  2
07123
 70
     0
 10
458.3656891128131
 20
292.4876175000117
 30
0.0
  3
07123
  1
07123.dwg
  0
LWPOLYLINE
  5
3696
102
{ACAD_REACTORS
330
3697
102
}
330
26CC
100
AcDbEntity
  8
APL Joinery
  6
Continuous
100
AcDbPolyline
 90
       56
 70
     1
 43
0.0
 10
459.5121357222217
 20
306.5340641094199
 42
-0.9999999999999797
 10
460.2192425034092
 20
307.2411708906055
 10
461.7727958940023
 20
305.6876175000123
 42
-0.198912367379658
 10
462.0656891128158
 20
304.9805107188258
 10
462.0656891128158
 20
304.2353124947366
 42
-0.1873013852563519
 10
461.8037365730718
 20
303.5605636922864
 10
461.3598098581149
 20
303.074991901237
 42
0.6521072359563518
 10
461.7288335882434
 20
302.2376175000117
 10
462.7656891128165
 20
302.2376175000117
 42
-0.9999999999999998
 10
462.7656891128165
 20
301.2376175000117
 10
459.9003636353329
 20
301.2376175000117
 42
0.2105751711947796
 10
459.5313399052041
 20
301.0749919012377
 10
453.6345243070663
 20
294.6249919012381
 42
0.6521072359563482
 10
454.0035480371928
 20
293.7876175000128
 10
456.0544192755945
 20
293.7876175000128
 42
0.1989123673796545
 10
456.7615260567811
 20
294.0805107188261
 10
458.5416894616386
 20
295.8606741236834
 42
-0.3394542588634284
 10
459.7487962428252
 20
296.0195927462809
 10
460.1156891128133
 20
295.8077670490304
 42
-1.163404169897045
 10
459.4983642097079
 20
295.0355310938692
 42
0.4259052264678404
 10
459.137925062859
 20
295.0426961625298
 10
458.1813745377661
 20
294.0861456374358
 42
0.4142135623730951
 10
458.1813745377651
 20
293.3790388562501
 10
458.2192425034102
 20
293.341170890605
 42
-0.6681786379192989
 10
457.8656891128169
 20
292.4876175000117
 10
440.5727954482293
 20
292.4876175000117
 42
-0.1989123673797415
 10
440.2192420576359
 20
292.6340641094185
 10
437.5424653623388
 20
295.3108408047155
 42
-0.668178637919367
 10
437.719242057635
 20
295.7376175000117
 10
438.3300891105548
 20
295.7376175000117
 10
438.3300891105548
 20
296.9876175000117
 10
440.3800891105541
 20
296.9876175000117
 42
-0.9999999999999998
 10
440.3800891105541
 20
295.9876175000117
 10
439.6300891105541
 20
295.9876175000117
 10
439.6300891105541
 20
295.0616946875852
 10
440.2041662981276
 20
294.4876175000117
 10
440.8800891105541
 20
294.4876175000117
 10
440.8800891105541
 20
294.0376175000128
 42
0.4142135623730951
 10
441.1300891105541
 20
293.7876175000128
 10
443.6300891105541
 20
293.7876175000128
 42
0.4142135623730951
 10
443.8800891105541
 20
294.0376175000128
 10
443.8800891105541
 20
294.4876175000117
 10
445.1300891105541
 20
294.4876175000117
 10
445.1300891105541
 20
295.9876175000117
 10
444.3800891105541
 20
295.9876175000117
 42
-0.9999999999999998
 10
444.3800891105541
 20
296.9876175000117
 10
445.4300891105552
 20
296.9876175000117
 42
-0.4142135623730951
 10
446.4300891105552
 20
295.9876175000117
 10
446.4300891105552
 20
293.7876175000129
 10
448.9041058039487
 20
293.7876175000128
 42
0.2105751711947817
 10
452.5943431052322
 20
295.4138734877578
 10
458.3656891128169
 20
301.7266335070253
 10
458.3656891128169
 20
302.4876175000117
 10
459.061407295728
 20
302.4876175000117
 10
460.5640551380639
 20
304.1312297890105
 42
0.4011595793581357
 10
460.5331144589938
 20
305.5130853726477
  0
HATCH
  5
3697
330
26CC
100
AcDbEntity
  8
APL Hatch
100
AcDbHatch
 10
0.0
 20
0.0
 30
0.0
210
0.0
220
0.0
230
1.0
  2
SOLID
 70
     1
 71
     1
 91
        1
 92
        1
 93
       56
 72
     2
 10
459.8656891128155
 20
306.8876175000127
 40
0.5000000000000443
 50
135.0000000000783
 51
315.0000000000783
 73
     0
 72
     1
 10
460.2192425034092
 20
307.2411708906055
 11
461.7727958940023
 21
305.6876175000123
 72
     2
 10
461.0656891128158
 20
304.9805107188258
 40
1.000000000000007
 50
315.0
 51
360.0
 73
     0
 72
     1
 10
462.0656891128158
 20
304.9805107188258
 11
462.0656891128158
 21
304.2353124947366
 72
     2
 10
461.0656891128159
 20
304.2353124947378
 40
0.9999999999999431
 50
0.0000000000683946
 51
42.43464631024123
 73
     0
 72
     1
 10
461.8037365730718
 20
303.5605636922864
 11
461.3598098581149
 21
303.074991901237
 72
     2
 10
461.7288335882434
 20
302.7376175000117
 40
0.5000000000000034
 50
137.5653536898278
 51
270.0
 73
     1
 72
     1
 10
461.7288335882434
 20
302.2376175000117
 11
462.7656891128165
 21
302.2376175000117
 72
     2
 10
462.7656891128165
 20
301.7376175000117
 40
0.5
 50
270.0
 51
450.0
 73
     0
 72
     1
 10
462.7656891128165
 20
301.2376175000117
 11
459.9003636353329
 21
301.2376175000117
 72
     2
 10
459.9003636353319
 20
300.7376175000115
 40
0.5000000000002274
 50
89.99999999987624
 51
137.5653536897021
 73
     1
 72
     1
 10
459.5313399052041
 20
301.0749919012377
 11
453.6345243070663
 21
294.6249919012381
 72
     2
 10
454.0035480371938
 20
294.2876175000124
 40
0.4999999999996426
 50
137.5653536897282
 51
269.9999999998893
 73
     1
 72
     1
 10
454.0035480371928
 20
293.7876175000128
 11
456.0544192755945
 21
293.7876175000128
 72
     2
 10
456.0544192755947
 20
294.7876175000129
 40
1.000000000000113
 50
269.9999999999902
 51
314.9999999999885
 73
     1
 72
     1
 10
456.7615260567811
 20
294.0805107188261
 11
458.5416894616386
 21
295.8606741236834
 72
     2
 10
459.2487962428249
 20
295.1535673424968
 40
0.9999999999998474
 50
225.0000000000138
 51
300.0000000000227
 73
     0
 72
     1
 10
459.7487962428252
 20
296.0195927462809
 11
460.1156891128133
 21
295.8077670490304
 72
     2
 10
459.8656891128134
 20
295.3747543471383
 40
0.4999999999998649
 50
300.0000000000014
 51
497.2776334669029
 73
     0
 72
     2
 10
459.3147017581562
 20
294.8659194672341
 40
0.2499999999996247
 50
42.72236653332014
 51
135.0000000002211
 73
     1
 72
     1
 10
459.137925062859
 20
295.0426961625298
 11
458.1813745377661
 21
294.0861456374358
 72
     2
 10
458.5349279283585
 20
293.7325922468425
 40
0.4999999999994414
 50
134.9999999999263
 51
224.9999999999171
 73
     1
 72
     1
 10
458.1813745377651
 20
293.3790388562501
 11
458.2192425034102
 21
293.341170890605
 72
     2
 10
457.8656891128169
 20
292.9876175000117
 40
0.500000000000004
 50
315.0
 51
450.0
 73
     0
 72
     1
 10
457.8656891128169
 20
292.4876175000117
 11
440.5727954482293
 21
292.4876175000117
 72
     2
 10
440.5727954482292
 20
292.9876175000117
 40
0.5
 50
89.99999999999349
 51
135.0000000000138
 73
     0
 72
     1
 10
440.2192420576359
 20
292.6340641094185
 11
437.5424653623388
 21
295.3108408047155
 72
     2
 10
437.7192420576352
 20
295.4876175000121
 40
0.2499999999997207
 50
134.9999999999631
 51
269.9999999999739
 73
     0
 72
     1
 10
437.719242057635
 20
295.7376175000117
 11
438.3300891105548
 21
295.7376175000117
 72
     1
 10
438.3300891105548
 20
295.7376175000117
 11
438.3300891105548
 21
296.9876175000117
 72
     1
 10
438.3300891105548
 20
296.9876175000117
 11
440.3800891105541
 21
296.9876175000117
 72
     2
 10
440.3800891105541
 20
296.4876175000117
 40
0.5
 50
270.0
 51
450.0
 73
     0
 72
     1
 10
440.3800891105541
 20
295.9876175000117
 11
439.6300891105541
 21
295.9876175000117
 72
     1
 10
439.6300891105541
 20
295.9876175000117
 11
439.6300891105541
 21
295.0616946875852
 72
     1
 10
439.6300891105541
 20
295.0616946875852
 11
440.2041662981276
 21
294.4876175000117
 72
     1
 10
440.2041662981276
 20
294.4876175000117
 11
440.8800891105541
 21
294.4876175000117
 72
     1
 10
440.8800891105541
 20
294.4876175000117
 11
440.8800891105541
 21
294.0376175000128
 72
     2
 10
441.1300891105541
 20
294.0376175000128
 40
0.25
 50
180.0
 51
270.0
 73
     1
 72
     1
 10
441.1300891105541
 20
293.7876175000128
 11
443.6300891105541
 21
293.7876175000128
 72
     2
 10
443.6300891105541
 20
294.0376175000128
 40
0.25
 50
270.0
 51
360.0
 73
     1
 72
     1
 10
443.8800891105541
 20
294.0376175000128
 11
443.8800891105541
 21
294.4876175000117
 72
     1
 10
443.8800891105541
 20
294.4876175000117
 11
445.1300891105541
 21
294.4876175000117
 72
     1
 10
445.1300891105541
 20
294.4876175000117
 11
445.1300891105541
 21
295.9876175000117
 72
     1
 10
445.1300891105541
 20
295.9876175000117
 11
444.3800891105541
 21
295.9876175000117
 72
     2
 10
444.3800891105541
 20
296.4876175000117
 40
0.5
 50
90.0
 51
270.0
 73
     0
 72
     1
 10
444.3800891105541
 20
296.9876175000117
 11
445.4300891105552
 21
296.9876175000117
 72
     2
 10
445.4300891105552
 20
295.9876175000117
 40
1.0
 50
270.0
 51
360.0
 73
     0
 72
     1
 10
446.4300891105552
 20
295.9876175000117
 11
446.4300891105552
 21
293.7876175000129
 72
     1
 10
446.4300891105552
 20
293.7876175000129
 11
448.9041058039487
 21
293.7876175000128
 72
     2
 10
448.9041058039507
 20
298.7876175000114
 40
4.999999999998578
 50
269.9999999999765
 51
317.5653536898046
 73
     1
 72
     1
 10
452.5943431052322
 20
295.4138734877578
 11
458.3656891128169
 21
301.7266335070253
 72
     1
 10
458.3656891128169
 20
301.7266335070253
 11
458.3656891128169
 21
302.4876175000117
 72
     1
 10
458.3656891128169
 20
302.4876175000117
 11
459.061407295728
 21
302.4876175000117
 72
     1
 10
459.061407295728
 20
302.4876175000117
 11
460.5640551380639
 21
304.1312297890105
 72
     2
 10
459.8260076778072
 20
304.8059785914611
 40
1.000000000000083
 50
317.565353689823
 51
404.9999999999953
 73
     1
 72
     1
 10
460.5331144589938
 20
305.5130853726477
 11
459.5121357222217
 21
306.5340641094199
 97
        1
330
3696
 75
     0
 76
     1
 98
        1
 10
0.0
 20
0.0
  0
ENDBLK
  5
26CE
330
26CC
100
AcDbEntity
  8
0
100
AcDbBlockEnd
  0
BLOCK
  5
26D3
330
26D2
100
AcDbEntity
  8
0
100
AcDbBlockBegin
  2
9700158
 70
     0
 10
174.0833845896645
 20
209.1838914698199
 30
0.0
  3
9700158
  1
9700158.dwg
  0
LWPOLYLINE
  5
369A
330
26D2
100
AcDbEntity
  8
APL Joinery
 62
     8
100
AcDbPolyline
 90
       16
 70
     0
 43
0.0
 10
170.0844615238645
 20
210.7276577404199
 10
170.5812307214826
 20
205.3929768350096
 42
-1.73205080756885
 10
169.7943127780645
 20
205.7545845650198
 10
169.5990464418646
 20
208.6720902866199
 10
169.5856905330645
 20
209.0611154212198
 10
169.5833845896645
 20
211.1173474922199
 10
169.6471993674645
 20
211.4735521188198
 10
169.6839086074645
 20
211.5745025288198
 10
169.7450906740645
 20
211.6876893520199
 10
169.8123909474645
 20
211.7702851420198
 10
169.9286368740645
 20
211.8651173452199
 10
170.0142917672645
 20
211.9171221018198
 10
170.1427741072645
 20
211.9630086518199
 10
170.2804337572645
 20
211.9905405818199
 10
170.3333845896645
 20
212.0043371268199
 10
169.5919031330645
 20
214.7715835956199
  0
LWPOLYLINE
  5
369B
330
26D2
100
AcDbEntity
  8
APL Joinery
 62
     8
100
AcDbPolyline
 90
       20
 70
     0
 43
0.0
 10
170.0844615237555
 20
210.7276577405251
 42
-1.047538523474869
 10
170.5833845896645
 20
210.7508376296199
 10
170.5833845896645
 20
205.6338914698199
 42
0.4142135623730951
 10
171.0833845896645
 20
205.1338914698199
 10
171.5833845896645
 20
205.1338914698199
 10
171.5833845896645
 20
207.9338914698198
 10
172.8333845896645
 20
207.9338914698198
 10
172.8333845896645
 20
207.4338914698198
 42
0.9999999999999998
 10
173.8333845896645
 20
207.4338914698198
 10
173.8333845896645
 20
210.9338914698199
 42
0.9999999999999998
 10
172.8333845896645
 20
210.9338914698199
 10
172.8333845896645
 20
210.4338914698199
 10
171.5833845896645
 20
210.4338914698199
 10
171.5833845896645
 20
213.2338914698199
 10
175.6833845896645
 20
213.2338914698199
 10
176.1792862290088
 20
215.9388095026067
 42
0.4683749459846007
 10
175.9333845896645
 20
216.2338914698199
 10
175.1833845896646
 20
216.2338914698199
 10
169.7838326132251
 20
215.081328357083
 42
0.4325719375873472
 10
169.5919031330922
 20
214.7715835957442
  0
LWPOLYLINE
  5
369C
330
26D2
100
AcDbEntity
  8
APL Joinery
 62
     8
100
AcDbPolyline
 90
        2
 70
     0
 43
0.0
 10
172.2085048132645
 20
207.9338914698198
 10
172.2085048132645
 20
210.4338914698199
  0
ENDBLK
  5
26D4
330
26D2
100
AcDbEntity
  8
0
100
AcDbBlockEnd
  0
BLOCK
  5
26E2
330
26E1
100
AcDbEntity
  8
0
100
AcDbBlockBegin
  2
07123Glaze
 70
     0
 10
0.0
 20
0.0
 30
0.0
  3
07123Glaze
  1

  0
INSERT
  5
26F1
330
26E1
100
AcDbEntity
  8
APL Joinery
100
AcDbBlockReference
  2
07123
 10
0.0
 20
0.0
 30
0.0
 41
-1.0
 50
90.0
  0
INSERT
  5
26F2
330
26E1
100
AcDbEntity
  8
APL Joinery
100
AcDbBlockReference
  2
9010604
 10
-4.5
 20
20.03560000225832
 30
0.0
 41
-1.0
  0
INSERT
  5
26F3
330
26E1
100
AcDbEntity
  8
APL Joinery
100
AcDbBlockReference
  2
9700158
 10
-37.0
 20
16.94999999999891
 30
0.0
 41
-1.0
  0
LINE
  5
26F4
330
26E1
100
AcDbEntity
  8
APL Joinery
 62
     7
100
AcDbLine
 10
-14.50000000000005
 20
9.487756305405753
 30
0.0
 11
-26.50000000000006
 21
9.487756305405753
 31
0.0
  0
LINE
  5
26F5
330
26E1
100
AcDbEntity
  8
APL Joinery
 62
     7
100
AcDbLine
 10
-14.50000000000005
 20
15.48775630540575
 30
0.0
 11
-26.50000000000006
 21
15.48775630540575
 31
0.0
  0
INSERT
  5
26F6
330
26E1
100
AcDbEntity
  8
APL Joinery
100
AcDbBlockReference
  2
6Glass
 10
-39.0
 20
22.48775630540558
 30
0.0
 50
180.0
  0
INSERT
  5
26F7
330
26E1
100
AcDbEntity
  8
APL Joinery
100
AcDbBlockReference
  2
6Glass
 10
-21.0
 20
22.48775630540558
 30
0.0
 50
180.0
  0
ENDBLK
  5
26E3
330
26E1
100
AcDbEntity
  8
0
100
AcDbBlockEnd
  0
BLOCK
  5
26FC
330
26FB
100
AcDbEntity
  8
0
100
AcDbBlockBegin
  2
07116
 70
     0
 10
609.5245484324006
 20
353.5224271129538
 30
0.0
  3
07116
  1
07116.dwg
  0
LWPOLYLINE
  5
369E
102
{ACAD_REACTORS
330
369F
102
}
330
26FB
100
AcDbEntity
  8
APL Joinery
  6
Continuous
100
AcDbPolyline
 90
      186
 70
     1
 43
0.0
 10
662.7765081384437
 20
326.6356878884783
 42
0.0966374694536186
 10
661.6394514008536
 20
326.8575241445088
 10
658.4644514008616
 20
326.8575241445088
 10
658.4644514008616
 20
325.6575241445099
 10
659.4680949764234
 20
325.6575241445085
 42
0.6527741242159202
 10
660.6855555572098
 20
325.0223593093439
 42
-2.083394336380761
 10
660.6855555572121
 20
322.6426889796727
 42
0.6527741242149859
 10
659.4680949764255
 20
322.0075241445094
 10
658.4644514008616
 20
322.0075241445085
 10
658.4644514008625
 20
320.8075241445087
 10
661.6394514008545
 20
320.8075241445092
 42
0.0966374694537203
 10
662.7765081384455
 20
321.0293604005407
 42
-0.532152317741213
 10
663.4644514008599
 20
320.5660275502961
 10
663.4644514008616
 20
315.2325241444988
 10
658.4644514008616
 20
315.2325241444998
 10
658.4644514008598
 20
307.8490207387186
 42
-0.5321523177410337
 10
657.776508138449
 20
307.385687888477
 42
0.0966374694535111
 10
656.6394514008609
 20
307.607524144507
 10
655.2644514008609
 20
307.6075241445088
 10
655.2644514008618
 20
309.6075241445088
 10
654.0644514008611
 20
309.6075241445079
 10
654.0644514008629
 20
306.4075241445081
 10
654.4680949764297
 20
306.4075241445086
 42
0.6527741242159863
 10
655.6855555572162
 20
305.7723593093421
 42
-2.083394336380855
 10
655.6855555572175
 20
303.3926889796728
 42
0.62924194277045
 10
654.4664264537861
 20
302.8075241445078
 10
654.4664264537863
 20
302.3450241445048
 42
0.9999999999997156
 10
654.4664264537863
 20
301.5450241445052
 10
654.4664264537835
 20
300.0825241445074
 42
-0.4142135623730951
 10
653.9664264537844
 20
299.5825241444992
 10
650.4596101528879
 20
299.5825241444983
 10
649.2137301968213
 20
300.828404100565
 42
0.4931454260312428
 10
648.8204471505798
 20
300.7766274052648
 10
648.1033655688354
 20
299.5346056725176
 10
648.4569189594288
 20
299.1810522819234
 10
648.4569189594297
 20
298.3325241444983
 42
0.4142135623730284
 10
648.7069189594296
 20
298.0825241444983
 10
664.9644514008616
 20
298.0825241444928
 10
664.9644514008635
 20
299.5825241444992
 10
664.0376747055622
 20
300.5093008397967
 42
0.3394542588634172
 10
663.7358980102683
 20
300.5490304954439
 10
662.0618599045912
 20
299.5825241445001
 10
656.4664264537843
 20
299.5825241445001
 42
-0.4142135623733615
 10
655.9664264537843
 20
300.0825241445001
 10
655.9664264537852
 20
301.0617731780682
 42
-0.4286702702993141
 10
656.4909689994703
 20
301.5611704782714
 42
0.2824367110436933
 10
659.266355472195
 20
303.0825241445074
 10
659.9644514008607
 20
303.0825241445074
 10
659.9644514008598
 20
304.1825241445059
 10
659.5644514008601
 20
304.5825241445074
 10
659.9644514008607
 20
304.9825241445097
 10
659.9644514008616
 20
313.7325241444988
 10
663.9644514008625
 20
313.7325241444997
 10
663.9644514008598
 20
311.2325241444998
 42
0.9999999999999998
 10
664.9644514008543
 20
311.2325241444979
 10
664.9644514008553
 20
323.4325241445087
 10
664.5644514008556
 20
323.8325241445064
 10
664.9644514008553
 20
324.2325241445061
 10
664.9644514008553
 20
334.5825241445065
 10
672.3644514008531
 20
334.5825241445047
 10
672.364451400854
 20
334.8325241445065
 10
674.0644514008547
 20
334.8325241445065
 10
674.3644514008549
 20
335.1325241445067
 10
674.6644514008542
 20
334.8325241445065
 10
676.3644514008549
 20
334.8325241445055
 10
676.364451400855
 20
334.5825241445074
 10
677.8644514008531
 20
334.5825241445119
 10
677.8644514008541
 20
332.5825241445128
 10
679.9144514008542
 20
332.5825241445128
 42
0.9999999999999998
 10
679.9144514008514
 20
333.5825241445119
 10
679.1644514008533
 20
333.5825241445129
 10
679.1644514008533
 20
335.0825241445128
 10
684.6644514008533
 20
335.0825241445128
 10
684.6644514008524
 20
333.5825241445129
 10
683.9144514008523
 20
333.5825241445129
 42
0.9999999999999998
 10
683.9144514008532
 20
332.5825241445128
 10
685.9644514008554
 20
332.5825241445128
 10
685.9644514008525
 20
336.0825241445065
 10
649.792315385382
 20
336.0825241445056
 42
-0.6681786379194335
 10
649.4387619947867
 20
336.9360775350998
 10
653.5349560724969
 20
341.0322716128092
 42
1.0
 10
652.4742959007165
 20
342.0929317845895
 10
648.3781018230011
 20
337.9967377068726
 42
-0.6681786379193179
 10
647.5245484324089
 20
338.3502910974659
 10
647.5245484324053
 20
374.5224271129529
 10
644.0245484324052
 20
374.522427112952
 10
644.0245484324052
 20
372.4724271129536
 42
0.9999999999999998
 10
645.0245484324071
 20
372.4724271129545
 10
645.0245484324061
 20
373.2224271129527
 10
646.524548432407
 20
373.2224271129545
 10
646.5245484324062
 20
367.7224271129536
 10
645.0245484324071
 20
367.7224271129527
 10
645.0245484324052
 20
368.4724271129536
 42
1.000000000000056
 10
644.0245484324052
 20
368.4724271129545
 10
644.024548432407
 20
366.4224271129552
 10
646.0245484324062
 20
366.4224271129534
 10
646.0245484324062
 20
364.9224271129524
 10
646.2745484324061
 20
364.9224271129515
 10
646.274548432407
 20
363.2224271129545
 10
646.5745484324072
 20
362.9224271129552
 10
646.274548432407
 20
362.6224271129523
 10
646.2745484324061
 20
360.9224271129534
 10
646.0245484324054
 20
360.9224271129525
 10
646.0245484324052
 20
353.5224271129529
 10
635.674548432403
 20
353.5224271129538
 10
635.2745484324053
 20
353.1224271129532
 10
634.8745484324056
 20
353.5224271129538
 10
622.6745484324068
 20
353.5224271129538
 42
1.000000000000113
 10
622.6745484324067
 20
352.5224271129547
 10
625.1745484324057
 20
352.5224271129538
 10
625.1745484324048
 20
348.5224271129556
 10
616.4245484324048
 20
348.5224271129538
 10
616.0245484324043
 20
348.1224271129532
 10
615.6245484324048
 20
348.522427112952
 10
614.5245484324052
 20
348.5224271129547
 10
614.5245484324053
 20
347.82433118429
 42
0.2824367110437178
 10
613.0031947661693
 20
345.0489447115627
 42
-0.428670270299527
 10
612.5037974659669
 20
344.5244021658774
 10
611.524548432407
 20
344.5244021658774
 42
-0.4142135623730951
 10
611.024548432407
 20
345.0244021658765
 10
611.0245484324061
 20
350.6198356166825
 10
611.9910547833509
 20
352.2938737223605
 42
0.3394542588632788
 10
611.9513251277028
 20
352.5956504176562
 10
611.0245484324061
 20
353.5224271129529
 10
609.5245484324006
 20
353.5224271129538
 10
609.5245484324071
 20
337.2648946715226
 42
0.4142135623731617
 10
609.7745484323927
 20
337.0148946715209
 10
610.6230765698167
 20
337.0148946715218
 10
610.97662996041
 20
336.6613412809285
 10
612.21865169316
 20
337.378422862672
 42
0.4931454260310443
 10
612.2704283884575
 20
337.7717059089143
 10
611.0245484323898
 20
339.0175858649801
 10
611.0245484324061
 20
342.5244021658765
 42
-0.4142135623729619
 10
611.5245484324068
 20
343.0244021658774
 10
612.9870484324048
 20
343.0244021658774
 42
0.9999999999995734
 10
613.7870484324046
 20
343.0244021658765
 10
614.2495484324038
 20
343.0244021658801
 42
0.6292419427703436
 10
614.8347132675715
 20
344.2435312693098
 42
-2.083394336380321
 10
617.2143835972406
 20
344.2435312693108
 42
0.652774124215838
 10
617.8495484324068
 20
343.0260706885245
 10
617.8495484324078
 20
342.6224271129541
 10
621.0495484324058
 20
342.6224271129541
 10
621.0495484324068
 20
343.822427112954
 10
619.0495484324067
 20
343.8224271129549
 10
619.0495484324068
 20
345.197427112955
 42
0.0966374694533606
 10
618.8277121763754
 20
346.3344838505412
 42
-0.5321523177410224
 10
619.2910450266183
 20
347.0224271129547
 10
626.6745484324058
 20
347.0224271129556
 10
626.674548432405
 20
352.0224271129547
 10
632.008051838194
 20
352.0224271129538
 42
-0.5321523177416116
 10
632.4713846884348
 20
351.3344838505418
 42
0.0966374694536082
 10
632.2495484324063
 20
350.197427112953
 10
632.2495484324065
 20
347.0224271129574
 10
633.4495484324072
 20
347.0224271129574
 10
633.4495484324073
 20
348.026070688522
 42
0.6527741242150425
 10
634.0847132675705
 20
349.2435312693089
 42
-2.083394336380301
 10
636.4643835972416
 20
349.243531269309
 42
0.6527741242155456
 10
637.0995484324053
 20
348.0260706885226
 10
637.099548432405
 20
347.0224271129574
 10
638.2995484324067
 20
347.0224271129592
 10
638.2995484324058
 20
350.197427112953
 42
0.0966374694535771
 10
638.0777121763756
 20
351.3344838505418
 42
-0.5321523177407667
 10
638.5410450266188
 20
352.0224271129538
 10
645.5245484324052
 20
352.0224271129529
 42
-0.4142135623730617
 10
646.0245484324054
 20
351.5224271129546
 10
646.0245484324062
 20
348.22242711296
 10
644.0245484324043
 20
348.22242711296
 10
644.0245484324043
 20
347.0224271129592
 10
646.0245484324062
 20
347.0224271129619
 10
646.0245484324071
 20
343.8224271129603
 10
644.0245484324052
 20
343.8224271129612
 10
644.0245484324043
 20
342.6224271129604
 10
646.0245484324054
 20
342.6224271129605
 10
646.0245484324063
 20
335.0825241445074
 42
0.4142135623731284
 10
646.524548432407
 20
334.5825241445074
 10
654.064451400862
 20
334.5825241445074
 10
654.0644514008629
 20
332.5825241445074
 10
655.2644514008627
 20
332.5825241445074
 10
655.26445140086
 20
334.5825241445065
 10
658.4644514008616
 20
334.5825241445055
 10
658.4644514008617
 20
332.5825241445055
 10
659.6644514008606
 20
332.5825241445055
 10
659.6644514008605
 20
334.5825241445065
 10
662.9644514008535
 20
334.5825241445047
 42
-0.4142135623730617
 10
663.4644514008543
 20
334.0825241445065
 10
663.4644514008571
 20
327.0990207387204
 42
-0.5321523177411157
  0
HATCH
  5
369F
330
26FB
100
AcDbEntity
  8
APL Hatch
100
AcDbHatch
 10
0.0
 20
0.0
 30
0.0
210
0.0
220
0.0
230
1.0
  2
SOLID
 70
     1
 71
     1
 91
        1
 92
        1
 93
      186
 72
     2
 10
661.639451400855
 20
323.8325241445068
 40
3.025000000002014
 50
67.9208839187514
 51
90.00000000002584
 73
     1
 72
     1
 10
661.6394514008536
 20
326.8575241445088
 11
658.4644514008616
 21
326.8575241445088
 72
     1
 10
658.4644514008616
 20
326.8575241445088
 11
658.4644514008616
 21
325.6575241445099
 72
     1
 10
658.4644514008616
 20
325.6575241445099
 11
659.4680949764234
 21
325.6575241445085
 72
     2
 10
660.216426453778
 20
325.6075241445082
 40
0.749999999999794
 50
176.1774462706933
 51
308.7192973222796
 73
     1
 72
     2
 10
661.6394514008554
 20
323.8325241445092
 40
1.525000000000547
 50
231.2807026777045
 51
488.7192973221874
 73
     0
 72
     2
 10
660.2164264537803
 20
322.0575241445081
 40
0.7500000000000071
 50
51.28070267773932
 51
183.8225537291755
 73
     1
 72
     1
 10
659.4680949764255
 20
322.0075241445094
 11
658.4644514008616
 21
322.0075241445085
 72
     1
 10
658.4644514008616
 20
322.0075241445085
 11
658.4644514008625
 21
320.8075241445087
 72
     1
 10
658.4644514008625
 20
320.8075241445087
 11
661.6394514008545
 21
320.8075241445092
 72
     2
 10
661.6394514008547
 20
323.8325241445109
 40
3.025000000001682
 50
269.9999999999978
 51
292.0791160812954
 73
     1
 72
     2
 10
662.964451400858
 20
320.5660275502962
 40
0.500000000001932
 50
247.9208839186937
 51
360.0000000000065
 73
     0
 72
     1
 10
663.4644514008599
 20
320.5660275502961
 11
663.4644514008616
 21
315.2325241444988
 72
     1
 10
663.4644514008616
 20
315.2325241444988
 11
658.4644514008616
 21
315.2325241444998
 72
     1
 10
658.4644514008616
 20
315.2325241444998
 11
658.4644514008598
 21
307.8490207387186
 72
     2
 10
657.9644514008605
 20
307.849020738719
 40
0.4999999999993179
 50
0.0000000000455964
 51
112.0791160813175
 73
     0
 72
     2
 10
656.6394514008618
 20
304.5825241445072
 40
3.024999999999888
 50
67.92088391876761
 51
90.00000000001723
 73
     1
 72
     1
 10
656.6394514008609
 20
307.607524144507
 11
655.2644514008609
 21
307.6075241445088
 72
     1
 10
655.2644514008609
 20
307.6075241445088
 11
655.2644514008618
 21
309.6075241445088
 72
     1
 10
655.2644514008618
 20
309.6075241445088
 11
654.0644514008611
 21
309.6075241445079
 72
     1
 10
654.0644514008611
 20
309.6075241445079
 11
654.0644514008629
 21
306.4075241445081
 72
     1
 10
654.0644514008629
 20
306.4075241445081
 11
654.4680949764297
 21
306.4075241445086
 72
     2
 10
655.2164264537846
 20
306.3575241445072
 40
0.7500000000001949
 50
176.1774462706256
 51
308.7192973222227
 73
     1
 72
     2
 10
656.6394514008607
 20
304.582524144508
 40
1.524999999999392
 50
231.2807026777244
 51
488.7192973222115
 73
     0
 72
     2
 10
655.2164264537863
 20
302.8075241445078
 40
0.749999999999962
 50
51.28070267779222
 51
180.0
 73
     1
 72
     1
 10
654.4664264537861
 20
302.8075241445078
 11
654.4664264537863
 21
302.3450241445048
 72
     2
 10
654.4664264537864
 20
301.945024144505
 40
0.3999999999998067
 50
90.00000000001628
 51
269.9999999999838
 73
     1
 72
     1
 10
654.4664264537863
 20
301.5450241445052
 11
654.4664264537835
 21
300.0825241445074
 72
     2
 10
653.9664264537798
 20
300.0825241445028
 40
0.500000000003638
 50
359.9999999994789
 51
449.9999999994789
 73
     0
 72
     1
 10
653.9664264537844
 20
299.5825241444992
 11
650.4596101528879
 21
299.5825241444983
 72
     1
 10
650.4596101528879
 20
299.5825241444983
 11
649.2137301968213
 21
300.828404100565
 72
     2
 10
649.0369535015267
 20
300.6516274052671
 40
0.2499999999995197
 50
45.00000000054349
 51
150.0000000005321
 73
     1
 72
     1
 10
648.8204471505798
 20
300.7766274052648
 11
648.1033655688354
 21
299.5346056725176
 72
     1
 10
648.1033655688354
 20
299.5346056725176
 11
648.4569189594288
 21
299.1810522819234
 72
     1
 10
648.4569189594288
 20
299.1810522819234
 11
648.4569189594297
 21
298.3325241444983
 72
     2
 10
648.7069189594296
 20
298.3325241444983
 40
0.25
 50
180.0
 51
270.0
 73
     1
 72
     1
 10
648.7069189594296
 20
298.0825241444983
 11
664.9644514008616
 21
298.0825241444928
 72
     1
 10
664.9644514008616
 20
298.0825241444928
 11
664.9644514008635
 21
299.5825241444992
 72
     1
 10
664.9644514008635
 20
299.5825241444992
 11
664.0376747055622
 21
300.5093008397967
 72
     2
 10
663.8608980102684
 20
300.3325241445007
 40
0.2499999999975501
 50
45.00000000035004
 51
120.0000000003585
 73
     1
 72
     1
 10
663.7358980102683
 20
300.5490304954439
 11
662.0618599045912
 21
299.5825241445001
 72
     1
 10
662.0618599045912
 20
299.5825241445001
 11
656.4664264537843
 21
299.5825241445001
 72
     2
 10
656.4664264537841
 20
300.0825241444999
 40
0.4999999999997727
 50
89.99999999997395
 51
180.000000000026
 73
     0
 72
     1
 10
655.9664264537843
 20
300.0825241445001
 11
655.9664264537852
 21
301.0617731780682
 72
     2
 10
656.4664264537854
 20
301.0617731780671
 40
0.5000000000001137
 50
180.0000000001172
 51
272.8134991269373
 73
     0
 72
     2
 10
656.6394514008609
 20
304.5825241445048
 40
3.024999999997401
 50
267.1865008731146
 51
330.2730117289052
 73
     1
 72
     1
 10
659.266355472195
 20
303.0825241445074
 11
659.9644514008607
 21
303.0825241445074
 72
     1
 10
659.9644514008607
 20
303.0825241445074
 11
659.9644514008598
 21
304.1825241445059
 72
     1
 10
659.9644514008598
 20
304.1825241445059
 11
659.5644514008601
 21
304.5825241445074
 72
     1
 10
659.5644514008601
 20
304.5825241445074
 11
659.9644514008607
 21
304.9825241445097
 72
     1
 10
659.9644514008607
 20
304.9825241445097
 11
659.9644514008616
 21
313.7325241444988
 72
     1
 10
659.9644514008616
 20
313.7325241444988
 11
663.9644514008625
 21
313.7325241444997
 72
     1
 10
663.9644514008625
 20
313.7325241444997
 11
663.9644514008598
 21
311.2325241444998
 72
     2
 10
664.4644514008571
 20
311.2325241444988
 40
0.4999999999972716
 50
179.9999999998957
 51
359.9999999998958
 73
     1
 72
     1
 10
664.9644514008543
 20
311.2325241444979
 11
664.9644514008553
 21
323.4325241445087
 72
     1
 10
664.9644514008553
 20
323.4325241445087
 11
664.5644514008556
 21
323.8325241445064
 72
     1
 10
664.5644514008556
 20
323.8325241445064
 11
664.9644514008553
 21
324.2325241445061
 72
     1
 10
664.9644514008553
 20
324.2325241445061
 11
664.9644514008553
 21
334.5825241445065
 72
     1
 10
664.9644514008553
 20
334.5825241445065
 11
672.3644514008531
 21
334.5825241445047
 72
     1
 10
672.3644514008531
 20
334.5825241445047
 11
672.364451400854
 21
334.8325241445065
 72
     1
 10
672.364451400854
 20
334.8325241445065
 11
674.0644514008547
 21
334.8325241445065
 72
     1
 10
674.0644514008547
 20
334.8325241445065
 11
674.3644514008549
 21
335.1325241445067
 72
     1
 10
674.3644514008549
 20
335.1325241445067
 11
674.6644514008542
 21
334.8325241445065
 72
     1
 10
674.6644514008542
 20
334.8325241445065
 11
676.3644514008549
 21
334.8325241445055
 72
     1
 10
676.3644514008549
 20
334.8325241445055
 11
676.364451400855
 21
334.5825241445074
 72
     1
 10
676.364451400855
 20
334.5825241445074
 11
677.8644514008531
 21
334.5825241445119
 72
     1
 10
677.8644514008531
 20
334.5825241445119
 11
677.8644514008541
 21
332.5825241445128
 72
     1
 10
677.8644514008541
 20
332.5825241445128
 11
679.9144514008542
 21
332.5825241445128
 72
     2
 10
679.9144514008528
 20
333.0825241445124
 40
0.4999999999995453
 50
270.0000000001563
 51
450.0000000001563
 73
     1
 72
     1
 10
679.9144514008514
 20
333.5825241445119
 11
679.1644514008533
 21
333.5825241445129
 72
     1
 10
679.1644514008533
 20
333.5825241445129
 11
679.1644514008533
 21
335.0825241445128
 72
     1
 10
679.1644514008533
 20
335.0825241445128
 11
684.6644514008533
 21
335.0825241445128
 72
     1
 10
684.6644514008533
 20
335.0825241445128
 11
684.6644514008524
 21
333.5825241445129
 72
     1
 10
684.6644514008524
 20
333.5825241445129
 11
683.9144514008523
 21
333.5825241445129
 72
     2
 10
683.9144514008528
 20
333.0825241445128
 40
0.5
 50
90.00000000005213
 51
270.0000000000521
 73
     1
 72
     1
 10
683.9144514008532
 20
332.5825241445128
 11
685.9644514008554
 21
332.5825241445128
 72
     1
 10
685.9644514008554
 20
332.5825241445128
 11
685.9644514008525
 21
336.0825241445065
 72
     1
 10
685.9644514008525
 20
336.0825241445065
 11
649.792315385382
 21
336.0825241445056
 72
     2
 10
649.7923153853811
 20
336.5825241445064
 40
0.5000000000008527
 50
89.99999999989578
 51
224.9999999999217
 73
     0
 72
     1
 10
649.4387619947867
 20
336.9360775350998
 11
653.5349560724969
 21
341.0322716128092
 72
     2
 10
653.0046259866066
 20
341.5626016986993
 40
0.7500000000004081
 50
315.000000000003
 51
495.0000000000031
 73
     1
 72
     1
 10
652.4742959007165
 20
342.0929317845895
 11
648.3781018230011
 21
337.9967377068726
 72
     2
 10
648.0245484324084
 20
338.3502910974656
 40
0.4999999999994815
 50
45.00000000002304
 51
180.000000000026
 73
     0
 72
     1
 10
647.5245484324089
 20
338.3502910974659
 11
647.5245484324053
 21
374.5224271129529
 72
     1
 10
647.5245484324053
 20
374.5224271129529
 11
644.0245484324052
 21
374.522427112952
 72
     1
 10
644.0245484324052
 20
374.522427112952
 11
644.0245484324052
 21
372.4724271129536
 72
     2
 10
644.5245484324061
 20
372.4724271129541
 40
0.5000000000009095
 50
180.0000000000521
 51
360.0000000000521
 73
     1
 72
     1
 10
645.0245484324071
 20
372.4724271129545
 11
645.0245484324061
 21
373.2224271129527
 72
     1
 10
645.0245484324061
 20
373.2224271129527
 11
646.524548432407
 21
373.2224271129545
 72
     1
 10
646.524548432407
 20
373.2224271129545
 11
646.5245484324062
 21
367.7224271129536
 72
     1
 10
646.5245484324062
 20
367.7224271129536
 11
645.0245484324071
 21
367.7224271129527
 72
     1
 10
645.0245484324071
 20
367.7224271129527
 11
645.0245484324052
 21
368.4724271129536
 72
     2
 10
644.5245484324052
 20
368.4724271129541
 40
0.5
 50
359.9999999999479
 51
539.9999999999543
 73
     1
 72
     1
 10
644.0245484324052
 20
368.4724271129545
 11
644.024548432407
 21
366.4224271129552
 72
     1
 10
644.024548432407
 20
366.4224271129552
 11
646.0245484324062
 21
366.4224271129534
 72
     1
 10
646.0245484324062
 20
366.4224271129534
 11
646.0245484324062
 21
364.9224271129524
 72
     1
 10
646.0245484324062
 20
364.9224271129524
 11
646.2745484324061
 21
364.9224271129515
 72
     1
 10
646.2745484324061
 20
364.9224271129515
 11
646.274548432407
 21
363.2224271129545
 72
     1
 10
646.274548432407
 20
363.2224271129545
 11
646.5745484324072
 21
362.9224271129552
 72
     1
 10
646.5745484324072
 20
362.9224271129552
 11
646.274548432407
 21
362.6224271129523
 72
     1
 10
646.274548432407
 20
362.6224271129523
 11
646.2745484324061
 21
360.9224271129534
 72
     1
 10
646.2745484324061
 20
360.9224271129534
 11
646.0245484324054
 21
360.9224271129525
 72
     1
 10
646.0245484324054
 20
360.9224271129525
 11
646.0245484324052
 21
353.5224271129529
 72
     1
 10
646.0245484324052
 20
353.5224271129529
 11
635.674548432403
 21
353.5224271129538
 72
     1
 10
635.674548432403
 20
353.5224271129538
 11
635.2745484324053
 21
353.1224271129532
 72
     1
 10
635.2745484324053
 20
353.1224271129532
 11
634.8745484324056
 21
353.5224271129538
 72
     1
 10
634.8745484324056
 20
353.5224271129538
 11
622.6745484324068
 21
353.5224271129538
 72
     2
 10
622.6745484324067
 20
353.0224271129542
 40
0.4999999999995453
 50
89.99999999998697
 51
270.0
 73
     1
 72
     1
 10
622.6745484324067
 20
352.5224271129547
 11
625.1745484324057
 21
352.5224271129538
 72
     1
 10
625.1745484324057
 20
352.5224271129538
 11
625.1745484324048
 21
348.5224271129556
 72
     1
 10
625.1745484324048
 20
348.5224271129556
 11
616.4245484324048
 21
348.5224271129538
 72
     1
 10
616.4245484324048
 20
348.5224271129538
 11
616.0245484324043
 21
348.1224271129532
 72
     1
 10
616.0245484324043
 20
348.1224271129532
 11
615.6245484324048
 21
348.522427112952
 72
     1
 10
615.6245484324048
 20
348.522427112952
 11
614.5245484324052
 21
348.5224271129547
 72
     1
 10
614.5245484324052
 20
348.5224271129547
 11
614.5245484324053
 21
347.82433118429
 72
     2
 10
616.0245484324044
 20
345.1974271129547
 40
3.024999999999242
 50
119.7269882711116
 51
182.8134991269074
 73
     1
 72
     2
 10
612.5037974659655
 20
345.0244021658771
 40
0.4999999999996734
 50
357.1865008729693
 51
449.9999999998307
 73
     0
 72
     1
 10
612.5037974659669
 20
344.5244021658774
 11
611.524548432407
 21
344.5244021658774
 72
     2
 10
611.5245484324066
 20
345.0244021658769
 40
0.4999999999995453
 50
89.99999999994789
 51
179.9999999999479
 73
     0
 72
     1
 10
611.024548432407
 20
345.0244021658765
 11
611.0245484324061
 21
350.6198356166825
 72
     1
 10
611.0245484324061
 20
350.6198356166825
 11
611.9910547833509
 21
352.2938737223605
 72
     2
 10
611.7745484324059
 20
352.4188737223609
 40
0.2499999999992349
 50
329.9999999997935
 51
404.999999999742
 73
     1
 72
     1
 10
611.9513251277028
 20
352.5956504176562
 11
611.0245484324061
 21
353.5224271129529
 72
     1
 10
611.0245484324061
 20
353.5224271129529
 11
609.5245484324006
 21
353.5224271129538
 72
     1
 10
609.5245484324006
 20
353.5224271129538
 11
609.5245484324071
 21
337.2648946715226
 72
     2
 10
609.7745484324009
 20
337.2648946715145
 40
0.2499999999937472
 50
179.999999998137
 51
269.999999998124
 73
     1
 72
     1
 10
609.7745484323927
 20
337.0148946715209
 11
610.6230765698167
 21
337.0148946715218
 72
     1
 10
610.6230765698167
 20
337.0148946715218
 11
610.97662996041
 21
336.6613412809285
 72
     1
 10
610.97662996041
 20
336.6613412809285
 11
612.21865169316
 21
337.378422862672
 72
     2
 10
612.0936516931605
 20
337.5949292136182
 40
0.2499999999998916
 50
299.999999999894
 51
404.9999999998433
 73
     1
 72
     1
 10
612.2704283884575
 20
337.7717059089143
 11
611.0245484323898
 21
339.0175858649801
 72
     1
 10
611.0245484323898
 20
339.0175858649801
 11
611.0245484324061
 21
342.5244021658765
 72
     2
 10
611.524548432407
 20
342.5244021658765
 40
0.5000000000009095
 50
180.0
 51
269.9999999999739
 73
     0
 72
     1
 10
611.5245484324068
 20
343.0244021658774
 11
612.9870484324048
 21
343.0244021658774
 72
     2
 10
613.3870484324047
 20
343.0244021658771
 40
0.3999999999998636
 50
179.9999999999593
 51
359.9999999999104
 73
     1
 72
     1
 10
613.7870484324046
 20
343.0244021658765
 11
614.2495484324038
 21
343.0244021658801
 72
     2
 10
614.2495484324054
 20
343.77440216588
 40
0.7499999999998864
 50
269.9999999998784
 51
398.7192973220688
 73
     1
 72
     2
 10
616.0245484324057
 20
345.1974271129537
 40
1.524999999999054
 50
141.2807026777471
 51
398.7192973222112
 73
     0
 72
     2
 10
617.7995484324058
 20
343.7744021658793
 40
0.750000000000193
 50
141.2807026777841
 51
273.8225537293573
 73
     1
 72
     1
 10
617.8495484324068
 20
343.0260706885245
 11
617.8495484324078
 21
342.6224271129541
 72
     1
 10
617.8495484324078
 20
342.6224271129541
 11
621.0495484324058
 21
342.6224271129541
 72
     1
 10
621.0495484324058
 20
342.6224271129541
 11
621.0495484324068
 21
343.822427112954
 72
     1
 10
621.0495484324068
 20
343.822427112954
 11
619.0495484324067
 21
343.8224271129549
 72
     1
 10
619.0495484324067
 20
343.8224271129549
 11
619.0495484324068
 21
345.197427112955
 72
     2
 10
616.0245484324064
 20
345.1974271129508
 40
3.025000000000432
 50
0.0000000000796726
 51
22.07911608129552
 73
     1
 72
     2
 10
619.291045026619
 20
346.5224271129537
 40
0.5000000000010365
 50
157.920883918652
 51
269.9999999999219
 73
     0
 72
     1
 10
619.2910450266183
 20
347.0224271129547
 11
626.6745484324058
 21
347.0224271129556
 72
     1
 10
626.6745484324058
 20
347.0224271129556
 11
626.674548432405
 21
352.0224271129547
 72
     1
 10
626.674548432405
 20
352.0224271129547
 11
632.008051838194
 21
352.0224271129538
 72
     2
 10
632.0080518381932
 20
351.5224271129544
 40
0.4999999999993179
 50
270.0000000000912
 51
382.0791160814663
 73
     0
 72
     2
 10
635.274548432404
 20
350.1974271129589
 40
3.024999999997811
 50
157.9208839188388
 51
180.0000000001108
 73
     1
 72
     1
 10
632.2495484324063
 20
350.197427112953
 11
632.2495484324065
 21
347.0224271129574
 72
     1
 10
632.2495484324065
 20
347.0224271129574
 11
633.4495484324072
 21
347.0224271129574
 72
     1
 10
633.4495484324072
 20
347.0224271129574
 11
633.4495484324073
 21
348.026070688522
 72
     2
 10
633.499548432406
 20
348.774402165877
 40
0.750000000000013
 50
266.1774462708337
 51
398.719297322279
 73
     1
 72
     2
 10
635.274548432406
 20
350.1974271129532
 40
1.525000000000368
 50
141.2807026777675
 51
398.7192973222308
 73
     0
 72
     2
 10
637.0495484324058
 20
348.774402165877
 40
0.7499999999996791
 50
141.2807026777081
 51
273.822553729238
 73
     1
 72
     1
 10
637.0995484324053
 20
348.0260706885226
 11
637.099548432405
 21
347.0224271129574
 72
     1
 10
637.099548432405
 20
347.0224271129574
 11
638.2995484324067
 21
347.0224271129592
 72
     1
 10
638.2995484324067
 20
347.0224271129592
 11
638.2995484324058
 21
350.197427112953
 72
     2
 10
635.2745484324061
 20
350.1974271129543
 40
3.024999999999636
 50
359.9999999999752
 51
382.0791160812402
 73
     1
 72
     2
 10
638.541045026619
 20
351.5224271129532
 40
0.500000000000568
 50
157.9208839187497
 51
269.9999999999739
 73
     0
 72
     1
 10
638.5410450266188
 20
352.0224271129538
 11
645.5245484324052
 21
352.0224271129529
 72
     2
 10
645.524548432406
 20
351.5224271129536
 40
0.4999999999992042
 50
269.9999999999088
 51
359.9999999998893
 73
     0
 72
     1
 10
646.0245484324054
 20
351.5224271129546
 11
646.0245484324062
 21
348.22242711296
 72
     1
 10
646.0245484324062
 20
348.22242711296
 11
644.0245484324043
 21
348.22242711296
 72
     1
 10
644.0245484324043
 20
348.22242711296
 11
644.0245484324043
 21
347.0224271129592
 72
     1
 10
644.0245484324043
 20
347.0224271129592
 11
646.0245484324062
 21
347.0224271129619
 72
     1
 10
646.0245484324062
 20
347.0224271129619
 11
646.0245484324071
 21
343.8224271129603
 72
     1
 10
646.0245484324071
 20
343.8224271129603
 11
644.0245484324052
 21
343.8224271129612
 72
     1
 10
644.0245484324052
 20
343.8224271129612
 11
644.0245484324043
 21
342.6224271129604
 72
     1
 10
644.0245484324043
 20
342.6224271129604
 11
646.0245484324054
 21
342.6224271129605
 72
     1
 10
646.0245484324054
 20
342.6224271129605
 11
646.0245484324063
 21
335.0825241445074
 72
     2
 10
646.5245484324066
 20
335.0825241445077
 40
0.5000000000003411
 50
180.0000000000391
 51
270.0000000000521
 73
     1
 72
     1
 10
646.524548432407
 20
334.5825241445074
 11
654.064451400862
 21
334.5825241445074
 72
     1
 10
654.064451400862
 20
334.5825241445074
 11
654.0644514008629
 21
332.5825241445074
 72
     1
 10
654.0644514008629
 20
332.5825241445074
 11
655.2644514008627
 21
332.5825241445074
 72
     1
 10
655.2644514008627
 20
332.5825241445074
 11
655.26445140086
 21
334.5825241445065
 72
     1
 10
655.26445140086
 20
334.5825241445065
 11
658.4644514008616
 21
334.5825241445055
 72
     1
 10
658.4644514008616
 20
334.5825241445055
 11
658.4644514008617
 21
332.5825241445055
 72
     1
 10
658.4644514008617
 20
332.5825241445055
 11
659.6644514008606
 21
332.5825241445055
 72
     1
 10
659.6644514008606
 20
332.5825241445055
 11
659.6644514008605
 21
334.5825241445065
 72
     1
 10
659.6644514008605
 20
334.5825241445065
 11
662.9644514008535
 21
334.5825241445047
 72
     2
 10
662.9644514008548
 20
334.0825241445051
 40
0.4999999999995453
 50
269.9999999998437
 51
359.9999999998372
 73
     0
 72
     1
 10
663.4644514008543
 20
334.0825241445065
 11
663.4644514008571
 21
327.0990207387204
 72
     2
 10
662.9644514008565
 20
327.0990207387213
 40
0.5000000000005685
 50
0.0000000001107342
 51
112.0791160814062
 73
     0
 97
        1
330
369E
 75
     0
 76
     1
 98
        1
 10
0.0
 20
0.0
  0
ENDBLK
  5
26FD
330
26FB
100
AcDbEntity
  8
0
100
AcDbBlockEnd
  0
BLOCK
  5
2701
330
2700
100
AcDbEntity
  8
0
100
AcDbBlockBegin
  2
07117
 70
     0
 10
410.5163784977603
 20
232.5627738245551
 30
0.0
  3
07117
  1
07117.dwg
  0
LWPOLYLINE
  5
36A2
102
{ACAD_REACTORS
330
36A3
102
}
330
2700
100
AcDbEntity
  8
APL Joinery
  6
Continuous
100
AcDbPolyline
 90
       28
 70
     1
 43
0.0
 10
415.8771932202038
 20
273.0991234024025
 10
412.0092717165614
 20
269.2312018987599
 42
0.1989123673797485
 10
411.7163784977449
 20
268.5240951175741
 10
411.7163784977595
 20
234.7627738245513
 42
0.4142135623732283
 10
412.7163784977599
 20
233.7627738245513
 10
446.4776997907823
 20
233.7627738245649
 42
0.1989123673795461
 10
447.1848065719688
 20
234.0556670433402
 10
451.0527280756108
 20
237.92358854698
 42
-0.767326987979116
 10
451.8892443793503
 20
237.4406256338351
 10
451.2248591780629
 20
234.9611063068381
 42
-0.5773502691896472
 10
450.8066010261944
 20
234.849034372817
 10
450.0994942450055
 20
235.5561411540051
 10
448.7559913607523
 20
234.2126382697509
 10
449.2755257200872
 20
233.6931039104141
 42
-0.1989123673796626
 10
449.3487490247938
 20
233.516327215117
 10
449.348749024791
 20
232.8127738245224
 42
-0.4142135623729619
 10
449.0987490247929
 20
232.5627738245233
 10
412.7163784977613
 20
232.5627738245533
 42
-0.4142135623732449
 10
410.5163784977595
 20
234.7627738245513
 10
410.5163784977469
 20
271.1451443515837
 42
-0.4142135623730951
 10
410.766378497747
 20
271.3951443515828
 10
411.469931888338
 20
271.3951443515837
 42
-0.1989123673796658
 10
411.6467085836336
 20
271.3219210468804
 10
412.1662429429719
 20
270.802386687544
 10
413.5097458272242
 20
272.1458895717991
 10
412.8026390460393
 20
272.8529963529849
 42
-0.5773502691896529
 10
412.9147109800609
 20
273.2712545048533
 10
415.3942303070601
 20
273.9356397061395
 42
-0.7673269879789024
  0
HATCH
  5
36A3
330
2700
100
AcDbEntity
  8
APL Hatch
100
AcDbHatch
 10
0.0
 20
0.0
 30
0.0
210
0.0
220
0.0
230
1.0
  2
SOLID
 70
     1
 71
     1
 91
        1
 92
        1
 93
       28
 72
     1
 10
415.8771932202038
 20
273.0991234024025
 11
412.0092717165614
 21
269.2312018987599
 72
     2
 10
412.7163784977452
 20
268.5240951175702
 40
1.000000000000249
 50
134.9999999997605
 51
179.9999999997818
 73
     1
 72
     1
 10
411.7163784977449
 20
268.5240951175741
 11
411.7163784977595
 21
234.7627738245513
 72
     2
 10
412.7163784977595
 20
234.7627738245513
 40
1.0
 50
180.0
 51
270.000000000026
 73
     1
 72
     1
 10
412.7163784977599
 20
233.7627738245513
 11
446.4776997907823
 21
233.7627738245649
 72
     2
 10
446.4776997908281
 20
234.7627738245464
 40
0.9999999999814406
 50
269.9999999973717
 51
314.999999997347
 73
     1
 72
     1
 10
447.1848065719688
 20
234.0556670433402
 11
451.0527280756108
 21
237.92358854698
 72
     2
 10
451.4062814662049
 20
237.5700351563864
 40
0.5000000000008482
 50
224.9999999999586
 51
374.9999999999817
 73
     0
 72
     1
 10
451.8892443793503
 20
237.4406256338351
 11
451.2248591780629
 21
234.9611063068381
 72
     2
 10
450.9833777214908
 20
235.0258110681135
 40
0.249999999999689
 50
14.99999999997983
 51
134.9999999999908
 73
     0
 72
     1
 10
450.8066010261944
 20
234.849034372817
 11
450.0994942450055
 21
235.5561411540051
 72
     1
 10
450.0994942450055
 20
235.5561411540051
 11
448.7559913607523
 21
234.2126382697509
 72
     1
 10
448.7559913607523
 20
234.2126382697509
 11
449.2755257200872
 21
233.6931039104141
 72
     2
 10
449.0987490247916
 20
233.5163272151134
 40
0.2500000000021725
 50
314.9999999991802
 51
359.9999999991792
 73
     0
 72
     1
 10
449.3487490247938
 20
233.516327215117
 11
449.348749024791
 21
232.8127738245224
 72
     2
 10
449.0987490247924
 20
232.8127738245219
 40
0.2499999999986358
 50
359.9999999998958
 51
449.9999999998697
 73
     0
 72
     1
 10
449.0987490247929
 20
232.5627738245233
 11
412.7163784977613
 21
232.5627738245533
 72
     2
 10
412.7163784977589
 20
234.7627738245527
 40
2.199999999999334
 50
89.99999999993486
 51
179.9999999999637
 73
     0
 72
     1
 10
410.5163784977595
 20
234.7627738245513
 11
410.5163784977469
 21
271.1451443515837
 72
     2
 10
410.7663784977465
 20
271.1451443515833
 40
0.2499999999995452
 50
180.0000000001042
 51
270.0000000001042
 73
     0
 72
     1
 10
410.766378497747
 20
271.3951443515828
 11
411.469931888338
 21
271.3951443515837
 72
     2
 10
411.4699318883374
 20
271.1451443515849
 40
0.2499999999988063
 50
270.0000000001042
 51
315.0000000001105
 73
     0
 72
     1
 10
411.6467085836336
 20
271.3219210468804
 11
412.1662429429719
 21
270.802386687544
 72
     1
 10
412.1662429429719
 20
270.802386687544
 11
413.5097458272242
 21
272.1458895717991
 72
     1
 10
413.5097458272242
 20
272.1458895717991
 11
412.8026390460393
 21
272.8529963529849
 72
     2
 10
412.979415741336
 20
273.0297730482811
 40
0.249999999999801
 50
135.0000000000737
 51
255.0000000000869
 73
     0
 72
     1
 10
412.9147109800609
 20
273.2712545048533
 11
415.3942303070601
 21
273.9356397061395
 72
     2
 10
415.523639829611
 20
273.4526767929955
 40
0.4999999999994182
 50
255.0000000000281
 51
405.0000000000138
 73
     0
 97
        1
330
36A2
 75
     0
 76
     1
 98
        1
 10
0.0
 20
0.0
  0
ENDBLK
  5
2702
330
2700
100
AcDbEntity
  8
0
100
AcDbBlockEnd
  0
BLOCK
  5
2708
330
2707
100
AcDbEntity
  8
0
100
AcDbBlockBegin
  2
07103
 70
     0
 10
494.0467264791148
 20
408.3095849969407
 30
0.0
  3
07103
  1
07103.dwg
  0
LWPOLYLINE
  5
36A6
102
{ACAD_REACTORS
330
36A8
102
}
330
2707
100
AcDbEntity
  8
APL Joinery
  6
Continuous
100
AcDbPolyline
 90
       74
 70
     1
 43
0.0
 10
486.4049948130859
 20
401.4784354062674
 10
480.9372350254932
 20
409.692910204529
 42
-0.3573073485341374
 10
481.0625785385654
 20
410.9541167128311
 10
490.1680468226747
 20
420.0595849969407
 10
492.2962983302766
 20
420.0595849969407
 10
492.2962983302766
 20
421.3095849969407
 10
511.0967264791149
 20
421.3095849969407
 42
0.9999999999999998
 10
511.0967264791149
 20
422.8095849969407
 10
507.2967264791157
 20
422.8095849969407
 42
-0.4142135623730951
 10
507.0467264791156
 20
423.0595849969407
 10
507.0467264791156
 20
426.3614675875855
 42
-0.4142135623730951
 10
507.2967264791157
 20
426.6114675875854
 10
519.0467264791156
 20
426.6114675875854
 10
519.0467264791156
 20
420.9095849969411
 10
525.1467264791151
 20
420.9095849969411
 42
-0.4142135623730951
 10
525.3967264791151
 20
420.6595849969411
 10
525.3967264791151
 20
419.7595849969415
 42
0.4142135623730951
 10
525.6467264791151
 20
419.5095849969415
 10
526.5467264791157
 20
419.5095849969415
 42
0.4142135623730951
 10
526.7967264791157
 20
419.7595849969415
 10
526.7967264791157
 20
422.3095849969407
 10
520.4467264791153
 20
422.3095849969407
 10
520.4467264791153
 20
429.4114675875857
 10
519.2467264791154
 20
429.4114675875857
 10
519.2467264791154
 20
428.0114675875851
 10
513.3967264791151
 20
428.0114675875851
 10
513.3967264791151
 20
466.0595849969407
 10
509.8967264791151
 20
466.0595849969407
 10
509.8967264791151
 20
464.0095849969405
 42
0.9999999999999998
 10
510.8967264791151
 20
464.0095849969405
 10
510.8967264791151
 20
464.7595849969405
 10
512.3967264791152
 20
464.7595849969405
 10
512.3967264791152
 20
459.2595849969406
 10
510.8967264791151
 20
459.2595849969406
 10
510.8967264791151
 20
460.0095849969405
 42
0.9999999999999998
 10
509.8967264791151
 20
460.0095849969405
 10
509.8967264791151
 20
457.9595849969413
 10
511.8967264791151
 20
457.9595849969413
 10
511.8967264791151
 20
456.4595849969413
 10
512.1467264791151
 20
456.4595849969413
 10
512.1467264791151
 20
452.4595849969413
 10
511.8967264791151
 20
452.4595849969413
 10
511.8967264791151
 20
447.0595849969408
 42
-0.4142135623730951
 10
509.8967264791151
 20
445.0595849969407
 10
488.5467264791157
 20
445.0595849969407
 42
0.9999999999999998
 10
488.5467264791157
 20
444.0595849969407
 10
491.0467264791157
 20
444.0595849969407
 10
491.0467264791157
 20
440.0595849969407
 10
476.8967264791151
 20
440.0595849969407
 10
476.8967264791151
 20
442.1569935006713
 10
477.8632328300616
 20
443.8310316063473
 42
0.3394542588633301
 10
477.8235031744117
 20
444.132808301644
 10
476.8967264791151
 20
445.0595849969407
 10
475.3967264791151
 20
445.0595849969407
 10
475.3967264791151
 20
418.3334035902848
 42
0.1478844142756872
 10
477.072223536533
 20
412.7924063191301
 10
485.156319371699
 20
400.6472858155943
 42
0.2509566172926127
 10
487.6536702544733
 20
399.3095849969408
 10
491.0467264791147
 20
399.3095849969408
 42
0.4142135623730951
 10
492.0467264791148
 20
400.3095849969407
 10
492.0467264791148
 20
401.3595849969409
 42
0.9999999999999998
 10
491.0467264791147
 20
401.3595849969409
 10
491.0467264791147
 20
400.6095849969409
 10
489.5467264791148
 20
400.6095849969409
 10
489.5467264791148
 20
406.1095849969409
 10
491.0467264791147
 20
406.1095849969409
 10
491.0467264791147
 20
405.359584996941
 42
0.9999999999999998
 10
492.0467264791148
 20
405.359584996941
 10
492.0467264791148
 20
406.4095849969411
 42
0.4142135623730951
 10
491.0467264791147
 20
407.4095849969411
 10
489.5467264791148
 20
407.4095849969411
 42
0.4142135623730951
 10
488.0467264791148
 20
405.9095849969411
 10
488.0467264791148
 20
401.3153199271977
 42
-0.4459564851225481
 10
487.4932545914353
 20
400.818187392326
 42
-0.2226658265771438
  0
LWPOLYLINE
  5
36A7
102
{ACAD_REACTORS
330
36A8
102
}
330
2707
100
AcDbEntity
  8
APL Joinery
  6
Continuous
100
AcDbPolyline
 90
       27
 70
     1
 43
0.0
 10
497.8626446329609
 20
426.7344822248993
 42
-0.9999999999999998
 10
498.9299523252697
 20
427.7884529502705
 42
-0.3548088091890836
 10
499.3397914444508
 20
423.5855590229147
 42
0.5978996910514593
 10
499.7567306930084
 20
422.8095849969407
 10
505.5467264791157
 20
422.8095849969407
 10
505.5467264791157
 20
426.2614675875851
 42
-0.4142135623730951
 10
507.2967264791157
 20
428.0114675875851
 10
511.3967264791151
 20
428.0114675875851
 42
0.4142135623730951
 10
511.8967264791151
 20
428.5114675875851
 10
511.8967264791151
 20
443.0595849969408
 42
0.4142135623730951
 10
511.3967264791151
 20
443.5595849969407
 10
493.0467264791157
 20
443.5595849969407
 42
0.4142135623730951
 10
492.5467264791157
 20
443.0595849969408
 10
492.5467264791157
 20
440.0595849969407
 42
-0.4142135623730951
 10
491.0467264791157
 20
438.5595849969408
 10
477.3967264791151
 20
438.5595849969408
 42
0.4142135623730951
 10
476.8967264791151
 20
438.0595849969408
 10
476.896726479115
 20
418.3334035902847
 42
0.1478844142756755
 10
478.3208989779203
 20
413.6235559098032
 10
478.9591933542949
 20
412.6646160016355
 42
0.4735056154819743
 10
480.4987504297392
 20
412.5116089475654
 10
489.9912701273786
 20
422.0041286452035
 42
-0.1989123673796641
 10
491.9358137756415
 20
422.8095849969407
 10
493.3358662652215
 20
422.8095849969407
 42
0.5978996910514752
 10
493.752805513779
 20
423.5855590229146
 42
-0.354808809189094
 10
494.162644632961
 20
427.7884529502705
 42
-1.00000000000004
 10
495.229952325269
 20
426.7344822248991
 42
2.392909508455622
  0
HATCH
  5
36A8
330
2707
100
AcDbEntity
  8
APL Hatch
100
AcDbHatch
 10
0.0
 20
0.0
 30
0.0
210
0.0
220
0.0
230
1.0
  2
SOLID
 70
     1
 71
     1
 91
        2
 92
       16
 93
       27
 72
     2
 10
498.3962984791153
 20
427.261467587585
 40
0.7500000000002328
 50
135.360227041443
 51
315.3602270414491
 73
     0
 72
     2
 10
496.5462984791149
 20
425.4345849969405
 40
3.350000000000496
 50
315.3602270414142
 51
393.5007603850511
 73
     0
 72
     2
 10
499.7567306930084
 20
423.3095849969407
 40
0.5000000000000253
 50
146.4992396149542
 51
270.0
 73
     1
 72
     1
 10
499.7567306930084
 20
422.8095849969407
 11
505.5467264791157
 21
422.8095849969407
 72
     1
 10
505.5467264791157
 20
422.8095849969407
 11
505.5467264791157
 21
426.2614675875851
 72
     2
 10
507.2967264791157
 20
426.2614675875851
 40
1.75
 50
180.0
 51
270.0
 73
     0
 72
     1
 10
507.2967264791157
 20
428.0114675875851
 11
511.3967264791151
 21
428.0114675875851
 72
     2
 10
511.3967264791151
 20
428.5114675875851
 40
0.5
 50
270.0
 51
360.0
 73
     1
 72
     1
 10
511.8967264791151
 20
428.5114675875851
 11
511.8967264791151
 21
443.0595849969408
 72
     2
 10
511.3967264791151
 20
443.0595849969408
 40
0.5
 50
0.0
 51
90.0
 73
     1
 72
     1
 10
511.3967264791151
 20
443.5595849969407
 11
493.0467264791157
 21
443.5595849969407
 72
     2
 10
493.0467264791157
 20
443.0595849969408
 40
0.5
 50
90.0
 51
180.0
 73
     1
 72
     1
 10
492.5467264791157
 20
443.0595849969408
 11
492.5467264791157
 21
440.0595849969407
 72
     2
 10
491.0467264791157
 20
440.0595849969407
 40
1.5
 50
360.0
 51
450.0
 73
     0
 72
     1
 10
491.0467264791157
 20
438.5595849969408
 11
477.3967264791151
 21
438.5595849969408
 72
     2
 10
477.3967264791151
 20
438.0595849969408
 40
0.5
 50
90.0
 51
180.0
 73
     1
 72
     1
 10
476.8967264791151
 20
438.0595849969408
 11
476.896726479115
 21
418.3334035902847
 72
     2
 10
485.3967264791152
 20
418.3334035902848
 40
8.50000000000017
 50
180.0000000000004
 51
213.6487285868878
 73
     1
 72
     1
 10
478.3208989779203
 20
413.6235559098032
 11
478.9591933542949
 21
412.6646160016355
 72
     2
 10
479.7916436485524
 20
413.2187157287514
 40
0.9999999999996809
 50
213.6487285869261
 51
315.0000000000368
 73
     1
 72
     1
 10
480.4987504297392
 20
412.5116089475654
 11
489.9912701273786
 21
422.0041286452035
 72
     2
 10
491.9358137756416
 20
420.0595849969408
 40
2.749999999999861
 50
224.9999999999941
 51
269.9999999999953
 73
     0
 72
     1
 10
491.9358137756415
 20
422.8095849969407
 11
493.3358662652215
 21
422.8095849969407
 72
     2
 10
493.3358662652215
 20
423.3095849969407
 40
0.5
 50
269.9999999999935
 51
393.500760385044
 73
     1
 72
     2
 10
496.5462984791153
 20
425.4345849969399
 40
3.350000000000573
 50
146.4992396149599
 51
224.6397729585988
 73
     0
 72
     2
 10
494.696298479115
 20
427.2614675875849
 40
0.7499999999999897
 50
224.6397729585814
 51
404.6397729585875
 73
     0
 72
     2
 10
496.5462984791151
 20
425.4345849969415
 40
1.849999999999111
 50
135.3602270414172
 51
404.6397729585926
 73
     1
 97
        1
330
36A7
 92
        1
 93
       74
 72
     1
 10
486.4049948130859
 20
401.4784354062674
 11
480.9372350254932
 21
409.692910204529
 72
     2
 10
481.7696853197516
 20
410.2470099316442
 40
1.000000000000091
 50
146.3512714131326
 51
225.000000000023
 73
     0
 72
     1
 10
481.0625785385654
 20
410.9541167128311
 11
490.1680468226747
 21
420.0595849969407
 72
     1
 10
490.1680468226747
 20
420.0595849969407
 11
492.2962983302766
 21
420.0595849969407
 72
     1
 10
492.2962983302766
 20
420.0595849969407
 11
492.2962983302766
 21
421.3095849969407
 72
     1
 10
492.2962983302766
 20
421.3095849969407
 11
511.0967264791149
 21
421.3095849969407
 72
     2
 10
511.0967264791149
 20
422.0595849969408
 40
0.75
 50
270.0
 51
450.0
 73
     1
 72
     1
 10
511.0967264791149
 20
422.8095849969407
 11
507.2967264791157
 21
422.8095849969407
 72
     2
 10
507.2967264791157
 20
423.0595849969407
 40
0.25
 50
90.0
 51
180.0
 73
     0
 72
     1
 10
507.0467264791156
 20
423.0595849969407
 11
507.0467264791156
 21
426.3614675875855
 72
     2
 10
507.2967264791157
 20
426.3614675875855
 40
0.25
 50
180.0
 51
270.0
 73
     0
 72
     1
 10
507.2967264791157
 20
426.6114675875854
 11
519.0467264791156
 21
426.6114675875854
 72
     1
 10
519.0467264791156
 20
426.6114675875854
 11
519.0467264791156
 21
420.9095849969411
 72
     1
 10
519.0467264791156
 20
420.9095849969411
 11
525.1467264791151
 21
420.9095849969411
 72
     2
 10
525.1467264791151
 20
420.6595849969411
 40
0.25
 50
270.0
 51
360.0
 73
     0
 72
     1
 10
525.3967264791151
 20
420.6595849969411
 11
525.3967264791151
 21
419.7595849969415
 72
     2
 10
525.6467264791151
 20
419.7595849969415
 40
0.25
 50
180.0
 51
270.0
 73
     1
 72
     1
 10
525.6467264791151
 20
419.5095849969415
 11
526.5467264791157
 21
419.5095849969415
 72
     2
 10
526.5467264791157
 20
419.7595849969415
 40
0.25
 50
270.0
 51
360.0
 73
     1
 72
     1
 10
526.7967264791157
 20
419.7595849969415
 11
526.7967264791157
 21
422.3095849969407
 72
     1
 10
526.7967264791157
 20
422.3095849969407
 11
520.4467264791153
 21
422.3095849969407
 72
     1
 10
520.4467264791153
 20
422.3095849969407
 11
520.4467264791153
 21
429.4114675875857
 72
     1
 10
520.4467264791153
 20
429.4114675875857
 11
519.2467264791154
 21
429.4114675875857
 72
     1
 10
519.2467264791154
 20
429.4114675875857
 11
519.2467264791154
 21
428.0114675875851
 72
     1
 10
519.2467264791154
 20
428.0114675875851
 11
513.3967264791151
 21
428.0114675875851
 72
     1
 10
513.3967264791151
 20
428.0114675875851
 11
513.3967264791151
 21
466.0595849969407
 72
     1
 10
513.3967264791151
 20
466.0595849969407
 11
509.8967264791151
 21
466.0595849969407
 72
     1
 10
509.8967264791151
 20
466.0595849969407
 11
509.8967264791151
 21
464.0095849969405
 72
     2
 10
510.3967264791151
 20
464.0095849969405
 40
0.5
 50
180.0
 51
360.0
 73
     1
 72
     1
 10
510.8967264791151
 20
464.0095849969405
 11
510.8967264791151
 21
464.7595849969405
 72
     1
 10
510.8967264791151
 20
464.7595849969405
 11
512.3967264791152
 21
464.7595849969405
 72
     1
 10
512.3967264791152
 20
464.7595849969405
 11
512.3967264791152
 21
459.2595849969406
 72
     1
 10
512.3967264791152
 20
459.2595849969406
 11
510.8967264791151
 21
459.2595849969406
 72
     1
 10
510.8967264791151
 20
459.2595849969406
 11
510.8967264791151
 21
460.0095849969405
 72
     2
 10
510.3967264791151
 20
460.0095849969405
 40
0.5
 50
0.0
 51
180.0
 73
     1
 72
     1
 10
509.8967264791151
 20
460.0095849969405
 11
509.8967264791151
 21
457.9595849969413
 72
     1
 10
509.8967264791151
 20
457.9595849969413
 11
511.8967264791151
 21
457.9595849969413
 72
     1
 10
511.8967264791151
 20
457.9595849969413
 11
511.8967264791151
 21
456.4595849969413
 72
     1
 10
511.8967264791151
 20
456.4595849969413
 11
512.1467264791151
 21
456.4595849969413
 72
     1
 10
512.1467264791151
 20
456.4595849969413
 11
512.1467264791151
 21
452.4595849969413
 72
     1
 10
512.1467264791151
 20
452.4595849969413
 11
511.8967264791151
 21
452.4595849969413
 72
     1
 10
511.8967264791151
 20
452.4595849969413
 11
511.8967264791151
 21
447.0595849969408
 72
     2
 10
509.8967264791151
 20
447.0595849969408
 40
2.0
 50
360.0
 51
450.0
 73
     0
 72
     1
 10
509.8967264791151
 20
445.0595849969407
 11
488.5467264791157
 21
445.0595849969407
 72
     2
 10
488.5467264791157
 20
444.5595849969407
 40
0.5
 50
90.0
 51
270.0
 73
     1
 72
     1
 10
488.5467264791157
 20
444.0595849969407
 11
491.0467264791157
 21
444.0595849969407
 72
     1
 10
491.0467264791157
 20
444.0595849969407
 11
491.0467264791157
 21
440.0595849969407
 72
     1
 10
491.0467264791157
 20
440.0595849969407
 11
476.8967264791151
 21
440.0595849969407
 72
     1
 10
476.8967264791151
 20
440.0595849969407
 11
476.8967264791151
 21
442.1569935006713
 72
     1
 10
476.8967264791151
 20
442.1569935006713
 11
477.8632328300616
 21
443.8310316063473
 72
     2
 10
477.6467264791151
 20
443.956031606347
 40
0.2500000000000753
 50
330.0000000000852
 51
405.0000000000737
 73
     1
 72
     1
 10
477.8235031744117
 20
444.132808301644
 11
476.8967264791151
 21
445.0595849969407
 72
     1
 10
476.8967264791151
 20
445.0595849969407
 11
475.3967264791151
 21
445.0595849969407
 72
     1
 10
475.3967264791151
 20
445.0595849969407
 11
475.3967264791151
 21
418.3334035902848
 72
     2
 10
485.3967264791146
 20
418.3334035902846
 40
9.999999999999545
 50
179.9999999999993
 51
213.6487285868891
 73
     1
 72
     1
 10
477.072223536533
 20
412.7924063191301
 11
485.156319371699
 21
400.6472858155943
 72
     2
 10
487.6536702544735
 20
402.3095849969406
 40
2.999999999999848
 50
213.6487285868885
 51
269.9999999999978
 73
     1
 72
     1
 10
487.6536702544733
 20
399.3095849969408
 11
491.0467264791147
 21
399.3095849969408
 72
     2
 10
491.0467264791147
 20
400.3095849969407
 40
1.0
 50
270.0
 51
360.0
 73
     1
 72
     1
 10
492.0467264791148
 20
400.3095849969407
 11
492.0467264791148
 21
401.3595849969409
 72
     2
 10
491.5467264791147
 20
401.3595849969409
 40
0.5
 50
0.0
 51
180.0
 73
     1
 72
     1
 10
491.0467264791147
 20
401.3595849969409
 11
491.0467264791147
 21
400.6095849969409
 72
     1
 10
491.0467264791147
 20
400.6095849969409
 11
489.5467264791148
 21
400.6095849969409
 72
     1
 10
489.5467264791148
 20
400.6095849969409
 11
489.5467264791148
 21
406.1095849969409
 72
     1
 10
489.5467264791148
 20
406.1095849969409
 11
491.0467264791147
 21
406.1095849969409
 72
     1
 10
491.0467264791147
 20
406.1095849969409
 11
491.0467264791147
 21
405.359584996941
 72
     2
 10
491.5467264791147
 20
405.359584996941
 40
0.5
 50
180.0
 51
360.0
 73
     1
 72
     1
 10
492.0467264791148
 20
405.359584996941
 11
492.0467264791148
 21
406.4095849969411
 72
     2
 10
491.0467264791147
 20
406.4095849969411
 40
1.0
 50
0.0
 51
90.0
 73
     1
 72
     1
 10
491.0467264791147
 20
407.4095849969411
 11
489.5467264791148
 21
407.4095849969411
 72
     2
 10
489.5467264791148
 20
405.9095849969411
 40
1.5
 50
90.0
 51
180.0
 73
     1
 72
     1
 10
488.0467264791148
 20
405.9095849969411
 11
488.0467264791148
 21
401.3153199271977
 72
     2
 10
487.5467264791147
 20
401.3153199271977
 40
0.5
 50
360.0
 51
456.1391673652599
 73
     0
 72
     2
 10
487.6536702544726
 20
402.309584996941
 40
1.499999999999656
 50
96.1391673652194
 51
146.3512714130889
 73
     0
 97
        1
330
36A6
 75
     0
 76
     1
 98
        1
 10
0.0
 20
0.0
  0
ENDBLK
  5
2709
330
2707
100
AcDbEntity
  8
0
100
AcDbBlockEnd
  0
BLOCK
  5
270F
330
270E
100
AcDbEntity
  8
0
100
AcDbBlockBegin
  2
Timber Profile 20
 70
     0
 10
519.602340032396
 20
614.0116203804864
 30
0.0
  3
Timber Profile 20
  1
Timber Profile 20.dwg
  0
LWPOLYLINE
  5
36AB
330
270E
100
AcDbEntity
  8
APL Joinery
  6
Continuous
 62
     3
100
AcDbPolyline
 90
        8
 70
     1
 43
0.0
 10
523.1378739383349
 20
658.4748116597168
 42
0.4142135623731657
 10
516.0668061264686
 20
658.4748116597177
 10
491.0777210910046
 20
633.4857266242509
 10
516.5023400323962
 20
608.0611076828593
 10
516.502340032398
 20
615.361620380487
 10
522.702340032395
 20
615.3616203804874
 10
522.702340032395
 20
608.0611076828542
 10
548.1269589737958
 20
633.485726624255
  0
SPLINE
  5
36AC
330
270E
100
AcDbEntity
  8
APL Joinery
 62
     8
100
AcDbSpline
210
0.0
220
0.0
230
1.0
 70
     8
 71
     3
 72
    10
 73
     6
 74
     4
 42
0.0000000001
 43
0.0000000001
 44
0.0000000001
 40
0.0
 40
0.0
 40
0.0
 40
0.0
 40
9.911908116756421
 40
26.67453050932303
 40
37.16076024240215
 40
37.16076024240215
 40
37.16076024240215
 40
37.16076024240215
 10
496.6100846381078
 20
635.1818920531964
 30
0.0
 10
499.9007576851401
 20
634.9809542588108
 30
0.0
 10
508.756485316521
 20
634.440198506873
 30
0.0
 10
521.4960133306824
 20
639.7689084504503
 30
0.0
 10
525.6749490462854
 20
648.0100815611357
 30
0.0
 10
527.2831371545962
 20
651.1815485319366
 30
0.0
 11
496.6100846381078
 21
635.1818920531964
 31
0.0
 11
506.5219927548642
 21
635.1818920531964
 31
0.0
 11
521.6940184104382
 21
642.3089634701514
 31
0.0
 11
527.2831371545962
 21
651.1815485319366
 31
0.0
  0
SPLINE
  5
36AD
330
270E
100
AcDbEntity
  8
APL Joinery
 62
     8
100
AcDbSpline
210
0.0
220
0.0
230
1.0
 70
     8
 71
     3
 72
    11
 73
     7
 74
     5
 42
0.0000000001
 43
0.0000000001
 44
0.0000000001
 40
0.0
 40
0.0
 40
0.0
 40
0.0
 40
11.54722017285554
 40
27.46345027272591
 40
37.76828271794729
 40
44.59633610021312
 40
44.59633610021312
 40
44.59633610021312
 40
44.59633610021312
 10
497.1458624833358
 20
630.8977120859244
 30
0.0
 10
500.9770112571659
 20
630.5394823044159
 30
0.0
 10
510.088863483283
 20
629.6874828064074
 30
0.0
 10
522.8203623274326
 20
630.6270920144798
 30
0.0
 10
533.1354557196887
 20
635.5613386104216
 30
0.0
 10
536.70883614553
 20
640.0764814795049
 30
0.0
 10
538.1329530484536
 20
641.8759236078821
 30
0.0
 11
497.1458624833358
 21
630.8977120859244
 31
0.0
 11
508.6651086307847
 21
630.0944301211793
 31
0.0
 11
524.4705910250831
 21
631.9687585010374
 31
0.0
 11
533.578832373997
 21
636.7884588292759
 31
0.0
 11
538.1329530484536
 21
641.8759236078821
 31
0.0
  0
ENDBLK
  5
2710
330
270E
100
AcDbEntity
  8
0
100
AcDbBlockEnd
  0
BLOCK
  5
2716
330
2715
100
AcDbEntity
  8
0
100
AcDbBlockBegin
  2
9700532
 70
     0
 10
574.1322082536701
 20
151.0313343375995
 30
0.0
  3
9700532
  1
9700532.dwg
  0
LWPOLYLINE
  5
36AF
330
2715
100
AcDbEntity
  8
APL Joinery
  6
Continuous
 62
     8
100
AcDbPolyline
 90
       28
 70
     1
 43
0.0
 10
571.4144662320371
 20
150.1520699470492
 10
571.9940217278097
 20
150.3073613741111
 10
572.3475751184031
 20
150.6609147647043
 10
572.1354430840476
 20
150.8730467990598
 10
573.9739207151306
 20
152.7115244301461
 10
575.8123983462176
 20
150.8730467990598
 10
573.9739207151326
 20
149.0345691679755
 10
573.7617886807765
 20
149.2467012023316
 10
573.4082352901832
 20
148.8931478117382
 10
573.2529438631213
 20
148.3135923159655
 10
572.5709384164522
 20
147.6315868692958
 42
0.6681786379192988
 10
573.6315985882326
 20
145.0709266975164
 10
606.3117035820316
 20
145.0709266975231
 10
606.3117035820312
 20
146.0709266975213
 10
573.631598588233
 20
146.0709266975163
 42
-0.6681786379194632
 10
573.2780451976395
 20
146.9244800881098
 10
576.5195051274049
 20
150.165940017874
 10
576.5548604664631
 20
150.1305846788157
 42
0.9999999999999998
 10
577.2619672476489
 20
150.8376914600019
 10
573.9385653760739
 20
154.1610933315769
 42
0.9999999999999998
 10
573.2314585948873
 20
153.4539865503905
 10
573.2668139339432
 20
153.4186312113318
 10
570.0253540041818
 20
150.1771712815644
 42
-0.6681786379194636
 10
569.171800613588
 20
150.5307246721575
 10
569.1718006135817
 20
183.2108296659643
 10
568.1718006135769
 20
183.2108296659642
 10
568.1718006135817
 20
150.5307246721534
 42
0.6681786379197067
 10
570.7324607853627
 20
149.4700645003757
  0
ENDBLK
  5
2717
330
2715
100
AcDbEntity
  8
0
100
AcDbBlockEnd
  0
BLOCK
  5
271C
330
271B
100
AcDbEntity
  8
0
100
AcDbBlockBegin
  2
9700529
 70
     0
 10
781.9306002937151
 20
277.8363373982324
 30
0.0
  3
9700529
  1
9700529.dwg
  0
LWPOLYLINE
  5
36B1
330
271B
100
AcDbEntity
  8
APL Joinery
  6
Continuous
 62
     8
100
AcDbPolyline
 90
       14
 70
     1
 43
0.0
 10
774.6306002937147
 20
314.2344548075874
 10
774.6306002937147
 20
279.2863373982321
 10
779.980600293715
 20
279.2863373982321
 10
779.980600293715
 20
281.8863373982316
 10
781.9806002937146
 20
281.8863373982316
 10
781.9806002937146
 20
270.7844548075875
 10
780.6806002937149
 20
270.7844548075875
 10
780.6806002937149
 20
277.9863373982319
 10
779.3806002937151
 20
277.9863373982319
 10
779.3806002937151
 20
276.4863373982319
 10
778.0806002937149
 20
276.4863373982319
 10
778.0806002937149
 20
277.9863373982319
 10
773.6306002937147
 20
277.9863373982319
 10
773.6306002937147
 20
314.2344548075874
  0
ENDBLK
  5
271D
330
271B
100
AcDbEntity
  8
0
100
AcDbBlockEnd
  0
BLOCK
  5
2721
330
2720
100
AcDbEntity
  8
0
100
AcDbBlockBegin
  2
Timber Profile 14
 70
     0
 10
393.7519846435696
 20
820.8839080702457
 30
0.0
  3
Timber Profile 14
  1
Timber Profile 14.dwg
  0
LWPOLYLINE
  5
36B3
330
2720
100
AcDbEntity
  8
APL Joinery
  6
Continuous
 62
     3
100
AcDbPolyline
 90
        8
 70
     1
 43
0.0
 10
391.7019846435692
 20
818.3339080702477
 10
386.7019846435687
 20
818.3339080702477
 10
386.7019846435687
 20
856.4320254796042
 10
398.5019846435694
 20
856.4320254796037
 10
398.5019846435698
 20
809.7320254796034
 10
393.8019846435695
 20
809.7320254796038
 10
393.8019846435695
 20
821.6339080702475
 10
391.7019846435687
 20
821.633908070248
  0
SPLINE
  5
36B4
330
2720
100
AcDbEntity
  8
APL Joinery
 62
     8
100
AcDbSpline
210
0.0
220
0.0
230
1.0
 70
     8
 71
     3
 72
    10
 73
     6
 74
     4
 42
0.0000000001
 43
0.0000000001
 44
0.0000000001
 40
0.0
 40
0.0
 40
0.0
 40
0.0
 40
5.263591546577339
 40
10.30985873790608
 40
15.81802698952888
 40
15.81802698952888
 40
15.81802698952888
 40
15.81802698952888
 10
395.0380500373597
 20
855.4752186760918
 30
0.0
 10
394.89416405571
 20
853.7003268954194
 30
0.0
 10
394.612332889282
 20
850.2238254663334
 30
0.0
 10
391.6248487596279
 20
845.6714687065561
 30
0.0
 10
389.0323190059914
 20
843.3002743516691
 30
0.0
 10
387.679324792558
 20
842.0627910647029
 30
0.0
 11
395.0380500373597
 21
855.4752186760918
 31
0.0
 11
394.1723178228613
 21
850.2833111555382
 31
0.0
 11
391.575120367043
 21
845.9567215122081
 31
0.0
 11
387.679324792558
 21
842.0627910647029
 31
0.0
  0
SPLINE
  5
36B5
330
2720
100
AcDbEntity
  8
APL Joinery
 62
     8
100
AcDbSpline
210
0.0
220
0.0
230
1.0
 70
     8
 71
     3
 72
    11
 73
     7
 74
     5
 42
0.0000000001
 43
0.0000000001
 44
0.0000000001
 40
0.0
 40
0.0
 40
0.0
 40
0.0
 40
5.642376584452415
 40
9.888772310793711
 40
15.5710224310065
 40
19.40985520851824
 40
19.40985520851824
 40
19.40985520851824
 40
19.40985520851824
 10
397.458452421487
 20
846.0232058202477
 30
0.0
 10
397.3042749500872
 20
844.0837523734545
 30
0.0
 10
397.034065068257
 20
840.6846858177821
 30
0.0
 10
393.4912435035322
 20
836.7140537572922
 30
0.0
 10
391.3805634006039
 20
832.4927010298289
 30
0.0
 10
388.6113428291015
 20
830.8322635653421
 30
0.0
 10
387.4948128280252
 20
830.1627870118714
 30
0.0
 11
397.458452421487
 21
846.0232058202477
 31
0.0
 11
396.3513806342912
 21
840.4905025407675
 31
0.0
 11
393.9527283410171
 21
836.9864557601635
 31
0.0
 11
390.6315162250799
 21
832.3758683236638
 31
0.0
 11
387.4948128280252
 21
830.1627870118714
 31
0.0
  0
ENDBLK
  5
2722
330
2720
100
AcDbEntity
  8
0
100
AcDbBlockEnd
  0
BLOCK
  5
2727
330
2726
100
AcDbEntity
  8
0
100
AcDbBlockBegin
  2
9010100
 70
     0
 10
-698.0412257018842
 20
103.9239421823788
 30
0.0
  3
9010100
  1
9010100.dwg
  0
LWPOLYLINE
  5
36B7
330
2726
100
AcDbEntity
  8
APL Joinery
 62
   252
100
AcDbPolyline
 90
       16
 70
     1
 43
0.0
 10
-697.0412257018843
 20
102.9239421823788
 10
-695.7492784149856
 20
102.9239421823788
 10
-694.0229808775646
 20
98.81824357162003
 42
0.9293418001092543
 10
-693.550394430906
 20
98.97737999157357
 10
-694.5444653146969
 20
102.8447215218598
 10
-693.5412257018843
 20
103.4239421823788
 10
-693.5412257018843
 20
104.4239421823788
 10
-694.5663527677213
 20
105.0157995697934
 10
-693.5768325592873
 20
108.8654371152974
 42
0.9293418001092604
 10
-694.0494190059462
 20
109.024573535251
 10
-695.7735859449865
 20
104.9239421823788
 10
-697.0412257018843
 20
104.9239421823788
 10
-697.0412257018843
 20
106.1739421823788
 10
-698.0412257018842
 20
106.1739421823788
 10
-698.0412257018842
 20
101.6739421823788
 10
-697.0412257018843
 20
101.6739421823788
  0
ENDBLK
  5
2728
330
2726
100
AcDbEntity
  8
0
100
AcDbBlockEnd
  0
BLOCK
  5
272C
330
272B
100
AcDbEntity
  8
0
100
AcDbBlockBegin
  2
07103Sash
 70
     0
 10
0.0
 20
0.0
 30
0.0
  3
07103Sash
  1

  0
INSERT
  5
272E
330
272B
100
AcDbEntity
  8
APL Joinery
100
AcDbBlockReference
  2
07103
 10
0.0
 20
0.0
 30
0.0
 50
90.0
  0
INSERT
  5
272F
330
272B
100
AcDbEntity
  8
APL Joinery
100
AcDbBlockReference
  2
9010100
 10
4.949999999999818
 20
-4.5
 30
0.0
 50
90.0
  0
INSERT
  5
2730
330
272B
100
AcDbEntity
  8
APL Joinery
100
AcDbBlockReference
  2
Timber Profile 14
 10
-25.15188259064399
 20
27.74999999999972
 30
0.0
 50
90.0
  0
INSERT
  5
2731
330
272B
100
AcDbEntity
  8
APL Joinery
100
AcDbBlockReference
  2
9700529
 10
-21.10188259064489
 20
27.70000000000027
 30
0.0
 50
90.0
  0
INSERT
  5
2732
330
272B
100
AcDbEntity
  8
APL Joinery
100
AcDbBlockReference
  2
9700158
 10
-16.94999999999163
 20
37.00000000002001
 30
0.0
 50
90.0
  0
ENDBLK
  5
272D
330
272B
100
AcDbEntity
  8
0
100
AcDbBlockEnd
  0
BLOCK
  5
2EB3
330
2EB2
100
AcDbEntity
  8
0
100
AcDbBlockBegin
  2
07111
 70
     0
 10
0.0
 20
0.0
 30
0.0
  3
07111
  1
07111.dwg
  0
LWPOLYLINE
  5
36BA
102
{ACAD_REACTORS
330
36BB
102
}
330
2EB2
100
AcDbEntity
  8
APL Joinery
  6
Continuous
100
AcDbPolyline
 90
       81
 70
     1
 43
0.0
 10
24.27678153300852
 20
-21.61116721304887
 42
-0.4479331225105884
 10
-24.22679357263178
 20
-21.6671904754831
 42
-0.38540576981359
 10
-24.21868567972661
 20
-20.32496629084374
 10
-22.82044063875466
 20
-18.79904959101986
 42
0.6292419427706099
 10
-23.32394526488204
 20
-17.54398913565673
 42
-2.083394336380262
 10
-21.71626329280534
 20
-15.78951213251109
 42
1.000000000000223
 10
-20.23384351584971
 20
-15.56053264675184
 42
0.3552999522566912
 10
-23.06619136294125
 20
-13.00139523860993
 10
-18.46099853971693
 20
-7.975709161559731
 42
0.4142135623730391
 10
-18.55352923350858
 20
-5.856407844921008
 10
-21.4672308756484
 20
-3.186492198442479
 10
-17.83534425252765
 20
0.7770165482920025
 42
-0.5420773356008989
 10
-17.00871843982116
 20
0.6398399273182847
 42
0.2799754450661595
 10
-14.43735816860192
 20
-1.164835043462374
 42
1.000000000000227
 10
-14.33845141564112
 20
0.3319005558421852
 42
-2.083394336380318
 10
-12.73076944356199
 20
2.086377558985462
 42
1.000000000000009
 10
-11.24834966660862
 20
2.315357044744634
 42
0.2799754450661934
 10
-13.27026611858923
 20
4.719644726320685
 42
-0.5420773356008319
 10
-13.47896592778619
 20
5.531169247956029
 10
-8.732355462095034
 20
10.71118560042805
 42
-0.4142135623731024
 10
-8.02592168988292
 20
10.74202916502715
 10
-1.140691455267074
 20
4.432878060763115
 10
-0.9549992226578741
 20
2.310406129822819
 42
6.513130671389486
 10
0.5392928244799009
 20
2.441139743944319
 10
0.3095396727431934
 20
5.067230285019458
 42
0.1875965641994397
 10
0.2454187746479685
 20
5.19725460383196
 10
-23.82245965772948
 20
27.2514019038787
 42
0.4142135623730863
 10
-24.10503316661464
 20
27.2390644780398
 10
-26.19936281022252
 20
24.95350473392905
 42
0.414213562373088
 10
-26.18702538438362
 20
24.6709312250439
 10
-24.82306231128549
 20
23.42108934095548
 42
1.000000000000002
 10
-24.14747210366778
 20
24.15836667776495
 10
-24.7004301062762
 20
24.66505933347614
 10
-23.6870447948532
 20
25.77097533869062
 10
-19.63201944239762
 20
22.05522919680584
 10
-20.64540475382051
 20
20.94931319159131
 10
-21.19836275642922
 20
21.45600584730289
 42
0.9999999999999998
 10
-21.87395296404429
 20
20.71872851049088
 10
-20.50998989094472
 20
19.4688866264035
 42
0.4142135623728255
 10
-20.2274163820597
 20
19.48122405224253
 10
-19.01135400835204
 20
20.80832325850022
 10
-18.05289347049919
 20
19.93005598860003
 42
0.4142135623720338
 10
-17.77031996161452
 20
19.94239341443838
 10
-17.73654045123317
 20
19.97925728127923
 10
-16.48316897865538
 20
18.83075392833208
 10
-16.05930871532814
 20
18.84926006709114
 10
-16.04080257657023
 20
18.42539980376369
 10
-14.78743110399244
 20
17.27689645081666
 10
-14.82121061437385
 20
17.24003258397552
 42
0.4142135623733129
 10
-14.80887318853498
 20
16.95745907509026
 10
-9.500476363501263
 20
12.09320958025912
 10
-16.4928350123248
 20
4.462389144272691
 10
-16.46816016064702
 20
3.897242126502391
 10
-17.03330717841743
 20
3.872567274824547
 10
-25.27550771132724
 20
-5.12221623425742
 42
0.9999999999999998
 10
-24.53823037451775
 20
-5.797806441873817
 10
-22.84925485547922
 20
-3.954613099847868
 10
-19.56691454493148
 20
-6.962323850135533
 10
-25.478328861568
 20
-13.41350054722626
 10
-25.4536540098901
 20
-13.97864756499631
 10
-26.01880102765989
 20
-14.00332241667411
 10
-26.6268322145141
 20
-14.66687201980372
 42
0.4142135623730076
 10
-26.61449478867517
 20
-14.94944552868884
 10
-26.17353221523227
 20
-15.35351328130954
 42
0.2824367110451836
 10
-25.1551143072156
 20
-18.35019678403241
 42
-0.4286702703016477
 10
-25.10576890181483
 20
-19.07276690288149
 10
-25.76733995970913
 20
-19.79474502242293
 42
-0.4142135623733484
 10
-26.47377373192234
 20
-19.82558858701994
 10
-31.00611870183229
 20
-15.67245959968331
 10
-31.58738683180569
 20
-13.82891261987853
 42
0.3394542588633442
 10
-31.83672091633508
 20
-13.65432701435887
 10
-33.06336976548131
 20
-13.70788365973012
 42
0.198912367379514
 10
-33.20210135537019
 20
-13.77257526252327
 10
-34.0244008999508
 20
-14.66995774594832
 42
0.4142135623732752
 10
-34.012063474112
 20
-14.95253125483357
 10
-26.38124303812771
 20
-21.94488990365567
 42
0.2513806714126361
 10
-25.92297231320745
 20
-22.06151984614318
 42
-0.5366750419290275
 10
-25.80009275707247
 20
-22.17411821407904
 42
0.2513806714126941
 10
-25.64396570131771
 20
-22.6204801112712
 10
-22.97167458938235
 20
-25.06918376318739
 42
0.4184349561733335
 10
25.39716634235994
 20
-22.608532676214
 42
1.000000000000003
  0
HATCH
  5
36BB
330
2EB2
100
AcDbEntity
  8
APL Hatch
100
AcDbHatch
 10
0.0
 20
0.0
 30
0.0
210
0.0
220
0.0
230
1.0
  2
SOLID
 70
     1
 71
     1
 91
        1
 92
        1
 93
       81
 72
     2
 10
0.0000000000000424
 20
0.0000000000002913
 40
32.50237945000016
 50
41.6754450303212
 51
138.1921979193953
 73
     0
 72
     2
 10
-23.48140834291645
 20
-21.00055649845946
 40
1.000000000000061
 50
138.1921979193949
 51
222.5000000000014
 73
     0
 72
     1
 10
-24.21868567972661
 20
-20.32496629084374
 11
-22.82044063875466
 21
-18.79904959101986
 72
     2
 10
-23.37339864136236
 20
-18.29235693530802
 40
0.7500000000001509
 50
317.5000000000002
 51
446.2192973222347
 73
     1
 72
     2
 10
-23.22339006603978
 20
-16.02230794303368
 40
1.524999999998987
 50
93.78070267772796
 51
351.2192973221897
 73
     0
 72
     2
 10
-20.9750534043275
 20
-15.67502238963163
 40
0.7500000000012913
 50
188.7807026777502
 51
368.7807026777759
 73
     1
 72
     2
 10
-23.22339006603838
 20
-16.02230794303308
 40
3.0250000000001
 50
8.780702677779721
 51
87.02119635865452
 73
     1
 72
     1
 10
-23.06619136294125
 20
-13.00139523860993
 11
-18.46099853971693
 21
-7.975709161559731
 72
     2
 10
-19.56691454493233
 20
-6.962323850136202
 40
1.500000000000177
 50
317.5000000000042
 51
407.499999999993
 73
     1
 72
     1
 10
-18.55352923350858
 20
-5.856407844921008
 11
-21.4672308756484
 21
-3.186492198442479
 72
     1
 10
-21.4672308756484
 20
-3.186492198442479
 11
-17.83534425252765
 21
0.7770165482920027
 72
     2
 10
-17.46670558412254
 20
0.4392214444843354
 40
0.4999999999999237
 50
222.4999999999827
 51
336.3444700235086
 73
     0
 72
     2
 10
-14.23789621679738
 20
1.853581748463945
 40
3.025000000000073
 50
203.6555299764926
 51
266.2192973222237
 73
     1
 72
     2
 10
-14.38790479212135
 20
-0.4164672438101059
 40
0.7500000000011382
 50
266.2192973222211
 51
446.2192973222473
 73
     1
 72
     2
 10
-14.23789621679672
 20
1.853581748465057
 40
1.524999999998951
 50
93.7807026778084
 51
351.2192973222724
 73
     0
 72
     2
 10
-11.9895595550853
 20
2.200867301865041
 40
0.7500000000001668
 50
188.7807026777728
 51
368.7807026777739
 73
     1
 72
     2
 10
-14.23789621679722
 20
1.853581748463814
 40
3.024999999999966
 50
8.780702677772085
 51
71.34447002351031
 73
     1
 72
     2
 10
-13.11032725938126
 20
5.193374144148174
 40
0.4999999999999211
 50
108.6555299764979
 51
222.500000000012
 73
     0
 72
     1
 10
-13.47896592778619
 20
5.531169247956029
 11
-8.732355462095034
 21
10.71118560042805
 72
     2
 10
-8.363716793689428
 20
10.37339049662155
 40
0.4999999999995003
 50
222.4999999998454
 51
312.4999999998467
 73
     0
 72
     1
 10
-8.02592168988292
 20
10.74202916502715
 11
-1.140691455267074
 21
4.432878060763115
 72
     1
 10
-1.140691455267074
 20
4.432878060763115
 11
-0.9549992226578741
 21
2.310406129822819
 72
     2
 10
0.0000000000000272
 20
-0.0000000000001406
 40
2.50000000000014
 50
112.4576031237229
 51
437.542396876277
 73
     1
 72
     1
 10
0.5392928244799009
 20
2.441139743944319
 11
0.3095396727431934
 21
5.067230285019458
 72
     2
 10
0.1103007331248442
 20
5.049799136469928
 40
0.1999999999999999
 50
4.999999999999336
 51
47.50000000000297
 73
     1
 72
     1
 10
0.2454187746479685
 20
5.19725460383196
 11
-23.82245965772948
 21
27.2514019038787
 72
     2
 10
-23.95757769925261
 20
27.10394643651667
 40
0.2000000000000008
 50
47.50000000000303
 51
137.5000000000015
 73
     1
 72
     1
 10
-24.10503316661464
 20
27.2390644780398
 11
-26.19936281022252
 21
24.95350473392905
 72
     2
 10
-26.05190734286049
 20
24.81838669240593
 40
0.2000000000000006
 50
137.5000000000015
 51
227.5000000000002
 73
     1
 72
     1
 10
-26.18702538438362
 20
24.6709312250439
 11
-24.82306231128549
 21
23.42108934095548
 72
     2
 10
-24.48526720747663
 20
23.78972800936021
 40
0.5000000000004485
 50
227.4999999998879
 51
407.4999999998881
 73
     1
 72
     1
 10
-24.14747210366778
 20
24.15836667776495
 11
-24.7004301062762
 21
24.66505933347614
 72
     1
 10
-24.7004301062762
 20
24.66505933347614
 11
-23.6870447948532
 21
25.77097533869062
 72
     1
 10
-23.6870447948532
 20
25.77097533869062
 11
-19.63201944239762
 21
22.05522919680584
 72
     1
 10
-19.63201944239762
 20
22.05522919680584
 11
-20.64540475382051
 21
20.94931319159131
 72
     1
 10
-20.64540475382051
 20
20.94931319159131
 11
-21.19836275642922
 21
21.45600584730289
 72
     2
 10
-21.53615786023676
 20
21.08736717889688
 40
0.5000000000004958
 50
47.50000000009825
 51
227.5000000000982
 73
     1
 72
     1
 10
-21.87395296404429
 20
20.71872851049088
 11
-20.50998989094472
 21
19.4688866264035
 72
     2
 10
-20.37487184942173
 20
19.61634209376565
 40
0.200000000000001
 50
227.5000000000542
 51
317.5000000000016
 73
     1
 72
     1
 10
-20.2274163820597
 20
19.48122405224253
 11
-19.01135400835204
 21
20.80832325850022
 72
     1
 10
-19.01135400835204
 20
20.80832325850022
 11
-18.05289347049919
 21
19.93005598860003
 72
     2
 10
-17.91777542897605
 20
20.07751145596206
 40
0.2000000000000023
 50
227.4999999999965
 51
317.499999999789
 73
     1
 72
     1
 10
-17.77031996161452
 20
19.94239341443838
 11
-17.73654045123317
 21
19.97925728127923
 72
     1
 10
-17.73654045123317
 20
19.97925728127923
 11
-16.48316897865538
 21
18.83075392833208
 72
     1
 10
-16.48316897865538
 20
18.83075392833208
 11
-16.05930871532814
 21
18.84926006709114
 72
     1
 10
-16.05930871532814
 20
18.84926006709114
 11
-16.04080257657023
 21
18.42539980376369
 72
     1
 10
-16.04080257657023
 20
18.42539980376369
 11
-14.78743110399244
 21
17.27689645081666
 72
     1
 10
-14.78743110399244
 20
17.27689645081666
 11
-14.82121061437385
 21
17.24003258397552
 72
     2
 10
-14.67375514701189
 20
17.10491454245232
 40
0.200000000000001
 50
137.4999999999713
 51
227.5000000000138
 73
     1
 72
     1
 10
-14.80887318853498
 20
16.95745907509026
 11
-9.500476363501263
 21
12.09320958025912
 72
     1
 10
-9.500476363501263
 20
12.09320958025912
 11
-16.4928350123248
 21
4.462389144272691
 72
     1
 10
-16.4928350123248
 20
4.462389144272691
 11
-16.46816016064702
 21
3.897242126502391
 72
     1
 10
-16.46816016064702
 20
3.897242126502391
 11
-17.03330717841743
 21
3.872567274824547
 72
     1
 10
-17.03330717841743
 20
3.872567274824547
 11
-25.27550771132724
 21
-5.12221623425742
 72
     2
 10
-24.9068690429225
 20
-5.460011338065618
 40
0.5000000000000128
 50
137.4999999999441
 51
317.4999999999441
 73
     1
 72
     1
 10
-24.53823037451775
 20
-5.797806441873817
 11
-22.84925485547922
 21
-3.954613099847868
 72
     1
 10
-22.84925485547922
 20
-3.954613099847868
 11
-19.56691454493148
 21
-6.962323850135533
 72
     1
 10
-19.56691454493148
 20
-6.962323850135533
 11
-25.478328861568
 21
-13.41350054722626
 72
     1
 10
-25.478328861568
 20
-13.41350054722626
 11
-25.4536540098901
 21
-13.97864756499631
 72
     1
 10
-25.4536540098901
 20
-13.97864756499631
 11
-26.01880102765989
 21
-14.00332241667411
 72
     1
 10
-26.01880102765989
 20
-14.00332241667411
 11
-26.6268322145141
 21
-14.66687201980372
 72
     2
 10
-26.47937674715203
 20
-14.80199006132682
 40
0.2000000000000001
 50
137.5000000000153
 51
227.4999999999984
 73
     1
 72
     1
 10
-26.61449478867517
 20
-14.94944552868884
 11
-26.17353221523227
 21
-15.35351328130954
 72
     2
 10
-23.2233900660385
 20
-16.02230794303322
 40
3.024999999999959
 50
167.2269882711469
 51
230.3134991272538
 73
     1
 72
     2
 10
-25.4744075702199
 20
-18.73497179907371
 40
0.4999999999999736
 50
309.686500872722
 51
402.4999999999936
 73
     0
 72
     1
 10
-25.10576890181483
 20
-19.07276690288149
 11
-25.76733995970913
 21
-19.79474502242293
 72
     2
 10
-26.13597862811422
 20
-19.45694991861514
 40
0.5000000000000004
 50
42.49999999999466
 51
132.5000000000442
 73
     0
 72
     1
 10
-26.47377373192234
 20
-19.82558858701994
 11
-31.00611870183229
 21
-15.67245959968331
 72
     1
 10
-31.00611870183229
 20
-15.67245959968331
 11
-31.58738683180569
 21
-13.82891261987853
 72
     2
 10
-31.82581606949343
 20
-13.90408906975514
 40
0.2500000000008176
 50
17.50000000007102
 51
92.50000000006453
 73
     1
 72
     1
 10
-31.83672091633508
 20
-13.65432701435887
 11
-33.06336976548131
 21
-13.70788365973012
 72
     2
 10
-33.05464588800825
 20
-13.90769330404649
 40
0.1999999999999974
 50
92.49999999999779
 51
137.4999999999652
 73
     1
 72
     1
 10
-33.20210135537019
 20
-13.77257526252327
 11
-34.0244008999508
 21
-14.66995774594832
 72
     2
 10
-33.87694543258886
 20
-14.80507578747155
 40
0.1999999999999997
 50
137.4999999999626
 51
227.4999999999984
 73
     1
 72
     1
 10
-34.012063474112
 20
-14.95253125483357
 11
-26.38124303812771
 21
-21.94488990365567
 72
     2
 10
-26.04344793431984
 20
-21.57625123525058
 40
0.5000000000000431
 50
227.4999999999988
 51
283.942690238054
 73
     1
 72
     2
 10
-25.89887718898491
 20
-22.15857356832161
 40
0.0999999999999367
 50
256.0573097619013
 51
368.942690238079
 73
     0
 72
     2
 10
-25.30617059750994
 20
-22.25184144286609
 40
0.5000000000000002
 50
171.0573097619407
 51
227.5000000000085
 73
     1
 72
     1
 10
-25.64396570131771
 20
-22.6204801112712
 11
-22.97167458938235
 21
-25.06918376318739
 72
     2
 10
0.000000000000004
 20
0.000000000000572
 40
34.00237944604704
 50
227.4999999999978
 51
318.3245549696799
 73
     1
 72
     2
 10
24.83697393768423
 20
-22.10984994463144
 40
0.7499999980233313
 50
318.3245549697095
 51
498.3245549697095
 73
     1
 97
        1
330
36BA
 75
     0
 76
     1
 98
        1
 10
0.0
 20
0.0
  0
ENDBLK
  5
2EB4
330
2EB2
100
AcDbEntity
  8
0
100
AcDbBlockEnd
  0
BLOCK
  5
2EB9
330
2EB8
100
AcDbEntity
  8
0
100
AcDbBlockBegin
  2
07112
 70
     0
 10
0.0
 20
0.0
 30
0.0
  3
07112
  1
07112.dwg
  0
LWPOLYLINE
  5
36BE
102
{ACAD_REACTORS
330
36BF
102
}
330
2EB8
100
AcDbEntity
  8
APL Joinery
  6
Continuous
100
AcDbPolyline
 90
       83
 70
     1
 43
0.0
 10
12.73076944356171
 20
2.08637755898523
 42
-2.08339433638033
 10
14.33845141564096
 20
0.3319005558418372
 42
1.000000000000228
 10
14.43735816860148
 20
-1.164835043462905
 42
0.2799754450661738
 10
17.0087184398209
 20
0.6398399273179058
 42
-0.5420773356009102
 10
17.83534425252742
 20
0.7770165482916412
 10
21.46723087564817
 20
-3.186492198442721
 10
18.55352923350813
 20
-5.856407844921653
 42
0.4142135623729956
 10
18.46099853971645
 20
-7.975709161559933
 10
23.066191362941
 20
-13.00139523861024
 42
0.355299952256684
 10
20.23384351584999
 20
-15.5605326467521
 42
1.000000000000232
 10
21.71626329280513
 20
-15.78951213251139
 42
-2.083394336380355
 10
23.3239452648818
 20
-17.54398913565707
 42
0.6292419427705636
 10
22.82044063873787
 20
-18.79904959103544
 10
23.33192118342708
 20
-19.35723265758609
 42
-0.3794592847332115
 10
23.34281105017401
 20
-20.02053980572598
 42
-0.0788354972241161
 10
15.99967976617137
 20
-26.26250348342188
 42
1.0
 10
16.78009156124258
 20
-27.54350209002299
 42
0.0786829218947028
 10
24.46865660884495
 20
-21.01192099607294
 42
-0.4496611368540646
 10
24.84264145785687
 20
-21.00589453580932
 10
25.67480926591453
 20
-21.91404633905881
 42
0.4142135623731009
 10
26.38124303812742
 20
-21.94488990365599
 10
34.01206347411193
 20
-14.95253125483367
 42
0.4142135623733234
 10
34.02440089995071
 20
-14.6699577459484
 10
33.20210135536985
 20
-13.77257526252338
 42
0.1989123673794409
 10
33.06336976548101
 20
-13.70788365973027
 10
31.83672091633483
 20
-13.65432701435888
 42
0.3394542588633177
 10
31.58738683180559
 20
-13.82891261987879
 10
31.00611870183184
 20
-15.67245959968374
 10
26.47377373192228
 20
-19.82558858702011
 42
-0.4142135623733308
 10
25.76733995970915
 20
-19.79474502242311
 10
25.1057689018147
 20
-19.0727669028818
 42
-0.4286702703016926
 10
25.15511430721517
 20
-18.35019678403275
 42
0.2824367110451848
 10
26.17353221523217
 20
-15.3535132813098
 10
26.61449478867504
 20
-14.94944552868918
 42
0.4142135623730292
 10
26.62683221451398
 20
-14.66687201980405
 10
26.01880102765972
 20
-14.00332241667442
 10
25.45365400988999
 20
-13.9786475649966
 10
25.47832886156778
 20
-13.41350054722659
 10
19.56691454493125
 20
-6.962323850135788
 10
22.84925485547887
 20
-3.954613099848188
 10
24.53823037451741
 20
-5.797806441874131
 42
0.9999999999999998
 10
25.2755077113269
 20
-5.122216234257734
 10
17.0333071784172
 20
3.872567274824291
 10
16.46816016064667
 20
3.897242126502078
 10
16.49283501232457
 20
4.462389144272322
 10
9.500476363501093
 20
12.09320958025887
 10
14.80887318853482
 20
16.95745907509017
 42
0.4142135623730779
 10
14.82121061437378
 20
17.24003258397531
 10
14.78743110399239
 20
17.27689645081651
 10
16.04080257657006
 20
18.42539980376321
 10
16.0593087153278
 20
18.84926006709077
 10
16.48316897865527
 20
18.83075392833186
 10
17.73654045123294
 20
19.97925728127905
 10
17.77031996161435
 20
19.94239341443816
 42
0.4142135623718885
 10
18.05289347049895
 20
19.93005598859987
 10
19.0113540083521
 20
20.80832325850022
 10
20.22741638205947
 20
19.48122405224232
 42
0.414213562372888
 10
20.50998989094452
 20
19.46888662640327
 10
21.87395296404414
 20
20.71872851049076
 42
1.0
 10
21.19836275642922
 20
21.45600584730272
 10
20.64540475382046
 20
20.9493131915911
 10
19.63201944239722
 20
22.05522919680561
 10
23.68704479485302
 20
25.77097533869031
 10
24.70043010627592
 20
24.66505933347582
 10
24.14747210366742
 20
24.15836667776464
 42
1.000000000000002
 10
24.82306231128541
 20
23.42108934095521
 10
26.1870253843836
 20
24.6709312250437
 42
0.4142135623731149
 10
26.19936281022249
 20
24.95350473392887
 10
24.10503316661425
 20
27.23906447803957
 42
0.4142135623730602
 10
23.82245965772911
 20
27.25140190387846
 10
0.5628664957517051
 20
5.937911594597981
 42
0.233167297170188
 10
0.49874559765648
 20
5.773024978686435
 10
0.7613184607358701
 20
2.771803420400317
 42
0.2962006896969275
 10
0.8954348647369924
 20
2.600133920207468
 42
-1.510796550039531
 10
-2.492346414350487
 20
-1.162200219786899
 42
0.9999999999999994
 10
-3.851808094905757
 20
-1.79612761239797
 42
1.351029371266391
 10
2.190938403936001
 20
3.641742565058677
 10
2.04891223744903
 20
5.265109076366485
 10
8.025921689882773
 20
10.74202916502681
 42
-0.4142135623730825
 10
8.732355462094801
 20
10.71118560042788
 10
13.47896592778607
 20
5.531169247955826
 42
-0.542077335600837
 10
13.27026611858877
 20
4.719644726320319
 42
0.2799754450661828
 10
11.24834966660837
 20
2.315357044744401
 42
1.000000000000013
  0
HATCH
  5
36BF
330
2EB8
100
AcDbEntity
  8
APL Hatch
100
AcDbHatch
 10
0.0
 20
0.0
 30
0.0
210
0.0
220
0.0
230
1.0
  2
SOLID
 70
     1
 71
     1
 91
        1
 92
        1
 93
       83
 72
     2
 10
14.23789621679656
 20
1.85358174846482
 40
1.524999999999062
 50
188.780702677727
 51
446.2192973221916
 73
     0
 72
     2
 10
14.38790479212105
 20
-0.4164672438105454
 40
0.7500000000012203
 50
93.78070267774177
 51
273.7807026777679
 73
     1
 72
     2
 10
14.23789621679699
 20
1.853581748463507
 40
3.025000000000164
 50
273.7807026777753
 51
336.3444700235094
 73
     1
 72
     2
 10
17.4667055841223
 20
0.4392214444839653
 40
0.4999999999999388
 50
203.6555299764897
 51
317.5000000000177
 73
     0
 72
     1
 10
17.83534425252742
 20
0.7770165482916412
 11
21.46723087564817
 21
-3.186492198442721
 72
     1
 10
21.46723087564817
 20
-3.186492198442721
 11
18.55352923350813
 21
-5.856407844921653
 72
     2
 10
19.56691454493179
 20
-6.962323850136647
 40
1.499999999999974
 50
132.5000000000098
 51
222.4999999999903
 73
     1
 72
     1
 10
18.46099853971645
 20
-7.975709161559933
 11
23.066191362941
 21
-13.00139523861024
 72
     2
 10
23.2233900660384
 20
-16.02230794303309
 40
3.024999999999809
 50
92.97880364135094
 51
171.2192973222242
 73
     1
 72
     2
 10
20.97505340432753
 20
-15.67502238963192
 40
0.7500000000010547
 50
171.2192973222192
 51
351.2192973222458
 73
     1
 72
     2
 10
23.22339006603963
 20
-16.02230794303397
 40
1.524999999999038
 50
188.7807026778095
 51
446.2192973222752
 73
     0
 72
     2
 10
23.37339864135756
 20
-18.29235693531998
 40
0.7500000000114335
 50
93.78070267735798
 51
222.4999999995848
 73
     1
 72
     1
 10
22.82044063873787
 20
-18.79904959103544
 11
23.33192118342708
 21
-19.35723265758609
 72
     2
 10
22.96328251502243
 20
-19.6950277613938
 40
0.4999999999996149
 50
317.499999999977
 51
400.6188583400868
 73
     0
 72
     2
 10
-0.0000000000018652
 20
0.000000000002558
 40
30.75237945000312
 50
40.61885834012254
 51
58.64933176883563
 73
     0
 72
     2
 10
16.38988566370698
 20
-26.90300278672243
 40
0.7500000000000388
 50
121.3506682312033
 51
301.3506682312034
 73
     1
 72
     2
 10
0.000000000002558
 20
-0.0000000000032205
 40
32.25237944999597
 50
301.3506682311648
 51
319.3463895380773
 73
     1
 72
     2
 10
24.65832212365433
 20
-21.17479208771321
 40
0.2500000000000025
 50
220.6536104619218
 51
317.5000000000059
 73
     0
 72
     1
 10
24.84264145785687
 20
-21.00589453580932
 11
25.67480926591453
 21
-21.91404633905881
 72
     2
 10
26.04344793431957
 20
-21.57625123525096
 40
0.499999999999997
 50
222.5000000000033
 51
312.5000000000044
 73
     1
 72
     1
 10
26.38124303812742
 20
-21.94488990365599
 11
34.01206347411193
 21
-14.95253125483367
 72
     2
 10
33.8769454325888
 20
-14.80507578747165
 40
0.2000000000000001
 50
312.5000000000012
 51
402.5000000000463
 73
     1
 72
     1
 10
34.02440089995071
 20
-14.6699577459484
 11
33.20210135536985
 21
-13.77257526252338
 72
     2
 10
33.05464588800794
 20
-13.90769330404664
 40
0.1999999999999995
 50
42.5000000000463
 51
87.49999999999813
 73
     1
 72
     1
 10
33.06336976548101
 20
-13.70788365973027
 11
31.83672091633483
 21
-13.65432701435888
 72
     2
 10
31.82581606949343
 20
-13.90408906975519
 40
0.2500000000008497
 50
87.49999999999282
 51
162.4999999999809
 73
     1
 72
     1
 10
31.58738683180559
 20
-13.82891261987879
 11
31.00611870183184
 21
-15.67245959968374
 72
     1
 10
31.00611870183184
 20
-15.67245959968374
 11
26.47377373192228
 21
-19.82558858702011
 72
     2
 10
26.1359786281142
 20
-19.45694991861533
 40
0.4999999999999593
 50
47.49999999995684
 51
137.5000000000029
 73
     0
 72
     1
 10
25.76733995970915
 20
-19.79474502242311
 11
25.1057689018147
 21
-19.0727669028818
 72
     2
 10
25.47440757021956
 20
-18.7349717990739
 40
0.4999999999999043
 50
137.4999999999775
 51
230.3134991272582
 73
     0
 72
     2
 10
23.22339006603818
 20
-16.02230794303326
 40
3.025000000000126
 50
309.6865008727409
 51
372.7730117288481
 73
     1
 72
     1
 10
26.17353221523217
 20
-15.3535132813098
 11
26.61449478867504
 21
-14.94944552868918
 72
     2
 10
26.47937674715191
 20
-14.80199006132714
 40
0.2000000000000019
 50
312.4999999999981
 51
402.4999999999847
 73
     1
 72
     1
 10
26.62683221451398
 20
-14.66687201980405
 11
26.01880102765972
 21
-14.00332241667442
 72
     1
 10
26.01880102765972
 20
-14.00332241667442
 11
25.45365400988999
 21
-13.9786475649966
 72
     1
 10
25.45365400988999
 20
-13.9786475649966
 11
25.47832886156778
 21
-13.41350054722659
 72
     1
 10
25.47832886156778
 20
-13.41350054722659
 11
19.56691454493125
 21
-6.962323850135788
 72
     1
 10
19.56691454493125
 20
-6.962323850135788
 11
22.84925485547887
 21
-3.954613099848188
 72
     1
 10
22.84925485547887
 20
-3.954613099848188
 11
24.53823037451741
 21
-5.797806441874131
 72
     2
 10
24.90686904292215
 20
-5.460011338065933
 40
0.5000000000000128
 50
222.5000000000559
 51
402.5000000000559
 73
     1
 72
     1
 10
25.2755077113269
 20
-5.122216234257734
 11
17.0333071784172
 21
3.872567274824291
 72
     1
 10
17.0333071784172
 20
3.872567274824291
 11
16.46816016064667
 21
3.897242126502078
 72
     1
 10
16.46816016064667
 20
3.897242126502078
 11
16.49283501232457
 21
4.462389144272322
 72
     1
 10
16.49283501232457
 20
4.462389144272322
 11
9.500476363501093
 21
12.09320958025887
 72
     1
 10
9.500476363501093
 20
12.09320958025887
 11
14.80887318853482
 21
16.95745907509017
 72
     2
 10
14.67375514701172
 20
17.10491454245222
 40
0.1999999999999985
 50
312.4999999999872
 51
402.4999999999836
 73
     1
 72
     1
 10
14.82121061437378
 20
17.24003258397531
 11
14.78743110399239
 21
17.27689645081651
 72
     1
 10
14.78743110399239
 20
17.27689645081651
 11
16.04080257657006
 21
18.42539980376321
 72
     1
 10
16.04080257657006
 20
18.42539980376321
 11
16.0593087153278
 21
18.84926006709077
 72
     1
 10
16.0593087153278
 20
18.84926006709077
 11
16.48316897865527
 21
18.83075392833186
 72
     1
 10
16.48316897865527
 20
18.83075392833186
 11
17.73654045123294
 21
19.97925728127905
 72
     1
 10
17.73654045123294
 20
19.97925728127905
 11
17.77031996161435
 21
19.94239341443816
 72
     2
 10
17.91777542897582
 20
20.0775114559619
 40
0.1999999999999995
 50
222.5000000002361
 51
312.4999999999998
 73
     1
 72
     1
 10
18.05289347049895
 20
19.93005598859987
 11
19.0113540083521
 21
20.80832325850022
 72
     1
 10
19.0113540083521
 20
20.80832325850022
 11
20.22741638205947
 21
19.48122405224232
 72
     2
 10
20.37487184942153
 20
19.61634209376542
 40
0.1999999999999997
 50
222.4999999999876
 51
312.4999999999473
 73
     1
 72
     1
 10
20.50998989094452
 20
19.46888662640327
 11
21.87395296404414
 21
20.71872851049076
 72
     2
 10
21.53615786023668
 20
21.08736717889674
 40
0.5000000000004296
 50
312.4999999998977
 51
492.4999999998977
 73
     1
 72
     1
 10
21.19836275642922
 20
21.45600584730272
 11
20.64540475382046
 21
20.9493131915911
 72
     1
 10
20.64540475382046
 20
20.9493131915911
 11
19.63201944239722
 21
22.05522919680561
 72
     1
 10
19.63201944239722
 20
22.05522919680561
 11
23.68704479485302
 21
25.77097533869031
 72
     1
 10
23.68704479485302
 20
25.77097533869031
 11
24.70043010627592
 21
24.66505933347582
 72
     1
 10
24.70043010627592
 20
24.66505933347582
 11
24.14747210366742
 21
24.15836667776464
 72
     2
 10
24.48526720747641
 20
23.78972800935992
 40
0.5000000000005339
 50
132.5000000001252
 51
312.5000000001258
 73
     1
 72
     1
 10
24.82306231128541
 20
23.42108934095521
 11
26.1870253843836
 21
24.6709312250437
 72
     2
 10
26.05190734286047
 20
24.81838669240573
 40
0.2000000000000027
 50
312.5000000000006
 51
402.5000000000034
 73
     1
 72
     1
 10
26.19936281022249
 20
24.95350473392887
 11
24.10503316661425
 21
27.23906447803957
 72
     2
 10
23.95757769925223
 20
27.10394643651643
 40
0.2000000000000023
 50
42.50000000000347
 51
132.4999999999962
 73
     1
 72
     1
 10
23.82245965772911
 20
27.25140190387846
 11
0.562866495751706
 21
5.937911594597981
 72
     2
 10
0.6979845372748306
 20
5.79045612723595
 40
0.1999999999999999
 50
132.4999999999974
 51
184.9999999999952
 73
     1
 72
     1
 10
0.49874559765648
 20
5.773024978686435
 11
0.7613184607358701
 21
2.771803420400317
 72
     2
 10
0.9605574003542205
 20
2.789234568949832
 40
0.1999999999999999
 50
184.9999999999951
 51
250.9973019708151
 73
     1
 72
     2
 10
0.0000000000001424
 20
0.0000000000000804
 40
2.74999999999988
 50
289.002698029185
 51
514.9999999999976
 73
     0
 72
     2
 10
-3.172077254628121
 20
-1.479163916092435
 40
0.7500000000001385
 50
24.99999999999606
 51
204.999999999996
 73
     1
 72
     2
 10
0.0000000000001661
 20
-0.0000000000000157
 40
4.250000000000138
 50
204.9999999999989
 51
418.9681209275321
 73
     1
 72
     1
 10
2.190938403936001
 20
3.641742565058677
 11
2.04891223744903
 21
5.265109076366485
 72
     1
 10
2.04891223744903
 20
5.265109076366485
 11
8.025921689882773
 21
10.74202916502681
 72
     2
 10
8.36371679368932
 20
10.37339049662132
 40
0.4999999999994527
 50
227.5000000001419
 51
317.5000000001395
 73
     0
 72
     1
 10
8.732355462094801
 20
10.71118560042788
 11
13.47896592778607
 21
5.531169247955826
 72
     2
 10
13.11032725938092
 20
5.193374144148001
 40
0.5000000000000633
 50
317.5000000000074
 51
431.3444700235227
 73
     0
 72
     2
 10
14.23789621679684
 20
1.853581748463612
 40
3.024999999999836
 50
108.6555299764921
 51
171.2192973222281
 73
     1
 72
     2
 10
11.98955955508504
 20
2.200867301864805
 40
0.7500000000001536
 50
171.2192973222256
 51
351.2192973222273
 73
     1
 97
        1
330
36BE
 75
     0
 76
     1
 98
        1
 10
0.0
 20
0.0
  0
ENDBLK
  5
2EBA
330
2EB8
100
AcDbEntity
  8
0
100
AcDbBlockEnd
  0
BLOCK
  5
2F01
330
2EBF
100
AcDbEntity
  8
0
100
AcDbBlockBegin
  2
Timber Profile 24 - modified
 70
     0
 10
0.0
 20
0.0
 30
0.0
  3
Timber Profile 24 - modified
  1

  0
POLYLINE
  5
30EE
330
2EBF
100
AcDbEntity
  8
APL Joinery
 62
     8
100
AcDb2dPolyline
 66
     1
 10
0.0
 20
0.0
 30
0.0
 70
     4
  0
VERTEX
  5
30EF
330
30EE
100
AcDbEntity
  8
APL Joinery
 62
     8
100
AcDbVertex
100
AcDb2dVertex
 10
-6.171725596005785
 20
-8.867431087744506
 30
0.0
 70
    16
  0
VERTEX
  5
30F0
330
30EE
100
AcDbEntity
  8
APL Joinery
 62
     8
100
AcDbVertex
100
AcDb2dVertex
 10
-6.171725596005785
 20
-8.867431087744506
 30
0.0
 70
     8
  0
VERTEX
  5
30F1
330
30EE
100
AcDbEntity
  8
APL Joinery
 62
     8
100
AcDbVertex
100
AcDb2dVertex
 10
-4.958847443297599
 20
-9.646175489956476
 30
0.0
 70
     8
  0
VERTEX
  5
30F2
330
30EE
100
AcDbEntity
  8
APL Joinery
 62
     8
100
AcDbVertex
100
AcDb2dVertex
 10
-3.901952979033012
 20
-10.41923238194548
 30
0.0
 70
     8
  0
VERTEX
  5
30F3
330
30EE
100
AcDbEntity
  8
APL Joinery
 62
     8
100
AcDbVertex
100
AcDb2dVertex
 10
-2.988394869606736
 20
-11.18765500831162
 30
0.0
 70
     8
  0
VERTEX
  5
30F4
330
30EE
100
AcDbEntity
  8
APL Joinery
 62
     8
100
AcDbVertex
100
AcDb2dVertex
 10
-2.205525781414507
 20
-11.952496613655
 30
0.0
 70
     8
  0
VERTEX
  5
30F5
330
30EE
100
AcDbEntity
  8
APL Joinery
 62
     8
100
AcDbVertex
100
AcDb2dVertex
 10
-1.540698380851381
 20
-12.71481044257575
 30
0.0
 70
     8
  0
VERTEX
  5
30F6
330
30EE
100
AcDbEntity
  8
APL Joinery
 62
     8
100
AcDbVertex
100
AcDb2dVertex
 10
-0.9812653343126385
 20
-13.475649739674
 30
0.0
 70
     8
  0
VERTEX
  5
30F7
330
30EE
100
AcDbEntity
  8
APL Joinery
 62
     8
100
AcDbVertex
100
AcDb2dVertex
 10
-0.5145793081933335
 20
-14.23606774954979
 30
0.0
 70
     8
  0
VERTEX
  5
30F8
330
30EE
100
AcDbEntity
  8
APL Joinery
 62
     8
100
AcDbVertex
100
AcDb2dVertex
 10
-0.1279929688889752
 20
-14.99711771680327
 30
0.0
 70
     8
  0
VERTEX
  5
30F9
330
30EE
100
AcDbEntity
  8
APL Joinery
 62
     8
100
AcDbVertex
100
AcDb2dVertex
 10
0.1905789127172284
 20
-15.76181897270467
 30
0.0
 70
     8
  0
VERTEX
  5
30FA
330
30EE
100
AcDbEntity
  8
APL Joinery
 62
     8
100
AcDbVertex
100
AcDb2dVertex
 10
0.4509731477894548
 20
-16.54105519520468
 30
0.0
 70
     8
  0
VERTEX
  5
30FB
330
30EE
100
AcDbEntity
  8
APL Joinery
 62
     8
100
AcDbVertex
100
AcDb2dVertex
 10
0.6624644430036142
 20
-17.34767614892414
 30
0.0
 70
     8
  0
VERTEX
  5
30FC
330
30EE
100
AcDbEntity
  8
APL Joinery
 62
     8
100
AcDbVertex
100
AcDb2dVertex
 10
0.8343275050358442
 20
-18.1945315984839
 30
0.0
 70
     8
  0
VERTEX
  5
30FD
330
30EE
100
AcDbEntity
  8
APL Joinery
 62
     8
100
AcDbVertex
100
AcDb2dVertex
 10
0.9758370405622827
 20
-19.09447130850478
 30
0.0
 70
     8
  0
VERTEX
  5
30FE
330
30EE
100
AcDbEntity
  8
APL Joinery
 62
     8
100
AcDbVertex
100
AcDb2dVertex
 10
1.096267756259067
 20
-20.06034504360761
 30
0.0
 70
     8
  0
VERTEX
  5
30FF
330
30EE
100
AcDbEntity
  8
APL Joinery
 62
     8
100
AcDbVertex
100
AcDb2dVertex
 10
1.20489435880188
 20
-21.10500256841326
 30
0.0
 70
     8
  0
VERTEX
  5
3100
330
30EE
100
AcDbEntity
  8
APL Joinery
 62
     8
100
AcDbVertex
100
AcDb2dVertex
 10
1.310991554867086
 20
-22.24129364754251
 30
0.0
 70
     8
  0
VERTEX
  5
3101
330
30EE
100
AcDbEntity
  8
APL Joinery
 62
     8
100
AcDbVertex
100
AcDb2dVertex
 10
-2.718163529877642
 20
-10.95260239136266
 30
0.0
 70
    16
  0
VERTEX
  5
3102
330
30EE
100
AcDbEntity
  8
APL Joinery
 62
     8
100
AcDbVertex
100
AcDb2dVertex
 10
0.5914987986851657
 20
-14.97914222904021
 30
0.0
 70
    16
  0
VERTEX
  5
3103
330
30EE
100
AcDbEntity
  8
APL Joinery
 62
     8
100
AcDbVertex
100
AcDb2dVertex
 10
1.02319405695141
 20
-19.07758401777002
 30
0.0
 70
    16
  0
VERTEX
  5
3104
330
30EE
100
AcDbEntity
  8
APL Joinery
 62
     8
100
AcDbVertex
100
AcDb2dVertex
 10
1.310991554866973
 20
-22.24129364754251
 30
0.0
 70
    16
  0
SEQEND
  5
3105
330
30EE
100
AcDbEntity
  8
APL Joinery
 62
     8
  0
LINE
  5
3106
330
2EBF
100
AcDbEntity
  8
APL Joinery
 62
     3
100
AcDbLine
 10
9.049999999998135
 20
-23.49500000000418
 30
0.0
 11
9.049999999998135
 21
8.749999999998777
 31
0.0
  0
LINE
  5
3107
330
2EBF
100
AcDbEntity
  8
APL Joinery
 62
     3
100
AcDbLine
 10
-7.350000000002467
 20
-0.0000000000000284
 30
0.0
 11
-7.350000000002467
 21
-23.49500000000418
 31
0.0
  0
POLYLINE
  5
3108
330
2EBF
100
AcDbEntity
  8
APL Joinery
 62
     8
100
AcDb2dPolyline
 66
     1
 10
0.0
 20
0.0
 30
0.0
 70
     4
  0
VERTEX
  5
3109
330
3108
100
AcDbEntity
  8
APL Joinery
 62
     8
100
AcDbVertex
100
AcDb2dVertex
 10
-4.981734675335246
 20
-1.317036570409726
 30
0.0
 70
    16
  0
VERTEX
  5
310A
330
3108
100
AcDbEntity
  8
APL Joinery
 62
     8
100
AcDbVertex
100
AcDb2dVertex
 10
-4.981734675335246
 20
-1.317036570409726
 30
0.0
 70
     8
  0
VERTEX
  5
310B
330
3108
100
AcDbEntity
  8
APL Joinery
 62
     8
100
AcDbVertex
100
AcDb2dVertex
 10
-2.949494645873073
 20
-2.503893907670288
 30
0.0
 70
     8
  0
VERTEX
  5
310C
330
3108
100
AcDbEntity
  8
APL Joinery
 62
     8
100
AcDbVertex
100
AcDb2dVertex
 10
-1.270866413285148
 20
-3.638317258042832
 30
0.0
 70
     8
  0
VERTEX
  5
310D
330
3108
100
AcDbEntity
  8
APL Joinery
 62
     8
100
AcDbVertex
100
AcDb2dVertex
 10
0.1016145723567661
 20
-4.721858816063843
 30
0.0
 70
     8
  0
VERTEX
  5
310E
330
3108
100
AcDbEntity
  8
APL Joinery
 62
     8
100
AcDbVertex
100
AcDb2dVertex
 10
1.215412860980677
 20
-5.756070776269751
 30
0.0
 70
     8
  0
VERTEX
  5
310F
330
3108
100
AcDbEntity
  8
APL Joinery
 62
     8
100
AcDbVertex
100
AcDb2dVertex
 10
2.117993002514594
 20
-6.742505333197044
 30
0.0
 70
     8
  0
VERTEX
  5
3110
330
3108
100
AcDbEntity
  8
APL Joinery
 62
     8
100
AcDbVertex
100
AcDb2dVertex
 10
2.856819546886526
 20
-7.682714681382265
 30
0.0
 70
     8
  0
VERTEX
  5
3111
330
3108
100
AcDbEntity
  8
APL Joinery
 62
     8
100
AcDbVertex
100
AcDb2dVertex
 10
3.479357044024482
 20
-8.578251015361786
 30
0.0
 70
     8
  0
VERTEX
  5
3112
330
3108
100
AcDbEntity
  8
APL Joinery
 62
     8
100
AcDbVertex
100
AcDb2dVertex
 10
4.033070043856241
 20
-9.430666529671952
 30
0.0
 70
     8
  0
VERTEX
  5
3113
330
3108
100
AcDbEntity
  8
APL Joinery
 62
     8
100
AcDbVertex
100
AcDb2dVertex
 10
4.556680893939073
 20
-10.24242500794372
 30
0.0
 70
     8
  0
VERTEX
  5
3114
330
3108
100
AcDbEntity
  8
APL Joinery
 62
     8
100
AcDbVertex
100
AcDb2dVertex
 10
5.053943132345352
 20
-11.01963659018434
 30
0.0
 70
     8
  0
VERTEX
  5
3115
330
3108
100
AcDbEntity
  8
APL Joinery
 62
     8
100
AcDbVertex
100
AcDb2dVertex
 10
5.519868094776484
 20
-11.76932300549532
 30
0.0
 70
     8
  0
VERTEX
  5
3116
330
3108
100
AcDbEntity
  8
APL Joinery
 62
     8
100
AcDbVertex
100
AcDb2dVertex
 10
5.949467116933647
 20
-12.49850598297826
 30
0.0
 70
     8
  0
VERTEX
  5
3117
330
3108
100
AcDbEntity
  8
APL Joinery
 62
     8
100
AcDbVertex
100
AcDb2dVertex
 10
6.337751534518474
 20
-13.2142072517347
 30
0.0
 70
     8
  0
VERTEX
  5
3118
330
3108
100
AcDbEntity
  8
APL Joinery
 62
     8
100
AcDbVertex
100
AcDb2dVertex
 10
6.679732683232032
 20
-13.92344854086625
 30
0.0
 70
     8
  0
VERTEX
  5
3119
330
3108
100
AcDbEntity
  8
APL Joinery
 62
     8
100
AcDbVertex
100
AcDb2dVertex
 10
6.970421898775953
 20
-14.63325157947437
 30
0.0
 70
     8
  0
VERTEX
  5
311A
330
3108
100
AcDbEntity
  8
APL Joinery
 62
     8
100
AcDbVertex
100
AcDb2dVertex
 10
7.204830516851416
 20
-15.3506380966607
 30
0.0
 70
     8
  0
VERTEX
  5
311B
330
3108
100
AcDbEntity
  8
APL Joinery
 62
     8
100
AcDbVertex
100
AcDb2dVertex
 10
7.379445395027687
 20
-16.08270003772281
 30
0.0
 70
     8
  0
VERTEX
  5
311C
330
3108
100
AcDbEntity
  8
APL Joinery
 62
     8
100
AcDbVertex
100
AcDb2dVertex
 10
7.49665547834445
 20
-16.8368102127427
 30
0.0
 70
     8
  0
VERTEX
  5
311D
330
3108
100
AcDbEntity
  8
APL Joinery
 62
     8
100
AcDbVertex
100
AcDb2dVertex
 10
7.56032523370959
 20
-17.62041164799831
 30
0.0
 70
     8
  0
VERTEX
  5
311E
330
3108
100
AcDbEntity
  8
APL Joinery
 62
     8
100
AcDbVertex
100
AcDb2dVertex
 10
7.574319128030538
 20
-18.44094736976768
 30
0.0
 70
     8
  0
VERTEX
  5
311F
330
3108
100
AcDbEntity
  8
APL Joinery
 62
     8
100
AcDbVertex
100
AcDb2dVertex
 10
7.542501628214949
 20
-19.30586040432877
 30
0.0
 70
     8
  0
VERTEX
  5
3120
330
3108
100
AcDbEntity
  8
APL Joinery
 62
     8
100
AcDbVertex
100
AcDb2dVertex
 10
7.468737201170824
 20
-20.22259377795962
 30
0.0
 70
     8
  0
VERTEX
  5
3121
330
3108
100
AcDbEntity
  8
APL Joinery
 62
     8
100
AcDbVertex
100
AcDb2dVertex
 10
7.356890313805251
 20
-21.1985905169382
 30
0.0
 70
     8
  0
VERTEX
  5
3122
330
3108
100
AcDbEntity
  8
APL Joinery
 62
     8
100
AcDbVertex
100
AcDb2dVertex
 10
7.210825433026343
 20
-22.24129364754251
 30
0.0
 70
     8
  0
VERTEX
  5
3123
330
3108
100
AcDbEntity
  8
APL Joinery
 62
     8
100
AcDbVertex
100
AcDb2dVertex
 10
0.9512451767762968
 20
-4.553281180765424
 30
0.0
 70
    16
  0
VERTEX
  5
3124
330
3108
100
AcDbEntity
  8
APL Joinery
 62
     8
100
AcDbVertex
100
AcDb2dVertex
 10
4.260909482554211
 20
-9.874065197754333
 30
0.0
 70
    16
  0
VERTEX
  5
3125
330
3108
100
AcDbEntity
  8
APL Joinery
 62
     8
100
AcDbVertex
100
AcDb2dVertex
 10
7.858369309033037
 20
-15.19484921474347
 30
0.0
 70
    16
  0
VERTEX
  5
3126
330
3108
100
AcDbEntity
  8
APL Joinery
 62
     8
100
AcDbVertex
100
AcDb2dVertex
 10
7.642520691292588
 20
-19.36519408707178
 30
0.0
 70
    16
  0
VERTEX
  5
3127
330
3108
100
AcDbEntity
  8
APL Joinery
 62
     8
100
AcDbVertex
100
AcDb2dVertex
 10
7.210825433026343
 20
-22.24129364754251
 30
0.0
 70
    16
  0
SEQEND
  5
3128
330
3108
100
AcDbEntity
  8
APL Joinery
 62
     8
  0
LINE
  5
3129
330
2EBF
100
AcDbEntity
  8
APL Joinery
 62
     3
100
AcDbLine
 10
-7.350000000002467
 20
-23.49500000000418
 30
0.0
 11
9.049999999998135
 21
-23.49500000000418
 31
0.0
  0
LINE
  5
312A
330
2EBF
100
AcDbEntity
  8
APL Joinery
 62
     3
100
AcDbLine
 10
2.049999999999954
 20
8.749999999998777
 30
0.0
 11
2.049999999999954
 21
-3.30000000000021
 31
0.0
  0
LINE
  5
312B
330
2EBF
100
AcDbEntity
  8
APL Joinery
 62
     3
100
AcDbLine
 10
0.0
 20
0.0
 30
0.0
 11
0.0
 21
-3.30000000000021
 31
0.0
  0
LINE
  5
312C
330
2EBF
100
AcDbEntity
  8
APL Joinery
 62
     3
100
AcDbLine
 10
2.049999999999954
 20
-3.30000000000021
 30
0.0
 11
0.0
 21
-3.30000000000021
 31
0.0
  0
LINE
  5
312D
330
2EBF
100
AcDbEntity
  8
APL Joinery
 62
     3
100
AcDbLine
 10
0.0
 20
0.0
 30
0.0
 11
-7.350000000002467
 21
-0.0000000000000284
 31
0.0
  0
LINE
  5
312E
330
2EBF
100
AcDbEntity
  8
APL Joinery
 62
     3
100
AcDbLine
 10
2.049999999999954
 20
8.749999999998777
 30
0.0
 11
9.049999999998135
 21
8.749999999998777
 31
0.0
  0
ENDBLK
  5
2F02
330
2EBF
100
AcDbEntity
  8
0
100
AcDbBlockEnd
  0
BLOCK
  5
3091
330
3090
100
AcDbEntity
  8
0
100
AcDbBlockBegin
  2
smartwood a4 SM border
 70
     0
 10
0.0
 20
0.0
 30
0.0
  3
smartwood a4 SM border
  1
smartwood a4 SM border.dwg
  0
TEXT
  5
36C2
330
3090
100
AcDbEntity
  8
APL Border
100
AcDbText
 10
50.59500000000003
 20
260.4903256579735
 30
0.0
 40
2.5
  1
Cad Ref.
  7
Arial-Bold
100
AcDbText
  0
TEXT
  5
36C3
330
3090
100
AcDbEntity
  8
APL Border
100
AcDbText
 10
86.34500000000002
 20
260.4903256579735
 30
0.0
 40
2.5
  1
Scale
  7
Arial-Bold
100
AcDbText
  0
TEXT
  5
36C4
330
3090
100
AcDbEntity
  8
APL Border
100
AcDbText
 10
106.595
 20
260.4903256579735
 30
0.0
 40
2.5
  1
Date
  7
Arial-Bold
100
AcDbText
  0
TEXT
  5
36C5
330
3090
100
AcDbEntity
  8
APL Border
100
AcDbText
 10
38.28915075034109
 20
2.689999999999997
 30
0.0
 40
1.75
  1
Product Manual 2011:1       Architectural Profiles Ltd. NB. Technical specifications subject to change without notice.
  7
Arial-Regular
 72
     1
 11
100.595
 21
2.689999999999997
 31
0.0
100
AcDbText
  0
MTEXT
  5
36C6
330
3090
100
AcDbEntity
  8
APL Border
100
AcDbMText
 10
65.62154724931708
 20
2.589999999999999
 30
0.0
 40
1.75
 41
2.550279071751219
 71
     8
 72
     5
  1
{\fCommercialPi BT|b0|i0|c2|p18;a}
  7
Arial-Regular
 73
     1
 44
1.0
1001
ACAD
1000
MTEXTBEGIN
1070
    73
1070
     1
1070
    44
1040
1.0
1070
    74
1070
     0
1000
MTEXTEND
  0
LWPOLYLINE
  5
36C7
330
3090
100
AcDbEntity
  8
APL Border
100
AcDbPolyline
 90
        2
 70
     0
 43
0.1
 10
189.595
 20
264.94
 10
50.59500000000003
 20
264.94
  0
LWPOLYLINE
  5
36C8
330
3090
100
AcDbEntity
  8
APL Border
100
AcDbPolyline
 90
        2
 70
     0
 43
0.1
 10
11.59500000000003
 20
5.939999999999997
 10
189.595
 20
5.939999999999997
  0
MTEXT
  5
36C9
330
3090
100
AcDbEntity
  8
APL Border
100
AcDbMText
 10
23.67538783647292
 20
270.7761693860163
 30
0.0
 40
5.299999999999999
 41
19.73351692440951
 71
     1
 72
     5
  1
{\fBook Antiqua|b0|i0|c0|p18;w}ood
  7
Times New Roman - Regular
 73
     1
 44
1.0
1001
ACAD
1000
MTEXTBEGIN
1070
    73
1070
     1
1070
    44
1040
1.0
1070
    74
1070
     0
1000
MTEXTEND
  0
ELLIPSE
  5
36CB
102
{ACAD_REACTORS
330
36D0
102
}
330
3090
100
AcDbEntity
  8
APL Border
100
AcDbEllipse
 10
29.84950874715276
 20
269.0814048081144
 30
0.0
 11
-16.84682124459841
 21
0.4533421263139781
 31
0.0
210
0.0
220
0.0
230
1.0
 40
0.4004023718890052
 41
3.319153797531644
 42
4.72316325263933
  0
ELLIPSE
  5
36CC
102
{ACAD_REACTORS
330
36D0
102
}
330
3090
100
AcDbEntity
  8
APL Border
100
AcDbEllipse
 10
29.74950874715276
 20
269.5814048081144
 30
0.0
 11
18.29645482212482
 21
0.1554481253131277
 31
0.0
210
0.0
220
0.0
230
1.0
 40
0.4217850638291509
 41
4.55200959415153
 42
5.610358989911128
  0
ELLIPSE
  5
36CD
102
{ACAD_REACTORS
330
36D0
102
}
330
3090
100
AcDbEntity
  8
APL Border
100
AcDbEllipse
 10
29.74950874715276
 20
268.5814048081144
 30
0.0
 11
17.46996531743542
 21
1.044704257257092
 31
0.0
210
0.0
220
0.0
230
0.9999999999999998
 40
0.4379375984541014
 41
4.521982387362084
 42
5.649576101878832
  0
ELLIPSE
  5
36CE
102
{ACAD_REACTORS
330
36D0
102
}
330
3090
100
AcDbEntity
  8
APL Border
100
AcDbEllipse
 10
30.84950874715276
 20
269.8814048081144
 30
0.0
 11
-16.74489455126359
 21
0.1068617375822129
 31
0.0
210
0.0
220
0.0
230
1.0
 40
0.3957593505602212
 41
-0.0140565277795168
 42
2.526331138818026
  0
ELLIPSE
  5
36CF
102
{ACAD_REACTORS
330
36D0
102
}
330
3090
100
AcDbEntity
  8
APL Border
100
AcDbEllipse
 10
30.34950874715276
 20
269.5814048081144
 30
0.0
 11
-16.75
 21
0.0
 31
0.0
210
0.0
220
0.0
230
1.0
 40
0.4029850746268657
 41
6.209043324945823
 42
12.10581662267785
  0
HATCH
  5
36D0
330
3090
100
AcDbEntity
  8
APL Border
100
AcDbHatch
 10
0.0
 20
0.0
 30
0.0
210
0.0
220
0.0
230
1.0
  2
SOLID
 70
     1
 71
     1
 91
        3
 92
        5
 93
        5
 72
     3
 10
29.84950874715276
 20
269.0814048081144
 11
-16.84682124459841
 21
0.4533421263139781
 40
0.4004023718890052
 50
88.45856240750569
 51
175.8902112425113
 73
     0
 72
     2
 10
44.67714020925939
 20
269.2071355523921
 40
1.890748898226122
 50
340.8735689376148
 51
382.2290912344739
 73
     0
 72
     2
 10
41.51959182547458
 20
270.2447528778072
 40
5.211423477554833
 50
19.65518680593698
 51
55.12585124074014
 73
     0
 72
     3
 10
30.34950874715276
 20
269.5814048081144
 11
-16.75
 21
0.0
 40
0.4029850746268657
 50
525.6794536794745
 51
348.6935611181874
 73
     1
 72
     2
 10
29.60957360403146
 20
242.9098529133927
 40
32.92242621724226
 50
244.3237283389977
 51
270.4175692479047
 73
     0
 97
        5
330
36CF
330
36D3
330
36CB
330
36DE
330
36DD
 92
        5
 93
        4
 72
     3
 10
30.84950874715276
 20
269.8814048081144
 11
-16.74489455126359
 21
0.1068617375822129
 40
0.3957593505602212
 50
195.6270825703936
 51
360.318754259222
 73
     0
 72
     2
 10
17.870699176928
 20
269.9064821669413
 40
3.767898811686352
 50
182.6608816075128
 51
206.3929086446277
 73
     0
 72
     2
 10
16.28271146983885
 20
269.5778144790396
 40
2.684837801621857
 50
131.7324572923458
 51
169.189096032782
 73
     1
 72
     3
 10
30.34950874715276
 20
269.5814048081144
 11
-16.75
 21
0.0
 40
0.4029850746268657
 50
358.2854785228978
 51
525.6794536794776
 73
     1
 97
        4
330
36CE
330
36D7
330
36D8
330
36CF
 92
        5
 93
        9
 72
     2
 10
23.33536788863245
 20
278.6194209938267
 40
17.2590652710141
 50
239.5349412106921
 51
252.4590542466208
 73
     1
 72
     2
 10
26.60089549689329
 20
289.2363088326019
 40
28.36660625123186
 50
252.6329792468225
 51
270.588845138434
 73
     1
 72
     3
 10
29.74950874715276
 20
268.5814048081144
 11
17.46996531743545
 21
1.044704257257094
 40
0.4379375984541014
 50
246.2451393282852
 51
342.165250303591
 73
     1
 72
     3
 10
29.74950874715276
 20
269.5814048081144
 11
18.29645482212482
 21
0.1554481253131277
 40
0.4217850638291509
 50
18.57778891659629
 51
110.9834979725197
 73
     0
 72
     3
 10
29.74950874715276
 20
269.5814048081144
 11
17.34970603451196
 21
0.3014458951867201
 40
0.4441716687466341
 50
111.492116901814
 51
177.6950000689094
 73
     0
 72
     2
 10
15.8463477617491
 20
269.5207324823547
 40
3.491202579869705
 50
164.4648671532029
 51
195.6449073964833
 73
     0
 72
     2
 10
12.41226765070615
 20
270.4824469054599
 40
0.0750000000000129
 50
344.3550926036264
 51
501.1312117459546
 73
     1
 72
     2
 10
15.55515394903143
 20
268.1982842226753
 40
3.960153949031391
 50
143.9372392604366
 51
199.8052767528797
 73
     1
 72
     2
 10
18.12711839863348
 20
269.6545364822648
 40
6.891465295079229
 50
203.9548519902146
 51
239.068349295085
 73
     1
 97
        9
330
36D4
330
36DC
330
36DB
330
36DA
330
36D9
330
36D6
330
36D5
330
36CD
330
36CC
 75
     0
 76
     1
 47
0.0305803701263538
 98
        3
 10
35.28102042538729
 20
275.5954279676816
 10
16.9851601393558
 20
265.9626110897854
 10
14.87409983201144
 20
264.188949598939
  0
MTEXT
  5
36D1
330
3090
100
AcDbEntity
  8
APL Border
100
AcDbMText
 10
18.74489831846832
 20
273.6217875585393
 30
0.0
 40
3.8
 41
22.4226
 71
     1
 72
     5
  1
{\fCalisto MT|b0|i0|c0|p18;S}MART
  7
Times New Roman - Regular
 73
     1
 44
1.0
1001
ACAD
1000
MTEXTBEGIN
1070
    73
1070
     1
1070
    44
1040
1.0
1070
    74
1070
     0
1000
MTEXTEND
  0
MTEXT
  5
36D2
330
3090
100
AcDbEntity
  8
APL Border
100
AcDbMText
 10
18.65989831846832
 20
273.6217875585393
 30
0.0
 40
3.8
 41
22.4226
 71
     1
 72
     5
  1
{\fCalisto MT|b0|i0|c0|p18;S}MART
  7
Times New Roman - Regular
 73
     1
 44
1.0
1001
ACAD
1000
MTEXTBEGIN
1070
    73
1070
     1
1070
    44
1040
1.0
1070
    74
1070
     0
1000
MTEXTEND
  0
ARC
  5
36D3
102
{ACAD_REACTORS
330
36D0
102
}
330
3090
100
AcDbEntity
  8
APL Border
100
AcDbCircle
 10
29.60957360403142
 20
242.9098529133927
 30
0.0
 40
32.92242621724227
100
AcDbArc
 50
89.58243075209727
 51
115.6762716610028
  0
ELLIPSE
  5
36D4
102
{ACAD_REACTORS
330
36D0
102
}
330
3090
100
AcDbEntity
  8
APL Border
100
AcDbEllipse
 10
29.74950874715276
 20
269.5814048081144
 30
0.0
 11
17.34970603451196
 21
0.3014458951867201
 31
0.0
210
0.0
220
0.0
230
1.0
 40
0.4441716687466341
 41
3.231967416867259
 42
4.539246861848816
  0
ARC
  5
36D5
102
{ACAD_REACTORS
330
36D0
102
}
330
3090
100
AcDbEntity
  8
APL Border
100
AcDbCircle
 10
26.60089549689345
 20
289.2363088326019
 30
0.0
 40
28.36660625123188
100
AcDbArc
 50
252.6329792467665
 51
270.5888451384333
  0
ARC
  5
36D6
102
{ACAD_REACTORS
330
36D0
102
}
330
3090
100
AcDbEntity
  8
APL Border
100
AcDbCircle
 10
23.33536788863257
 20
278.6194209938267
 30
0.0
 40
17.25906527101414
100
AcDbArc
 50
239.5349412106916
 51
252.4590542465295
  0
ARC
  5
36D7
102
{ACAD_REACTORS
330
36D0
102
}
330
3090
100
AcDbEntity
  8
APL Border
100
AcDbCircle
 10
17.87069917692793
 20
269.9064821669413
 30
0.0
 40
3.767898811686282
100
AcDbArc
 50
153.6070913553711
 51
177.3391183924929
  0
ARC
  5
36D8
102
{ACAD_REACTORS
330
36D0
102
}
330
3090
100
AcDbEntity
  8
APL Border
100
AcDbCircle
 10
16.28271146983881
 20
269.5778144790396
 30
0.0
 40
2.684837801621823
100
AcDbArc
 50
131.7324572923451
 51
169.1890960327197
  0
ARC
  5
36D9
102
{ACAD_REACTORS
330
36D0
102
}
330
3090
100
AcDbEntity
  8
APL Border
100
AcDbCircle
 10
18.12711839863346
 20
269.6545364822648
 30
0.0
 40
6.891465295079221
100
AcDbArc
 50
203.9548519902172
 51
239.0683492950841
  0
ARC
  5
36DA
102
{ACAD_REACTORS
330
36D0
102
}
330
3090
100
AcDbEntity
  8
APL Border
100
AcDbCircle
 10
15.55515394903143
 20
268.1982842226753
 30
0.0
 40
3.960153949031401
100
AcDbArc
 50
143.9372392604394
 51
199.8052767528839
  0
ARC
  5
36DB
102
{ACAD_REACTORS
330
36D0
102
}
330
3090
100
AcDbEntity
  8
APL Border
100
AcDbCircle
 10
12.41226765070622
 20
270.48244690546
 30
0.0
 40
0.075
100
AcDbArc
 50
344.355092603511
 51
141.1312117461879
  0
ARC
  5
36DC
102
{ACAD_REACTORS
330
36D0
102
}
330
3090
100
AcDbEntity
  8
APL Border
100
AcDbCircle
 10
15.8463477617491
 20
269.5207324823547
 30
0.0
 40
3.491202579869703
100
AcDbArc
 50
164.355092603516
 51
195.5351328468004
  0
ARC
  5
36DD
102
{ACAD_REACTORS
330
36D0
102
}
330
3090
100
AcDbEntity
  8
APL Border
100
AcDbCircle
 10
41.51959182547463
 20
270.2447528778072
 30
0.0
 40
5.211423477554786
100
AcDbArc
 50
304.8741487592643
 51
340.3448131940653
  0
ARC
  5
36DE
102
{ACAD_REACTORS
330
36D0
102
}
330
3090
100
AcDbEntity
  8
APL Border
100
AcDbCircle
 10
44.67714020925941
 20
269.2071355523921
 30
0.0
 40
1.890748898226107
100
AcDbArc
 50
337.7709087655318
 51
19.12643106237982
  0
ENDBLK
  5
3092
330
3090
100
AcDbEntity
  8
0
100
AcDbBlockEnd
  0
BLOCK
  5
30B5
330
30AC
100
AcDbEntity
  8
0
100
AcDbBlockBegin
  2
smartwood a4 SM attributes (2)
 70
     2
 10
0.0
 20
0.0
 30
0.0
  3
smartwood a4 SM attributes (2)
  1

  0
ATTDEF
  5
357B
330
30AC
100
AcDbEntity
  8
APL Border
100
AcDbText
 10
50.59500000000003
 20
272.44
 30
0.0
 40
3.5
  1
DRAWING TITLE LINE 1
  7
Arial-Regular
100
AcDbAttributeDefinition
  3
Drawing Title Line 1
  2
DRAWINGTITLE_1
 70
     0
  0
ATTDEF
  5
357C
330
30AC
100
AcDbEntity
  8
APL Border
100
AcDbText
 10
50.59500000000003
 20
266.94
 30
0.0
 40
3.5
  1
DRAWING TITLE LINE 2
  7
Arial-Regular
100
AcDbAttributeDefinition
  3
Drawing Title Line 2
  2
DRAWINGTITLE_2
 70
     0
  0
ATTDEF
  5
357D
330
30AC
100
AcDbEntity
  8
APL Border
100
AcDbText
 10
65.59500000000003
 20
260.4903256579735
 30
0.0
 40
2.5
  1
VSAW01-0
  7
Arial-Regular
100
AcDbAttributeDefinition
  3
CAD Reference
  2
VSAW01-0
 70
     0
  0
ATTDEF
  5
357E
330
30AC
100
AcDbEntity
  8
APL Border
100
AcDbText
 10
96.34500000000002
 20
260.4903256579735
 30
0.0
 40
2.5
  1
1:2
  7
Arial-Regular
100
AcDbAttributeDefinition
  3
Scale
  2
1:2
 70
     0
  0
ATTDEF
  5
357F
330
30AC
100
AcDbEntity
  8
APL Border
100
AcDbText
 10
115.595
 20
260.4903256579735
 30
0.0
 40
2.5
  1
20.09.02
  7
Arial-Regular
100
AcDbAttributeDefinition
  3
Scale
  2
20.09.02
 70
     0
  0
ATTDEF
  5
3580
330
30AC
100
AcDbEntity
  8
APL Border
100
AcDbText
 10
11.59500000000003
 20
2.689999999999997
 30
0.0
 40
4.5
  1
1.2.34
  7
Arial-Regular
100
AcDbAttributeDefinition
  3
Page Number (Left)
  2
1.2.34
 70
     0
  0
ATTDEF
  5
3581
330
30AC
100
AcDbEntity
  8
APL Border
100
AcDbText
 10
172.1168281036835
 20
2.689999999999997
 30
0.0
 40
4.5
  1
1.2.34
  7
Arial-Regular
 72
     2
 11
189.595
 21
2.689999999999997
 31
0.0
100
AcDbAttributeDefinition
  3
Page Number (Right)
  2
1.2.34
 70
     0
  0
ENDBLK
  5
30B6
330
30AC
100
AcDbEntity
  8
0
100
AcDbBlockEnd
  0
ENDSEC
  0
SECTION
  2
ENTITIES
  0
INSERT
  5
267D
330
1F
100
AcDbEntity
  8
APL Joinery
100
AcDbBlockReference
  2
07100
 10
317.351700832101
 20
317.1287824877294
 30
0.0
 50
180.0
  0
INSERT
  5
2682
330
1F
100
AcDbEntity
  8
APL Joinery
100
AcDbBlockReference
  2
sw30mmliner
 10
270.2512008321027
 20
290.1287824877311
 30
0.0
 50
180.0
  0
INSERT
  5
26F8
330
1F
100
AcDbEntity
  8
APL Joinery
100
AcDbBlockReference
  2
07123Glaze
 10
309.3512008321026
 20
161.8860261823245
 30
0.0
  0
INSERT
  5
26FF
330
1F
100
AcDbEntity
  8
APL Joinery
100
AcDbBlockReference
  2
07116
 10
309.3512008321026
 20
129.6310261823244
 30
0.0
 41
-1.0
  0
INSERT
  5
2704
330
1F
100
AcDbEntity
  8
APL Joinery
100
AcDbBlockReference
  2
07117
 10
309.3512008320806
 20
74.19112321388201
 30
0.0
 50
89.99999999999998
  0
INSERT
  5
2713
330
1F
100
AcDbEntity
  8
APL Joinery
100
AcDbBlockReference
  2
Timber Profile 20
 10
263.8727351338165
 20
119.6695889121515
 30
0.0
 50
45.00000000003077
  0
INSERT
  5
2719
330
1F
100
AcDbEntity
  8
APL Joinery
100
AcDbBlockReference
  2
9700532
 10
265.3407931920065
 20
118.2015308539601
 30
0.0
 50
90.0
  0
INSERT
  5
2733
330
1F
100
AcDbEntity
  8
APL Joinery
100
AcDbBlockReference
  2
07103Sash
 10
253.9112978636417
 20
74.19112321386342
 30
0.0
  0
TEXT
  5
2736
330
1F
100
AcDbEntity
  8
APL Notes
100
AcDbText
 10
295.3171769728445
 20
325.0568752250105
 30
0.0
 40
5.0
  1
Frame
  7
Arial-Regular
 72
     2
 11
315.4979409564735
 21
325.0568752250105
 31
0.0
100
AcDbText
  0
TEXT
  5
2737
330
1F
100
AcDbEntity
  8
APL Notes
100
AcDbText
 10
311.3512008321026
 20
278.7512824877292
 30
0.0
 40
5.0
  1
07438
  7
Arial-Bold
100
AcDbText
  0
TEXT
  5
2738
330
1F
100
AcDbEntity
  8
APL Notes
100
AcDbText
 10
311.3512008321027
 20
250.4394859175719
 30
0.0
 40
5.0
  1
07123
  7
Arial-Bold
100
AcDbText
  0
TEXT
  5
2739
330
1F
100
AcDbEntity
  8
APL Notes
100
AcDbText
 10
311.3512008321026
 20
171.0324730146145
 30
0.0
 40
5.0
  1
07123
  7
Arial-Bold
100
AcDbText
  0
TEXT
  5
273A
330
1F
100
AcDbEntity
  8
APL Notes
100
AcDbText
 10
311.3512008321026
 20
146.0085261823244
 30
0.0
 40
5.0
  1
07438
  7
Arial-Bold
100
AcDbText
  0
TEXT
  5
273B
330
1F
100
AcDbEntity
  8
APL Notes
100
AcDbText
 10
311.3512008320973
 20
94.58230847739889
 30
0.0
 40
5.0
  1
07117
  7
Arial-Bold
100
AcDbText
  0
TEXT
  5
273D
330
1F
100
AcDbEntity
  8
APL Notes
100
AcDbText
 10
260.4112978636416
 20
91.34112321387034
 30
0.0
 40
5.0
  1
07116
  7
Arial-Bold
100
AcDbText
  0
TEXT
  5
273E
330
1F
100
AcDbEntity
  8
APL Notes
100
AcDbText
 10
230.5243885669697
 20
48.54112321386378
 30
0.0
 40
5.0
  1
07103
  7
Arial-Bold
 11
230.5243885669697
 21
53.54112321386378
 31
0.0
100
AcDbText
 73
     3
  0
TEXT
  5
273F
330
1F
100
AcDbEntity
  8
APL Notes
100
AcDbText
 10
191.539442451884
 20
48.54112321386384
 30
0.0
 40
5.0
  1
07123
  7
Arial-Bold
 72
     2
 11
210.9630440889918
 21
53.54112321386384
 31
0.0
100
AcDbText
 73
     3
  0
MTEXT
  5
274D
330
1F
100
AcDbEntity
  8
APL Notes
100
AcDbMText
 10
132.7499101555677
 20
220.9934875367153
 30
0.0
 40
2.5
 41
8.1887
 71
     1
 72
     1
  1

 73
     1
 44
1.0
1001
ACAD
1000
MTEXTBEGIN
1070
    73
1070
     1
1070
    44
1040
1.0
1070
    74
1070
     0
1000
MTEXTEND
  0
MTEXT
  5
274F
330
1F
100
AcDbEntity
  8
APL Notes
100
AcDbMText
 10
136.6335555021901
 20
220.9934875367153
 30
0.0
 40
2.5
 41
8.1887
 71
     1
 72
     1
  1

 73
     1
 44
1.0
1001
ACAD
1000
MTEXTBEGIN
1070
    73
1070
     1
1070
    44
1040
1.0
1070
    74
1070
     0
1000
MTEXTEND
  0
TEXT
  5
2750
330
1F
100
AcDbEntity
  8
APL Notes
100
AcDbText
 10
178.7663012493168
 20
216.8393024852102
 30
0.0
 40
5.0
  1
Optional
  7
Arial-Regular
100
AcDbText
  0
TEXT
  5
2751
330
1F
100
AcDbEntity
  8
APL Notes
100
AcDbText
 10
178.7663012493168
 20
209.8799043350268
 30
0.0
 40
5.0
  1
Sightline Adaptors
  7
Arial-Regular
100
AcDbText
  0
TEXT
  5
2759
330
1F
100
AcDbEntity
  8
APL Notes
100
AcDbText
 10
178.7663012493168
 20
202.2422175932802
 30
0.0
 40
5.0
  1
(to match Sash)
  7
Arial-Regular
100
AcDbText
  0
LWPOLYLINE
  5
2C94
330
1F
100
AcDbEntity
  8
APL Notes
  6
Continuous
 62
     8
100
AcDbPolyline
 90
        2
 70
     0
 43
0.0
 10
232.2653809194724
 20
416.4511511034502
 10
223.7999991921495
 20
407.9857693761271
  0
LWPOLYLINE
  5
2CA0
330
1F
100
AcDbEntity
  8
APL Notes
  6
Continuous
 62
     2
100
AcDbPolyline
 90
        2
 70
     0
 43
0.0
 10
243.3199991921494
 20
365.3913565302997
 10
247.7999991921495
 20
361.000000110887
  0
LWPOLYLINE
  5
2CA8
330
1F
100
AcDbEntity
  8
APL Notes
  6
DASHED
 62
     7
 48
20.0
100
AcDbPolyline
 90
        2
 70
     0
 43
0.0
 10
168.5999991921495
 20
415.5548552725666
 10
182.9999991921495
 20
415.5548552725666
  0
LWPOLYLINE
  5
2CAD
330
1F
100
AcDbEntity
  8
APL Notes
  6
Continuous
 62
     8
100
AcDbPolyline
 90
        3
 70
     0
 43
0.0
 10
238.6915041064745
 20
422.735995167814
 10
254.4115041064744
 20
438.4559951678144
 10
254.4115041064744
 20
438.4559951678144
  0
LEADER
  5
2CB4
330
1F
100
AcDbEntity
  8
APL Notes
 62
     8
100
AcDbLeader
  3
ISO-25
 76
     2
 10
254.4115041064744
 20
415.6435724744614
 30
0.0
 10
254.4115041064744
 20
438.4559951678144
 30
0.0
1001
ACAD
1000
DSTYLE
1002
{
1070
   147
1040
0.625
1070
    77
1070
     0
1002
}
  0
INSERT
  5
2EB7
330
1F
100
AcDbEntity
  8
APL Joinery
100
AcDbBlockReference
  2
07111
 10
75.13561042505717
 20
108.1935026599095
 30
0.0
 50
317.5000000000026
  0
INSERT
  5
2EBE
330
1F
100
AcDbEntity
  8
APL Joinery
100
AcDbBlockReference
  2
07112
 10
75.13561042505717
 20
108.1935026599093
 30
0.0
 50
317.5000000000026
  0
LINE
  5
2F11
330
1F
100
AcDbEntity
  8
APL Joinery
 62
     7
100
AcDbLine
 10
276.8512008321025
 20
191.3737824877303
 30
0.0
 11
276.8512008321025
 21
201.3737824877303
 31
0.0
  0
LINE
  5
2F12
330
1F
100
AcDbEntity
  8
APL Joinery
 62
     7
100
AcDbLine
 10
282.8512008321025
 20
191.3737824877303
 30
0.0
 11
282.8512008321025
 21
201.3737824877303
 31
0.0
  0
LINE
  5
2F13
330
1F
100
AcDbEntity
  8
APL Joinery
 62
     8
100
AcDbLine
 10
280.8512008321025
 20
191.3737824877303
 30
0.0
 11
280.8512008321025
 21
201.3737824877303
 31
0.0
  0
LINE
  5
2F14
330
1F
100
AcDbEntity
  8
APL Joinery
 62
     8
100
AcDbLine
 10
278.8512008321025
 20
191.3737824877303
 30
0.0
 11
278.8512008321025
 21
201.3737824877303
 31
0.0
  0
LINE
  5
2F15
330
1F
100
AcDbEntity
  8
APL Joinery
 62
     7
100
AcDbLine
 10
294.8512008321026
 20
191.3737824877303
 30
0.0
 11
294.8512008321026
 21
201.3737824877303
 31
0.0
  0
LINE
  5
2F16
330
1F
100
AcDbEntity
  8
APL Joinery
 62
     7
100
AcDbLine
 10
300.8512008321026
 20
191.3737824877303
 30
0.0
 11
300.8512008321026
 21
201.3737824877303
 31
0.0
  0
LINE
  5
2F17
330
1F
100
AcDbEntity
  8
APL Joinery
 62
     8
100
AcDbLine
 10
298.8512008321026
 20
191.3737824877303
 30
0.0
 11
298.8512008321026
 21
201.3737824877303
 31
0.0
  0
LINE
  5
2F18
330
1F
100
AcDbEntity
  8
APL Joinery
 62
     8
100
AcDbLine
 10
296.8512008321026
 20
191.3737824877303
 30
0.0
 11
296.8512008321026
 21
201.3737824877303
 31
0.0
  0
LWPOLYLINE
  5
2F51
330
1F
100
AcDbEntity
  8
APL Notes
100
AcDbPolyline
 90
        4
 70
     1
 43
0.3
 10
202.4999991921495
 20
153.6098129788878
 10
202.4999991921495
 20
164.6098129788879
 10
151.4999991921495
 20
164.6098129788879
 10
151.4999991921495
 20
153.6098129788878
  0
TEXT
  5
2F52
330
1F
100
AcDbEntity
  8
APL Notes
100
AcDbText
 10
154.4999991921495
 20
156.6098129788878
 30
0.0
 40
5.0
  1
SECTION A-A
  7
Arial-Bold
100
AcDbText
  0
TEXT
  5
2F53
330
1F
100
AcDbEntity
  8
APL Notes
  6
Continuous
 62
     7
100
AcDbText
 10
251.6242438740363
 20
407.8859563443914
 30
0.0
 40
6.0
  1
A
  7
Arial-Bold
100
AcDbText
  0
INSERT
  5
2F59
330
1F
100
AcDbEntity
  8
APL Joinery
100
AcDbBlockReference
  2
07103Sash
 10
90.31015030784102
 20
74.19112321386342
 30
0.0
 41
-1.0
  0
TEXT
  5
2F5D
330
1F
100
AcDbEntity
  8
APL Notes
100
AcDbText
 10
133.8961939869929
 20
48.54112321386384
 30
0.0
 40
5.0
  1
07123
  7
Arial-Bold
 72
     2
 11
153.3197956241007
 21
53.54112321386384
 31
0.0
100
AcDbText
 73
     3
  0
TEXT
  5
2F5E
330
1F
100
AcDbEntity
  8
APL Notes
100
AcDbText
 10
94.86690953630017
 20
48.54112321386378
 30
0.0
 40
5.0
  1
07103
  7
Arial-Bold
 11
94.86690953630017
 21
53.54112321386378
 31
0.0
100
AcDbText
 73
     3
  0
LINE
  5
2F5F
330
1F
100
AcDbEntity
  8
APL Joinery
 62
     7
100
AcDbLine
 10
156.5479066132477
 20
82.04112321386389
 30
0.0
 11
166.5479066132476
 21
82.04112321386389
 31
0.0
  0
LINE
  5
2F60
330
1F
100
AcDbEntity
  8
APL Joinery
 62
     8
100
AcDbLine
 10
156.5479066132477
 20
84.0411232138639
 30
0.0
 11
166.5479066132476
 21
84.0411232138639
 31
0.0
  0
LINE
  5
2F61
330
1F
100
AcDbEntity
  8
APL Joinery
 62
     8
100
AcDbLine
 10
156.5479066132477
 20
86.0411232138639
 30
0.0
 11
166.5479066132476
 21
86.0411232138639
 31
0.0
  0
LINE
  5
2F62
330
1F
100
AcDbEntity
  8
APL Joinery
 62
     7
100
AcDbLine
 10
156.5479066132477
 20
88.04112321386389
 30
0.0
 11
166.5479066132476
 21
88.04112321386389
 31
0.0
  0
TEXT
  5
2F6D
330
1F
100
AcDbEntity
  8
APL Notes
100
AcDbText
 10
62.64069682793422
 20
85.56494475835739
 30
0.0
 40
5.0
  1
07112
  7
Arial-Bold
100
AcDbText
  0
TEXT
  5
2F6E
330
1F
100
AcDbEntity
  8
APL Notes
100
AcDbText
 10
24.46244407932045
 20
85.56494475835739
 30
0.0
 40
5.0
  1
07111
  7
Arial-Bold
100
AcDbText
  0
LINE
  5
2F71
330
1F
100
AcDbEntity
  8
APL Notes
 62
     2
100
AcDbLine
 10
140.5196502202406
 20
457.0000001108868
 30
0.0
 11
137.0318467291526
 21
457.0000001108868
 31
0.0
  0
LINE
  5
2F73
330
1F
100
AcDbEntity
  8
APL Notes
 62
     2
100
AcDbLine
 10
127.7999991921495
 20
433.0000001108869
 30
0.0
 11
137.0318467291526
 21
457.0000001108868
 31
0.0
  0
LINE
  5
2F76
330
1F
100
AcDbEntity
  8
APL Notes
  6
Continuous
 62
     2
100
AcDbLine
 10
223.7999991921495
 20
337.0000001108869
 30
0.0
 11
127.7999991921495
 21
337.0000001108869
 31
0.0
  0
LINE
  5
2F77
330
1F
100
AcDbEntity
  8
APL Notes
  6
Continuous
 62
     2
100
AcDbLine
 10
127.7999991921495
 20
337.0000001108869
 30
0.0
 11
127.7999991921495
 21
433.0000001108869
 31
0.0
  0
LINE
  5
2F78
330
1F
100
AcDbEntity
  8
APL Notes
  6
Continuous
 62
     2
100
AcDbLine
 10
127.7999991921495
 20
433.0000001108869
 30
0.0
 11
223.7999991921495
 21
433.0000001108869
 31
0.0
  0
LINE
  5
2F79
330
1F
100
AcDbEntity
  8
APL Notes
  6
Continuous
 62
     2
100
AcDbLine
 10
223.7999991921495
 20
433.0000001108869
 30
0.0
 11
223.7999991921495
 21
337.0000001108869
 31
0.0
  0
LINE
  5
2F7A
330
1F
100
AcDbEntity
  8
APL Notes
  6
Continuous
 62
     2
100
AcDbLine
 10
223.7999991921495
 20
337.0000001108869
 30
0.0
 11
247.7999991921495
 21
361.000000110887
 31
0.0
  0
LINE
  5
2F7B
330
1F
100
AcDbEntity
  8
APL Notes
  6
Continuous
 62
     2
100
AcDbLine
 10
247.7999991921495
 20
361.000000110887
 30
0.0
 11
247.7999991921495
 21
457.0000001108869
 31
0.0
  0
LINE
  5
2F7C
330
1F
100
AcDbEntity
  8
APL Notes
  6
Continuous
 62
     2
100
AcDbLine
 10
247.7999991921495
 20
457.0000001108869
 30
0.0
 11
243.5573585050302
 21
457.0000001108869
 31
0.0
  0
LINE
  5
2F84
330
1F
100
AcDbEntity
  8
APL Notes
  6
Continuous
 62
     2
100
AcDbLine
 10
133.0667836253628
 20
436.0000001108869
 30
0.0
 11
127.7999991921495
 21
433.0000001108869
 31
0.0
  0
LINE
  5
2F87
330
1F
100
AcDbEntity
  8
APL Notes
 62
     2
100
AcDbLine
 10
140.5196502202406
 20
457.0000001108868
 30
0.0
 11
140.5196502202406
 21
436.0000001108869
 31
0.0
  0
LINE
  5
2F90
330
1F
100
AcDbEntity
  8
APL Notes
 62
     2
100
AcDbLine
 10
133.0667836253628
 20
436.0000001108869
 30
0.0
 11
140.5196502202406
 21
457.0000001108868
 31
0.0
  0
LINE
  5
2F91
330
1F
100
AcDbEntity
  8
APL Notes
  6
Continuous
 62
     2
100
AcDbLine
 10
133.0667836253628
 20
436.0000001108869
 30
0.0
 11
222.5573585050302
 21
436.0000001108869
 31
0.0
  0
LINE
  5
2F93
330
1F
100
AcDbEntity
  8
APL Notes
  6
Continuous
 62
     2
100
AcDbLine
 10
127.7999991921495
 20
340.6000001108869
 30
0.0
 11
223.7999991921495
 21
340.6000001108869
 31
0.0
  0
LINE
  5
2F94
330
1F
100
AcDbEntity
  8
APL Notes
  6
Continuous
 62
     2
100
AcDbLine
 10
223.7999991921495
 20
340.6000001108869
 30
0.0
 11
246.1199991921494
 21
362.9200001108868
 31
0.0
  0
LINE
  5
2F95
330
1F
100
AcDbEntity
  8
APL Notes
  6
Continuous
 62
     2
100
AcDbLine
 10
246.1199991921494
 20
362.9200001108868
 30
0.0
 11
246.1199991921494
 21
451.7200001108868
 31
0.0
  0
LINE
  5
2F96
330
1F
100
AcDbEntity
  8
APL Notes
  6
Continuous
 62
     2
100
AcDbLine
 10
246.1199991921494
 20
451.7200001108868
 30
0.0
 11
223.7999991921495
 21
429.4000001108869
 31
0.0
  0
LINE
  5
2F97
330
1F
100
AcDbEntity
  8
APL Notes
  6
Continuous
 62
     2
100
AcDbLine
 10
223.7999991921495
 20
429.4000001108869
 30
0.0
 11
127.7999991921495
 21
429.4000001108869
 31
0.0
  0
LINE
  5
2F9C
330
1F
100
AcDbEntity
  8
APL Notes
  6
Continuous
 62
     2
100
AcDbLine
 10
222.5573585050302
 20
436.0000001108869
 30
0.0
 11
223.7999991921495
 21
433.0000001108869
 31
0.0
  0
LINE
  5
2F9D
330
1F
100
AcDbEntity
  8
APL Notes
  6
Continuous
 62
     2
100
AcDbLine
 10
223.7999991921495
 20
433.0000001108869
 30
0.0
 11
247.7999991921495
 21
457.0000001108869
 31
0.0
  0
LINE
  5
2F9E
330
1F
100
AcDbEntity
  8
APL Notes
  6
Continuous
 62
     2
100
AcDbLine
 10
247.7999991921495
 20
457.0000001108869
 30
0.0
 11
243.3199991921494
 21
443.6486436912338
 31
0.0
  0
LINE
  5
2F9F
330
1F
100
AcDbEntity
  8
APL Notes
  6
Continuous
 62
     2
100
AcDbLine
 10
222.5573585050302
 20
436.0000001108869
 30
0.0
 11
243.5573585050302
 21
457.0000001108869
 31
0.0
  0
LINE
  5
2FA1
330
1F
100
AcDbEntity
  8
APL Notes
 62
     2
100
AcDbLine
 10
138.5196502202406
 20
445.3847929689132
 30
0.0
 11
138.5196502202406
 21
436.0000001108869
 31
0.0
  0
LINE
  5
2FA2
330
1F
100
AcDbEntity
  8
APL Notes
 62
     2
100
AcDbLine
 10
135.1890021635058
 20
436.0000001108869
 30
0.0
 11
138.5196502202406
 21
445.3847929689132
 31
0.0
  0
LINE
  5
2FA3
330
1F
100
AcDbEntity
  8
APL Notes
 62
     2
100
AcDbLine
 10
138.5196502202406
 20
445.3847929689132
 30
0.0
 11
140.5196502202406
 21
457.0000001108868
 31
0.0
  0
LINE
  5
2FA8
330
1F
100
AcDbEntity
  8
APL Notes
  6
Continuous
 62
     8
100
AcDbLine
 10
223.7999991921495
 20
407.9857693761271
 30
0.0
 11
205.5999991921495
 21
407.9857693761271
 31
0.0
  0
LINE
  5
2FAA
330
1F
100
AcDbEntity
  8
APL Notes
  6
Continuous
 62
     2
100
AcDbLine
 10
215.5999991921495
 20
426.0000001108869
 30
0.0
 11
218.9999991921495
 21
429.4000001108869
 31
0.0
  0
LINE
  5
2FAB
330
1F
100
AcDbEntity
  8
APL Notes
  6
Continuous
 62
     2
100
AcDbLine
 10
218.9999991921495
 20
429.4000001108869
 30
0.0
 11
218.9999991921495
 21
340.6000001108869
 31
0.0
  0
LINE
  5
2FAC
330
1F
100
AcDbEntity
  8
APL Notes
  6
Continuous
 62
     2
100
AcDbLine
 10
218.9999991921495
 20
340.6000001108869
 30
0.0
 11
215.5999991921495
 21
344.000000110887
 31
0.0
  0
LINE
  5
2FAD
330
1F
100
AcDbEntity
  8
APL Notes
  6
Continuous
 62
     2
100
AcDbLine
 10
215.5999991921495
 20
344.000000110887
 30
0.0
 11
215.5999991921495
 21
426.0000001108869
 31
0.0
  0
LINE
  5
2FAE
330
1F
100
AcDbEntity
  8
APL Notes
  6
Continuous
 62
     2
100
AcDbLine
 10
215.5999991921495
 20
426.0000001108869
 30
0.0
 11
135.9999991921495
 21
426.0000001108869
 31
0.0
  0
LINE
  5
2FAF
330
1F
100
AcDbEntity
  8
APL Notes
  6
Continuous
 62
     2
100
AcDbLine
 10
135.9999991921495
 20
426.0000001108869
 30
0.0
 11
135.9999991921495
 21
344.000000110887
 31
0.0
  0
LINE
  5
2FB0
330
1F
100
AcDbEntity
  8
APL Notes
  6
Continuous
 62
     2
100
AcDbLine
 10
135.9999991921495
 20
344.000000110887
 30
0.0
 11
132.5999991921495
 21
340.6000001108869
 31
0.0
  0
LINE
  5
2FB1
330
1F
100
AcDbEntity
  8
APL Notes
  6
Continuous
 62
     2
100
AcDbLine
 10
132.5999991921495
 20
340.6000001108869
 30
0.0
 11
132.5999991921495
 21
429.4000001108869
 31
0.0
  0
LINE
  5
2FB2
330
1F
100
AcDbEntity
  8
APL Notes
  6
Continuous
 62
     2
100
AcDbLine
 10
132.5999991921495
 20
429.4000001108869
 30
0.0
 11
135.9999991921495
 21
426.0000001108869
 31
0.0
  0
LINE
  5
2FB3
330
1F
100
AcDbEntity
  8
APL Notes
  6
Continuous
 62
     2
100
AcDbLine
 10
215.5999991921495
 20
344.000000110887
 30
0.0
 11
135.9999991921495
 21
344.000000110887
 31
0.0
  0
LINE
  5
2FB8
330
1F
100
AcDbEntity
  8
APL Notes
  6
Continuous
 62
     8
100
AcDbLine
 10
144.9999991921495
 20
407.9857693761271
 30
0.0
 11
117.7999991921495
 21
407.9857693761271
 31
0.0
  0
TEXT
  5
2FB9
330
1F
100
AcDbEntity
  8
APL Notes
  6
Continuous
 62
     7
100
AcDbText
 10
115.0127389597114
 20
377.4157305527041
 30
0.0
 40
6.0
  1
A
  7
Arial-Bold
100
AcDbText
  0
LEADER
  5
2FBA
330
1F
100
AcDbEntity
  8
APL Notes
 62
     8
100
AcDbLeader
  3
ISO-25
 76
     2
 10
117.7999991921495
 20
385.1733466827742
 30
0.0
 10
117.7999991921495
 20
407.9857693761271
 30
0.0
1001
ACAD
1000
DSTYLE
1002
{
1070
   147
1040
0.625
1070
    77
1070
     0
1002
}
  0
LINE
  5
2FBB
330
1F
100
AcDbEntity
  8
APL Notes
  6
Continuous
 62
     2
100
AcDbLine
 10
229.5999991921495
 20
351.6713565302998
 30
0.0
 11
229.5999991921495
 21
429.9286436912333
 31
0.0
  0
LINE
  5
2FBC
330
1F
100
AcDbEntity
  8
APL Notes
  6
Continuous
 62
     2
100
AcDbLine
 10
243.3199991921494
 20
443.6486436912338
 30
0.0
 11
243.3199991921494
 21
365.3913565302997
 31
0.0
  0
LINE
  5
2FBD
330
1F
100
AcDbEntity
  8
APL Notes
  6
Continuous
 62
     2
100
AcDbLine
 10
229.5999991921495
 20
429.9286436912333
 30
0.0
 11
243.3199991921494
 21
443.6486436912338
 31
0.0
  0
LINE
  5
2FBE
330
1F
100
AcDbEntity
  8
APL Notes
  6
Continuous
 62
     2
100
AcDbLine
 10
243.3199991921494
 20
365.3913565302997
 30
0.0
 11
229.5999991921495
 21
351.6713565302998
 31
0.0
  0
LINE
  5
2FBF
330
1F
100
AcDbEntity
  8
APL Notes
  6
Continuous
 62
     2
100
AcDbLine
 10
229.5999991921495
 20
351.6713565302998
 30
0.0
 11
226.7999991921495
 21
343.6000001108869
 31
0.0
  0
LINE
  5
2FC0
330
1F
100
AcDbEntity
  8
APL Notes
  6
Continuous
 62
     2
100
AcDbLine
 10
226.7999991921495
 20
343.6000001108869
 30
0.0
 11
226.7999991921495
 21
432.4000001108869
 31
0.0
  0
LINE
  5
2FC1
330
1F
100
AcDbEntity
  8
APL Notes
  6
Continuous
 62
     2
100
AcDbLine
 10
226.7999991921495
 20
432.4000001108869
 30
0.0
 11
229.5999991921495
 21
429.9286436912333
 31
0.0
  0
TEXT
  5
2FCD
330
1F
100
AcDbEntity
  8
APL Notes
100
AcDbText
 10
74.65974103089696
 20
27.98075608982725
 30
0.0
 40
5.0
  1
CORNER OPTION
  7
Arial-Bold
 72
     1
 11
104.310150307841
 21
27.98075608982725
 31
0.0
100
AcDbText
  0
TEXT
  5
2FCE
330
1F
100
AcDbEntity
  8
APL Notes
100
AcDbText
 10
80.83129628328439
 20
34.98075608982726
 30
0.0
 40
5.0
  1
ADJUSTABLE
  7
Arial-Bold
 72
     1
 11
104.310150307841
 21
34.98075608982726
 31
0.0
100
AcDbText
  0
TEXT
  5
2FD0
330
1F
100
AcDbEntity
  8
APL Notes
100
AcDbText
 10
234.5799199645967
 20
34.98075608982726
 30
0.0
 40
5.0
  1
90%%d
  7
Arial-Bold
 72
     1
 11
239.8612978636417
 21
34.98075608982726
 31
0.0
100
AcDbText
  0
TEXT
  5
2FD1
330
1F
100
AcDbEntity
  8
APL Notes
100
AcDbText
 10
210.2108885866976
 20
27.98075608982725
 30
0.0
 40
5.0
  1
CORNER OPTION
  7
Arial-Bold
 72
     1
 11
239.8612978636417
 21
27.98075608982725
 31
0.0
100
AcDbText
  0
TEXT
  5
2FE6
330
1F
100
AcDbEntity
  8
APL Notes
100
AcDbText
 10
296.0743393193657
 20
332.0568752250105
 30
0.0
 40
5.0
  1
07100
  7
Arial-Bold
 72
     2
 11
315.4979409564735
 21
332.0568752250105
 31
0.0
100
AcDbText
  0
LWPOLYLINE
  5
303F
330
1F
100
AcDbEntity
  8
APL Joinery
 62
     8
100
AcDbPolyline
 90
        6
 70
     1
 43
0.0
 10
77.01806927500477
 20
144.4701532496597
 10
76.02187457691306
 20
144.3829975069119
 10
78.83485215944209
 20
112.230516612146
 10
111.1101503078332
 20
112.230516612146
 10
111.1101503078337
 20
113.230516612146
 10
79.75118333345941
 20
113.230516612146
  0
POLYLINE
  5
3046
330
1F
100
AcDbEntity
  8
APL Joinery
 62
     8
100
AcDb2dPolyline
 66
     1
 10
0.0
 20
0.0
 30
0.0
 70
     4
 75
     6
  0
VERTEX
  5
3048
330
3046
100
AcDbEntity
  8
APL Joinery
 62
     8
100
AcDbVertex
100
AcDb2dVertex
 10
93.46757667351381
 20
144.8665155901237
 30
0.0
 70
    16
  0
VERTEX
  5
304E
330
3046
100
AcDbEntity
  8
APL Joinery
 62
     8
100
AcDbVertex
100
AcDb2dVertex
 10
93.46757667351381
 20
144.8665155901237
 30
0.0
 70
     8
  0
VERTEX
  5
304F
330
3046
100
AcDbEntity
  8
APL Joinery
 62
     8
100
AcDbVertex
100
AcDb2dVertex
 10
94.39522994324315
 20
142.4122912910881
 30
0.0
 70
     8
  0
VERTEX
  5
3050
330
3046
100
AcDbEntity
  8
APL Joinery
 62
     8
100
AcDbVertex
100
AcDb2dVertex
 10
95.24107476363743
 20
140.3653343877694
 30
0.0
 70
     8
  0
VERTEX
  5
3051
330
3046
100
AcDbEntity
  8
APL Joinery
 62
     8
100
AcDbVertex
100
AcDb2dVertex
 10
96.02109713234854
 20
138.6720281673763
 30
0.0
 70
     8
  0
VERTEX
  5
3052
330
3046
100
AcDbEntity
  8
APL Joinery
 62
     8
100
AcDbVertex
100
AcDb2dVertex
 10
96.75128304702845
 20
137.2787559171176
 30
0.0
 70
     8
  0
VERTEX
  5
3053
330
3046
100
AcDbEntity
  8
APL Joinery
 62
     8
100
AcDbVertex
100
AcDb2dVertex
 10
97.4476185053291
 20
136.1319009242023
 30
0.0
 70
     8
  0
VERTEX
  5
3054
330
3046
100
AcDbEntity
  8
APL Joinery
 62
     8
100
AcDbVertex
100
AcDb2dVertex
 10
98.12608950490243
 20
135.177846475839
 30
0.0
 70
     8
  0
VERTEX
  5
3055
330
3046
100
AcDbEntity
  8
APL Joinery
 62
     8
100
AcDbVertex
100
AcDb2dVertex
 10
98.80268204340039
 20
134.3629758592367
 30
0.0
 70
     8
  0
VERTEX
  5
3056
330
3046
100
AcDbEntity
  8
APL Joinery
 62
     8
100
AcDbVertex
100
AcDb2dVertex
 10
99.49338211847493
 20
133.633672361604
 30
0.0
 70
     8
  0
VERTEX
  5
3057
330
3046
100
AcDbEntity
  8
APL Joinery
 62
     8
100
AcDbVertex
100
AcDb2dVertex
 10
100.2157220799208
 20
132.9423236611231
 30
0.0
 70
     8
  0
VERTEX
  5
3058
330
3046
100
AcDbEntity
  8
APL Joinery
 62
     8
100
AcDbVertex
100
AcDb2dVertex
 10
100.9934196861048
 20
132.2653349998684
 30
0.0
 70
     8
  0
VERTEX
  5
3059
330
3046
100
AcDbEntity
  8
APL Joinery
 62
     8
100
AcDbVertex
100
AcDb2dVertex
 10
101.8517390475363
 20
131.5851160108877
 30
0.0
 70
     8
  0
VERTEX
  5
305A
330
3046
100
AcDbEntity
  8
APL Joinery
 62
     8
100
AcDbVertex
100
AcDb2dVertex
 10
102.8159442747247
 20
130.8840763272287
 30
0.0
 70
     8
  0
VERTEX
  5
305B
330
3046
100
AcDbEntity
  8
APL Joinery
 62
     8
100
AcDbVertex
100
AcDb2dVertex
 10
103.9112994781797
 20
130.1446255819391
 30
0.0
 70
     8
  0
VERTEX
  5
305C
330
3046
100
AcDbEntity
  8
APL Joinery
 62
     8
100
AcDbVertex
100
AcDb2dVertex
 10
105.1630687684107
 20
129.3491734080666
 30
0.0
 70
     8
  0
VERTEX
  5
305D
330
3046
100
AcDbEntity
  8
APL Joinery
 62
     8
100
AcDbVertex
100
AcDb2dVertex
 10
106.5965162559271
 20
128.4801294386589
 30
0.0
 70
     8
  0
VERTEX
  5
305E
330
3046
100
AcDbEntity
  8
APL Joinery
 62
     8
100
AcDbVertex
100
AcDb2dVertex
 10
108.2369060512386
 20
127.5199033067638
 30
0.0
 70
     8
  0
VERTEX
  5
3049
330
3046
100
AcDbEntity
  8
APL Joinery
 62
     8
100
AcDbVertex
100
AcDb2dVertex
 10
96.06460643426281
 20
137.7312349648142
 30
0.0
 70
    16
  0
VERTEX
  5
304A
330
3046
100
AcDbEntity
  8
APL Joinery
 62
     8
100
AcDbVertex
100
AcDb2dVertex
 10
99.17238442003757
 20
133.2928680290329
 30
0.0
 70
    16
  0
VERTEX
  5
304B
330
3046
100
AcDbEntity
  8
APL Joinery
 62
     8
100
AcDbVertex
100
AcDb2dVertex
 10
103.5641531995617
 20
130.217718423536
 30
0.0
 70
    16
  0
VERTEX
  5
304C
330
3046
100
AcDbEntity
  8
APL Joinery
 62
     8
100
AcDbVertex
100
AcDb2dVertex
 10
108.2369060512386
 20
127.5199033067638
 30
0.0
 70
    16
  0
SEQEND
  5
304D
330
3046
100
AcDbEntity
  8
APL Joinery
 62
     8
  0
POLYLINE
  5
3047
330
1F
100
AcDbEntity
  8
APL Joinery
 62
     8
100
AcDb2dPolyline
 66
     1
 10
0.0
 20
0.0
 30
0.0
 70
     4
  0
VERTEX
  5
305F
330
3047
100
AcDbEntity
  8
APL Joinery
 62
     8
100
AcDbVertex
100
AcDb2dVertex
 10
81.69056977942545
 20
143.9057518602158
 30
0.0
 70
    16
  0
VERTEX
  5
3065
330
3047
100
AcDbEntity
  8
APL Joinery
 62
     8
100
AcDbVertex
100
AcDb2dVertex
 10
81.69056977942545
 20
143.9057518602158
 30
0.0
 70
     8
  0
VERTEX
  5
3066
330
3047
100
AcDbEntity
  8
APL Joinery
 62
     8
100
AcDbVertex
100
AcDb2dVertex
 10
83.37345479719868
 20
140.4294270454702
 30
0.0
 70
     8
  0
VERTEX
  5
3067
330
3047
100
AcDbEntity
  8
APL Joinery
 62
     8
100
AcDbVertex
100
AcDb2dVertex
 10
84.92752980974563
 20
137.4777546943289
 30
0.0
 70
     8
  0
VERTEX
  5
3068
330
3047
100
AcDbEntity
  8
APL Joinery
 62
     8
100
AcDbVertex
100
AcDb2dVertex
 10
86.37542923859571
 20
134.9769216502562
 30
0.0
 70
     8
  0
VERTEX
  5
3069
330
3047
100
AcDbEntity
  8
APL Joinery
 62
     8
100
AcDbVertex
100
AcDb2dVertex
 10
87.73978750527829
 20
132.8531147567165
 30
0.0
 70
     8
  0
VERTEX
  5
306A
330
3047
100
AcDbEntity
  8
APL Joinery
 62
     8
100
AcDbVertex
100
AcDb2dVertex
 10
89.04323903132276
 20
131.0325208571741
 30
0.0
 70
     8
  0
VERTEX
  5
306B
330
3047
100
AcDbEntity
  8
APL Joinery
 62
     8
100
AcDbVertex
100
AcDb2dVertex
 10
90.30841823825845
 20
129.4413267950933
 30
0.0
 70
     8
  0
VERTEX
  5
306C
330
3047
100
AcDbEntity
  8
APL Joinery
 62
     8
100
AcDbVertex
100
AcDb2dVertex
 10
91.55795954761478
 20
128.0057194139386
 30
0.0
 70
     8
  0
VERTEX
  5
306D
330
3047
100
AcDbEntity
  8
APL Joinery
 62
     8
100
AcDbVertex
100
AcDb2dVertex
 10
92.81449738092115
 20
126.6518855571742
 30
0.0
 70
     8
  0
VERTEX
  5
306E
330
3047
100
AcDbEntity
  8
APL Joinery
 62
     8
100
AcDbVertex
100
AcDb2dVertex
 10
94.10551577092155
 20
125.318761396652
 30
0.0
 70
     8
  0
VERTEX
  5
306F
330
3047
100
AcDbEntity
  8
APL Joinery
 62
     8
100
AcDbVertex
100
AcDb2dVertex
 10
95.4778971952188
 20
123.9962804177743
 30
0.0
 70
     8
  0
VERTEX
  5
3070
330
3047
100
AcDbEntity
  8
APL Joinery
 62
     8
100
AcDbVertex
100
AcDb2dVertex
 10
96.98337374263038
 20
122.6871254343306
 30
0.0
 70
     8
  0
VERTEX
  5
3071
330
3047
100
AcDbEntity
  8
APL Joinery
 62
     8
100
AcDbVertex
100
AcDb2dVertex
 10
98.67367750197372
 20
121.3939792601108
 30
0.0
 70
     8
  0
VERTEX
  5
3072
330
3047
100
AcDbEntity
  8
APL Joinery
 62
     8
100
AcDbVertex
100
AcDb2dVertex
 10
100.6005405620663
 20
120.1195247089046
 30
0.0
 70
     8
  0
VERTEX
  5
3073
330
3047
100
AcDbEntity
  8
APL Joinery
 62
     8
100
AcDbVertex
100
AcDb2dVertex
 10
102.8156950117256
 20
118.8664445945017
 30
0.0
 70
     8
  0
VERTEX
  5
3074
330
3047
100
AcDbEntity
  8
APL Joinery
 62
     8
100
AcDbVertex
100
AcDb2dVertex
 10
105.3708729397691
 20
117.6374217306917
 30
0.0
 70
     8
  0
VERTEX
  5
3075
330
3047
100
AcDbEntity
  8
APL Joinery
 62
     8
100
AcDbVertex
100
AcDb2dVertex
 10
108.3178064350142
 20
116.4351389312644
 30
0.0
 70
     8
  0
VERTEX
  5
3060
330
3047
100
AcDbEntity
  8
APL Joinery
 62
     8
100
AcDbVertex
100
AcDb2dVertex
 10
86.37012931959292
 20
133.8704040413901
 30
0.0
 70
    16
  0
VERTEX
  5
3061
330
3047
100
AcDbEntity
  8
APL Joinery
 62
     8
100
AcDbVertex
100
AcDb2dVertex
 10
92.49843396247445
 20
126.5669749667242
 30
0.0
 70
    16
  0
VERTEX
  5
3062
330
3047
100
AcDbEntity
  8
APL Joinery
 62
     8
100
AcDbVertex
100
AcDb2dVertex
 10
99.8909922791428
 20
119.6031882538582
 30
0.0
 70
    16
  0
VERTEX
  5
3063
330
3047
100
AcDbEntity
  8
APL Joinery
 62
     8
100
AcDbVertex
100
AcDb2dVertex
 10
108.3178064350142
 20
116.4351389312644
 30
0.0
 70
    16
  0
SEQEND
  5
3064
330
3047
100
AcDbEntity
  8
APL Joinery
 62
     8
  0
INSERT
  5
3135
330
1F
100
AcDbEntity
  8
APL Joinery
100
AcDbBlockReference
  2
07438Sightline
 10
309.3512008321026
 20
129.6310261823244
 30
0.0
  0
INSERT
  5
3137
330
1F
100
AcDbEntity
  8
APL Joinery
100
AcDbBlockReference
  2
07438Sightline
 10
309.3512008321026
 20
295.1287824877293
 30
0.0
 41
-1.0
 50
180.0
  0
SOLID
  5
318A
102
{ACAD_REACTORS
330
3192
102
}
330
1F
100
AcDbEntity
  8
APL Notes
100
AcDbTrace
 10
270.6657750736706
 20
265.1271797218007
 30
0.0
 11
273.2512008321024
 21
268.2512824877292
 31
0.0
 12
271.8187503360492
 22
264.4575336793865
 32
0.0
 13
271.8187503360492
 23
264.4575336793865
 33
0.0
1001
ACAD
1000
DSTYLE
1002
{
1070
    77
1070
     0
1002
}
  0
SOLID
  5
318C
102
{ACAD_REACTORS
330
3192
102
}
330
1F
100
AcDbEntity
  8
APL Notes
100
AcDbTrace
 10
-270.6657750736706
 20
159.6326289482529
 30
0.0
 11
-273.2512008321023
 21
156.5085261823244
 31
0.0
 12
-271.8187503360491
 22
160.3022749906671
 32
0.0
 13
-271.8187503360491
 23
160.3022749906671
 33
0.0
210
0.0
220
0.0
230
-1.0
1001
ACAD
1000
DSTYLE
1002
{
1070
     5
1000

1070
    77
1070
     0
1070
   147
1040
0.625
1002
}
  0
LINE
  5
318E
102
{ACAD_REACTORS
330
3192
102
}
330
1F
100
AcDbEntity
  8
APL Notes
100
AcDbLine
 10
271.2422627048598
 20
159.96745196946
 30
0.0
 11
240.801200832104
 21
212.3799043350268
 31
0.0
210
0.0
220
0.0
230
-1.0
1001
ACAD
1000
DSTYLE
1002
{
1070
     5
1000

1070
    77
1070
     0
1070
   147
1040
0.625
1002
}
  0
LINE
  5
318F
102
{ACAD_REACTORS
330
3192
102
}
330
1F
100
AcDbEntity
  8
APL Notes
100
AcDbLine
 10
240.801200832104
 20
212.3799043350268
 30
0.0
 11
236.801200832104
 21
212.3799043350268
 31
0.0
210
0.0
220
0.0
230
-1.0
1001
ACAD
1000
DSTYLE
1002
{
1070
     5
1000

1070
    77
1070
     0
1070
   147
1040
0.625
1002
}
  0
LINE
  5
3190
102
{ACAD_REACTORS
330
3192
102
}
330
1F
100
AcDbEntity
  8
APL Notes
100
AcDbLine
 10
271.2422627048599
 20
264.7923567005936
 30
0.0
 11
240.801200832104
 21
212.3799043350268
 31
0.0
1001
ACAD
1000
DSTYLE
1002
{
1070
    77
1070
     0
1002
}
  0
LWPOLYLINE
  5
3237
330
1F
100
AcDbEntity
  8
0
100
AcDbPolyline
 90
        4
 70
     1
 43
0.0
 10
353.9999991921495
 20
0.0000001108869583
 10
353.9999991921495
 20
482.0000001108869
 10
-0.0000008078504834
 20
482.0000001108869
 10
-0.0000008078504834
 20
0.0000001108869583
  0
LWPOLYLINE
  5
323B
330
1F
100
AcDbEntity
  8
APL Notes
  6
DASHED
 62
     7
 48
20.0
100
AcDbPolyline
 90
        3
 70
     0
 43
0.0
 10
135.9999991921495
 20
344.000000110887
 10
175.7999991921495
 20
415.5548552725666
 10
215.5999991921495
 20
344.000000110887
  0
INSERT
  5
32EB
330
1F
100
AcDbEntity
  8
APL Joinery
100
AcDbBlockReference
  2
07123Glaze
 10
309.3512008321026
 20
262.8737824877291
 30
0.0
 41
-1.0
 50
180.0
  0
LINE
  5
32EC
330
1F
100
AcDbEntity
  8
APL Joinery
 62
     7
100
AcDbLine
 10
276.8512008321025
 20
233.3860261823233
 30
0.0
 11
276.8512008321025
 21
223.3860261823234
 31
0.0
  0
LINE
  5
32ED
330
1F
100
AcDbEntity
  8
APL Joinery
 62
     7
100
AcDbLine
 10
282.8512008321025
 20
233.3860261823233
 30
0.0
 11
282.8512008321025
 21
223.3860261823234
 31
0.0
  0
LINE
  5
32EE
330
1F
100
AcDbEntity
  8
APL Joinery
 62
     8
100
AcDbLine
 10
280.8512008321025
 20
233.3860261823233
 30
0.0
 11
280.8512008321025
 21
223.3860261823234
 31
0.0
  0
LINE
  5
32EF
330
1F
100
AcDbEntity
  8
APL Joinery
 62
     8
100
AcDbLine
 10
278.8512008321025
 20
233.3860261823233
 30
0.0
 11
278.8512008321025
 21
223.3860261823234
 31
0.0
  0
LINE
  5
32F0
330
1F
100
AcDbEntity
  8
APL Joinery
 62
     7
100
AcDbLine
 10
294.8512008321026
 20
233.3860261823233
 30
0.0
 11
294.8512008321026
 21
223.3860261823234
 31
0.0
  0
LINE
  5
32F1
330
1F
100
AcDbEntity
  8
APL Joinery
 62
     7
100
AcDbLine
 10
300.8512008321026
 20
233.3860261823233
 30
0.0
 11
300.8512008321026
 21
223.3860261823234
 31
0.0
  0
LINE
  5
32F2
330
1F
100
AcDbEntity
  8
APL Joinery
 62
     8
100
AcDbLine
 10
298.8512008321026
 20
233.3860261823233
 30
0.0
 11
298.8512008321026
 21
223.3860261823234
 31
0.0
  0
LINE
  5
32F3
330
1F
100
AcDbEntity
  8
APL Joinery
 62
     8
100
AcDbLine
 10
296.8512008321026
 20
233.3860261823233
 30
0.0
 11
296.8512008321026
 21
223.3860261823234
 31
0.0
  0
INSERT
  5
332D
330
1F
100
AcDbEntity
  8
APL Joinery
100
AcDbBlockReference
  2
07123Glaze
 10
127.0601503078419
 20
55.54112321386384
 30
0.0
 50
270.0
  0
LINE
  5
332E
330
1F
100
AcDbEntity
  8
APL Joinery
 62
     7
100
AcDbLine
 10
156.5479066132477
 20
64.04112321386389
 30
0.0
 11
166.5479066132476
 21
64.04112321386389
 31
0.0
  0
LINE
  5
332F
330
1F
100
AcDbEntity
  8
APL Joinery
 62
     8
100
AcDbLine
 10
156.5479066132477
 20
66.0411232138639
 30
0.0
 11
166.5479066132476
 21
66.0411232138639
 31
0.0
  0
LINE
  5
3330
330
1F
100
AcDbEntity
  8
APL Joinery
 62
     8
100
AcDbLine
 10
156.5479066132477
 20
68.0411232138639
 30
0.0
 11
166.5479066132476
 21
68.0411232138639
 31
0.0
  0
LINE
  5
3331
330
1F
100
AcDbEntity
  8
APL Joinery
 62
     7
100
AcDbLine
 10
156.5479066132477
 20
70.0411232138639
 30
0.0
 11
166.5479066132476
 21
70.0411232138639
 31
0.0
  0
LINE
  5
3332
330
1F
100
AcDbEntity
  8
APL Joinery
 62
     7
100
AcDbLine
 10
187.673541558235
 20
82.04112321386389
 30
0.0
 11
177.673541558235
 21
82.04112321386389
 31
0.0
  0
LINE
  5
3333
330
1F
100
AcDbEntity
  8
APL Joinery
 62
     8
100
AcDbLine
 10
187.673541558235
 20
84.0411232138639
 30
0.0
 11
177.673541558235
 21
84.0411232138639
 31
0.0
  0
LINE
  5
3334
330
1F
100
AcDbEntity
  8
APL Joinery
 62
     8
100
AcDbLine
 10
187.673541558235
 20
86.0411232138639
 30
0.0
 11
177.673541558235
 21
86.0411232138639
 31
0.0
  0
LINE
  5
3335
330
1F
100
AcDbEntity
  8
APL Joinery
 62
     7
100
AcDbLine
 10
187.673541558235
 20
88.04112321386389
 30
0.0
 11
177.673541558235
 21
88.04112321386389
 31
0.0
  0
INSERT
  5
3336
330
1F
100
AcDbEntity
  8
APL Joinery
100
AcDbBlockReference
  2
07123Glaze
 10
217.1612978636408
 20
55.54112321386384
 30
0.0
 41
-1.0
 50
90.0
  0
LINE
  5
3337
330
1F
100
AcDbEntity
  8
APL Joinery
 62
     7
100
AcDbLine
 10
187.673541558235
 20
64.04112321386389
 30
0.0
 11
177.673541558235
 21
64.04112321386389
 31
0.0
  0
LINE
  5
3338
330
1F
100
AcDbEntity
  8
APL Joinery
 62
     8
100
AcDbLine
 10
187.673541558235
 20
66.0411232138639
 30
0.0
 11
177.673541558235
 21
66.0411232138639
 31
0.0
  0
LINE
  5
3339
330
1F
100
AcDbEntity
  8
APL Joinery
 62
     8
100
AcDbLine
 10
187.673541558235
 20
68.0411232138639
 30
0.0
 11
177.673541558235
 21
68.0411232138639
 31
0.0
  0
LINE
  5
333A
330
1F
100
AcDbEntity
  8
APL Joinery
 62
     7
100
AcDbLine
 10
187.673541558235
 20
70.0411232138639
 30
0.0
 11
177.673541558235
 21
70.0411232138639
 31
0.0
  0
INSERT
  5
3374
330
1F
100
AcDbEntity
  8
APL Joinery
100
AcDbBlockReference
  2
07123Glaze
 10
39.94107654092804
 20
120.3353142924131
 30
0.0
 41
-1.0
 50
4.999999999999822
  0
LWPOLYLINE
  5
34D0
330
1F
100
AcDbEntity
  8
APL Joinery
 62
     3
100
AcDbPolyline
 90
        5
 70
     1
 43
0.0
 10
114.2889371044169
 20
142.7176042309447
 42
0.4142135623731858
 10
109.2889371044185
 20
147.7176042309475
 10
76.77349800345599
 20
147.7176042309566
 10
79.78728073236158
 20
113.2699100104449
 10
114.288937104396
 20
113.2699100104264
  0
VIEWPORT
  5
308D
102
{ACAD_XDICTIONARY
360
3605
102
}
330
3086
100
AcDbEntity
 67
     1
  8
0
100
AcDbViewport
 10
111.5041107706152
 20
145.0146856936872
 30
0.0
 40
504.4533174094326
 41
299.2029704978584
 68
     1
 69
     1
 12
111.5041107706152
 22
145.0146856936872
 13
0.0
 23
0.0
 14
10.0
 24
10.0
 15
10.0
 25
10.0
 16
0.0
 26
0.0
 36
1.0
 17
0.0
 27
0.0
 37
0.0
 42
50.0
 43
0.0
 44
0.0
 45
299.2029704978584
 50
0.0
 51
0.0
 72
 20000
 90
    32800
  1

281
     0
 71
     1
 74
     0
110
0.0
120
0.0
130
0.0
111
1.0
121
0.0
131
0.0
112
0.0
122
1.0
132
0.0
 79
     0
146
0.0
  0
VIEWPORT
  5
308F
102
{ACAD_XDICTIONARY
360
3607
102
}
330
3086
100
AcDbEntity
 67
     1
  8
0
100
AcDbViewport
 10
112.19
 20
133.6899999999999
 30
0.0
 40
178.0
 41
241.9999999999999
 68
     2
 69
     2
 12
177.0000000163699
 22
241.0000012331306
 13
0.0
 23
0.0
 14
10.0
 24
10.0
 15
10.0
 25
10.0
 16
0.0
 26
0.0
 36
1.0
 17
0.0
 27
0.0
 37
0.0
 42
50.0
 43
0.0
 44
0.0
 45
483.9999999999998
 50
0.0
 51
0.0
 72
 20000
 90
    32864
  1

281
     0
 71
     1
 74
     0
110
0.0
120
0.0
130
0.0
111
1.0
121
0.0
131
0.0
112
0.0
122
1.0
132
0.0
 79
     0
146
0.0
  0
INSERT
  5
3095
330
3086
100
AcDbEntity
 67
     1
  8
APL Border
100
AcDbBlockReference
  2
smartwood a4 SM border
 10
11.59500000000003
 20
2.689999999999997
 30
0.0
  0
INSERT
  5
30C4
330
3086
100
AcDbEntity
 67
     1
  8
APL Border
100
AcDbBlockReference
 66
     1
  2
smartwood a4 SM attributes (2)
 10
11.59500000000003
 20
2.689999999999997
 30
0.0
  0
ATTRIB
  5
30C5
330
30C4
100
AcDbEntity
 67
     1
  8
APL Border
100
AcDbText
 10
62.19000000000005
 20
275.13
 30
0.0
 40
3.5
  1
BOX WINDOW
  7
Arial-Regular
100
AcDbAttribute
  2
DRAWINGTITLE_1
 70
     0
  0
ATTRIB
  5
30C6
330
30C4
100
AcDbEntity
 67
     1
  8
APL Border
100
AcDbText
 10
62.19000000000005
 20
269.63
 30
0.0
 40
3.5
  1
CROSS SECTION
  7
Arial-Regular
100
AcDbAttribute
  2
DRAWINGTITLE_2
 70
     0
  0
ATTRIB
  5
30C7
330
30C4
100
AcDbEntity
 67
     1
  8
APL Border
100
AcDbText
 10
77.19000000000005
 20
263.1803256579735
 30
0.0
 40
2.5
  1
SGH01-0
  7
Arial-Regular
100
AcDbAttribute
  2
VSAW01-0
 70
     0
  0
ATTRIB
  5
30C8
330
30C4
100
AcDbEntity
 67
     1
  8
APL Border
100
AcDbText
 10
107.94
 20
263.1803256579735
 30
0.0
 40
2.5
  1
1:2
  7
Arial-Regular
100
AcDbAttribute
  2
1:2
 70
     0
  0
ATTRIB
  5
30C9
330
30C4
100
AcDbEntity
 67
     1
  8
APL Border
100
AcDbText
 10
127.19
 20
263.1803256579735
 30
0.0
 40
2.5
  1
01.06.11
  7
Arial-Regular
100
AcDbAttribute
  2
20.09.02
 70
     0
  0
ATTRIB
  5
30CA
330
30C4
100
AcDbEntity
 67
     1
  8
APL Border
100
AcDbText
 10
23.19000000000006
 20
5.379999999999995
 30
0.0
 40
4.5
  1

  7
Arial-Regular
100
AcDbAttribute
  2
1.2.34
 70
     0
  0
ATTRIB
  5
30CB
330
30C4
100
AcDbEntity
 67
     1
  8
APL Border
100
AcDbText
 10
201.1900000000001
 20
5.379999999999995
 30
0.0
 40
4.5
  1

  7
Arial-Regular
 72
     2
 11
201.1900000000001
 21
5.379999999999995
 31
0.0
100
AcDbAttribute
  2
1.2.34
 70
     0
  0
SEQEND
  5
30CC
330
30C4
100
AcDbEntity
 67
     1
  8
APL Joinery
  0
ENDSEC
  0
SECTION
  2
OBJECTS
  0
DICTIONARY
  5
C
330
0
100
AcDbDictionary
281
     1
  3
ACAD_COLOR
350
31CA
  3
ACAD_GROUP
350
D
  3
ACAD_LAYOUT
350
1A
  3
ACAD_MATERIAL
350
31A0
  3
ACAD_MLEADERSTYLE
350
31EF
  3
ACAD_MLINESTYLE
350
17
  3
ACAD_PLOTSETTINGS
350
19
  3
ACAD_PLOTSTYLENAME
350
E
  3
ACAD_SCALELIST
350
31CD
  3
ACAD_TABLESTYLE
350
31CB
  3
ACAD_VISUALSTYLE
350
31B9
  3
AcadDim
350
275C
  3
ACDB_RECOMPOSE_DATA
350
328E
  3
ACDBHEADERROUNDTRIPXREC
350
370A
  3
AcDbVariableDictionary
350
3B
  3
DWGPROPS
350
3709
  0
DICTIONARY
  5
3290
330
8
100
AcDbDictionary
280
     1
281
     1
  3
ACAD_XREC_ROUNDTRIP
360
35F9
  0
DICTIONARY
  5
3223
330
2
100
AcDbDictionary
280
     1
281
     1
  3
ACAD_LAYERSTATES
360
3224
  0
DICTIONARY
  5
323D
330
10
100
AcDbDictionary
280
     1
281
     1
  3
ACAD_XREC_ROUNDTRIP
360
35FA
  3
ADSK_XREC_LAYER_RECONCILED
360
323E
  0
DICTIONARY
  5
323F
330
2B
100
AcDbDictionary
280
     1
281
     1
  3
ACAD_XREC_ROUNDTRIP
360
35FD
  3
ADSK_XREC_LAYER_RECONCILED
360
3240
  0
DICTIONARY
  5
3241
330
75
100
AcDbDictionary
280
     1
281
     1
  3
ACAD_XREC_ROUNDTRIP
360
35FE
  3
ADSK_XREC_LAYER_RECONCILED
360
3242
  0
DICTIONARY
  5
3243
330
2D06
100
AcDbDictionary
280
     1
281
     1
  3
ACAD_XREC_ROUNDTRIP
360
35FF
  3
ADSK_XREC_LAYER_RECONCILED
360
3244
  0
DICTIONARY
  5
3247
330
31F9
100
AcDbDictionary
280
     1
281
     1
  3
ACAD_XREC_ROUNDTRIP
360
360E
  3
ADSK_XREC_LAYER_RECONCILED
360
3248
  0
DICTIONARY
  5
3138
330
1F
100
AcDbDictionary
280
     1
281
     1
  3
ACAD_SORTENTS
360
3139
  0
DICTIONARY
  5
3678
330
2679
100
AcDbDictionary
280
     1
281
     1
  0
DICTIONARY
  5
367D
330
2683
100
AcDbDictionary
280
     1
281
     1
  0
DICTIONARY
  5
3698
330
26CC
100
AcDbDictionary
280
     1
281
     1
  0
DICTIONARY
  5
36A0
330
26FB
100
AcDbDictionary
280
     1
281
     1
  0
DICTIONARY
  5
36A4
330
2700
100
AcDbDictionary
280
     1
281
     1
  0
DICTIONARY
  5
36A9
330
2707
100
AcDbDictionary
280
     1
281
     1
  0
DICTIONARY
  5
36BC
330
2EB2
100
AcDbDictionary
280
     1
281
     1
  0
DICTIONARY
  5
36C0
330
2EB8
100
AcDbDictionary
280
     1
281
     1
  0
DICTIONARY
  5
3605
330
308D
100
AcDbDictionary
280
     1
281
     1
  3
ACAD_XREC_ROUNDTRIP
360
3606
  0
DICTIONARY
  5
3607
330
308F
100
AcDbDictionary
280
     1
281
     1
  3
ACAD_XREC_ROUNDTRIP
360
3608
  0
DICTIONARY
  5
31CA
102
{ACAD_REACTORS
330
C
102
}
330
C
100
AcDbDictionary
281
     1
  0
DICTIONARY
  5
D
102
{ACAD_REACTORS
330
C
102
}
330
C
100
AcDbDictionary
281
     1
  3
*A1
350
3192
  0
DICTIONARY
  5
1A
102
{ACAD_REACTORS
330
C
102
}
330
C
100
AcDbDictionary
281
     1
  3
Model
350
22
  3
Vantage A4
350
3087
  0
DICTIONARY
  5
31A0
102
{ACAD_REACTORS
330
C
102
}
330
C
100
AcDbDictionary
281
     1
  3
ByBlock
350
31A9
  3
ByLayer
350
31A1
  3
Global
350
31B1
  0
DICTIONARY
  5
31EF
102
{ACAD_REACTORS
330
C
102
}
330
C
100
AcDbDictionary
281
     1
  3
Standard
350
345C
  0
DICTIONARY
  5
17
102
{ACAD_REACTORS
330
C
102
}
330
C
100
AcDbDictionary
281
     1
  3
Standard
350
18
  0
DICTIONARY
  5
19
102
{ACAD_REACTORS
330
C
102
}
330
C
100
AcDbDictionary
281
     1
  3
A4 Specifier Manual Hardcopy
350
2E54
  3
A4 Specifier Manual PDF
350
2E55
  0
ACDBDICTIONARYWDFLT
  5
E
102
{ACAD_REACTORS
330
C
102
}
330
C
100
AcDbDictionary
281
     1
  3
Normal
350
F
100
AcDbDictionaryWithDefault
340
F
  0
DICTIONARY
  5
31CD
102
{ACAD_REACTORS
330
C
102
}
330
C
100
AcDbDictionary
281
     1
  3
A0
350
31CE
  3
A1
350
31CF
  3
A2
350
31D0
  3
A3
350
31D1
  3
A4
350
31D2
  3
A5
350
31D3
  3
A6
350
31D4
  3
A7
350
31D5
  3
A8
350
31D6
  3
A9
350
31D7
  3
B0
350
31D8
  3
B1
350
31D9
  3
B2
350
31DA
  3
B3
350
31DB
  3
B4
350
31DC
  3
B5
350
31DD
  3
B6
350
31DE
  3
B7
350
31DF
  3
B8
350
31E0
  3
B9
350
31E1
  3
C0
350
31E2
  3
C1
350
31E3
  3
C2
350
31E4
  3
C3
350
31E5
  3
C4
350
31E6
  3
C5
350
31E7
  3
C6
350
31E8
  3
C7
350
31E9
  3
C8
350
31EA
  3
C9
350
31EB
  3
D0
350
31EC
  3
D1
350
31ED
  3
D2
350
31EE
  0
DICTIONARY
  5
31CB
102
{ACAD_REACTORS
330
C
102
}
330
C
100
AcDbDictionary
281
     1
  3
Standard
350
31CC
  0
DICTIONARY
  5
31B9
102
{ACAD_REACTORS
330
C
102
}
330
C
100
AcDbDictionary
281
     1
  3
2dWireframe
350
31BF
  3
3D Hidden
350
31C1
  3
3dWireframe
350
31C0
  3
Basic
350
31BE
  3
Brighten
350
31C5
  3
ColorChange
350
31C9
  3
Conceptual
350
31C2
  3
Dim
350
31C4
  3
Facepattern
350
31C8
  3
Flat
350
31BA
  3
FlatWithEdges
350
31BB
  3
Gouraud
350
31BC
  3
GouraudWithEdges
350
31BD
  3
Linepattern
350
31C7
  3
Realistic
350
31C3
  3
Thicken
350
31C6
  0
XRECORD
  5
275C
102
{ACAD_REACTORS
330
C
102
}
330
C
100
AcDbXrecord
280
     1
 90
   990106
  3

 60
     0
 61
     0
 62
     1
 63
     3
 64
     0
 65
     0
 66
     0
 67
     3
 68
     1
 69
     0
 70
     0
 71
     0
 72
     0
 40
8.188652110585962
170
     0
  0
XRECORD
  5
328E
102
{ACAD_REACTORS
330
C
102
}
330
C
100
AcDbXrecord
280
     1
 90
        1
330
31CC
  0
DICTIONARY
  5
370A
102
{ACAD_REACTORS
330
C
102
}
330
C
100
AcDbDictionary
281
     1
  0
DICTIONARY
  5
3B
102
{ACAD_REACTORS
330
C
102
}
330
C
100
AcDbDictionary
281
     1
  3
CANNOSCALE
350
32D2
  3
CMLEADERSTYLE
350
32D1
  3
CTABLESTYLE
350
32D0
  3
DIMASSOC
350
3D
  3
HIDETEXT
350
3C
  3
INDEXCTL
350
32D3
  3
PROJECTNAME
350
3507
  3
SORTENTS
350
313B
  0
XRECORD
  5
3709
102
{ACAD_REACTORS
330
C
102
}
330
C
100
AcDbXrecord
280
     1
  1
DWGPROPS COOKIE
  2

  3

  4

  6

  7

  8
homer
  9

300
=
301
=
302
=
303
=
304
=
305
=
306
=
307
=
308
=
309
=
 40
0.3822160300925926
 41
2452283.468413125
 42
2455812.471543299
  1

 90
        0
  0
XRECORD
  5
35F9
102
{ACAD_REACTORS
330
3290
102
}
330
3290
100
AcDbXrecord
280
     1
102
VTR_0.000_0.000_1.000_1.000_VISUALSTYLE
340
31BF
102
VTR_0.000_0.000_1.000_1.000_GRIDDISPLAY
 70
     3
102
VTR_0.000_0.000_1.000_1.000_GRIDMAJOR
 70
     5
102
VTR_0.000_0.000_1.000_1.000_DEFAULTLIGHTING
280
     1
102
VTR_0.000_0.000_1.000_1.000_DEFAULTLIGHTINGTYPE
 70
     1
102
VTR_0.000_0.000_1.000_1.000_BRIGHTNESS
141
0.0
102
VTR_0.000_0.000_1.000_1.000_CONTRAST
142
0.0
  0
DICTIONARY
  5
3224
102
{ACAD_REACTORS
330
3223
102
}
330
3223
100
AcDbDictionary
281
     1
  0
XRECORD
  5
35FA
102
{ACAD_REACTORS
330
323D
102
}
330
323D
100
AcDbXrecord
280
     1
102
MATERIAL
340
31B1
  0
XRECORD
  5
323E
102
{ACAD_REACTORS
330
323D
102
}
330
323D
100
AcDbXrecord
280
     1
290
     1
  0
XRECORD
  5
35FD
102
{ACAD_REACTORS
330
323F
102
}
330
323F
100
AcDbXrecord
280
     1
102
MATERIAL
340
31B1
  0
XRECORD
  5
3240
102
{ACAD_REACTORS
330
323F
102
}
330
323F
100
AcDbXrecord
280
     1
290
     1
  0
XRECORD
  5
35FE
102
{ACAD_REACTORS
330
3241
102
}
330
3241
100
AcDbXrecord
280
     1
102
MATERIAL
340
31B1
  0
XRECORD
  5
3242
102
{ACAD_REACTORS
330
3241
102
}
330
3241
100
AcDbXrecord
280
     1
290
     1
  0
XRECORD
  5
35FF
102
{ACAD_REACTORS
330
3243
102
}
330
3243
100
AcDbXrecord
280
     1
102
MATERIAL
340
31B1
  0
XRECORD
  5
3244
102
{ACAD_REACTORS
330
3243
102
}
330
3243
100
AcDbXrecord
280
     1
290
     1
  0
XRECORD
  5
360E
102
{ACAD_REACTORS
330
3247
102
}
330
3247
100
AcDbXrecord
280
     1
102
MATERIAL
340
31B1
  0
XRECORD
  5
3248
102
{ACAD_REACTORS
330
3247
102
}
330
3247
100
AcDbXrecord
280
     1
290
     1
  0
SORTENTSTABLE
  5
3139
102
{ACAD_REACTORS
330
3138
102
}
330
3138
100
AcDbSortentsTable
330
1F
331
2F7A
  5
2F7C
331
2F13
  5
2F16
331
2FC1
  5
2FD1
331
3331
  5
3374
331
3339
  5
34D2
331
3135
  5
32EE
331
2FD1
  5
3041
331
2CB4
  5
2CC8
331
273D
  5
274D
331
2F53
  5
2F5A
331
2FA2
  5
2FA8
331
274D
  5
2751
331
2FAA
  5
2FAC
331
2FB2
  5
2FB4
331
32F2
  5
3335
331
2FBA
  5
2FBE
331
2F73
  5
2F77
331
323B
  5
2FBB
331
2F14
  5
2F17
331
2F7B
  5
2F84
331
3332
  5
34B3
331
2736
  5
273A
331
2CAD
  5
2CC6
331
333A
  5
34D3
331
26FF
  5
270D
331
273E
  5
274F
331
2F93
  5
2F95
331
2682
  5
26CA
331
2FA3
  5
2FAA
331
318E
  5
32F2
331
2FAB
  5
2FAD
331
32EB
  5
332E
331
2FB3
  5
2FB5
331
32F3
  5
3336
331
2FBB
  5
2FBF
331
2F7C
  5
2F87
331
2F15
  5
2F18
331
3333
  5
34B4
331
2F84
  5
2F90
331
26F8
  5
2706
331
2737
  5
273B
331
3137
  5
32EF
331
2F94
  5
2F96
331
273F
  5
2750
331
2F9C
  5
2F9E
331
2F5D
  5
2F5F
331
274F
  5
2759
331
318F
  5
32F3
331
2FAC
  5
2FAE
331
32EC
  5
332F
331
2EBE
  5
2F13
331
2F6D
  5
2F71
331
2FBC
  5
2FC0
331
2F16
  5
2F34
331
3334
  5
34B5
331
2738
  5
273D
331
2F95
  5
2F97
331
2F9D
  5
2F9F
331
3374
  5
34D4
331
2F5E
  5
2F60
331
2750
  5
2C94
331
3190
  5
332D
331
2FAD
  5
2FAF
331
2EB7
  5
2F12
331
2719
  5
2738
331
2F6E
  5
2F73
331
32ED
  5
3330
331
2F76
  5
2F78
331
2FBD
  5
2FC1
331
332D
  5
3337
331
267D
  5
26C5
331
2CA0
  5
2CB4
331
2CA8
  5
2CC5
331
2F17
  5
2F51
331
2FCD
  5
2FE6
331
2739
  5
273E
331
3335
  5
34B6
331
2F96
  5
2F9C
331
2F9E
  5
2FA1
331
2F5F
  5
2F61
331
2751
  5
2CA0
331
2FAE
  5
2FB0
331
2759
  5
2CA8
331
32EE
  5
3331
331
2FBE
  5
2FCD
331
2F77
  5
2F79
331
3237
  5
262B
331
332E
  5
3338
331
2F18
  5
2F52
331
2FCE
  5
303F
331
273A
  5
273F
331
2F87
  5
2F91
331
3336
  5
34B7
331
2F97
  5
2F9D
331
2F9F
  5
2FA2
331
2FE6
  5
3046
331
2F60
  5
2F62
331
2713
  5
2737
331
318A
  5
32F0
331
2FAF
  5
2FB1
331
3046
  5
318C
331
32EF
  5
3332
331
2FBF
  5
2FCE
331
332F
  5
3339
331
2F78
  5
2F7A
331
2F11
  5
2F14
331
2733
  5
2739
331
2F90
  5
2F93
331
2F51
  5
2F53
331
273B
  5
274C
331
3337
  5
34D0
331
2704
  5
2713
331
2F59
  5
2F5B
331
2FA8
  5
2FAB
331
2F61
  5
2F6D
331
2FB0
  5
2FB2
331
303F
  5
3077
331
32F0
  5
3333
331
2FB8
  5
2FBC
331
2F71
  5
2F76
331
3047
  5
318E
331
2FC0
  5
2FD0
331
2F12
  5
2F15
331
2F79
  5
2F7B
331
3330
  5
333A
331
3338
  5
34D1
331
2FD0
  5
3040
331
2F52
  5
2F59
331
2F91
  5
2F94
331
2FA1
  5
2FA3
331
318C
  5
32F1
331
2F62
  5
2F6E
331
2FB1
  5
2FB3
331
32F1
  5
3334
331
34D0
  5
32ED
331
2C94
  5
2CAD
331
2FB9
  5
2FBD
  0
XRECORD
  5
3606
102
{ACAD_REACTORS
330
3605
102
}
330
3605
100
AcDbXrecord
280
     1
102
VISUALSTYLE
340
31BF
102
GRIDDISPLAY
 70
     0
102
GRIDMAJOR
 70
     5
102
DEFAULTLIGHTING
280
     1
102
DEFAULTLIGHTINGTYPE
 70
     1
102
BRIGHTNESS
141
0.0
102
CONTRAST
142
0.0
102
SHADEPLOT
 70
     0
  0
XRECORD
  5
3608
102
{ACAD_REACTORS
330
3607
102
}
330
3607
100
AcDbXrecord
280
     1
102
VISUALSTYLE
340
31BF
102
GRIDDISPLAY
 70
     0
102
GRIDMAJOR
 70
     5
102
DEFAULTLIGHTING
280
     1
102
DEFAULTLIGHTINGTYPE
 70
     1
102
BRIGHTNESS
141
0.0
102
CONTRAST
142
0.0
102
SHADEPLOT
 70
     0
  0
GROUP
  5
3192
102
{ACAD_REACTORS
330
D
102
}
330
D
100
AcDbGroup
300

 70
     1
 71
     1
340
3190
340
318F
340
318E
340
318C
340
318A
  0
LAYOUT
  5
22
102
{ACAD_XDICTIONARY
360
370B
102
}
102
{ACAD_REACTORS
330
1A
102
}
330
1A
100
AcDbPlotSettings
  1

  2
\\APL01\HP LaserJet 4MV
  4
A4
  6

 40
6.043083190917968
 41
6.720414161682128
 42
7.821090698242187
 43
5.027069091796875
 44
210.0579986572266
 45
296.9259948730469
 46
0.0
 47
0.0
 48
55.19893561856474
 49
77.41415496436935
140
329.6878846931311
141
251.7976535946928
142
1.0
143
1.0
 70
 11936
 72
     1
 73
     1
 74
     4
  7

 75
     0
147
1.0
148
-55.19893561856474
149
-77.41415496436935
100
AcDbLayout
  1
Model
 70
     1
 71
     0
 10
0.0
 20
0.0
 11
12.0
 21
9.0
 12
0.0
 22
0.0
 32
0.0
 14
0.0
 24
0.0
 34
0.0
 15
0.0
 25
0.0
 35
0.0
146
0.0
 13
0.0
 23
0.0
 33
0.0
 16
1.0
 26
0.0
 36
0.0
 17
0.0
 27
1.0
 37
0.0
 76
     0
330
1F
  0
LAYOUT
  5
3087
102
{ACAD_XDICTIONARY
360
3228
102
}
102
{ACAD_REACTORS
330
1A
102
}
330
1A
100
AcDbPlotSettings
  1

  2
\\Aplfp01\APL Technical HP5100 PSLaser
  4
A4
  6

 40
5.027082920074462
 41
5.408084392547607
 42
5.70440673828125
 43
5.365753173828125
 44
209.8886566162109
 45
297.0530090332031
 46
0.0
 47
0.0
 48
0.0
 49
0.0
140
0.0
141
0.0
142
1.0
143
1.0
 70
   688
 72
     1
 73
     0
 74
     5
  7
A4 Specifier Manual.ctb
 75
    16
147
1.0
148
-11.58686538258416
149
-1.896265569633328
100
AcDbLayout
  1
Vantage A4
 70
     1
 71
     1
 10
6.559782462509701
 20
-3.511818822914278
 11
216.4484390787206
 21
293.5411902102888
 12
0.0
 22
0.0
 32
0.0
 14
23.17511424685756
 24
4.592594417081727
 34
-0.0015258207003583
 15
201.1942331369429
 25
279.5669717259624
 35
0.0000000349246037
146
0.0
 13
0.0
 23
0.0
 33
0.0
 16
1.0
 26
0.0
 36
0.0
 17
0.0
 27
1.0
 37
0.0
 76
     0
330
3086
331
308D
1001
ACAD_PSEXT
1000
\\Aplfp01\APL Technical HP5100 PSLaser
1000
HP LaserJet 5100 PS
1000
APL Technical Office
1000

1070
     0
  0
MATERIAL
  5
31A9
102
{ACAD_XDICTIONARY
360
31AA
102
}
102
{ACAD_REACTORS
330
31A0
102
}
330
31A0
100
AcDbMaterial
  1
ByBlock
 72
     0
 73
     2
 43
0.0008202099737533
 43
0.0
 43
0.0
 43
0.0
 43
0.0
 43
0.0008202099737533
 43
0.0
 43
0.0
 43
0.0
 43
0.0
 43
1.0
 43
0.0
 43
0.0
 43
0.0
 43
0.0
 43
1.0
 77
     0
 78
     2
 47
0.0008202099737533
 47
0.0
 47
0.0
 47
0.0
 47
0.0
 47
0.0008202099737533
 47
0.0
 47
0.0
 47
0.0
 47
0.0
 47
1.0
 47
0.0
 47
0.0
 47
0.0
 47
0.0
 47
1.0
171
     0
172
     2
 49
0.0008202099737533
 49
0.0
 49
0.0
 49
0.0
 49
0.0
 49
0.0008202099737533
 49
0.0
 49
0.0
 49
0.0
 49
0.0
 49
1.0
 49
0.0
 49
0.0
 49
0.0
 49
0.0
 49
1.0
175
     0
176
     2
142
0.0008202099737533
142
0.0
142
0.0
142
0.0
142
0.0
142
0.0008202099737533
142
0.0
142
0.0
142
0.0
142
0.0
142
1.0
142
0.0
142
0.0
142
0.0
142
0.0
142
1.0
179
     0
270
     2
144
0.0008202099737533
144
0.0
144
0.0
144
0.0
144
0.0
144
0.0008202099737533
144
0.0
144
0.0
144
0.0
144
0.0
144
1.0
144
0.0
144
0.0
144
0.0
144
0.0
144
1.0
274
     2
147
0.0008202099737533
147
0.0
147
0.0
147
0.0
147
0.0
147
0.0008202099737533
147
0.0
147
0.0
147
0.0
147
0.0
147
1.0
147
0.0
147
0.0
147
0.0
147
0.0
147
1.0
  0
MATERIAL
  5
31A1
102
{ACAD_XDICTIONARY
360
31A2
102
}
102
{ACAD_REACTORS
330
31A0
102
}
330
31A0
100
AcDbMaterial
  1
ByLayer
 72
     0
 73
     2
 43
0.0008202099737533
 43
0.0
 43
0.0
 43
0.0
 43
0.0
 43
0.0008202099737533
 43
0.0
 43
0.0
 43
0.0
 43
0.0
 43
1.0
 43
0.0
 43
0.0
 43
0.0
 43
0.0
 43
1.0
 77
     0
 78
     2
 47
0.0008202099737533
 47
0.0
 47
0.0
 47
0.0
 47
0.0
 47
0.0008202099737533
 47
0.0
 47
0.0
 47
0.0
 47
0.0
 47
1.0
 47
0.0
 47
0.0
 47
0.0
 47
0.0
 47
1.0
171
     0
172
     2
 49
0.0008202099737533
 49
0.0
 49
0.0
 49
0.0
 49
0.0
 49
0.0008202099737533
 49
0.0
 49
0.0
 49
0.0
 49
0.0
 49
1.0
 49
0.0
 49
0.0
 49
0.0
 49
0.0
 49
1.0
175
     0
176
     2
142
0.0008202099737533
142
0.0
142
0.0
142
0.0
142
0.0
142
0.0008202099737533
142
0.0
142
0.0
142
0.0
142
0.0
142
1.0
142
0.0
142
0.0
142
0.0
142
0.0
142
1.0
179
     0
270
     2
144
0.0008202099737533
144
0.0
144
0.0
144
0.0
144
0.0
144
0.0008202099737533
144
0.0
144
0.0
144
0.0
144
0.0
144
1.0
144
0.0
144
0.0
144
0.0
144
0.0
144
1.0
274
     2
147
0.0008202099737533
147
0.0
147
0.0
147
0.0
147
0.0
147
0.0008202099737533
147
0.0
147
0.0
147
0.0
147
0.0
147
1.0
147
0.0
147
0.0
147
0.0
147
0.0
147
1.0
  0
MATERIAL
  5
31B1
102
{ACAD_XDICTIONARY
360
31B2
102
}
102
{ACAD_REACTORS
330
31A0
102
}
330
31A0
100
AcDbMaterial
  1
Global
 72
     0
 73
     2
 43
0.0008202099737533
 43
0.0
 43
0.0
 43
0.0
 43
0.0
 43
0.0008202099737533
 43
0.0
 43
0.0
 43
0.0
 43
0.0
 43
1.0
 43
0.0
 43
0.0
 43
0.0
 43
0.0
 43
1.0
 77
     0
 78
     2
 47
0.0008202099737533
 47
0.0
 47
0.0
 47
0.0
 47
0.0
 47
0.0008202099737533
 47
0.0
 47
0.0
 47
0.0
 47
0.0
 47
1.0
 47
0.0
 47
0.0
 47
0.0
 47
0.0
 47
1.0
171
     0
172
     2
 49
0.0008202099737533
 49
0.0
 49
0.0
 49
0.0
 49
0.0
 49
0.0008202099737533
 49
0.0
 49
0.0
 49
0.0
 49
0.0
 49
1.0
 49
0.0
 49
0.0
 49
0.0
 49
0.0
 49
1.0
175
     0
176
     2
142
0.0008202099737533
142
0.0
142
0.0
142
0.0
142
0.0
142
0.0008202099737533
142
0.0
142
0.0
142
0.0
142
0.0
142
1.0
142
0.0
142
0.0
142
0.0
142
0.0
142
1.0
179
     0
270
     2
144
0.0008202099737533
144
0.0
144
0.0
144
0.0
144
0.0
144
0.0008202099737533
144
0.0
144
0.0
144
0.0
144
0.0
144
1.0
144
0.0
144
0.0
144
0.0
144
0.0
144
1.0
274
     2
147
0.0008202099737533
147
0.0
147
0.0
147
0.0
147
0.0
147
0.0008202099737533
147
0.0
147
0.0
147
0.0
147
0.0
147
1.0
147
0.0
147
0.0
147
0.0
147
0.0
147
1.0
  0
ACAD_PROXY_OBJECT
  5
345C
102
{ACAD_REACTORS
330
31EF
102
}
330
31EF
100
AcDbProxyObject
 90
      499
 91
      511
 95
   983063
 70
     0
 93
      618
310
40901902A4063FBFFFFFE000000000000002040AD7A3703D0AD73F4254DD185B99185C99000000000000000104090141901A00000000000004100000000000000041025764000000000000300FC0
340
14
340
0
340
11
340
0
 94
        0
1001
ACAD_MLEADERVER
1070
     2
1001
ACAD
1000
AcRTDxfName
1000
MLEADERSTYLE
1000
AcRTDxfName
1000
MLEADERSTYLE
1000
AcRTDxfName
1000
MLEADERSTYLE
1000
AcRTDxfName
1000
MLEADERSTYLE
1000
AcRTDxfName
1000
MLEADERSTYLE
1000
AcRTDxfName
1000
MLEADERSTYLE
  0
MLINESTYLE
  5
18
102
{ACAD_REACTORS
330
17
102
}
330
17
100
AcDbMlineStyle
  2
STANDARD
 70
     0
  3

 62
   256
 51
90.0
 52
90.0
 71
     2
 49
0.5
 62
   256
  6
BYLAYER
 49
-0.5
 62
   256
  6
BYLAYER
  0
PLOTSETTINGS
  5
2E54
102
{ACAD_XDICTIONARY
360
370D
102
}
102
{ACAD_REACTORS
330
19
102
}
330
19
100
AcDbPlotSettings
  1
A4 Specifier Manual Hardcopy
  2
A4 Specifier Manual.pc3
  4
A4
  6

 40
6.0
 41
5.0
 42
6.97332763671875
 43
5.96832275390625
 44
209.9733276367187
 45
296.9683227539062
 46
10.5
 47
-1.0
 48
55.19893561856474
 49
77.41415496436935
140
329.6878846931311
141
251.7976535946928
142
1.0
143
2.0
 70
  1712
 72
     1
 73
     0
 74
     1
  7
A4 specifier manual.ctb
 75
    17
147
0.5
148
2.225667800726114
149
26.13925412475783
  0
PLOTSETTINGS
  5
2E55
102
{ACAD_XDICTIONARY
360
370F
102
}
102
{ACAD_REACTORS
330
19
102
}
330
19
100
AcDbPlotSettings
  1
A4 Specifier Manual PDF
  2
Acrobat Distiller.pc3
  4
A4
  6

 40
3.174999952316284
 41
3.174999952316284
 42
3.175003051757812
 43
3.17498779296875
 44
209.9098358154297
 45
297.0318298339844
 46
12.0
 47
3.0
 48
55.19893561856474
 49
77.41415496436935
140
329.6878846931311
141
251.7976535946928
142
1.0
143
2.0
 70
  1712
 72
     1
 73
     0
 74
     1
  7
A4 Specifier Manual.ctb
 75
    17
147
0.5
148
2.231438335389952
149
26.15846035871732
  0
ACDBPLACEHOLDER
  5
F
102
{ACAD_REACTORS
330
E
102
}
330
E
  0
ACAD_PROXY_OBJECT
  5
31CE
102
{ACAD_REACTORS
330
31CD
102
}
330
31CD
100
AcDbProxyObject
 90
      499
 91
      510
 95
   983063
 70
     0
 93
       49
310
904313A3100580
 94
        0
1001
ACAD
1000
AcRTDxfName
1000
SCALE
1000
AcRTDxfName
1000
SCALE
1000
AcRTDxfName
1000
SCALE
1000
AcRTDxfName
1000
SCALE
1000
AcRTDxfName
1000
SCALE
1000
AcRTDxfName
1000
SCALE
  0
ACAD_PROXY_OBJECT
  5
31CF
102
{ACAD_REACTORS
330
31CD
102
}
330
31CD
100
AcDbProxyObject
 90
      499
 91
      510
 95
   983063
 70
     0
 93
      113
310
904313A32004000000000000004040
 94
        0
1001
ACAD
1000
AcRTDxfName
1000
SCALE
1000
AcRTDxfName
1000
SCALE
1000
AcRTDxfName
1000
SCALE
1000
AcRTDxfName
1000
SCALE
1000
AcRTDxfName
1000
SCALE
1000
AcRTDxfName
1000
SCALE
  0
ACAD_PROXY_OBJECT
  5
31D0
102
{ACAD_REACTORS
330
31CD
102
}
330
31CD
100
AcDbProxyObject
 90
      499
 91
      510
 95
   983063
 70
     0
 93
      113
310
904313A34004000000000000104040
 94
        0
1001
ACAD
1000
AcRTDxfName
1000
SCALE
1000
AcRTDxfName
1000
SCALE
1000
AcRTDxfName
1000
SCALE
1000
AcRTDxfName
1000
SCALE
1000
AcRTDxfName
1000
SCALE
1000
AcRTDxfName
1000
SCALE
  0
ACAD_PROXY_OBJECT
  5
31D1
102
{ACAD_REACTORS
330
31CD
102
}
330
31CD
100
AcDbProxyObject
 90
      499
 91
      510
 95
   983063
 70
     0
 93
      113
310
904313A35004000000000000144040
 94
        0
1001
ACAD
1000
AcRTDxfName
1000
SCALE
1000
AcRTDxfName
1000
SCALE
1000
AcRTDxfName
1000
SCALE
1000
AcRTDxfName
1000
SCALE
1000
AcRTDxfName
1000
SCALE
1000
AcRTDxfName
1000
SCALE
  0
ACAD_PROXY_OBJECT
  5
31D2
102
{ACAD_REACTORS
330
31CD
102
}
330
31CD
100
AcDbProxyObject
 90
      499
 91
      510
 95
   983063
 70
     0
 93
      113
310
904313A38004000000000000204040
 94
        0
1001
ACAD
1000
AcRTDxfName
1000
SCALE
1000
AcRTDxfName
1000
SCALE
1000
AcRTDxfName
1000
SCALE
1000
AcRTDxfName
1000
SCALE
1000
AcRTDxfName
1000
SCALE
1000
AcRTDxfName
1000
SCALE
  0
ACAD_PROXY_OBJECT
  5
31D3
102
{ACAD_REACTORS
330
31CD
102
}
330
31CD
100
AcDbProxyObject
 90
      499
 91
      510
 95
   983063
 70
     0
 93
      121
310
905313A3130004000000000000244001
 94
        0
1001
ACAD
1000
AcRTDxfName
1000
SCALE
1000
AcRTDxfName
1000
SCALE
1000
AcRTDxfName
1000
SCALE
1000
AcRTDxfName
1000
SCALE
1000
AcRTDxfName
1000
SCALE
1000
AcRTDxfName
1000
SCALE
  0
ACAD_PROXY_OBJECT
  5
31D4
102
{ACAD_REACTORS
330
31CD
102
}
330
31CD
100
AcDbProxyObject
 90
      499
 91
      510
 95
   983063
 70
     0
 93
      121
310
905313A3136004000000000000304000
 94
        0
1001
ACAD
1000
AcRTDxfName
1000
SCALE
1000
AcRTDxfName
1000
SCALE
1000
AcRTDxfName
1000
SCALE
1000
AcRTDxfName
1000
SCALE
1000
AcRTDxfName
1000
SCALE
1000
AcRTDxfName
1000
SCALE
  0
ACAD_PROXY_OBJECT
  5
31D5
102
{ACAD_REACTORS
330
31CD
102
}
330
31CD
100
AcDbProxyObject
 90
      499
 91
      510
 95
   983063
 70
     0
 93
      121
310
905313A3230004000000000000344000
 94
        0
1001
ACAD
1000
AcRTDxfName
1000
SCALE
1000
AcRTDxfName
1000
SCALE
1000
AcRTDxfName
1000
SCALE
1000
AcRTDxfName
1000
SCALE
1000
AcRTDxfName
1000
SCALE
1000
AcRTDxfName
1000
SCALE
  0
ACAD_PROXY_OBJECT
  5
31D6
102
{ACAD_REACTORS
330
31CD
102
}
330
31CD
100
AcDbProxyObject
 90
      499
 91
      510
 95
   983063
 70
     0
 93
      121
310
905313A33300040000000000003E4040
 94
        0
1001
ACAD
1000
AcRTDxfName
1000
SCALE
1000
AcRTDxfName
1000
SCALE
1000
AcRTDxfName
1000
SCALE
1000
AcRTDxfName
1000
SCALE
1000
AcRTDxfName
1000
SCALE
1000
AcRTDxfName
1000
SCALE
  0
ACAD_PROXY_OBJECT
  5
31D7
102
{ACAD_REACTORS
330
31CD
102
}
330
31CD
100
AcDbProxyObject
 90
      499
 91
      510
 95
   983063
 70
     0
 93
      121
310
905313A3430004000000000000444000
 94
        0
1001
ACAD
1000
AcRTDxfName
1000
SCALE
1000
AcRTDxfName
1000
SCALE
1000
AcRTDxfName
1000
SCALE
1000
AcRTDxfName
1000
SCALE
1000
AcRTDxfName
1000
SCALE
1000
AcRTDxfName
1000
SCALE
  0
ACAD_PROXY_OBJECT
  5
31D8
102
{ACAD_REACTORS
330
31CD
102
}
330
31CD
100
AcDbProxyObject
 90
      499
 91
      510
 95
   983063
 70
     0
 93
      121
310
905313A3530004000000000000494001
 94
        0
1001
ACAD
1000
AcRTDxfName
1000
SCALE
1000
AcRTDxfName
1000
SCALE
1000
AcRTDxfName
1000
SCALE
1000
AcRTDxfName
1000
SCALE
1000
AcRTDxfName
1000
SCALE
1000
AcRTDxfName
1000
SCALE
  0
ACAD_PROXY_OBJECT
  5
31D9
102
{ACAD_REACTORS
330
31CD
102
}
330
31CD
100
AcDbProxyObject
 90
      499
 91
      510
 95
   983063
 70
     0
 93
      129
310
906313A313030004000000000000594000
 94
        0
1001
ACAD
1000
AcRTDxfName
1000
SCALE
1000
AcRTDxfName
1000
SCALE
1000
AcRTDxfName
1000
SCALE
1000
AcRTDxfName
1000
SCALE
1000
AcRTDxfName
1000
SCALE
1000
AcRTDxfName
1000
SCALE
  0
ACAD_PROXY_OBJECT
  5
31DA
102
{ACAD_REACTORS
330
31CD
102
}
330
31CD
100
AcDbProxyObject
 90
      499
 91
      510
 95
   983063
 70
     0
 93
      113
310
904323A31000000000000000010165
 94
        0
1001
ACAD
1000
AcRTDxfName
1000
SCALE
1000
AcRTDxfName
1000
SCALE
1000
AcRTDxfName
1000
SCALE
1000
AcRTDxfName
1000
SCALE
1000
AcRTDxfName
1000
SCALE
1000
AcRTDxfName
1000
SCALE
  0
ACAD_PROXY_OBJECT
  5
31DB
102
{ACAD_REACTORS
330
31CD
102
}
330
31CD
100
AcDbProxyObject
 90
      499
 91
      510
 95
   983063
 70
     0
 93
      113
310
904343A31000000000000000410101
 94
        0
1001
ACAD
1000
AcRTDxfName
1000
SCALE
1000
AcRTDxfName
1000
SCALE
1000
AcRTDxfName
1000
SCALE
1000
AcRTDxfName
1000
SCALE
1000
AcRTDxfName
1000
SCALE
1000
AcRTDxfName
1000
SCALE
  0
ACAD_PROXY_OBJECT
  5
31DC
102
{ACAD_REACTORS
330
31CD
102
}
330
31CD
100
AcDbProxyObject
 90
      499
 91
      510
 95
   983063
 70
     0
 93
      113
310
904383A31000000000000000810165
 94
        0
1001
ACAD
1000
AcRTDxfName
1000
SCALE
1000
AcRTDxfName
1000
SCALE
1000
AcRTDxfName
1000
SCALE
1000
AcRTDxfName
1000
SCALE
1000
AcRTDxfName
1000
SCALE
1000
AcRTDxfName
1000
SCALE
  0
ACAD_PROXY_OBJECT
  5
31DD
102
{ACAD_REACTORS
330
31CD
102
}
330
31CD
100
AcDbProxyObject
 90
      499
 91
      510
 95
   983063
 70
     0
 93
      121
310
90531303A31000000000000000910120
 94
        0
1001
ACAD
1000
AcRTDxfName
1000
SCALE
1000
AcRTDxfName
1000
SCALE
1000
AcRTDxfName
1000
SCALE
1000
AcRTDxfName
1000
SCALE
1000
AcRTDxfName
1000
SCALE
1000
AcRTDxfName
1000
SCALE
  0
ACAD_PROXY_OBJECT
  5
31DE
102
{ACAD_REACTORS
330
31CD
102
}
330
31CD
100
AcDbProxyObject
 90
      499
 91
      510
 95
   983063
 70
     0
 93
      129
310
9063130303A31000000000000001650100
 94
        0
1001
ACAD
1000
AcRTDxfName
1000
SCALE
1000
AcRTDxfName
1000
SCALE
1000
AcRTDxfName
1000
SCALE
1000
AcRTDxfName
1000
SCALE
1000
AcRTDxfName
1000
SCALE
1000
AcRTDxfName
1000
SCALE
  0
ACAD_PROXY_OBJECT
  5
31DF
102
{ACAD_REACTORS
330
31CD
102
}
330
31CD
100
AcDbProxyObject
 90
      499
 91
      510
 95
   983063
 70
     0
 93
      265
310
90F312F31323822203D2031272D302200000000000000200FC000000000000284018
 94
        0
1001
ACAD
1000
AcRTDxfName
1000
SCALE
1000
AcRTDxfName
1000
SCALE
1000
AcRTDxfName
1000
SCALE
1000
AcRTDxfName
1000
SCALE
1000
AcRTDxfName
1000
SCALE
1000
AcRTDxfName
1000
SCALE
  0
ACAD_PROXY_OBJECT
  5
31E0
102
{ACAD_REACTORS
330
31CD
102
}
330
31CD
100
AcDbProxyObject
 90
      499
 91
      510
 95
   983063
 70
     0
 93
      257
310
90E312F363422203D2031272D302200000000000000240FC000000000000284000
 94
        0
1001
ACAD
1000
AcRTDxfName
1000
SCALE
1000
AcRTDxfName
1000
SCALE
1000
AcRTDxfName
1000
SCALE
1000
AcRTDxfName
1000
SCALE
1000
AcRTDxfName
1000
SCALE
1000
AcRTDxfName
1000
SCALE
  0
ACAD_PROXY_OBJECT
  5
31E1
102
{ACAD_REACTORS
330
31CD
102
}
330
31CD
100
AcDbProxyObject
 90
      499
 91
      510
 95
   983063
 70
     0
 93
      257
310
90E312F333222203D2031272D302200000000000000280FC000000000000284040
 94
        0
1001
ACAD
1000
AcRTDxfName
1000
SCALE
1000
AcRTDxfName
1000
SCALE
1000
AcRTDxfName
1000
SCALE
1000
AcRTDxfName
1000
SCALE
1000
AcRTDxfName
1000
SCALE
1000
AcRTDxfName
1000
SCALE
  0
ACAD_PROXY_OBJECT
  5
31E2
102
{ACAD_REACTORS
330
31CD
102
}
330
31CD
100
AcDbProxyObject
 90
      499
 91
      510
 95
   983063
 70
     0
 93
      257
310
90E312F313622203D2031272D3022000000000000002C0FC000000000000284000
 94
        0
1001
ACAD
1000
AcRTDxfName
1000
SCALE
1000
AcRTDxfName
1000
SCALE
1000
AcRTDxfName
1000
SCALE
1000
AcRTDxfName
1000
SCALE
1000
AcRTDxfName
1000
SCALE
1000
AcRTDxfName
1000
SCALE
  0
ACAD_PROXY_OBJECT
  5
31E3
102
{ACAD_REACTORS
330
31CD
102
}
330
31CD
100
AcDbProxyObject
 90
      499
 91
      510
 95
   983063
 70
     0
 93
      257
310
90E332F333222203D2031272D3022000000000000002E0FC000000000000284040
 94
        0
1001
ACAD
1000
AcRTDxfName
1000
SCALE
1000
AcRTDxfName
1000
SCALE
1000
AcRTDxfName
1000
SCALE
1000
AcRTDxfName
1000
SCALE
1000
AcRTDxfName
1000
SCALE
1000
AcRTDxfName
1000
SCALE
  0
ACAD_PROXY_OBJECT
  5
31E4
102
{ACAD_REACTORS
330
31CD
102
}
330
31CD
100
AcDbProxyObject
 90
      499
 91
      510
 95
   983063
 70
     0
 93
      249
310
90D312F3822203D2031272D302200000000000000300FC000000000000284040
 94
        0
1001
ACAD
1000
AcRTDxfName
1000
SCALE
1000
AcRTDxfName
1000
SCALE
1000
AcRTDxfName
1000
SCALE
1000
AcRTDxfName
1000
SCALE
1000
AcRTDxfName
1000
SCALE
1000
AcRTDxfName
1000
SCALE
  0
ACAD_PROXY_OBJECT
  5
31E5
102
{ACAD_REACTORS
330
31CD
102
}
330
31CD
100
AcDbProxyObject
 90
      499
 91
      510
 95
   983063
 70
     0
 93
      257
310
90E332F313622203D2031272D302200000000000000320FC000000000000284040
 94
        0
1001
ACAD
1000
AcRTDxfName
1000
SCALE
1000
AcRTDxfName
1000
SCALE
1000
AcRTDxfName
1000
SCALE
1000
AcRTDxfName
1000
SCALE
1000
AcRTDxfName
1000
SCALE
1000
AcRTDxfName
1000
SCALE
  0
ACAD_PROXY_OBJECT
  5
31E6
102
{ACAD_REACTORS
330
31CD
102
}
330
31CD
100
AcDbProxyObject
 90
      499
 91
      510
 95
   983063
 70
     0
 93
      249
310
90D312F3422203D2031272D302200000000000000340FC000000000000284040
 94
        0
1001
ACAD
1000
AcRTDxfName
1000
SCALE
1000
AcRTDxfName
1000
SCALE
1000
AcRTDxfName
1000
SCALE
1000
AcRTDxfName
1000
SCALE
1000
AcRTDxfName
1000
SCALE
1000
AcRTDxfName
1000
SCALE
  0
ACAD_PROXY_OBJECT
  5
31E7
102
{ACAD_REACTORS
330
31CD
102
}
330
31CD
100
AcDbProxyObject
 90
      499
 91
      510
 95
   983063
 70
     0
 93
      249
310
90D332F3822203D2031272D302200000000000000360FC000000000000284028
 94
        0
1001
ACAD
1000
AcRTDxfName
1000
SCALE
1000
AcRTDxfName
1000
SCALE
1000
AcRTDxfName
1000
SCALE
1000
AcRTDxfName
1000
SCALE
1000
AcRTDxfName
1000
SCALE
1000
AcRTDxfName
1000
SCALE
  0
ACAD_PROXY_OBJECT
  5
31E8
102
{ACAD_REACTORS
330
31CD
102
}
330
31CD
100
AcDbProxyObject
 90
      499
 91
      510
 95
   983063
 70
     0
 93
      249
310
90D312F3222203D2031272D302200000000000000380FC000000000000284040
 94
        0
1001
ACAD
1000
AcRTDxfName
1000
SCALE
1000
AcRTDxfName
1000
SCALE
1000
AcRTDxfName
1000
SCALE
1000
AcRTDxfName
1000
SCALE
1000
AcRTDxfName
1000
SCALE
1000
AcRTDxfName
1000
SCALE
  0
ACAD_PROXY_OBJECT
  5
31E9
102
{ACAD_REACTORS
330
31CD
102
}
330
31CD
100
AcDbProxyObject
 90
      499
 91
      510
 95
   983063
 70
     0
 93
      249
310
90D332F3422203D2031272D3022000000000000003A0FC000000000000284028
 94
        0
1001
ACAD
1000
AcRTDxfName
1000
SCALE
1000
AcRTDxfName
1000
SCALE
1000
AcRTDxfName
1000
SCALE
1000
AcRTDxfName
1000
SCALE
1000
AcRTDxfName
1000
SCALE
1000
AcRTDxfName
1000
SCALE
  0
ACAD_PROXY_OBJECT
  5
31EA
102
{ACAD_REACTORS
330
31CD
102
}
330
31CD
100
AcDbProxyObject
 90
      499
 91
      510
 95
   983063
 70
     0
 93
      169
310
90B3122203D2031272D3022004000000000000284000
 94
        0
1001
ACAD
1000
AcRTDxfName
1000
SCALE
1000
AcRTDxfName
1000
SCALE
1000
AcRTDxfName
1000
SCALE
1000
AcRTDxfName
1000
SCALE
1000
AcRTDxfName
1000
SCALE
1000
AcRTDxfName
1000
SCALE
  0
ACAD_PROXY_OBJECT
  5
31EB
102
{ACAD_REACTORS
330
31CD
102
}
330
31CD
100
AcDbProxyObject
 90
      499
 91
      510
 95
   983063
 70
     0
 93
      265
310
90F312D312F3222203D2031272D3022000000000000003E0FC000000000000284018
 94
        0
1001
ACAD
1000
AcRTDxfName
1000
SCALE
1000
AcRTDxfName
1000
SCALE
1000
AcRTDxfName
1000
SCALE
1000
AcRTDxfName
1000
SCALE
1000
AcRTDxfName
1000
SCALE
1000
AcRTDxfName
1000
SCALE
  0
ACAD_PROXY_OBJECT
  5
31EC
102
{ACAD_REACTORS
330
31CD
102
}
330
31CD
100
AcDbProxyObject
 90
      499
 91
      510
 95
   983063
 70
     0
 93
      233
310
90B3322203D2031272D30220000000000000002100000000000000284000
 94
        0
1001
ACAD
1000
AcRTDxfName
1000
SCALE
1000
AcRTDxfName
1000
SCALE
1000
AcRTDxfName
1000
SCALE
1000
AcRTDxfName
1000
SCALE
1000
AcRTDxfName
1000
SCALE
1000
AcRTDxfName
1000
SCALE
  0
ACAD_PROXY_OBJECT
  5
31ED
102
{ACAD_REACTORS
330
31CD
102
}
330
31CD
100
AcDbProxyObject
 90
      499
 91
      510
 95
   983063
 70
     0
 93
      233
310
90B3622203D2031272D3022000000000000000610000000000000028405D
 94
        0
1001
ACAD
1000
AcRTDxfName
1000
SCALE
1000
AcRTDxfName
1000
SCALE
1000
AcRTDxfName
1000
SCALE
1000
AcRTDxfName
1000
SCALE
1000
AcRTDxfName
1000
SCALE
1000
AcRTDxfName
1000
SCALE
  0
ACAD_PROXY_OBJECT
  5
31EE
102
{ACAD_REACTORS
330
31CD
102
}
330
31CD
100
AcDbProxyObject
 90
      499
 91
      510
 95
   983063
 70
     0
 93
      257
310
90E31272D3022203D2031272D3022000000000000000A100000000000000284000
 94
        0
1001
ACAD
1000
AcRTDxfName
1000
SCALE
1000
AcRTDxfName
1000
SCALE
1000
AcRTDxfName
1000
SCALE
1000
AcRTDxfName
1000
SCALE
1000
AcRTDxfName
1000
SCALE
1000
AcRTDxfName
1000
SCALE
  0
TABLESTYLE
  5
31CC
102
{ACAD_XDICTIONARY
360
328C
102
}
102
{ACAD_REACTORS
330
31CB
102
}
330
31CB
100
AcDbTableStyle
  3
Standard
 70
     0
 71
     0
 40
1.5
 41
1.5
280
     0
281
     0
  7
Standard
140
4.5
170
     2
 62
     0
 63
     7
283
     0
274
    -2
284
     1
 64
     0
275
    -2
285
     1
 65
     0
276
    -2
286
     1
 66
     0
277
    -2
287
     1
 67
     0
278
    -2
288
     1
 68
     0
279
    -2
289
     1
 69
     0
  7
Standard
140
6.0
170
     5
 62
     0
 63
     7
283
     0
274
    -2
284
     1
 64
     0
275
    -2
285
     1
 65
     0
276
    -2
286
     1
 66
     0
277
    -2
287
     1
 67
     0
278
    -2
288
     1
 68
     0
279
    -2
289
     1
 69
     0
  7
Standard
140
4.5
170
     5
 62
     0
 63
     7
283
     0
274
    -2
284
     1
 64
     0
275
    -2
285
     1
 65
     0
276
    -2
286
     1
 66
     0
277
    -2
287
     1
 67
     0
278
    -2
288
     1
 68
     0
279
    -2
289
     1
 69
     0
  0
ACAD_PROXY_OBJECT
  5
31BF
102
{ACAD_REACTORS
330
31B9
102
}
330
31B9
100
AcDbProxyObject
 90
      499
 91
      508
 95
   983063
 70
     0
 93
      444
310
430C9915DA5C99599C985B59401049028333333333333E3BF0000000000000FB0107901411070040501600405405064090741402480A0340
 94
        0
1001
ACAD
1000
AcRTDxfName
1000
VISUALSTYLE
1000
AcRTDxfName
1000
VISUALSTYLE
1000
AcDbSavedByObjectVersion
1070
     0
1000
AcRTDxfName
1000
VISUALSTYLE
1000
AcRTDxfName
1000
VISUALSTYLE
1000
AcRTDxfName
1000
VISUALSTYLE
1000
AcRTDxfName
1000
VISUALSTYLE
  0
ACAD_PROXY_OBJECT
  5
31C1
102
{ACAD_REACTORS
330
31B9
102
}
330
31B9
100
AcDbProxyObject
 90
      499
 91
      508
 95
   983063
 70
     0
 93
      508
310
428CD108121A5919195B8010640502408333333333333E3BF0000000000000FB01079024090700405020000000000001110200405405064090740C02480A0340
 94
        0
1001
ACAD
1000
AcRTDxfName
1000
VISUALSTYLE
1000
AcRTDxfName
1000
VISUALSTYLE
1000
AcDbSavedByObjectVersion
1070
     0
1000
AcRTDxfName
1000
VISUALSTYLE
1000
AcRTDxfName
1000
VISUALSTYLE
1000
AcRTDxfName
1000
VISUALSTYLE
1000
AcRTDxfName
1000
VISUALSTYLE
  0
ACAD_PROXY_OBJECT
  5
31C0
102
{ACAD_REACTORS
330
31B9
102
}
330
31B9
100
AcDbProxyObject
 90
      499
 91
      508
 95
   983063
 70
     0
 93
      444
310
430CD915DA5C99599C985B59401059028333333333333E3BF0000000000000FB0107901411070040501600405405064090741402480A0340
 94
        0
1001
ACAD
1000
AcRTDxfName
1000
VISUALSTYLE
1000
AcRTDxfName
1000
VISUALSTYLE
1000
AcDbSavedByObjectVersion
1070
     0
1000
AcRTDxfName
1000
VISUALSTYLE
1000
AcRTDxfName
1000
VISUALSTYLE
1000
AcRTDxfName
1000
VISUALSTYLE
1000
AcRTDxfName
1000
VISUALSTYLE
  0
ACAD_PROXY_OBJECT
  5
31BE
102
{ACAD_REACTORS
330
31B9
102
}
330
31B9
100
AcDbProxyObject
 90
      499
 91
      508
 95
   983063
 70
     0
 93
      396
310
4190985CDA58C0107406404333333333333E3BF0000000000000FB0107A41107004050150841D405064090741402480A0354
 94
        0
1001
ACAD
1000
AcRTDxfName
1000
VISUALSTYLE
1000
AcRTDxfName
1000
VISUALSTYLE
1000
AcDbSavedByObjectVersion
1070
     0
1000
AcRTDxfName
1000
VISUALSTYLE
1000
AcRTDxfName
1000
VISUALSTYLE
1000
AcRTDxfName
1000
VISUALSTYLE
1000
AcRTDxfName
1000
VISUALSTYLE
  0
ACAD_PROXY_OBJECT
  5
31C5
102
{ACAD_REACTORS
330
31B9
102
}
330
31B9
100
AcDbProxyObject
 90
      499
 91
      508
 95
   983063
 70
     0
 93
      436
310
42509C9A59DA1D195B8010C409028333333333333E3BF0000000000000FB010790141107004050150841D405064090741402480A02995A
 94
        0
1001
ACAD
1000
AcRTDxfName
1000
VISUALSTYLE
1000
AcRTDxfName
1000
VISUALSTYLE
1000
AcDbSavedByObjectVersion
1070
     0
1000
AcRTDxfName
1000
VISUALSTYLE
1000
AcRTDxfName
1000
VISUALSTYLE
1000
AcRTDxfName
1000
VISUALSTYLE
1000
AcRTDxfName
1000
VISUALSTYLE
  0
ACAD_PROXY_OBJECT
  5
31C9
102
{ACAD_REACTORS
330
31B9
102
}
330
31B9
100
AcDbProxyObject
 90
      499
 91
      508
 95
   983063
 70
     0
 93
      460
310
4310DBDB1BDC90DA185B99D9401104090240C333333333333E3BF0000000000000FB0108901411070040501508421405064090741402480A0350
 94
        0
1001
ACAD
1000
AcRTDxfName
1000
VISUALSTYLE
1000
AcRTDxfName
1000
VISUALSTYLE
1000
AcDbSavedByObjectVersion
1070
     0
1000
AcRTDxfName
1000
VISUALSTYLE
1000
AcRTDxfName
1000
VISUALSTYLE
1000
AcRTDxfName
1000
VISUALSTYLE
1000
AcRTDxfName
1000
VISUALSTYLE
  0
ACAD_PROXY_OBJECT
  5
31C2
102
{ACAD_REACTORS
330
31B9
102
}
330
31B9
100
AcDbProxyObject
 90
      499
 91
      508
 95
   983063
 70
     0
 93
      508
310
42D0DBDB98D95C1D1D585B0010940D028333333333333E3BF0000000000000FB0107902409070040501000000000000111010841D405064090740C02480A0340
 94
        0
1001
ACAD
1000
AcRTDxfName
1000
VISUALSTYLE
1000
AcRTDxfName
1000
VISUALSTYLE
1000
AcDbSavedByObjectVersion
1070
     0
1000
AcRTDxfName
1000
VISUALSTYLE
1000
AcRTDxfName
1000
VISUALSTYLE
1000
AcRTDxfName
1000
VISUALSTYLE
1000
AcRTDxfName
1000
VISUALSTYLE
  0
ACAD_PROXY_OBJECT
  5
31C4
102
{ACAD_REACTORS
330
31B9
102
}
330
31B9
100
AcDbProxyObject
 90
      499
 91
      508
 95
   983063
 70
     0
 93
      420
310
41111A5B4010B409028333333333333E3BF0000000000000FB010790141107004050150841D405064090741402480A02677FFFFFD2
 94
        0
1001
ACAD
1000
AcRTDxfName
1000
VISUALSTYLE
1000
AcRTDxfName
1000
VISUALSTYLE
1000
AcDbSavedByObjectVersion
1070
     0
1000
AcRTDxfName
1000
VISUALSTYLE
1000
AcRTDxfName
1000
VISUALSTYLE
1000
AcRTDxfName
1000
VISUALSTYLE
1000
AcRTDxfName
1000
VISUALSTYLE
  0
ACAD_PROXY_OBJECT
  5
31C8
102
{ACAD_REACTORS
330
31B9
102
}
330
31B9
100
AcDbProxyObject
 90
      499
 91
      508
 95
   983063
 70
     0
 93
      452
310
43119858D95C185D1D195C9B8010F409028333333333333E3BF0000000000000FB010790141107004050150841D405064090741402480A0356
 94
        0
1001
ACAD
1000
AcRTDxfName
1000
VISUALSTYLE
1000
AcRTDxfName
1000
VISUALSTYLE
1000
AcDbSavedByObjectVersion
1070
     0
1000
AcRTDxfName
1000
VISUALSTYLE
1000
AcRTDxfName
1000
VISUALSTYLE
1000
AcRTDxfName
1000
VISUALSTYLE
1000
AcRTDxfName
1000
VISUALSTYLE
  0
ACAD_PROXY_OBJECT
  5
31BA
102
{ACAD_REACTORS
330
31B9
102
}
330
31B9
100
AcDbProxyObject
 90
      499
 91
      508
 95
   983063
 70
     0
 93
      396
310
41519B185D00240901404333333333333E3BF0000000000000F9010740A41107004050150841D405064090741402480A1B58
 94
        0
1001
ACAD
1000
AcRTDxfName
1000
VISUALSTYLE
1000
AcRTDxfName
1000
VISUALSTYLE
1000
AcDbSavedByObjectVersion
1070
     0
1000
AcRTDxfName
1000
VISUALSTYLE
1000
AcRTDxfName
1000
VISUALSTYLE
1000
AcRTDxfName
1000
VISUALSTYLE
1000
AcRTDxfName
1000
VISUALSTYLE
  0
ACAD_PROXY_OBJECT
  5
31BB
102
{ACAD_REACTORS
330
31B9
102
}
330
31B9
100
AcDbProxyObject
 90
      499
 91
      508
 95
   983063
 70
     0
 93
      484
310
43919B185D15DA5D1A115919D95CC010140901404333333333333E3BF0000000000000F9010740901411070040501600405405064090741402480A1B58
 94
        0
1001
ACAD
1000
AcRTDxfName
1000
VISUALSTYLE
1000
AcRTDxfName
1000
VISUALSTYLE
1000
AcDbSavedByObjectVersion
1070
     0
1000
AcRTDxfName
1000
VISUALSTYLE
1000
AcRTDxfName
1000
VISUALSTYLE
1000
AcRTDxfName
1000
VISUALSTYLE
1000
AcRTDxfName
1000
VISUALSTYLE
  0
ACAD_PROXY_OBJECT
  5
31BC
102
{ACAD_REACTORS
330
31B9
102
}
330
31B9
100
AcDbProxyObject
 90
      499
 91
      508
 95
   983063
 70
     0
 93
      420
310
4211DBDD5C985D590010240902404333333333333E3BF0000000000000F9010740A411070040501641D405064090741402480A1B58
 94
        0
1001
ACAD
1000
AcRTDxfName
1000
VISUALSTYLE
1000
AcRTDxfName
1000
VISUALSTYLE
1000
AcDbSavedByObjectVersion
1070
     0
1000
AcRTDxfName
1000
VISUALSTYLE
1000
AcRTDxfName
1000
VISUALSTYLE
1000
AcRTDxfName
1000
VISUALSTYLE
1000
AcRTDxfName
1000
VISUALSTYLE
  0
ACAD_PROXY_OBJECT
  5
31BD
102
{ACAD_REACTORS
330
31B9
102
}
330
31B9
100
AcDbProxyObject
 90
      499
 91
      508
 95
   983063
 70
     0
 93
      508
310
4451DBDD5C985D5915DA5D1A115919D95CC010340902404333333333333E3BF0000000000000F9010740901411070040501600405405064090741402480A1B50
 94
        0
1001
ACAD
1000
AcRTDxfName
1000
VISUALSTYLE
1000
AcRTDxfName
1000
VISUALSTYLE
1000
AcDbSavedByObjectVersion
1070
     0
1000
AcRTDxfName
1000
VISUALSTYLE
1000
AcRTDxfName
1000
VISUALSTYLE
1000
AcRTDxfName
1000
VISUALSTYLE
1000
AcRTDxfName
1000
VISUALSTYLE
  0
ACAD_PROXY_OBJECT
  5
31C7
102
{ACAD_REACTORS
330
31B9
102
}
330
31B9
100
AcDbProxyObject
 90
      499
 91
      508
 95
   983063
 70
     0
 93
      452
310
43131A5B995C185D1D195C9B8010E409028333333333333E3BF0000000000000FB010790141107004050750841D405064090741402483A0353
 94
        0
1001
ACAD
1000
AcRTDxfName
1000
VISUALSTYLE
1000
AcRTDxfName
1000
VISUALSTYLE
1000
AcDbSavedByObjectVersion
1070
     0
1000
AcRTDxfName
1000
VISUALSTYLE
1000
AcRTDxfName
1000
VISUALSTYLE
1000
AcRTDxfName
1000
VISUALSTYLE
1000
AcRTDxfName
1000
VISUALSTYLE
  0
ACAD_PROXY_OBJECT
  5
31C3
102
{ACAD_REACTORS
330
31B9
102
}
330
31B9
100
AcDbProxyObject
 90
      499
 91
      508
 95
   983063
 70
     0
 93
      428
310
429499585B1A5CDD1A58C0108409028333333333333E3BF0000000000000FB01079019070040501508421405064090741402480A1B49
 94
        0
1001
ACAD
1000
AcRTDxfName
1000
VISUALSTYLE
1000
AcRTDxfName
1000
VISUALSTYLE
1000
AcDbSavedByObjectVersion
1070
     0
1000
AcRTDxfName
1000
VISUALSTYLE
1000
AcRTDxfName
1000
VISUALSTYLE
1000
AcRTDxfName
1000
VISUALSTYLE
1000
AcRTDxfName
1000
VISUALSTYLE
  0
ACAD_PROXY_OBJECT
  5
31C6
102
{ACAD_REACTORS
330
31B9
102
}
330
31B9
100
AcDbProxyObject
 90
      499
 91
      508
 95
   983063
 70
     0
 93
      420
310
42151A1A58DAD95B8010D409028333333333333E3BF0000000000000FB010790141107004050150C41D405064090741402480A0352
 94
        0
1001
ACAD
1000
AcRTDxfName
1000
VISUALSTYLE
1000
AcRTDxfName
1000
VISUALSTYLE
1000
AcDbSavedByObjectVersion
1070
     0
1000
AcRTDxfName
1000
VISUALSTYLE
1000
AcRTDxfName
1000
VISUALSTYLE
1000
AcRTDxfName
1000
VISUALSTYLE
1000
AcRTDxfName
1000
VISUALSTYLE
  0
DICTIONARYVAR
  5
32D2
102
{ACAD_REACTORS
330
3B
102
}
330
3B
100
DictionaryVariables
280
     0
  1
1:1
  0
DICTIONARYVAR
  5
32D1
102
{ACAD_REACTORS
330
3B
102
}
330
3B
100
DictionaryVariables
280
     0
  1
STANDARD
  0
DICTIONARYVAR
  5
32D0
102
{ACAD_REACTORS
330
3B
102
}
330
3B
100
DictionaryVariables
280
     0
  1
STANDARD
  0
DICTIONARYVAR
  5
3D
102
{ACAD_REACTORS
330
3B
102
}
330
3B
100
DictionaryVariables
280
     0
  1
2
  0
DICTIONARYVAR
  5
3C
102
{ACAD_REACTORS
330
3B
102
}
330
3B
100
DictionaryVariables
280
     0
  1
1
  0
DICTIONARYVAR
  5
32D3
102
{ACAD_REACTORS
330
3B
102
}
330
3B
100
DictionaryVariables
280
     0
  1
0
  0
DICTIONARYVAR
  5
3507
102
{ACAD_REACTORS
330
3B
102
}
330
3B
100
DictionaryVariables
280
     0
  1

  0
DICTIONARYVAR
  5
313B
102
{ACAD_REACTORS
330
3B
102
}
330
3B
100
DictionaryVariables
280
     0
  1
127
  0
DICTIONARY
  5
370B
330
22
100
AcDbDictionary
280
     1
281
     1
  3
ACAD_XREC_ROUNDTRIP
360
370C
  0
DICTIONARY
  5
3228
330
3087
100
AcDbDictionary
280
     1
281
     1
  3
ACAD_XREC_ROUNDTRIP
360
3711
  3
ADSK_XREC_LAYOUTTHUMBNAIL
360
3229
  0
DICTIONARY
  5
31AA
330
31A9
100
AcDbDictionary
280
     1
281
     1
  3
ACAD_XREC_ROUNDTRIP
360
360A
  3
BUMPTILE
360
31AC
  3
DIFFUSETILE
360
31AB
  3
OPACITYTILE
360
31AF
  3
REFLECTIONTILE
360
31AE
  3
REFRACTIONTILE
360
31B0
  3
SPECULARTILE
360
31AD
  0
DICTIONARY
  5
31A2
330
31A1
100
AcDbDictionary
280
     1
281
     1
  3
ACAD_XREC_ROUNDTRIP
360
3609
  3
BUMPTILE
360
31A4
  3
DIFFUSETILE
360
31A3
  3
OPACITYTILE
360
31A7
  3
REFLECTIONTILE
360
31A6
  3
REFRACTIONTILE
360
31A8
  3
SPECULARTILE
360
31A5
  0
DICTIONARY
  5
31B2
330
31B1
100
AcDbDictionary
280
     1
281
     1
  3
ACAD_XREC_ROUNDTRIP
360
360B
  3
BUMPTILE
360
31B4
  3
DIFFUSETILE
360
31B3
  3
OPACITYTILE
360
31B7
  3
REFLECTIONTILE
360
31B6
  3
REFRACTIONTILE
360
31B8
  3
SPECULARTILE
360
31B5
  0
DICTIONARY
  5
370D
330
2E54
100
AcDbDictionary
280
     1
281
     1
  3
ACAD_XREC_ROUNDTRIP
360
370E
  0
DICTIONARY
  5
370F
330
2E55
100
AcDbDictionary
280
     1
281
     1
  3
ACAD_XREC_ROUNDTRIP
360
3710
  0
DICTIONARY
  5
328C
330
31CC
100
AcDbDictionary
280
     1
281
     1
  3
ACAD_ROUNDTRIP_2008_TABLESTYLE_CELLSTYLEMAP
360
35F7
  3
ACAD_XREC_ROUNDTRIP
360
360C
  0
XRECORD
  5
370C
102
{ACAD_REACTORS
330
370B
102
}
330
370B
100
AcDbXrecord
280
     1
102
SHADEPLOT
 70
     0
102
SHADEPLOTRESLEVEL
 70
     2
102
SHADEPLOTCUSTOMDPI
 70
   300
  0
XRECORD
  5
3711
102
{ACAD_REACTORS
330
3228
102
}
330
3228
100
AcDbXrecord
280
     1
102
SHADEPLOT
 70
     0
102
SHADEPLOTRESLEVEL
 70
     2
102
SHADEPLOTCUSTOMDPI
 70
   300
  0
XRECORD
  5
3229
102
{ACAD_REACTORS
330
3228
102
}
330
3228
100
AcDbXrecord
280
     1
310
28000000630000008C0000000100080000000000B0360000000000000000000000010000000000000000000000000000FFFFFF000000000000000000000000000000000000000000000000000000000000000000330000006600000099000000CC000000FF00000000330000333300006633000099330000CC330000FF3300
310
0000660000336600006666000099660000CC660000FF66000000990000339900006699000099990000CC990000FF99000000CC000033CC000066CC000099CC0000CCCC0000FFCC000000FF000033FF000066FF000099FF0000CCFF0000FFFF000000003300330033006600330099003300CC003300FF003300003333003333
310
33006633330099333300CC333300FF33330000663300336633006666330099663300CC663300FF66330000993300339933006699330099993300CC993300FF99330000CC330033CC330066CC330099CC3300CCCC3300FFCC330000FF330033FF330066FF330099FF3300CCFF3300FFFF330000006600330066006600660099
310
006600CC006600FF00660000336600333366006633660099336600CC336600FF33660000666600336666006666660099666600CC666600FF66660000996600339966006699660099996600CC996600FF99660000CC660033CC660066CC660099CC6600CCCC6600FFCC660000FF660033FF660066FF660099FF6600CCFF6600
310
FFFF660000009900330099006600990099009900CC009900FF00990000339900333399006633990099339900CC339900FF33990000669900336699006666990099669900CC669900FF66990000999900339999006699990099999900CC999900FF99990000CC990033CC990066CC990099CC9900CCCC9900FFCC990000FF99
310
0033FF990066FF990099FF9900CCFF9900FFFF99000000CC003300CC006600CC009900CC00CC00CC00FF00CC000033CC003333CC006633CC009933CC00CC33CC00FF33CC000066CC003366CC006666CC009966CC00CC66CC00FF66CC000099CC003399CC006699CC009999CC00CC99CC00FF99CC0000CCCC0033CCCC0066CC
310
CC0099CCCC00CCCCCC00FFCCCC0000FFCC0033FFCC0066FFCC0099FFCC00CCFFCC00FFFFCC000000FF003300FF006600FF009900FF00CC00FF00FF00FF000033FF003333FF006633FF009933FF00CC33FF00FF33FF000066FF003366FF006666FF009966FF00CC66FF00FF66FF000099FF003399FF006699FF009999FF00CC
310
99FF00FF99FF0000CCFF0033CCFF0066CCFF0099CCFF00CCCCFF00FFCCFF0000FFFF0033FFFF0066FFFF0099FFFF00CCFFFF00FFFFFF00000000000D0D0D001A1A1A00282828003535350043434300505050005D5D5D006B6B6B00787878008686860093939300A1A1A100AEAEAE00BBBBBB00C9C9C900D6D6D600E4E4E400
310
F1F1F100FFFFFF0000000000000000000000000000000000000000000000000000000000000000000000000000000000F5F5F5F5F5F5F5F5F5F5F5F5F5F5F5F5F5F5F5F5F5F5F5F5F5F5F5F5F5F5F5F5F5F5F5F5F5F5F5F5F5F5F5F5F5F5F5F5F5F5F5F5F5F5F5F5F5F5F5F5F5F5F5F5F5F5F5F5F5F5F5F5F5F5F5F5F5F5F5
310
F5F5F5F5F5F5F5F5F5F5F5F5F5F5F5F5F5F5F5EF41E2E2E2E2E2E2E2E2E2E2E2E2E2E2E2E2E2E2E2E2E2E2E2E2E2E2E2E2E2E2E2E2E2E2E2E2E2E2E2E2E2E2E2E2E2E2E2E2E2E2E2E2E2E2E2E2E2E2E2E2E2E2E2E2E2E2E2E2E2E2E2E2E2E2E2E2E2E2E2E2E2E2E2E2E2E2E2E2E2E2E2E2E2E2E2E2E2F5EF74E2E2E2E2E2E2
310
E2E2E2E2E2E2E2E2E2E2E2E2E2E2E2E2E2E2E2E2E2E2E2E2E2E2E2E2E2E2E2E2E2E2E2E2E2E2E2E2E2E2E2E2E2E2E2E2E2E2E2E2E2E2E2E2E2E2E2E2E2E2E2E2E2E2E2E2E2E2E2E2E2E2E2E2E2E2E2E2E2E2E2E2E2E2E2E2E2E2E2F5EF41E2F5F5F5F5F5F5F5F5E2E2E2E2E2E2E2E2F5F5F5F5F5F5F5F5F5F5F5F5F5F5F5F5
310
F5E2E2E2E2E2E2E2F5F5F5F5F5F5F5F5F5F5F5F5F5F5E2E2E2E2E2E2E2E2E2F5F5F5F5F5F5F5F5F5F5F5F5F5F5F5E2E2E2E2E2E2E2E2F5F5F5F5F5F5F5F5E2E2F5EF72E2F5E2E2E2E2E2E2E2E2E2E2E2E2E2E2E2E2E2F5F5F5F5F5F5F5F5F5F5F5F5F5F5F5F5F5F5F5F5F5F5F5F5F5F5F5F5F5F5F5F5F5F5F5F5F5F5F5F5F5
310
F5F5F5F5F5F5F5F5F5F5F5F5F5F5F5F5F5E2E2E2E2E2E2E2E2E2E2E2E2E2E2E2E2E2F5E2E2F5EF3DE2F5E2E2E2E2E2E2E2E2E2E2E2E2E2E2E2E2E2F5F5F5F5F5F5F5F5F5F5F5F5F5F5F5F5F5F5F5F5F5F5F5F5F5F5F5F5F5F5F5F5F5F5F5F5F5F5F5F5F5F5F5F5F5F5F5F5F5F5F5F5F5F5F5F5F5F5E2E2E2E2E2E2E2E2E2E2
310
E2E2E2E2E2E2E2F5E2E2F5EF3CE2F5E2E2E2E2E2F5F5F5F5F5F5F5F5F5F5F5F5F5F5F5F5F5F5F5F5F5F5F5F5F5F5F5F5F5F5F5F5F5F5F5F5F5F5F5F5F5F5F5F5F5F5F5F5F5F5F5F5F5F5F5F5F5F5F5F5F5F5F5F5F5F5F5F5F5F5F5F5F5F5F5F5F5F5F5F5F5F5F5F5E2E2E2F5E2E2F5EF6CE2F5E2E2E2E2E2E2E2E2E2E2E2E2
310
E2E2E2E2E2E2E2E2E2E2E2E2E2E2E2E2E2E2E2E2E2E2E2E2E2E2E2E2E2E2E2E2E2E2E2E2E2E2E2E2E2E2E2E2E2E2E2E2E2E2E2E2E2E2E2E2E2E2E2E2E2E2E2E2E2E2E2E2E2E2E2E2E2E2E2E2E2E2E2E2F5E2E2F5EF43E2F5E2E2E2E2E2F5F5F5F5F5F5F5F5F5F5F5F5F5F5F5F5F5F5F5F5F5F5F5F5F5F5F5F5F5F5F5F5F5F5
310
F5F5F5F5F5F5F5F5F5F5F5F5F5F5F5F5F5F5F5F5F5F5F5F5F5F5F5F5F5F5F5F5F5F5F5F5F5F5F5F5F5F5F5F5F5F5F5F5F5F5E2E2E2F5E2E2F5EF20E2F5E2E2E2E2E2F5E2E2E2E2E2E2E2E2E2E2E2E2E2E2E2E2E2E2E2E2E2E2E2E2E2E2E2E2E2E2E2E2E2E2E2E2E2E2E2E2E2E2E2E2E2E2E2E2E2E2E2E2E2E2E2E2E2E2E2E2
310
E2E2E2E2E2E2E2E2E2E2E2E2E2E2E2E2E2E2E2E2E2E2F5E2E2E2F5E2E2F5EF54E2F5E2E2E2E2E2F5E2E2E2E2E2E2E2E2E2E2E2E2E2E2E2E2E2E2E2E2E2E2E2E2E2E2E2E2E2E2E2E2E2E2E2E2E2E2E2E2E2E2E2E2E2E2E2E2E2E2E2E2E2E2E2E2E2E2E2E2E2E2E2E2E2E2E2E2E2E2E2E2E2E2E2E2E2E2E2E2E2E2F5E2E2E2F5
310
E2E2F5EF74E2F5E2E2E2E2E2F5E2E2E2E2E2E2E2E2E2E2E2E2E2E2E2E2E2E2E2E2E2E2E2E2E2E2E2E2E2E2E2E2E2E2E2E2E2E2E2E2E2E2E2E2E2E2E2E2E2E2E2E2E2E2E2E2E2E2E2E2E2E2E2E2E2E2E2E2E2E2E2E2E2E2E2E2E2E2E2E2E2E2F5E2E2E2F5E2E2F5EF64E2E2E2E2E2E2E2F5E2E2E2E2E2E2E2E2E2E2E2E2E2E2
310
E2E2E2E2E2E2E2E2E2E2E2E2E2E2E2E2E2E2E2E2E2E2E2E2E2E2E2E2E2E2E2E2E2E2E2E2E2E2E2E2E2E2E2E2E2E2E2E2E2E2E2E2E2E2E2E2E2E2E2E2E2E2E2E2E2E2E2E2F5E2E2E2E2E2E2F5EF74E2E2E2E2E2E2E2F5E2E2E2E2E2E2E2E2E2E2E2E2E2E2E2E2E2E2E2E2E2E2E2E2E2E2E2E2E2E2E2E2E2E2E2E2E2E2E2E2E2
310
E2E2E2E2E2E2E2E2E2E2E2E2E2E2E2E2E2E2E2E2E2E2E2E2E2E2E2E2E2E2E2E2E2E2E2E2E2E2E2E2E2F5E2E2E2E2E2E2F5EF2FE2E2E2E2E2E2E2F5E2E2E2E2E2E2E2E2E2E2E2E2E2E2E2E2E2F5F5F5F5F5F5F5F5F5F5F5F5F5E2E2E2E2E2E2E2E2E2E2E2E2E2E2E2E2E2E2F5F5F5F5F5F5F5F5F5F5F5F5F5F5E2E2E2E2E2E2
310
E2E2E2E2E2E2E2E2E2E2E2E2E2E2F5E2E2E2E2E2E2F5EF69E2E2E2E2E2E2E2F5E2E2E2E2E2E2E2E2E2E2E2E2E2E2E2E2E2F5F5F5F5F5F5F5F5F5F5F5F5F5E2E2E2E2E2E2E2E2E2E2E2E2E2E2E2E2E2E2F5F5F5F5F5F5F5F5F5F5F5F5F5F5E2E2E2E2E2E2E2E2E2E2E2E2E2E2E2E2E2E2E2E2F5E2E2E2E2E2E2F5EF22E2E2E2
310
E2E2E2E2F5E2E2E2E2E2E2E2E2E2E2E2E2E2E2E2E2E2E2F5F5F5F5F5F5F5F5F5F5F5E2E2E2E2E2E2E2E2E2E2E2E2E2E2E2E2E2E2E2E2E2E2E2E2E2F5F5E2E2E2E2E2E2E2E2E2E2E2E2E2E2E2E2E2E2E2E2E2E2E2E2E2E2F5E2E2E2E2E2E2F5EF6EE2E2E2E2E2E2E2F5E2E2E2E2E2E2E2E2E2E2E2E2E2E2E2E2E2E2F5F5F5F5
310
F5F5F5F5F5F5F5E2E2E2E2E2E2E2E2E2E2E2E2E2E2E2E2E2E2E2E2E2E2E2E2E2F5F5E2E2E2E2E2E2E2E2E2E2E2E2E2E2E2E2E2E2E2E2E2E2E2E2E2E2F5E2E2E2E2E2E2F5EF30E2E2E2E2E2E2E2F5E2E2E2E2E2E2E2E2E2E2E2E2E2E2E2E2E2E2E2E2E2E2E2E2E2E2E2E2E2E2E2E2E2E2E2E2E2E2E2E2E2E2E2E2E2E2E2E2E2
310
E2E2E2E2E2E2E2E2E2E2E2E2E2E2E2E2E2E2E2E2E2E2E2E2E2E2E2E2E2E2E2E2E2F5E2E2E2E2E2E2F5EF21E2E2E2E2E2E2E2F5E2E2E2E2E2E2E2E2E2E2E2E2E2E2E2E2E2E2E2E2E2F5F5F5F5F5E2E2E2E2F5F5F5F5F5E2E2E2E2E2E2E2E2E2F5F5F5F5E2E2E2E2E2F5F5F5F5F5E2E2E2E2E2E2E2E2E2E2E2E2E2E2E2E2E2E2
310
E2E2E2E2E2E2F5E2E2E2E2E2E2F5EF5DE2E2E2E2E2E2E2F5E2E2E2E2E2E2E2E2E2E2E2E2E2E2E2E2E2E2E2E2E2F5F5F5F5F5E2E2E2E2F5F5F5F5F5E2E2E2E2E2E2E2E2E2F5F5F5F5E2E2E2E2E2F5F5F5F5F5E2E2E2E2E2E2E2E2E2E2E2E2E2E2E2E2E2E2E2E2E2E2E2E2F5E2E2E2E2E2E2F5EF41E2E2E2E2E2E2E2F5E2E2E2
310
E2E2E2E2E2E2E2E2E2E2E2E2E2E2E2E2E2E2EFEFEFEFEFEFEFEFEFEFEFEFEFEFE2E2E2E2E2E2E2E2E2E2EFEFEFEFEFEFEFEFEFEFEFEFEFEFE2E2E2E2E2E2E2E2E2E2E2E2E2E2E2E2E2E2E2E2E2E2E2F5E2E2E2E2E2E2F5EF31E2F5E2E2E2E2E2F5E2E2E2E2E2E2E2E2E2E2E2E2E2E2E2E2E2E2E2EFEFEFEFE2E2E2E2EFEFEF
310
EFECECECECE2E2E2E2E2E2E2E2E2E2ECECECECEFEFEFE2E2E2E2E2EFEFEFE2E2E2E2E2E2E2E2E2E2E2E2E2E2E2E2E2E2E2E2E2E2F5E2E2E2F5E2E2F5EF3CE2F5E2E2E2E2E2F5E2E2E2E2E2E2E2E2E2E2E2E2E2E2E2E2E2E2EFEFEFEFEFEFE2E2E2EFEFEFE2ECECECECECECECECE2E2ECECECECECECECECE2EFEFE2E2E2E2EF
310
EFEFEFEFEFE2E2E2E2E2E2E2E2E2E2E2E2E2E2E2E2E2E2E2E2F5E2E2E2F5E2E2F5EF69E2F5E2E2E2E2E2F5E2E2E2E2E2E2E2E2E2E2E2E2E2E2E2E2E2E2EFECECE2EFEFEFE2E2EFEFEFE2ECECECECECF5F5F5E2E2F5F5F5ECECECECECE2EFEFE2E2E2EFEFEFE2ECECEFE2E2E2E2E2E2E2E2E2E2E2E2E2E2E2E2E2E2E2E2F5E2
310
E2E2F5E2E2F5EF77E2F5E2E2E2E2E2F5E2E2E2E2E2E2E2E2E2E2E2E2E2E2E2EFEFEFECECECE2E2EFEFEFE2EFEFEFE2F5F5E2E2E2E2E2E2E2E2E2E2E2E2E2F5E2F5E2EFEFE2E2EFEFEFE2ECECECECEFEFEFEFEFEFEFEFEFEFE2E2E2E2E2E2E2E2E2E2F5E2E2E2F5E2E2F5EF20E2F5E2E2E2E2E2F5E2E2E2E2E2E2E2E2E2E2E2
310
E2EFEFEFEFEFEFEFEFEFE2E2EFEFEFE2E2EFEFE2F5F5E2E2E2E2E2E2E2E2E2E2E2E2E2F5E2F5E2EFE2E2E2EFEFE2E2E2EFEFEFEFEFEFEFEFEFEFEFEFEFEFE2E2E2E2E2E2E2E2E2F5E2E2E2F5E2E2F5EF46E2F5E2E2E2E2E2F5E2E2E2E2E2E2E2E2E2E2E2EFEFEFE2E2E2E2EFEFE2E2E2EFEFEFE2E2EFEFE2F5F5F5F5F5F5F5
310
F5E2E2F5F5F5F5F5F5F5F5E2EFE2E2E2EFEFE2E2E2E2EFEFEFE2E2E2E2E2E2E2E2EFEFE2E2E2E2E2E2E2E2E2F5E2E2E2F5E2E2F5EF69E2F5E2E2E2E2E2F5E2E2E2E2E2F5F5F5F5E2EFEFEFE2F5F5F5F5E2EFEFE2E2EFEFEFE2E2EFEFE2ECECECECECECF5F5E2E2F5F5ECECECECECECE2EFE2E2E2EFEFE2E2E2EFEFEFE2E2E2
310
E2E2E2E2E2E2EFEFE2E2E2E2E2E2E2E2E2F5E2E2E2F5E2E2F5EF34E2F5E2E2E2E2E2F5E2E2E2E2E2E2E2E2E2E2EFEFE2E2E2E2E2E2E2EFEFE2E2EFEFEFEFEFEFEFEFEFECECECE2E2E2E2E2E2E2E2E2E2ECECECEFEFEFEFEFEFEFEFE2E2E2EFF5F5F5F5F5E2E2E2E2E2E2EFEFE2E2E2E2E2E2E2E2E2F5E2E2E2F5E2E2F5EF3C
310
E2F5E2E2E2E2E2F5E2E2E2E2E2E2E2E2E2EFEFE2E2E2E2E2E2E2E2E2EFE2E2E2EFECECECECECECECECECECE2E2E2E2E2E2E2E2E2ECECECECECECECECECECECE2E2E2E2EFF5F5F5F5F5E2E2E2E2E2E2EFF5F5F5F5F5E2E2E2E2E2F5E2E2E2F5E2E2F5EF32E2F5E2E2E2E2E2F5E2E2E2E2E2E2E2E2E2EFE2E2E2E2E2E2E2E2E2
310
EFEFE2E2ECECECECE2ECECE2ECECE228E2E2E2E2E2E2E2E2E228E2ECECE2ECECE228ECECECEFE2E2EFEFE2E2E2E2E2E2E2E2E2E2EFEFE2E2E2E2E2E2E2E2E2F5E2E2E2F5E2E2F5EF75E2F5E2E2E2E2E2F5E2E2E2E2E2E2E2E2E2EFE2E2E2E2E2E2EFEFE2EFEFE2E2ECECECECE2E2E2ECECECECECE2E2E2E2E2E2E2E2E228EC
310
ECECECECE2E228ECECECEFE2E2EFEFE2E2E2E2E2E2E2E2E2E2EFEFE2E2E2E2E2E2E2E2E2F5E2E2E2F5E2E2F5EF30E2F5E2E2E2E2E2F5E2E2E2E2E2E2E2E2E2EFE2E2E2E2E2E2EFEFEFE2EFE2E2ECECECEC28282828ECEC2828E2E2E2E2E2E2E2E2E2282828EC2828282828ECECECECE2E2EFEFEFE2E2E2E2E2E2E2E2E2EFEF
310
E2E2E2E2E2E2E2E2E2F5E2E2E2F5E2E2F5EF5DE2F5E2E2E2E2E2F5E2E2E2E2E2E2E2E2E2EFEFEFE2E2E2E2EFEF282828282828282828E2E2E2E2E2E2E2E2E2E2E2E2E2E2E2E2E2E2E2E2E2E2E2E2E2E2ECECECECECECECECECECEFE2E2E2E2E2E2E2EFEFE2E2E2E2E2E2E2E2E2F5E2E2E2F5E2E2F5EF74E2F5E2E2E2E2E2F5
310
E2E2E2E2E2E2E2E2EFEFEFEFEFEFEFEFE2EF28E2E2E2E2E2ECE228E2E2E2E2E2E2E2E2E2E2E2E2E2E2E2E2E2E2E2E2E2E2E2E2E2E228ECECE2E2E2E2ECECECECE2E2E2E2E2E2EFEFEFE2E2E2E2E2E2E2E2E2F5E2E2E2F5E2E2F5EF3DE2F5E2E2E2E2E2F5E2E2E2E2E2E2E2E2EFEFEFEFEFEFEFEFEFEF28E2E2E2ECECE2E228
310
E2E2E2E2E2E2E2E2E2E2E2E2E2E2E2E2E2E2E2E2E2E2E2E2E2E228ECECECE2E2E228ECECECE2E2E2E2E2EFEFEFEFE2E2E2E2E2E2E2E2E2F5E2E2E2F5E2E2F5EF76E2F5E2E2E2E2E2F5E2E2E2E2E2E2E2E2EFEFDCE2E2E2EFEFEFEF28E2E2ECECE2E2E228E2E2E2E2E2E2E2E2E2E2E2E2E2E2E2E2E2E2E2E2E2E2E2E2E2E228
310
E2ECECECE2E2E228ECECE2EFEFEFEFEFEFEFEFE2E2E2E2E2E2E2E2E2F5E2E2E2F5E2E2F5EF63E2F5E2E2E2E2E2F5E2E2E2E2E2E2E2E2EFECF5ECF5E2E2E2E2EF28E2ECE2E2ECECE228E2E2E2E2E2E2E2E2E2E2E2E2E2E2E2E2E2E2E2E2E2E2E2E2E2E228E2ECECECECE2E2E2ECEFEFEFEFEFEFEFEFEFEFE2E2E2E2E2E2E2E2
310
E2F5E2E2E2F5E2E2F5EF30E2E2E2E2E2E2E2F5E2E2E2E2E2E2E2E2EFECF5ECF5F5F5ECF528E2ECECE2ECECE2E228E2E2E2E2E2E2E2E2E2E2E2E2E2E2E2E2E2E2E2E2E2E2E2E2E2E228E2E2ECE2ECECE2E2ECEFEFE2EFEFE2E2E2EFEFE2E2E2E2E2E2E2E2E2F5E2E2E2E2E2E2F5EF31E2E2E2E2E2E2E2F5E2E2E2E2E2E2E2E2
310
EFECF5ECF5F5F5ECF5ECE2ECE2E2ECE2E2E228E2E2E2E2E2E2E2E2E2E2E2E2E2E2E2E2E2E2E2E2E2E2E2E2E2E228E2E2ECECE2ECE2E2ECEFEFE2EFEFE2E2E2EFEFE2E2E2E2E2E2E2E2E2F5E2E2E2E2E2E2F5EF65E2E2E2E2E2E2E2F5E2E2E2E2E2E2E2E2EFECECECE2E2F5ECF5ECECECE2ECE2E2E2E228E2E2E2E2E2E2E2E2
310
E2E2E2E2E2E2E2E2E2E2E2E2E2E2E2E2E2E228E2E2ECECE2ECE2E2ECEFEFE2E2E2E2E2E2EFEFE2E2E2E2E2E2E2E2E2F5E2E2E2E2E2E2F5EF61E2E2E2E2E2E2E2F5E2E2E2E2E2E2E2E2E2E2ECECE2E2ECECECEC282828282828282828E2E2E2E2E2E2E2E2E2E2E2E2E2E2E2E2E2E2E2E2E2E2E2E2E2E228E2E2ECE2E2ECE2E2
310
ECEFEFE2E2E2E2E2E2EFEFF5F5F5F5E2E2E2E2E2F5E2E2E2E2E2E2F5EF64E2E2E2E2E2E2E2F5E2E2E2E2E2E2E2E2E2E2ECECE2E2ECECE2E2E2E2E2E2E2E2E2E2E2E2E2E2E2E2E2E2E2E2E2E2E2E2E2E2E2E2E2E2E2E2E2E2E2E2E228E2E2ECE2E2ECE2E2ECEFEFE2E2E2E2E2E2EFEFE2E2E2E2E2E2E2E2E2F5E2E2E2E2E2E2
310
F5EF32E2E2E2E2E2E2E2F5E2E2E2E2E2E2E2E2E2E2E2E2E2E2E2E2E2E2E2E2E2E2E2E2E2E2E2E2E2E2E2E2E2E2F5F5F5F5F5F5F5F5F5F5F5F5F5F5E2E2E2E2E228282828282828282828F5EFE2EFEFEFEFEFEFEFE2E2E2E2E2E2E2E2E2F5E2E2E2E2E2E2F5EF74E2E2E2E2E2E2E2F5E2E2E2E2E2E2E2E2E2E2E2E2E2E2E2E2
310
E2E2E2E2E2E2E2E2E2E2E2E2E2E2E2E2E2E2F5F5F5F5F5F5F5F5F5F5F5F5F5F5E2E2E2E2E2E2E2E2E2E228E2ECECF5F5EFEFEFEFEFEFE2EFEFE2E2E2E2E2E2E2E2E2F5E2E2E2E2E2E2F5EF69E2E2E2E2E2E2E2F5E2E2E2E2E2E2E2E2E2E2E2E2E2E2E2E2E2E2E2E2E2E2E2E2E2E2E2E2E2E2E2E2E2E2F5F5F5F5F5F5F5F5F5
310
F5F5F5F5F5E2E2E2E2E2E2E2E2E2E228E2ECECF5ECEFEFEFEFEFEFEFEFEFE2E2E2E2E2E2E2E2E2F5E2E2E2E2E2E2F5EF41E2E2E2E2E2E2E2F5E2E2E2E2E2E2E2E2E2E2E2E2E2E2E2E2E2E2E2E2E2E2E2E2E2E2E2E2E2E2E2E2E2E2E2E2E2E2E2E2E2E2E2E2E2E2E2E2E2E2E2E2E2E2E2E2E2E228E22828F5ECE2E2E2E2E2E2
310
ECEFF5F5F5F5F5E2E2E2E2E2F5E2E2E2E2E2E2F5EF20E2F5E2E2E2E2E2F5E2E2E2E2E2E2E2E2E2E2E2E2E2E2E2E2E2E2E2E2E2E2E2E2E2E2E2E2E2E2E2E2E2E2E2E2E2E2E2E2E2E2E2E2E2E2E2E2E2E2E2E2E2E2E2E2E2E228ECECF5ECECECECF5F5F5ECF5EFF5F5F5F5F5E2E2E2E2E2F5E2E2E2F5E2E2F5EF43E2F5E2E2E2
310
E2E2F5E2E2E2E2E2E2E2E2E2E2E2E2E2E2E2E2E2E2E2E2E2E2E2E2E2E2E2E2E2E2E2E2E2E2E2E2E2E2E2E2E2E2E2E2E2E2E2E2E2E2E2E2E2E2E2E2E2E228ECF5ECECECECECF5F5F5ECF5ECEFE2E2E2E2E2E2E2E2E2F5E2E2E2F5E2E2F5EF3CE2F5E2E2E2E2E2F5E2E2E2E2E2E2E2E2E2E2E2E2E2E2E2E2E2E2E2E2E2E2E2E2
310
E2E2E2E2E2E2E2E2E2E2E2E2E2E2E2E2E2E2E2E2E2E2E2E2E2E2E2E2E2E2E2E2E2E228ECF5E2ECECECECE2E2F5ECF5ECEFE2E2E2E2E2E2E2E2E2F5E2E2E2F5E2E2F5EF65E2F5E2E2E2E2E2F5E2E2E2E2E2E2E2E2E2E2E2E2E2E2E2E2E2E2E2E2E2E2E2E2E2E2E2E2E2E2E2E2E2E2E2E2E2E2E2E2E2E2E2E2E2E2E2E2E2E2E2
310
E2E2E2E2E2E2E228F5282828EFECECE2E2F5ECF5ECE2E2E2E2E2E2E2E2E2E2F5E2E2E2F5E2E2F5EF32E2F5E2E2E2E2E2F5E2E2E2E2E2E2E2E2E2E2E2E2E2E2E2E2E2E2E2E2E2E2E2E2E2E2E2E2E2E2E2E2E2E2E2E2E2E2E2E2E2E2E2E2E2E2E2E2E2E2E2E2E2E2E2E2E2E2F5E2E2E2E2E2ECECE2E2F5ECF5E2E2E2E2E2E2E2
310
E2E2E2E2F5E2E2E2F5E2E2F5EF61E2F5E2E2E2E2E2F5E2E2E2E2E2E2E2E2E2E2E2E2E2E2E2E2E2E2E2E2E2E2E2E2E2E2E2E2E2E2E2E2E2E2E2E2E2E2E2E2E2E2E2E2E2E2E2E2E2E2E2E2E2E2E2E2E2E2F5E2E2E2E2E2ECECE2E2F5ECF5E2E2E2E2E2E2E2E2E2E2E2F5E2E2E2F5E2E2F5EF20E2F5E2E2E2E2E2F5E2E2E2E2E2
310
E2E2E2E2E2E2E2E2E2E2E2E2E2E2E2E2E2E2E2E2E2E2E2E2E2E2E2E2E2E2E2E2E2E2E2E2E2E2E2E2E2E2E2E2E2E2E2E2E2E2E2E2F5E2E2E2E2E2E2ECECE2E2F5ECF5E2E2E2E2E2E2E2E2E2E2E2F5E2E2E2F5E2E2F5EF44E2F5E2E2E2E2E2F5E2E2E2E2E2E2E2E2E2E2E2E2E2E2E2E2E2E2E2E2E2E2E2E2E2E2E2E2E2E2E2E2
310
E2E2E2E2E2E2E2E2E2F5F5F5F5F5F5F5F5F5F5F5E2E2E2E2F5E2E2E2E2E2E2E2ECECE2E2F5ECF5E2E2E2E2E2E2E2E2E2E2E2F5E2E2E2F5E2E2F5EF62E2F5E2E2E2E2E2F5E2E2E2E2E2E2E2E2E2E2E2E2E2E2E2E2E2E2E2E2E2E2E2E2E2E2E2E2E2E2E2E2E2E2E2E2E2E2E2E2E2F5F5F5F5F5F5F5F5F5F5F5F5F5E2E2F5E2E2
310
E2E2E2E2E2E2E2E2E2E2E2E2E2E2E2E2E2E2E2E2E2E2E2F5E2E2E2F5E2E2F5EF6CE2F5E2E2E2E2E2F5E2E2E2E2E2E2E2E2E2E2E2E2E2E2E2E2E2E2E2E2E2E2E2E2E2E2E2E2E2E2E2E2E2E2E2E2E2E2E2E2E2F5F5F5F5F5F5F5F5F5F5F5F5F5E2F5E2E2E2E2E2E2E2E2E2E2E2E2E2E2E2E2E2E2E2E2E2E2E2E2E2E2F5E2E2E2
310
F5E2E2F5EF3EE2F5E2E2E2E2E2F5E2E2E2E2E2E2E2E2E2E2E2E2E2E2E2E2E2E2E2E2E2E2E2E2E2E2E2E2E2E2E2E2E2E2E2E2E2E2E2E2E2F5F5F5F5F5F5E2E2E2E2E2E2E2E2E2F5E2E2E2E2E2E2E2E2E2E2E2E2E2E2E2E2E2E2E2E2E2E2E2E2E2F5E2E2E2F5E2E2F5EF6FE2F5E2E2E2E2E2F5E2E2E2E2E2E2E2E2E2E2E2E2E2
310
E2E2E2E2E2E2E2E2E2E2E2E2E2E2E2E2E2E2E2E2E2E2E2E2E2E2E2E2F5F5F5F5F5F5E2E2E2E2E2E2E2E2E2F5E2E2E2E2E2E2E2E2E2E2E2E2E2E2E2E2E2E2E2E2E2E2E2E2E2F5E2E2E2F5E2E2F5EF61E2F5E2E2E2E2E2F5E2E2E2E2E2E2E2E2E2E2E2E2E2E2E2E2E2E2E2E2E2E2E2E2E2E2E2E2E2E2E2E2E2E2E2E2E2E2E2E2
310
E2E2E2E2E2E2E2E2E2E2E2E2E2E2E2E2E2F5E2E2E2E2E2E2ECECE2E2F5ECF5E2E2E2E2E2E2E2E2E2E2E2F5E2E2E2F5E2E2F5EF69E2F5E2E2E2E2E2F5E2E2E2E2E2E2E2E2E2E2E2E2E2E2E2E2E2E2E2E2E2E2E2E2E2E2E2E2E2E2E2E2E2E2E2E2E2E2E2E2E2E2E2E2E2E2E2E2E2E2E2E2E2E2E2E2E2F5E2E2E2E2E2E2ECECE2
310
E2F5ECF5E2E2E2E2E2E2E2E2E2E2E2F5E2E2E2F5E2E2F5EF41E2F5E2E2E2E2E2F5E2E2E2E2E2E2E2E2E2E2E2E2E2E2E2E2E2E2E2E2E2E2E2E2E2E2E2E2E2E2E2E2E2E2E2E2E2E2E2E2E2E2E2E2E2E2E2E2E2E2E2E2E2E2E2E2E2E2F5E2E2E2E2E2ECECE2E2F5ECF5E2E2E2E2E2E2E2E2E2E2E2F5E2E2E2F5E2E2F5EF74E2F5
310
E2E2E2E2E2F5E2E2E2E2E2E2E2E2E2E2E2E2E2E2E2E2E2E2E2E2E2E2E2E2E2E2E2E2E2E2E2E2E2E2E2E2E2E2E2E2E2E2E2E2E2E2E2E2E2E2E2E2E2E2E2E2E2E228F5282828E2ECECE2E2F5ECF5E2E2E2E2E2E2E2E2E2E2E2F5E2E2E2F5E2E2F5EF41E2F5E2E2E2E2E2F5E2E2E2E2E2E2E2E2E2E2E2E2E2E2E2E2E2E2E2E2E2
310
E2E2E2E2E2E2E2E2E2E2E2E2E2E2E2E2E2E2E2E2E2E2E2E2E2E2E2E2E2E2E2E2E2E2E2E2E228F5ECE2ECECECECE2E2F5ECF5ECE2E2E2E2E2E2E2E2E2E2F5E2E2E2F5E2E2F5EF5DE2E2E2E2E2E2E2F5E2E2E2E2E2E2E2E2E2E2E2E2E2E2E2E2E2E2E2E2E2E2E2E2E2E2E2E2E2E2E2E2E2E2E2E2E2E2E2E2E2E2E2E2E2E2E2E2
310
E2E2E2E2E2E2E2E2E2E228ECF5ECECECECECF5F5F5ECF5ECEFE2E2E2E2E2E2E2E2E2F5E2E2E2E2E2E2F5EF74E2E2E2E2E2E2E2F5E2E2E2E2E2E2E2E2E2E2E2E2E2E2E2E2E2E2E2E2E2E2E2E2E2E2E2E2E2E2E2E2E2E2E2E2E2E2E2E2E2E2E2E2E2E2E2E2E2E2E2E2E2E2E2E2E2E228ECE2F5ECECECECE2E2F5ECF5EFEFF5F5
310
F5F5E2E2E2E2E2F5E2E2E2E2E2E2F5EF3EE2E2E2E2E2E2E2F5E2E2E2E2E2E2E2E2E2E2E2E2E2E2E2E2E2E2E2E2E2E2E2E2E2E2E2E2E2E2E2E2E2E2E2E2E2E2E2E2E2E2E2E2E2E2E2E2E2E2E2E2E2E2E2E2E2E228ECECF5ECECECECF5F5F5ECF5EFEFF5F5F5F5E2E2E2E2E2F5E2E2E2E2E2E2F5EF65E2E2E2E2E2E2E2F5E2E2
310
E2E2E2E2E2E2E2E2E2E2E2E2E2E2E2E2E2E2E2E2E2E2E2E2E2E2E2E2E2E2E2E2E2E2E2E2E2E2E2E2E2E2E2E2E2E2E2E2E2E2E2E2E2E2E2E228E2ECECF5ECE2E2E2E2E2E2EFEFEFE2E2E2E2E2E2E2E2E2F5E2E2E2E2E2E2F5EF3EE2E2E2E2E2E2E2F5E2E2E2E2E2E2E2E2E2E2E2E2E2E2E2E2E2E2E2E2E2E2E2E2E2E2E2E2E2
310
E2E2E2E2E2E2E2E2E2E2E2E2E2E2E2E2E2E2E2E2E2E2E2E2E2E2E2E2E228E2ECECF5F5EFEFEFEFEFEFDCEFEFE2E2E2E2E2E2E2E2E2F5E2E2E2E2E2E2F5EF3EE2E2E2E2E2E2E2F5E2E2E2E2E2E2E2E2E2E2E2E2E2E2E2E2E2E2E2E2E2E2E2E2E2E2E2E2E2E2E2E2E2E2E2E2E2E2E2E2E2E2E2E2E2E2E2E2E2E2E2E2E2E2E2E2
310
E2E228E2ECECF5F5E2E2EFEFEFEFEFEFEFE2E2E2E2E2E2E2E2E2F5E2E2E2E2E2E2F5EF74E2E2E2E2E2E2E2F5E2E2E2E2E2E2E2E2E2E2E2E2E2E2E2E2E2E2E2E2E2E2E2E2E2E2E2E2E2E2E2E2E2E2E2E2E2E2E2E2E2E2282828282828282828282828282828282828282828EFEFE2E2E2EFEFEFEFEFE2E2E2E2E2E2E2E2E2F5
310
E2E2E2E2E2E2F5EF69E2E2E2E2E2E2E2F5E2E2E2E2E2E2E2E2E2E2E2E2E2E2E2E2E2E2E2E2E2E2E2E2E2E2E2E2E2E2E2E2E2E2E2E2E2E2E2E2E2E228ECE2E2E2E2ECECE2E2E2ECECECE2E2E2ECE2E228EFEFE2E2E2E2E2E2EFEFF5F5F5F5E2E2E2E2E2F5E2E2E2E2E2E2F5EF41E2E2E2E2E2E2E2F5E2E2E2E2E2E2E2E2E2E2
310
E2E2E2E2E2E2E2E2E2E2E2E2E2E2E2E2E2E2E2E2E2E2E2E2E2E2E2E2E2E2E2E228ECE2E2E2E2ECE2E2E2E2ECECE2E2E2E2ECE22828EFEFE2E2E2E2E2E2EFEFF5F5F5F5E2E2E2E2E2F5E2E2E2E2E2E2F5EF3EE2E2E2E2E2E2E2F5E2E2E2E2E2E2E2E2E2E2E2E2E2E2E2E2E2E2E2E2E2E2E2E2E2E2E2E2E2E2E2E2E2E2E2E2E2
310
E2E2E2E2E2ECECECE2E2ECE2E2E2E2ECECE2ECE2E2E2ECECEC28EFEFE2E2E2E2E2E2EFEFE2E2E2E2E2E2E2E2E2F5E2E2E2E2E2E2F5EF69E2F5E2E2E2E2E2F5E2E2E2E2E2E2E2E2E2E2E2E2E2E2E2E2E2E2E2E2E2E2E2E2E2E2E2E2E2E2E2E2E2E2E2E2E2E2E2E2E2E2ECE2E2ECECECECE2E2E2ECE2E2E2EC28ECECEC2828EF
310
EFE2EFEFE2E2E2EFEFE2E2E2E2E2E2E2E2E2F5E2E2E2F5E2E2F5EF41E2F5E2E2E2E2E2F5E2E2E2E2E2E2E2E2E2E2E2E2E2E2E2E2E2E2E2E2E2E2E2E2E2E2E2E2E2E2E2E2E2E2E2E2E2E2E2E2E2E228E2282828ECE2ECECECECE2E2E228E2EFEFEFEFEFEFEFEFEFEFEFEFEFEFEFE2E2E2E2E2E2E2E2E2F5E2E2E2F5E2E2F5EF
310
74E2F5E2E2E2E2E2F5E2E2E2E2E2E2E2E2E2E2E2E2E2E2E2E2E2E2E2E2E2E2E2E2E2E2E2E2E2E2E2E2E2E2E2E2E2E2E2E2E2E228E228E2E228E2E2E2ECE2ECECEC28E2E2E2E2E2E2EFEFEFEFEFEFEFEFEFEFE2E2E2E2E2E2E2E2E2F5E2E2E2F5E2E2F5EF30E2F5E2E2E2E2E2F5E2E2E2E2E2E2E2E2E2E2E2E2E2E2E2E2E2E2
310
E2E2E2E2E2E2E2E2E2E2E2E2E2E2E2E2E2E2E2E2E2E2E2E2282828E2E228282828282828282828E2E2E2E2E2E2EFEFEFE2EFEFEFEFEFEFE2E2E2E2E2E2E2E2E2F5E2E2E2F5E2E2F5EF74E2F5E2E2E2E2E2F5E2E2E2E2E2E2E2E2E2E2E2E2E2E2E2E2E2E2E2E2E2E2E2E2E2E2E2E2E2E2E2E2E2E2E2E2E2E2E2E2E2E2E2E2E2
310
E2E2E2E2E2E2E2E2E2E2E2E2E2E2E2E2E2E2EFE2E2E2E2E2E2E2EFEFE2E2E2E2E2E2E2E2E2F5E2E2E2F5E2E2F5EF3EE2F5E2E2E2E2E2F5E2E2E2E2E2E2E2E2E2E2E2E2E2E2E2E2E2E2E2E2E2E2E2E2E2E2E2E2E2E2E2E2E2E2E2E2E2E2E2E2E2E2E2E2E2E2E2E2E2E2E2E2E2E2E2E2E2E2E2E2E2E2EFEFE2E2E2E2E2E2E2EF
310
EFEFEFEFE2E2E2E2E2E2F5E2E2E2F5E2E2F5EF5DE2F5E2E2E2E2E2F5E2E2E2E2E2E2E2E2E2E2E2E2E2E2E2E2E2E2E2E2E2E2E2E2E2E2E2E2E2E2E2E2E2E2E2E2E2E2E2E2E2E2E2E2E2E2E2E2E2E2E2E2E2E2E2E2E2E2E2E2E2E2EFEFE2E2E2E2E2E2E2EFEFEFEFEFE2E2E2E2E2E2F5E2E2E2F5E2E2F5EF22E2F5E2E2E2E2E2
310
F5E2E2E2E2E2E2E2E2E2E2E2E2E2E2E2E2E2E2E2E2E2E2E2E2E2E2E2E2E2E2E2E2E2E2E2E2E2E2E2E2E2E2E2E2E2E2E2E2E2E2E2E2E2E2E2E2E2E2E2E2E2E2E2E2E2E2E2E2E2E2E2E2E2E2E2EFE2E2E2E2E2E2F5E2E2E2F5E2E2F5EF3EE2F5E2E2E2E2E2F5E2E2E2E2E2E2E2E2E2E2E2E2E2E2E2E2E2E2E2E2E2E2E2E2E2E2
310
E2E2E2E2E2E2E2E2E2E2E2E2E2E2E2E2E2E2E2E2E2E2E2E2E2E2E2E2E2E2E2E2E2E2E2E2E2E2E2E2E2E2F5F5F5F5F5E2E2EFE2E2E2E2E2E2F5E2E2E2F5E2E2F5EF72E2F5E2E2E2E2E2F5E2E2E2E2E2E2E2E2E2E2E2E2E2E2E2E2E2E2E2E2E2E2E2E2E2E2E2E2E2E2E2E2E2E2E2E2E2E2E2E2E2E2E2E2E2E2E2E2E2E2E2E2E2
310
E2E2E2E2E2E2E2E2E2E2E2E2E2E2E2F5F5F5F5F5E2E2EFE2E2E2E2E2E2F5E2E2E2F5E2E2F5EF3CE2F5E2E2E2E2E2F5E2E2E2E2E2E2E2E2E2E2E2E2E2E2E2E2E2E2E2E2E2E2E2E2E2E2E2E2E2E2E2E2E2E2E2E2E2E2E2E2E2E2E2E2E2E2E2E2E2E2E2E2E2E2E2E2E2E2E2E2E2E2E2E2E2E2E2E2F5F5F5F5F5EFEFEFE2E2E2E2
310
E2E2F5E2E2E2F5E2E2F5EF62E2F5E2E2E2E2E2F5E2E2E2E2E2E2E2E2E2E2E2E2E2E2E2E2E2E2E2E2E2E2E2E2E2E2E2E2E2DCDCDCDCDCDCDCDCDCDCDCDCDCDCDCDCDCDCDCDCDCDCDCE2E2E2E2E2E2E2E2E2E2E2E2E2E2E2E2F5F5F5F5F5EFEFEFE2E2E2E2E2E2F5E2E2E2F5E2E2F5EF44E2F5E2E2E2E2E2F5E2E2E2E2E2E2E2
310
E2E2E2E2E2E2E2E2E2E2E2E2E2E2E2E2E2E2E2E2E2E2DCDCDCDCDCDCDCDCDCDCDCDCDCDCDCDCDCDCDCDCDCDCDCDCE2E2E2E2E2E2E2E2E2E2E2E2E2E2E2E2E2E2E2E2E2E2E2E2E2E2E2E2E2F5E2E2E2F5E2E2F5EF2FE2F5E2E2E2E2E2F5E2E2E2E2E2E2E2E2E2E2E2E2E2E2E2E2E2E2E2E2E2E2E2E2E2E2E2E2E2DCDCF5DCDC
310
DCDCDCDCDCDCDCDCDCDCDCDCDCDCDCDCF5DCDCDCE2E2E2E2E2E2E2E2E2E2E2E2E2E2E2E2E2E2E2E2E2E2E2E2E2E2E2E2F5E2E2E2F5E2E2F5EF33E2F5E2E2E2E2E2F5E2E2E2E2E2E2E2E2E2E2E2E2E2E2E2E2E2E2E2E2E2E2E2E2E2E2E2E2E2DCDCF5F5E2E2E2E2E2E2E2E2E2E2E2E2E2E2E2E2F5DCDCDCDCDCE2E2E2E2E2E2
310
E2E2E2E2E2E2E2E2E2E2E2E2E2E2E2E2E2E2E2E2E2F5E2E2E2F5E2E2F5EF74E2F5E2E2E2E2E2F5E2E2E2E2E2E2E2E2E2E2E2E2E2E2E2E2E2E2E2E2E2E2E2E2E2E2E2E2E2DCDCDCF5E2E2E2E2E2E2E2E2E2E2E2E2E2E2E2F5E2DCDCDCDCDCDCE2E2E2E2E2E2E2E2E2E2E2E2E2E2E2E2E2E2E2E2E2E2E2E2E2E2F5E2E2E2F5E2
310
E2F5EF64E2F5E2E2E2E2E2F5E2E2E2E2E2E2E2E2E2E2E2E2E2E2E2E2E2E2E2E2E2E2E2E2E2E2E2E2E2DCDCDCE2F5E2E2E2E2E2E2E2E2E2E2E2E2E2E2F5E2DCDCDCDCDCE2DCE2E2E2E2E2E2E2E2E2E2E2E2E2E2E2E2E2E2E2E2E2E2E2E2E2F5E2E2E2F5E2E2F5EF54E2E2E2E2E2E2E2F5E2E2E2E2E2E2E2E2E2E2E2E2E2E2E2
310
E2E2E2E2E2E2E2E2E2E2E2E2E2E2DCDCDCE2F5E2E2E2E2E2E2E2E2E2E2E2E2E2F5E2E2DCDCDCDCE2DCE2DCE2E2E2E2E2E2E2E2E2E2E2E2E2E2E2E2E2E2E2E2E2E2E2E2F5E2E2E2E2E2E2F5EF3EE2E2E2E2E2E2E2F5E2E2E2E2E2E2E2E2E2E2E2E2E2E2E2E2E2E2E2E2E2E2E2E2E2E2E2E2E2DCDCDCE2E2F5E2E2E2E2E2E2E2
310
E2E2E2E2F5F5E2E2DCDCDCDCE2E2DCDCE2E2E2E2E2E2E2E2E2E2E2E2E2E2E2E2E2E2E2E2E2E2E2E2F5E2E2E2E2E2E2F5EF3CE2E2E2E2E2E2E2F5E2E2E2E2E2E2E2E2E2E2E2E2E2E2E2E2E2E2E2E2E2E2E2E2E2E2E2E2E2DCDCDCE2E2F5E2E2E2E2E2E2E2E2E2E2E2F5E2E2E2DCDCDCDCE2E2DCDCE2E2E2E2E2E2E2E2E2E2E2
310
E2E2E2E2E2E2E2E2E2E2E2E2E2F5E2E2E2E2E2E2F5EF33E2E2E2E2E2E2E2F5E2E2E2E2E2E2E2E2E2E2E2E2E2E2E2E2E2E2E2E2E2E2E2E2E2E2F5F5E2DCDCDCE2E2E2F5E2E2E2E2E2E2E2E2E2E2F5E2E2E2DCDCDCDCE2E2DCDCE2E2E2E2E2E2E2E2E2E2E2E2E2E2E2E2E2E2E2E2E2E2E2E2F5E2E2E2E2E2E2F5EF74E2E2E2E2
310
E2E2E2F5E2E2E2E2E2E2E2E2E2E2E2E2E2E2E2E2E2E2E2E2E2E2E2E2E2E2F5F5E2DCDCDCE2E2E2F5E2E2E2E2E2E2E2E2E2F5E2E2E2E2DCDCDCDCE2E2DCDCE2E2E2E2E2E2E2E2E2E2E2E2E2E2E2E2E2E2E2E2E2E2E2E2F5E2E2E2E2E2E2F5EF3EE2E2E2E2E2E2E2F5E2E2E2E2E2E2E2E2E2E2E2E2E2E2E2E2E2E2E2E2E2E2E2
310
E2E2E2E2ECE2DCDCDCE2E2E2E2F5E2E2E2E2E2E2E2F5F5E2E2E2E2DCDCDCDCE2E2DCDCE2E2E2E2E2E2E2E2E2E2E2E2E2E2E2E2E2E2E2E2E2E2E2E2F5E2E2E2E2E2E2F5EF69E2E2E2E2E2E2E2F5E2E2E2E2E2E2E2E2E2E2E2E2E2E2E2E2E2E2E2E2E2E2E2E2E2E2ECECE2DCDCDCE2E2E2E2E2F5E2E2E2E2E2E2F5E2E2E2E2E2
310
DCDCDCDCE2E2DCDCE2E2E2E2E2E2E2E2E2E2E2E2E2E2E2E2E2E2E2E2E2E2E2E2F5E2E2E2E2E2E2F5EF62E2E2E2E2E2E2E2F5E2E2E2E2E2E2E2E2E2E2E2E2E2E2E2E2E2E2E2E2E2E2E2E2E2E2E2ECE2DCDCDCE2E2E2E2E2F5E2E2E2E2E2F5E2E2E2E2E2E2DCDCDCDCE2E2DCDCE2E2E2E2E2E2E2E2E2E2E2E2E2E2E2E2E2E2E2
310
E2E2E2E2E2F5E2E2E2E2E2E2F5EF69E2E2E2E2E2E2E2F5E2E2E2E2E2E2E2E2E2E2E2E2E2E2E2E2E2E2E2E2E2E2E2E2E2E2E2ECE2DCDCDCE2E2E2E2E2E2F5E2E2E2E2F5E2E2E2E2E2E2DCDCDCDCE2E2DCDCE2E2E2E2E2E2E2E2E2E2E2E2E2E2E2E2E2E2E2E2E2E2E2E2F5E2E2E2E2E2E2F5EF31E2F5E2E2E2E2E2F5E2E2E2E2
310
E2E2E2E2E2E2E2E2E2E2E2E2E2E2E2E2E2E2E2E2E2E2E2ECE2DCDCDCE2E2E2E2E2E2F5E2E2E2F5E2E2E2E2E2E2E2DCDCDCDCE2E2DCDCE2E2E2E2E2E2E2E2E2E2E2E2E2E2E2E2E2E2E2E2E2E2E2E2F5E2E2E2F5E2E2F5EF61E2F5E2E2E2E2E2F5E2E2E2E2E2E2E2E2E2E2E2E2E2E2E2E2E2E2E2E2E2E2E2E2E2E2E2ECE2DCDC
310
DCE2E2E2E2E2E2E2F5E2F5F5E2E2E2E2E2E2E2DCDCDCDCE2E2DCDCF5F5E2E2E2E2E2E2E2E2E2E2E2E2E2E2E2E2E2E2E2E2E2E2F5E2E2E2F5E2E2F5EF62E2F5E2E2E2E2E2F5E2E2E2E2E2E2E2E2E2E2E2E2E2E2E2E2E2E2E2E2E2E2E2E2E2E2E2ECECECECECECECE2E2E2E2E2F5E2F5E2E2E2E2E2ECECECDCECDCDCE2E2DCDC
310
F5F5E2E2E2E2E2E2E2E2E2E2E2E2E2E2E2E2E2E2E2E2E2E2F5E2E2E2F5E2E2F5EF74E2F5E2E2E2E2E2F5E2E2E2E2E2E2E2E2E2E2E2E2E2E2E2E2E2E2E2E2E2E2E2E2E2E2E2E2E2DCDCDCE2E2E2E2E2E2E2E2F5F5E2E2E2E2E2E2E2E2DCDCDCDCE2E2DCDCE2E2E2E2E2E2E2E2E2E2E2E2E2E2E2E2E2E2E2E2E2E2E2E2F5E2E2
310
E2F5E2E2F5EF21E2F5E2E2E2E2E2F5E2E2E2E2E2E2E2E2E2E2E2E2E2E2E2E2E2E2E2E2E2E2E2E2E2E2E2E2E2DCDCDCE2E2E2E2E2E2E2F5F5F5F5E2E2E2E2E2E2E2DCDCDCDCE2E2DCDCECECE2E2E2E2E2E2E2E2E2E2E2E2E2E2E2E2E2E2E2E2E2E2F5E2E2E2F5E2E2F5EF74E2F5E2E2E2E2E2F5E2E2E2E2E2E2E2E2E2E2E2E2
310
E2E2E2E2E2E2E2E2E2E2E2E2E2E2E2E2E2DCDCDCE2E2E2E2E2E2E2E2E2E2E2E2E2E2E2E2E2E2DCDCDCDCE2ECDCDCE2ECE2E2E2E2E2E2E2E2E2E2E2E2E2E2E2E2E2E2E2E2E2E2F5E2E2E2F5E2E2F5EF44E2F5E2E2E2E2E2F5E2E2E2E2E2E2E2E2E2E2E2E2E2E2E2E2E2E2E2E2E2E2E2E2E2E2E2E2E2DCDCDCDCDCDCDCDCDCDC
310
DCDCDCDCDCDCDCDCDCDCDCDCDCDCDCE2E2DCDCE2ECE2E2E2E2E2E2E2E2E2E2E2E2E2E2E2E2E2E2E2E2E2E2F5E2E2E2F5E2E2F5EF2FE2F5E2E2E2E2E2F5E2E2E2E2E2E2E2E2E2E2E2E2E2E2E2E2E2E2E2E2E2E2E2E2E2E2E2E2E2DCDCDCDCDCDCDCDCDCDCDCDCDCDCDCDCDCDCDCDCDCDCDCDCDCE2E2DCDCE2ECE2E2E2E2E2E2
310
E2E2E2E2E2E2E2E2E2E2E2E2E2E2E2E2F5E2E2E2F5E2E2F5EF3EE2F5E2E2E2E2E2F5E2E2E2E2E2E2E2E2E2E2E2E2E2E2E2E2E2E2E2E2E2E2E2E2E2E2E2E2E2DCDCDCDCDCDCDCDCDCDCDCDCDCDCDCDCDCDCDCDCDCDCDCDCE2DCE2DCDCECECE2E2E2E2E2E2E2E2E2E2E2E2E2E2E2E2E2E2E2E2E2E2F5E2E2E2F5E2E2F5EF35E2
310
F5E2E2E2E2E2F5E2E2E2E2E2E2E2E2E2E2E2E2E2E2E2E2E2E2E2E2E2E2E2E2E2E2E2E2E2DCDCDCDCE2E2E2E2E2E2E2E2E2E2E2E2E2E2E2E2E2E2E2DCDCDCDCDCDCE2ECE2E2E2E2E2E2E2E2E2E2E2E2E2E2E2E2E2E2E2E2E2E2F5E2E2E2F5E2E2F5EF74E2F5E2E2E2E2E2F5E2E2E2E2E2E2E2E2E2E2E2E2E2E2E2E2E2E2E2E2
310
E2E2E2E2E2E2E2E2E2E2DCDCDCE2E2E2E2E2E2E2E2E2E2E2E2E2E2E2E2E2E2E2E2DCE2DCDCDCE2E2E2E2E2E2E2E2E2E2E2E2E2E2E2E2E2E2E2E2E2E2E2E2F5E2E2E2F5E2E2F5EF69E2F5E2E2E2E2E2F5E2E2E2E2E2E2E2E2E2E2E2E2E2E2E2E2E2E2E2E2E2E2E2E2E2E2E2E2E2E2DCDCDCE2E2E2E2E2E2E2E2E2E2E2E2E2E2
310
E2E2E2E2E2E2E2DCDCDCDCE2E2E2E2E2E2E2E2E2E2E2E2E2E2E2E2E2E2E2E2E2E2E2E2F5E2E2E2F5E2E2F5EF41E2F5E2E2E2E2E2F5E2E2E2E2E2E2E2E2E2E2E2E2E2E2E2E2E2E2E2E2E2E2E2E2E2E2E2E2E2E2E2DCDCE2E2E2E2E2E2E2E2E2E2E2E2E2E2E2E2E2E2E2E2E2E2DCDCDCE2E2E2E2E2E2E2E2E2E2E2E2E2E2E2E2
310
E2E2E2E2E2E2E2E2F5E2E2E2F5E2E2F5EF00E2F5E2E2E2E2E2F5E2E2E2E2E2E2E2E2E2E2E2E2E2E2E2E2E2E2E2E2E2E2E2E2E2E2E2E2E2E2E2DCDCE2E2E2E2E2E2E2E2E2E2E2E2E2E2E2E2E2E2E2E2E2E2E2DCDCE2E2E2E2E2E2E2E2E2E2E2E2E2E2E2E2E2E2E2E2E2E2E2E2F5E2E2E2F5E2E2F5EF00E2F5E2E2E2E2E2F5E2
310
E2E2E2E2E2E2E2E2E2E2E2E2E2E2E2E2E2E2E2E2E2E2E2E2E2E2E2E2E2E2E2E2E2E2E2E2E2E2E2E2E2E2E2E2E2E2E2E2E2E2E2E2E2E2E2E2E2E2E2E2E2E2E2E2E2E2E2E2E2E2E2E2E2E2E2E2E2E2E2E2E2F5E2E2E2F5E2E2F5EF00E2F5E2E2E2E2E2F5E2E2E2E2E2E2E2E2E2E2E2E2E2E2E2E2E2E2E2E2E2E2E2E2E2E2E2E2
310
E2E2E2E2E2E2E2E2E2E2E2E2E2E2E2E2E2E2E2E2E2E2E2E2E2E2E2E2E2E2E2E2E2E2E2E2E2E2E2E2E2E2E2E2E2E2E2E2E2E2E2E2E2E2F5E2E2E2F5E2E2F5EF00E2F5E2E2E2E2E2F5E2E2E2E2E2E2E2E2E2E2E2E2E2E2E2E2E2E2E2E2E2E2E2E2E2E2E2E2E2E2E2E2E2E2E2E2E2E2E2E2E2E2E2E2E2E2E2E2E2E2E2E2E2E2E2
310
E2E2E2E2E2E2E2E2E2E2E2E2E2E2E2E2E2E2E2E2E2E2E2E2E2E2E2F5E2E2E2F5E2E2F5EF00E2E2E2E2E2E2E2F5E2E2E2E2E2E2E2E2E2E2E2E2E2E2E2E2E2E2E2E2E2E2E2E2E2E2E2E2E2E2E2E2E2E2E2E2E2E2E2E2E2E2E2E2E2E2E2E2E2E2E2E2E2E2E2E2E2E2E2E2E2E2E2E2E2E2E2E2E2E2E2E2E2E2E2E2E2E2E2E2E2E2
310
F5E2E2E2E2E2E2F5EF00E2E2E2E2E2E2E2F5E2E2E2E2E2E2E2E2E2E2E2E2E2E2E2E2E2E2E2E2E2E2E2E2E2E2E2E2E2E2E2E2E2E2E2E2E2E2E2E2E2E2E2E2E2E2E2E2E2E2E2E2E2E2E2E2E2E2E2E2E2E2E2E2E2E2E2E2E2E2E2E2E2E2E2E2E2E2E2E2E2E2F5E2E2E2E2E2E2F5EF00E2E2E2E2E2E2E2F5F5F5F5F5F5F5F5F5F5
310
F5F5F5F5F5F5F5F5F5F5F5F5F5F5F5F5F5F5F5F5F5F5F5F5F5F5F5F5F5F5F5F5F5F5F5F5F5F5F5F5F5F5F5F5F5F5F5F5F5F5F5F5F5F5F5F5F5F5F5F5F5F5F5F5F5F5F5F5F5F5F5F5F5F5E2E2E2E2E2E2F5EF00E2E2E2E2E2E2E2E2E2E2E2E2E2E2E2E2E2E2E2E2E2E2E2E2E2E2E2E2E2E2E2E2E2E2E2E2E2E2E2E2E2E2E2E2
310
E2E2E2E2E2E2E2E2E2E2E2E2E2E2E2E2E2E2E2E2E2E2E2E2E2E2E2E2E2E2E2E2E2E2E2E2E2E2E2E2E2E2E2E2E2E2E2E2E2E2E2E2E2F5EF00E2E2E2E2E2E2E2E2E2E2E2E2E2E2E2E2E2E2E2E2E2E2E2E2E2E2E2E2E2E2E2E2E2E2E2E2E2E2E2E2E2E2E2E2E2E2E2E2E2E2E2E2E2E2E2E2E2E2E2E2E2E2E2E2E2E2E2E2E2E2E2
310
E2E2E2E2E2E2E2E2E2E2E2E2E2E2E2E2E2E2E2E2E2E2E2E2E2E2F5EF00E2E2E2E2E2E2E2E2E2E2E2E2E2E2E2E2E2E2E2E2E2E2E2E2E2E2E2E2E2E2E2E2E2E2E2E2E2E2E2E2E2E2E2E2E2E2E2E2E2E2E2E2E2E2E2E2E2E2E2E2E2E2E2E2E2E2E2E2E2E2E2E2E2E2E2E2E2E2E2E2E2E2E2E2E2E2E2E2E2E2E2E2E2E2E2E2E2F5
310
EF00E2E2E2E2E2E2E2E2E2E2E2E2E2E2E2E2E2E2E2E2E2E2E2E2E2F5F5F5F5F5F5F5F5F5F5F5F5F5F5E2E2E2F5F5F5F5F5F5F5E2E2F5F5F5F5F5F5F5F5F5F5F5E2E2E2E2E2E2E2E2E2E2E2E2E2E2E2E2E2E2E2E2E2E2E2E2E2E2E2E2E2E2E2E2E2E2E2F5EF00E2E2E2E2E2E2E2E2E2F5F5F5F5F5F5F5F5F5F5F5F5E2E2E2E2
310
F5F5F5F5F5F5F5F5F5F5F5F5F5F5E2E2E2F5F5F5F5F5F5F5E2E2F5F5F5F5F5F5F5F5F5F5F5E2E2E2E2E2E2E2E2E2E2E2E2E2E2E2E2E2E2E2E2E2E2E2E2E2E2E2E2E2E2E2E2E2E2E2F5EF00E2E2E2E2E2E2E2E2F5F5F5F5F5F5F5F5F5F5F5F5F5F5F5E2E2F5F5F5F5F5F5F5F5F5F5F5F5F5F5F5F5F5F5F5F5F5F5F5F5F5F5F5
310
F5F5F5F5F5F5F5F5F5F5F5F5F5F5F5F5F5F5F5F5F5F5F5F5F5F5F5F5F5F5F5F5F5F5F5F5F5F5F5E2E2E2E2E2E2F5EF00E2E2E2E2E2E2E2F5F5F5F5F5F5F5F5F5F5F5F5F5F5F5F5F5E2F5F5F5F5F5F5F5F5F5F5F5F5F5F5F5F5F5F5F5F5F5F5F5F5F5F5F5F5F5F5F5F5F5F5F5F5F5F5F5F5F5F5F5F5F5F5F5F5F5F5F5F5F5F5
310
F5F5F5F5F5F5F5F5F5F5F5F5E2E2E2E2E2E2F5EF00E2F5E2E2E2E2E2F5F5F5F5F5F5F5F5F5F5F5F5F5F5E2E2F5E2F5F5F5F5F5F5F5F5F5F5F5F5F5F5F5F5F5F5F5E2E2E2E2E2E2E2E2E2E2E2E2E2E2E2E2E2E2E2E2E2E2E2E2E2E2E2E2E2E2E2E2E2E2E2E2E2E2E2E2E2E2E2E2E2E2E2E2E2E2F5E2E2F5EF00E2F5E2E2E2E2
310
E2F5F5E2F5F5F5F5F5F5F5F5F5F5F5E2E2F5E2E2E2E2E2E2E2E2E2E2E2E2E2E2E2E2E2E2E2E2E2E2E2E2E2E2E2E2E2E2E2E2E2E2E2E2E2E2E2E2E2E2E2E2E2E2E2E2E2E2E2E2E2E2E2E2E2E2E2E2E2E2E2E2E2E2E2E2E2E2F5E2E2F5EF00E2F5E2E2E2E2E2E2F5F5F5F5F5F5F5F5F5F5F5E2E2F5F5F5E2F5F5F5F5F5F5F5F5
310
F5F5F5F5F5F5F5F5F5F5F5F5F5F5F5F5F5E2E2E2E2E2E2E2E2E2E2E2E2E2E2E2E2E2E2E2E2E2E2E2E2E2E2E2E2E2E2E2E2E2E2E2E2E2E2E2E2E2E2E2E2F5E2E2F5EF00E2F5E2E2E2E2E2E2E2F5F5F5F5F5F5E2E2F5F5F5F5F5F5E2E2F5F5F5F5F5F5F5F5F5F5F5F5F5F5F5F5F5F5F5F5F5F5F5F5F5E2E2E2E2E2E2E2E2E2E2
310
E2E2E2E2E2E2E2E2E2E2E2E2E2E2E2E2E2E2E2E2E2E2E2E2E2E2E2E2E2E2E2E2E2E2F5E2E2F5EF00E2F5E2E2E2E2E2E2E2E2E2E2F5F5F5F5F5F5F5F5E2E2E2E2E2E2E2E2E2E2E2E2E2E2E2E2E2E2E2E2E2E2E2E2E2E2E2E2E2E2E2E2E2E2E2E2E2E2E2E2E2E2E2E2E2E2E2E2E2E2E2E2E2E2E2E2E2E2E2E2E2E2E2E2E2E2E2
310
E2E2E2E2E2E2E2F5E2E2F5EF00E2F5E2E2E2E2E2E2E2E2E2E2E2E2E2E2E2E2E2E2E2E2E2E2E2E2E2E2E2E2E2E2E2E2E2E2E2E2E2E2E2E2E2E2E2E2E2E2E2E2E2E2E2E2E2E2E2E2E2E2E2E2E2E2E2E2E2E2E2E2E2E2E2E2E2E2E2E2E2E2E2E2E2E2E2E2E2E2E2E2E2E2E2E2F5E2E2F5EF00E2F5E2E2E2E2E2E2E2E2E2E2E2E2
310
E2E2E2E2E2E2E2E2E2E2E2E2E2E2E2E2E2E2E2E2E2E2E2E2E2E2E2E2E2E2E2E2E2E2E2E2E2E2E2E2E2E2E2E2E2E2E2E2E2E2E2E2E2E2E2E2E2E2E2E2E2E2E2E2E2E2E2E2E2E2E2E2E2E2E2E2E2E2E2E2F5E2E2F5EF00E2F5E2E2E2E2E2E2E2E2E2E2E2E2E2E2E2E2E2E2E2E2E2E2E2E2E2E2E2E2E2E2E2E2E2E2E2E2E2E2E2
310
E2E2E2E2E2E2E2E2E2E2E2E2E2E2E2E2E2E2E2E2E2E2E2E2E2E2E2E2E2E2E2E2E2E2E2E2E2E2E2E2E2E2E2E2E2E2E2E2E2E2E2E2E2F5E2E2F5EF00E2F5F5F5F5F5F5F5F5E2E2E2E2E2E2E2E2F5F5F5F5F5F5F5F5F5F5F5F5F5F5F5E2E2E2E2E2E2E2E2E2F5F5F5F5F5F5F5F5F5F5F5F5F5F5E2E2E2E2E2E2E2E2E2F5F5F5F5
310
F5F5F5F5F5F5F5F5F5F5F5E2E2E2E2E2E2E2E2F5F5F5F5F5F5F5F5E2E2F5EF00E2E2E2E2E2E2E2E2E2E2E2E2E2E2E2E2E2E2E2E2E2E2E2E2E2E2E2E2E2E2E2E2E2E2E2E2E2E2E2E2E2E2E2E2E2E2E2E2E2E2E2E2E2E2E2E2E2E2E2E2E2E2E2E2E2E2E2E2E2E2E2E2E2E2E2E2E2E2E2E2E2E2E2E2E2E2E2E2E2E2E2E2E2E2E2
310
E2E2F5EF00E2E2E2E2E2E2E2E2E2E2E2E2E2E2E2E2E2E2E2E2E2E2E2E2E2E2E2E2E2E2E2E2E2E2E2E2E2E2E2E2E2E2E2E2E2E2E2E2E2E2E2E2E2E2E2E2E2E2E2E2E2E2E2E2E2E2E2E2E2E2E2E2E2E2E2E2E2E2E2E2E2E2E2E2E2E2E2E2E2E2E2E2E2E2E2E2E2F5EF00F5F5F5F5F5F5F5F5F5F5F5F5F5F5F5F5F5F5F5F5F5F5
310
F5F5F5F5F5F5F5F5F5F5F5F5F5F5F5F5F5F5F5F5F5F5F5F5F5F5F5F5F5F5F5F5F5F5F5F5F5F5F5F5F5F5F5F5F5F5F5F5F5F5F5F5F5F5F5F5F5F5F5F5F5F5F5F5F5F5F5F5F5F5F5F5F5F5F5F5EF00
  0
XRECORD
  5
360A
102
{ACAD_REACTORS
330
31AA
102
}
330
31AA
100
AcDbXrecord
280
     1
102
MATERIAL
148
0.0
149
0.0
149
0.0
 93
        0
 94
      127
282
     0
 72
     0
 77
     0
171
     0
175
     0
179
     0
273
     0
  0
XRECORD
  5
31AC
102
{ACAD_REACTORS
330
31AA
102
}
330
31AA
100
AcDbXrecord
280
     1
270
     1
271
     1
  0
XRECORD
  5
31AB
102
{ACAD_REACTORS
330
31AA
102
}
330
31AA
100
AcDbXrecord
280
     1
270
     1
271
     1
  0
XRECORD
  5
31AF
102
{ACAD_REACTORS
330
31AA
102
}
330
31AA
100
AcDbXrecord
280
     1
270
     1
271
     1
  0
XRECORD
  5
31AE
102
{ACAD_REACTORS
330
31AA
102
}
330
31AA
100
AcDbXrecord
280
     1
270
     1
271
     1
  0
XRECORD
  5
31B0
102
{ACAD_REACTORS
330
31AA
102
}
330
31AA
100
AcDbXrecord
280
     1
270
     1
271
     1
  0
XRECORD
  5
31AD
102
{ACAD_REACTORS
330
31AA
102
}
330
31AA
100
AcDbXrecord
280
     1
270
     1
271
     1
  0
XRECORD
  5
3609
102
{ACAD_REACTORS
330
31A2
102
}
330
31A2
100
AcDbXrecord
280
     1
102
MATERIAL
148
0.0
149
0.0
149
0.0
 93
        0
 94
      127
282
     0
 72
     0
 77
     0
171
     0
175
     0
179
     0
273
     0
  0
XRECORD
  5
31A4
102
{ACAD_REACTORS
330
31A2
102
}
330
31A2
100
AcDbXrecord
280
     1
270
     1
271
     1
  0
XRECORD
  5
31A3
102
{ACAD_REACTORS
330
31A2
102
}
330
31A2
100
AcDbXrecord
280
     1
270
     1
271
     1
  0
XRECORD
  5
31A7
102
{ACAD_REACTORS
330
31A2
102
}
330
31A2
100
AcDbXrecord
280
     1
270
     1
271
     1
  0
XRECORD
  5
31A6
102
{ACAD_REACTORS
330
31A2
102
}
330
31A2
100
AcDbXrecord
280
     1
270
     1
271
     1
  0
XRECORD
  5
31A8
102
{ACAD_REACTORS
330
31A2
102
}
330
31A2
100
AcDbXrecord
280
     1
270
     1
271
     1
  0
XRECORD
  5
31A5
102
{ACAD_REACTORS
330
31A2
102
}
330
31A2
100
AcDbXrecord
280
     1
270
     1
271
     1
  0
XRECORD
  5
360B
102
{ACAD_REACTORS
330
31B2
102
}
330
31B2
100
AcDbXrecord
280
     1
102
MATERIAL
148
0.0
149
0.0
149
0.0
 93
        0
 94
      127
282
     0
 72
     0
 77
     0
171
     0
175
     0
179
     0
273
     0
  0
XRECORD
  5
31B4
102
{ACAD_REACTORS
330
31B2
102
}
330
31B2
100
AcDbXrecord
280
     1
270
     1
271
     1
  0
XRECORD
  5
31B3
102
{ACAD_REACTORS
330
31B2
102
}
330
31B2
100
AcDbXrecord
280
     1
270
     1
271
     1
  0
XRECORD
  5
31B7
102
{ACAD_REACTORS
330
31B2
102
}
330
31B2
100
AcDbXrecord
280
     1
270
     1
271
     1
  0
XRECORD
  5
31B6
102
{ACAD_REACTORS
330
31B2
102
}
330
31B2
100
AcDbXrecord
280
     1
270
     1
271
     1
  0
XRECORD
  5
31B8
102
{ACAD_REACTORS
330
31B2
102
}
330
31B2
100
AcDbXrecord
280
     1
270
     1
271
     1
  0
XRECORD
  5
31B5
102
{ACAD_REACTORS
330
31B2
102
}
330
31B2
100
AcDbXrecord
280
     1
270
     1
271
     1
  0
XRECORD
  5
370E
102
{ACAD_REACTORS
330
370D
102
}
330
370D
100
AcDbXrecord
280
     1
102
SHADEPLOT
 70
     0
102
SHADEPLOTRESLEVEL
 70
     2
102
SHADEPLOTCUSTOMDPI
 70
   300
  0
XRECORD
  5
3710
102
{ACAD_REACTORS
330
370F
102
}
330
370F
100
AcDbXrecord
280
     1
102
SHADEPLOT
 70
     0
102
SHADEPLOTRESLEVEL
 70
     2
102
SHADEPLOTCUSTOMDPI
 70
   300
  0
ACAD_PROXY_OBJECT
  5
35F7
102
{ACAD_REACTORS
330
328C
102
}
330
328C
100
AcDbProxyObject
 90
      499
 91
      515
 95
   983063
 70
     0
 93
     5304
310
40D054060020000020000003200101A000080002A5058000000C10000000000000006101010000000000003E0FC000000000000F83F0000000000003E0FC000000000000F83F02B5E8DC0F42B1CFC0AD7A3703D0AC73F419019018000000C1003FBFFFFFE0000000000003C8FD029018000000C1003FBFFFFFE00000000000
310
03C8FD049018000000C1003FBFFFFFE0000000000003C8FD089018000000C1003FBFFFFFE0000000000003C8FD109018000000C1003FBFFFFFE0000000000003C8FD209018000000C1003FBFFFFFE0000000000003C8FD01405075F5449544C450041501A8000000C800406800020000A94160000003040000000000000012
310
40404000000000000F83F0000000000003E0FC000000000000F83F0000000000003E0FC0AD7A3703D0AC73F02B5E8DC0F42B1CFD0640640600000030400FEFFFFFF8000000000000F23F40A40600000030400FEFFFFFF8000000000000F23F41240600000030400FEFFFFFF8000000000000F23F42240600000030400FEFFF
310
FFF8000000000000F23F44240600000030400FEFFFFFF8000000000000F23F48240600000030400FEFFFFFF8000000000000F23F409014217D2115051115480105406A0000003200101A000080002A5028000000C10000000000000004901010000000000003E0FC000000000000F83F0000000000003E0FC000000000000F
310
83F02B5E8DC0F42B1CFC0AD7A3703D0AC73F419019018000000C1003FBFFFFFE0000000000003C8FD029018000000C1003FBFFFFFE0000000000003C8FD049018000000C1003FBFFFFFE0000000000003C8FD089018000000C1003FBFFFFFE0000000000003C8FD109018000000C1003FBFFFFFE0000000000003C8FD20901
310
8000000C1003FBFFFFFE0000000000003C8FD03409065F444154410000
340
11
340
0
340
0
340
0
340
0
340
0
340
0
340
11
340
0
340
0
340
0
340
0
340
0
340
0
340
11
340
0
340
0
340
0
340
0
340
0
340
0
 94
        0
1001
ACAD
1000
AcRTDxfName
1000
CELLSTYLEMAP
1000
AcRTDxfName
1000
CELLSTYLEMAP
1000
AcRTDxfName
1000
CELLSTYLEMAP
1000
AcRTDxfName
1000
CELLSTYLEMAP
  0
XRECORD
  5
360C
102
{ACAD_REACTORS
330
328C
102
}
330
328C
100
AcDbXrecord
280
     1
102
ACAD_ROUNDTRIP_PRE2007_TABLESTYLE
 90
      512
 91
        0
  1

 92
      512
 93
        0
  2

 94
      512
 95
        0
  3

  0
ENDSEC
  0
EOF
