  0
SECTION
  2
HEADER
  9
$ACADVER
  1
AC1015
  9
$ACADMAINTVER
 70
    20
  9
$DWGCODEPAGE
  3
ANSI_1252
  9
$INSBASE
 10
0.0
 20
0.0
 30
0.0
  9
$EXTMIN
 10
-0.0000008078504834
 20
0.0000001108869583
 30
0.0
  9
$EXTMAX
 10
353.9999991921495
 20
482.0000001108869
 30
0.0
  9
$LIMMIN
 10
-0.0000008078504834
 20
0.0000001108869583
  9
$LIMMAX
 10
353.9999991921495
 20
482.0000001108869
  9
$ORTHOMODE
 70
     0
  9
$REGENMODE
 70
     1
  9
$FILLMODE
 70
     1
  9
$QTEXTMODE
 70
     0
  9
$MIRRTEXT
 70
     0
  9
$LTSCALE
 40
1.0
  9
$ATTMODE
 70
     1
  9
$TEXTSIZE
 40
5.0
  9
$TRACEWID
 40
1.0
  9
$TEXTSTYLE
  7
Arial-Bold
  9
$CLAYER
  8
APL Joinery
  9
$CELTYPE
  6
ByLayer
  9
$CECOLOR
 62
   256
  9
$CELTSCALE
 40
1.0
  9
$DISPSILH
 70
     0
  9
$DIMSCALE
 40
1.0
  9
$DIMASZ
 40
4.0
  9
$DIMEXO
 40
0.625
  9
$DIMDLI
 40
3.75
  9
$DIMRND
 40
0.0
  9
$DIMDLE
 40
0.0
  9
$DIMEXE
 40
1.25
  9
$DIMTP
 40
0.0
  9
$DIMTM
 40
0.0
  9
$DIMTXT
 40
2.5
  9
$DIMCEN
 40
2.5
  9
$DIMTSZ
 40
0.0
  9
$DIMTOL
 70
     0
  9
$DIMLIM
 70
     0
  9
$DIMTIH
 70
     0
  9
$DIMTOH
 70
     0
  9
$DIMSE1
 70
     0
  9
$DIMSE2
 70
     0
  9
$DIMTAD
 70
     1
  9
$DIMZIN
 70
     8
  9
$DIMBLK
  1

  9
$DIMASO
 70
     1
  9
$DIMSHO
 70
     1
  9
$DIMPOST
  1

  9
$DIMAPOST
  1

  9
$DIMALT
 70
     0
  9
$DIMALTD
 70
     3
  9
$DIMALTF
 40
0.03937007874016
  9
$DIMLFAC
 40
1.0
  9
$DIMTOFL
 70
     1
  9
$DIMTVP
 40
0.0
  9
$DIMTIX
 70
     0
  9
$DIMSOXD
 70
     0
  9
$DIMSAH
 70
     0
  9
$DIMBLK1
  1

  9
$DIMBLK2
  1

  9
$DIMSTYLE
  2
ISO-25
  9
$DIMCLRD
 70
     0
  9
$DIMCLRE
 70
     0
  9
$DIMCLRT
 70
     0
  9
$DIMTFAC
 40
1.0
  9
$DIMGAP
 40
0.625
  9
$DIMJUST
 70
     0
  9
$DIMSD1
 70
     0
  9
$DIMSD2
 70
     0
  9
$DIMTOLJ
 70
     0
  9
$DIMTZIN
 70
     8
  9
$DIMALTZ
 70
     0
  9
$DIMALTTZ
 70
     0
  9
$DIMUPT
 70
     0
  9
$DIMDEC
 70
     2
  9
$DIMTDEC
 70
     2
  9
$DIMALTU
 70
     2
  9
$DIMALTTD
 70
     3
  9
$DIMTXSTY
  7
Standard
  9
$DIMAUNIT
 70
     0
  9
$DIMADEC
 70
     0
  9
$DIMALTRND
 40
0.0
  9
$DIMAZIN
 70
     0
  9
$DIMDSEP
 70
    44
  9
$DIMATFIT
 70
     3
  9
$DIMFRAC
 70
     0
  9
$DIMLDRBLK
  1

  9
$DIMLUNIT
 70
     2
  9
$DIMLWD
 70
    -2
  9
$DIMLWE
 70
    -2
  9
$DIMTMOVE
 70
     0
  9
$LUNITS
 70
     2
  9
$LUPREC
 70
     4
  9
$SKETCHINC
 40
1.0
  9
$FILLETRAD
 40
0.0
  9
$AUNITS
 70
     0
  9
$AUPREC
 70
     0
  9
$MENU
  1
.
  9
$ELEVATION
 40
0.0
  9
$PELEVATION
 40
0.0
  9
$THICKNESS
 40
0.0
  9
$LIMCHECK
 70
     0
  9
$CHAMFERA
 40
0.0
  9
$CHAMFERB
 40
0.0
  9
$CHAMFERC
 40
20.0
  9
$CHAMFERD
 40
0.0
  9
$SKPOLY
 70
     0
  9
$TDCREATE
 40
2452283.468413125
  9
$TDUCREATE
 40
2452282.968413125
  9
$TDUPDATE
 40
2455812.471835336
  9
$TDUUPDATE
 40
2455811.971835336
  9
$TDINDWG
 40
0.3207154051
  9
$TDUSRTIMER
 40
0.3207154051
  9
$USRTIMER
 70
     1
  9
$ANGBASE
 50
0.0
  9
$ANGDIR
 70
     0
  9
$PDMODE
 70
     3
  9
$PDSIZE
 40
3.0
  9
$PLINEWID
 40
0.0
  9
$SPLFRAME
 70
     0
  9
$SPLINETYPE
 70
     6
  9
$SPLINESEGS
 70
     8
  9
$HANDSEED
  5
3979
  9
$SURFTAB1
 70
     6
  9
$SURFTAB2
 70
     6
  9
$SURFTYPE
 70
     6
  9
$SURFU
 70
     6
  9
$SURFV
 70
     6
  9
$UCSBASE
  2

  9
$UCSNAME
  2

  9
$UCSORG
 10
0.0
 20
0.0
 30
0.0
  9
$UCSXDIR
 10
1.0
 20
0.0
 30
0.0
  9
$UCSYDIR
 10
0.0
 20
1.0
 30
0.0
  9
$UCSORTHOREF
  2

  9
$UCSORTHOVIEW
 70
     0
  9
$UCSORGTOP
 10
0.0
 20
0.0
 30
0.0
  9
$UCSORGBOTTOM
 10
0.0
 20
0.0
 30
0.0
  9
$UCSORGLEFT
 10
0.0
 20
0.0
 30
0.0
  9
$UCSORGRIGHT
 10
0.0
 20
0.0
 30
0.0
  9
$UCSORGFRONT
 10
0.0
 20
0.0
 30
0.0
  9
$UCSORGBACK
 10
0.0
 20
0.0
 30
0.0
  9
$PUCSBASE
  2

  9
$PUCSNAME
  2

  9
$PUCSORG
 10
0.0
 20
0.0
 30
0.0
  9
$PUCSXDIR
 10
1.0
 20
0.0
 30
0.0
  9
$PUCSYDIR
 10
0.0
 20
1.0
 30
0.0
  9
$PUCSORTHOREF
  2

  9
$PUCSORTHOVIEW
 70
     0
  9
$PUCSORGTOP
 10
0.0
 20
0.0
 30
0.0
  9
$PUCSORGBOTTOM
 10
0.0
 20
0.0
 30
0.0
  9
$PUCSORGLEFT
 10
0.0
 20
0.0
 30
0.0
  9
$PUCSORGRIGHT
 10
0.0
 20
0.0
 30
0.0
  9
$PUCSORGFRONT
 10
0.0
 20
0.0
 30
0.0
  9
$PUCSORGBACK
 10
0.0
 20
0.0
 30
0.0
  9
$USERI1
 70
     0
  9
$USERI2
 70
     0
  9
$USERI3
 70
     0
  9
$USERI4
 70
     0
  9
$USERI5
 70
     0
  9
$USERR1
 40
0.0
  9
$USERR2
 40
0.0
  9
$USERR3
 40
0.0
  9
$USERR4
 40
0.0
  9
$USERR5
 40
0.0
  9
$WORLDVIEW
 70
     1
  9
$SHADEDGE
 70
     3
  9
$SHADEDIF
 70
    70
  9
$TILEMODE
 70
     0
  9
$MAXACTVP
 70
    64
  9
$PINSBASE
 10
0.0
 20
0.0
 30
0.0
  9
$PLIMCHECK
 70
     0
  9
$PEXTMIN
 10
23.18044706418215
 20
4.593203749878057
 30
-0.0015258207003583
  9
$PEXTMAX
 10
201.1995659542675
 20
279.5675810587587
 30
0.0000000349246037
  9
$PLIMMIN
 10
6.565115279834287
 20
-3.511209490117948
  9
$PLIMMAX
 10
216.4537718960452
 20
293.5417995430852
  9
$UNITMODE
 70
     0
  9
$VISRETAIN
 70
     1
  9
$PLINEGEN
 70
     0
  9
$PSLTSCALE
 70
     1
  9
$TREEDEPTH
 70
  3020
  9
$CMLSTYLE
  2
Standard
  9
$CMLJUST
 70
     0
  9
$CMLSCALE
 40
20.0
  9
$PROXYGRAPHICS
 70
     1
  9
$MEASUREMENT
 70
     1
  9
$CELWEIGHT
370
    -1
  9
$ENDCAPS
280
     0
  9
$JOINSTYLE
280
     0
  9
$LWDISPLAY
290
     0
  9
$INSUNITS
 70
     4
  9
$HYPERLINKBASE
  1

  9
$STYLESHEET
  1
A4 Specifier Manual.ctb
  9
$XEDIT
290
     1
  9
$CEPSNTYPE
380
     0
  9
$PSTYLEMODE
290
     1
  9
$FINGERPRINTGUID
  2
{D079D194-C9C2-11D5-B123-005004D48FB5}
  9
$VERSIONGUID
  2
{23383853-7076-4142-9806-6F018782DCC2}
  9
$EXTNAMES
290
     1
  9
$PSVPSCALE
 40
0.0
  9
$OLESTARTUP
290
     0
  0
ENDSEC
  0
SECTION
  2
CLASSES
  0
CLASS
  1
ACDBDICTIONARYWDFLT
  2
AcDbDictionaryWithDefault
  3
ObjectDBX Classes
 90
        0
280
     0
281
     0
  0
CLASS
  1
ACDBPLACEHOLDER
  2
AcDbPlaceHolder
  3
ObjectDBX Classes
 90
        0
280
     0
281
     0
  0
CLASS
  1
LAYOUT
  2
AcDbLayout
  3
ObjectDBX Classes
 90
        0
280
     0
281
     0
  0
CLASS
  1
DICTIONARYVAR
  2
AcDbDictionaryVar
  3
ObjectDBX Classes
 90
        0
280
     0
281
     0
  0
CLASS
  1
PLOTSETTINGS
  2
AcDbPlotSettings
  3
ObjectDBX Classes
 90
        0
280
     0
281
     0
  0
CLASS
  1
MATERIAL
  2
AcDbMaterial
  3
ObjectDBX Classes
 90
        0
280
     0
281
     0
  0
CLASS
  1
VISUALSTYLE
  2
AcDbVisualStyle
  3
ObjectDBX Classes
 90
     4095
280
     0
281
     0
  0
CLASS
  1
TABLESTYLE
  2
AcDbTableStyle
  3
ObjectDBX Classes
 90
     2047
280
     0
281
     0
  0
CLASS
  1
SCALE
  2
AcDbScale
  3
ObjectDBX Classes
 90
     1153
280
     0
281
     0
  0
CLASS
  1
MLEADERSTYLE
  2
AcDbMLeaderStyle
  3
ACDB_MLEADERSTYLE_CLASS
 90
     4095
280
     0
281
     0
  0
CLASS
  1
EXACTERMXREFMAP
  2
ExAcTermXrefMap
  3
EXAC_SERVICE
 90
    33793
280
     0
281
     0
  0
CLASS
  1
NPOCOLLECTION
  2
AcDbImpNonPersistentObjectsCollection
  3
ObjectDBX Classes
 90
    33921
280
     0
281
     0
  0
CLASS
  1
EXACXREFPANELOBJECT
  2
ExAcXREFPanelObject
  3
EXAC_ESW
 90
    33793
280
     0
281
     0
  0
CLASS
  1
SORTENTSTABLE
  2
AcDbSortentsTable
  3
ObjectDBX Classes
 90
        0
280
     0
281
     0
  0
CLASS
  1
CELLSTYLEMAP
  2
AcDbCellStyleMap
  3
ObjectDBX Classes
 90
     1152
280
     0
281
     0
  0
ENDSEC
  0
SECTION
  2
TABLES
  0
TABLE
  2
VPORT
  5
8
102
{ACAD_XDICTIONARY
360
3637
102
}
330
0
100
AcDbSymbolTable
 70
     1
  0
VPORT
  5
351D
330
8
100
AcDbSymbolTableRecord
100
AcDbViewportTableRecord
  2
*Active
 70
     0
 10
0.0
 20
0.0
 11
1.0
 21
1.0
 12
177.0000000163699
 22
241.0000012331306
 13
0.0
 23
0.0
 14
10.0
 24
10.0
 15
10.0
 25
10.0
 16
0.0
 26
0.0
 36
1.0
 17
0.0
 27
0.0
 37
0.0
 40
486.0744210623705
 41
1.654061624649859
 42
50.0
 43
0.0
 44
0.0
 50
0.0
 51
0.0
 71
     0
 72
 20000
 73
     1
 74
     3
 75
     0
 76
     0
 77
     0
 78
     0
281
     0
 65
     1
110
0.0
120
0.0
130
0.0
111
1.0
121
0.0
131
0.0
112
0.0
122
1.0
132
0.0
 79
     0
146
0.0
  0
ENDTAB
  0
TABLE
  2
LTYPE
  5
5
330
0
100
AcDbSymbolTable
 70
     2
  0
LTYPE
  5
14
330
5
100
AcDbSymbolTableRecord
100
AcDbLinetypeTableRecord
  2
ByBlock
 70
     0
  3

 72
    65
 73
     0
 40
0.0
  0
LTYPE
  5
15
330
5
100
AcDbSymbolTableRecord
100
AcDbLinetypeTableRecord
  2
ByLayer
 70
     0
  3

 72
    65
 73
     0
 40
0.0
  0
LTYPE
  5
16
330
5
100
AcDbSymbolTableRecord
100
AcDbLinetypeTableRecord
  2
Continuous
 70
     0
  3
Solid line
 72
    65
 73
     0
 40
0.0
  0
LTYPE
  5
1123
330
5
100
AcDbSymbolTableRecord
100
AcDbLinetypeTableRecord
  2
DASHED
 70
     0
  3
_ _ _ _ _ _ _ _ _ _ _ _ _ _ _ _
 72
    65
 73
     2
 40
0.2
 49
0.1
 74
     0
 49
-0.1
 74
     0
  0
ENDTAB
  0
TABLE
  2
LAYER
  5
2
102
{ACAD_XDICTIONARY
360
35DE
102
}
330
0
100
AcDbSymbolTable
 70
     5
  0
LAYER
  5
10
102
{ACAD_XDICTIONARY
360
35F9
102
}
330
2
100
AcDbSymbolTableRecord
100
AcDbLayerTableRecord
  2
0
 70
     4
 62
     7
  6
Continuous
290
     0
370
    -3
390
F
  0
LAYER
  5
2B
102
{ACAD_XDICTIONARY
360
35FB
102
}
330
2
100
AcDbSymbolTableRecord
100
AcDbLayerTableRecord
  2
APL Joinery
 70
     0
 62
     2
  6
Continuous
370
    -3
390
F
  0
LAYER
  5
75
102
{ACAD_XDICTIONARY
360
35FD
102
}
330
2
100
AcDbSymbolTableRecord
100
AcDbLayerTableRecord
  2
APL Notes
 70
     0
 62
     7
  6
Continuous
370
    -3
390
F
  0
LAYER
  5
3148
102
{ACAD_XDICTIONARY
360
35FF
102
}
330
2
100
AcDbSymbolTableRecord
100
AcDbLayerTableRecord
  2
APL Border
 70
     0
 62
     7
  6
Continuous
370
    -3
390
F
  0
LAYER
  5
35BB
102
{ACAD_XDICTIONARY
360
3603
102
}
330
2
100
AcDbSymbolTableRecord
100
AcDbLayerTableRecord
  2
APL Hatch
 70
     0
 62
   253
  6
Continuous
370
    -3
390
F
  0
ENDTAB
  0
TABLE
  2
STYLE
  5
3
330
0
100
AcDbSymbolTable
 70
     6
  0
STYLE
  5
11
330
3
100
AcDbSymbolTableRecord
100
AcDbTextStyleTableRecord
  2
Standard
 70
     0
 40
0.0
 41
1.0
 50
0.0
 71
     0
 42
3.0
  3
txt
  4

  0
STYLE
  5
56
330
3
100
AcDbSymbolTableRecord
100
AcDbTextStyleTableRecord
  2
Arial-Regular
 70
     0
 40
0.0
 41
1.0
 50
0.0
 71
     0
 42
2.5
  3
ARIAL.TTF
  4

1001
ACAD
1000
Arial
1071
       34
  0
STYLE
  5
58
330
3
100
AcDbSymbolTableRecord
100
AcDbTextStyleTableRecord
  2
Arial-Bold
 70
     0
 40
0.0
 41
1.0
 50
0.0
 71
     0
 42
5.0
  3
ARIALBD.TTF
  4

1001
ACAD
1000
Arial
1071
 33554466
  0
STYLE
  5
3931
330
3
100
AcDbSymbolTableRecord
100
AcDbTextStyleTableRecord
  2
Times New Roman - Regular
 70
     0
 40
0.0
 41
1.0
 50
0.0
 71
     0
 42
2.5
  3
TIMES.TTF
  4

1001
ACAD
1000
Times New Roman
1071
       18
  0
ENDTAB
  0
TABLE
  2
VIEW
  5
6
330
0
100
AcDbSymbolTable
 70
     0
  0
ENDTAB
  0
TABLE
  2
UCS
  5
7
330
0
100
AcDbSymbolTable
 70
     0
  0
ENDTAB
  0
TABLE
  2
APPID
  5
9
330
0
100
AcDbSymbolTable
 70
     3
  0
APPID
  5
12
330
9
100
AcDbSymbolTableRecord
100
AcDbRegAppTableRecord
  2
ACAD
 70
     0
  0
APPID
  5
35B3
330
9
100
AcDbSymbolTableRecord
100
AcDbRegAppTableRecord
  2
ACAD_MLEADERVER
 70
     0
  0
APPID
  5
368C
330
9
100
AcDbSymbolTableRecord
100
AcDbRegAppTableRecord
  2
ACAD_PSEXT
 70
     0
  0
ENDTAB
  0
TABLE
  2
DIMSTYLE
  5
A
330
0
100
AcDbSymbolTable
 70
     2
100
AcDbDimStyleTable
 71
     1
340
27
  0
DIMSTYLE
105
27
330
A
100
AcDbSymbolTableRecord
100
AcDbDimStyleTableRecord
  2
ISO-25
 70
     0
 41
4.0
 42
0.625
 43
3.75
 44
1.25
 73
     0
 74
     0
 77
     1
 78
     8
140
2.5
141
2.5
143
0.03937007874016
147
0.625
171
     3
172
     1
271
     2
272
     2
274
     3
278
    44
283
     0
284
     8
340
11
  0
ENDTAB
  0
TABLE
  2
BLOCK_RECORD
  5
1
330
0
100
AcDbSymbolTable
 70
    26
  0
BLOCK_RECORD
  5
1F
102
{ACAD_XDICTIONARY
360
35F3
102
}
330
1
100
AcDbSymbolTableRecord
100
AcDbBlockTableRecord
  2
*Model_Space
340
22
  0
BLOCK_RECORD
  5
33DD
330
1
100
AcDbSymbolTableRecord
100
AcDbBlockTableRecord
  2
*Paper_Space
340
33DE
  0
BLOCK_RECORD
  5
2679
102
{ACAD_XDICTIONARY
360
38E1
102
}
330
1
100
AcDbSymbolTableRecord
100
AcDbBlockTableRecord
  2
07100
340
0
102
{BLKREFS
331
2CF1
102
}
1001
ACAD
1000
DesignCenter Data
1002
{
1070
     1
1070
     4
1002
}
  0
BLOCK_RECORD
  5
267E
330
1
100
AcDbSymbolTableRecord
100
AcDbBlockTableRecord
  2
sw30mmliner
340
0
102
{BLKREFS
331
2CF4
102
}
  0
BLOCK_RECORD
  5
2683
102
{ACAD_XDICTIONARY
360
38E6
102
}
330
1
100
AcDbSymbolTableRecord
100
AcDbBlockTableRecord
  2
07438
340
0
102
{BLKREFS
331
3516
102
}
1001
ACAD
1000
DesignCenter Data
1002
{
1070
     1
1070
     4
1002
}
  0
BLOCK_RECORD
  5
268E
330
1
100
AcDbSymbolTableRecord
100
AcDbBlockTableRecord
  2
9700520
340
0
102
{BLKREFS
331
3518
102
}
1001
ACAD
1000
DesignCenter Data
1002
{
1070
     1
1070
     4
1002
}
  0
BLOCK_RECORD
  5
26A8
330
1
100
AcDbSymbolTableRecord
100
AcDbBlockTableRecord
  2
6Glass
340
0
102
{BLKREFS
331
26C3
331
26F6
331
26F7
102
}
  0
BLOCK_RECORD
  5
26AE
330
1
100
AcDbSymbolTableRecord
100
AcDbBlockTableRecord
  2
9010604
340
0
102
{BLKREFS
331
26C4
331
26F2
102
}
1001
ACAD
1000
DesignCenter Data
1002
{
1070
     1
1070
     4
1002
}
  0
BLOCK_RECORD
  5
26CC
102
{ACAD_XDICTIONARY
360
390A
102
}
330
1
100
AcDbSymbolTableRecord
100
AcDbBlockTableRecord
  2
07123
340
0
102
{BLKREFS
331
26F1
102
}
1001
ACAD
1000
DesignCenter Data
1002
{
1070
     1
1070
     4
1002
}
  0
BLOCK_RECORD
  5
26D2
330
1
100
AcDbSymbolTableRecord
100
AcDbBlockTableRecord
  2
9700158
340
0
102
{BLKREFS
331
26F3
331
2732
102
}
1001
ACAD
1000
DesignCenter Data
1002
{
1070
     1
1070
     4
1002
}
  0
BLOCK_RECORD
  5
26E1
330
1
100
AcDbSymbolTableRecord
100
AcDbBlockTableRecord
  2
07123Glaze
340
0
310
2800000020000000200000000100080000000000000400000000000000000000000000000000000000000000000080000080000000808000800000008000800080800000C0C0C000C0DCC000F0CAA6000020400000206000002080000020A0000020C0000020E00000400000004020000040400000406000004080000040A0
310
000040C0000040E00000600000006020000060400000606000006080000060A0000060C0000060E00000800000008020000080400000806000008080000080A0000080C0000080E00000A0000000A0200000A0400000A0600000A0800000A0A00000A0C00000A0E00000C0000000C0200000C0400000C0600000C0800000C0
310
A00000C0C00000C0E00000E0000000E0200000E0400000E0600000E0800000E0A00000E0C00000E0E00040000000400020004000400040006000400080004000A0004000C0004000E00040200000402020004020400040206000402080004020A0004020C0004020E000404000004040200040404000404060004040800040
310
40A0004040C0004040E00040600000406020004060400040606000406080004060A0004060C0004060E00040800000408020004080400040806000408080004080A0004080C0004080E00040A0000040A0200040A0400040A0600040A0800040A0A00040A0C00040A0E00040C0000040C0200040C0400040C0600040C08000
310
40C0A00040C0C00040C0E00040E0000040E0200040E0400040E0600040E0800040E0A00040E0C00040E0E00080000000800020008000400080006000800080008000A0008000C0008000E00080200000802020008020400080206000802080008020A0008020C0008020E00080400000804020008040400080406000804080
310
008040A0008040C0008040E00080600000806020008060400080606000806080008060A0008060C0008060E00080800000808020008080400080806000808080008080A0008080C0008080E00080A0000080A0200080A0400080A0600080A0800080A0A00080A0C00080A0E00080C0000080C0200080C0400080C0600080C0
310
800080C0A00080C0C00080C0E00080E0000080E0200080E0400080E0600080E0800080E0A00080E0C00080E0E000C0000000C0002000C0004000C0006000C0008000C000A000C000C000C000E000C0200000C0202000C0204000C0206000C0208000C020A000C020C000C020E000C0400000C0402000C0404000C0406000C0
310
408000C040A000C040C000C040E000C0600000C0602000C0604000C0606000C0608000C060A000C060C000C060E000C0800000C0802000C0804000C0806000C0808000C080A000C080C000C080E000C0A00000C0A02000C0A04000C0A06000C0A08000C0A0A000C0A0C000C0A0E000C0C00000C0C02000C0C04000C0C06000
310
C0C08000C0C0A000F0FBFF00A4A0A000808080000000FF0000FF000000FFFF00FF000000FF00FF00FFFF0000FFFFFF0000000000000000000000000000000000000000000000000000000000000000000000000000000000000000000000000000000000000000000000000000000000000000000000000000000000000000
310
00000000000000000000000000000000000000000000000000000000000000000000000000000000FB00000000000000000000000000000000000000000000000000000000FBFBFBFB000000000000000000000000000000000000000000000000000000FBFBFB00FB000000FB000000000000000000000000000000000000
310
0000000000FB0000FBFB000000FBFB00000000000000000000000000000000000000000000000000FBFBFB0000FBFBFBFB00000000000000000000000000000000000000000000000000FBFBFB00FBFBFB0000000000000000000000000000000000000000000000000000FB00FB00FBFB0000000000000000000000000000
310
00000000000000000000000000FB00FBFBFB00000000000000000000000000000000000000000000000000000000FB0000FB0000000000000000000000000000000000000000000000000000A40000FB00FB00000000000000FFFFA4A4FFFFFFFFFFFFFFFFFFFFFFFFFFFFA400A40000FBFB00000000000000FF00A4A4FF00
310
00000000000000FF00A4A4FFA4A4A40000FBFB00000000000000FF00A4A4FF0000000000000000FF00A4A4FFA4A4A4FBFBFBFB000000000000A4FF00A4A4FF0000000000000000FF00A4A4FF00A4A4FBFB00FB000000000000A4FF00A4A4FF0000000000000000FF00A4A4FFA4A4A4FBFBFBFB00000000A4A4A4FF00A4A4FF
310
FFFFFFFFFFFFFFFFFF00A4A4FF00A400A400FBFB00000000A4A4A4FF00A4A4FF0000000000000000FF00A4A4FFA4A4A4A4FBFBFB00000000A4A4A4FF00A4A4FF0000000000000000FF00A4A4FFA4A4A4FBFBFB00000000000000A4FF00A4A4FF0000000000000000FF00A4A4FF00A4A4A400FB00000000A4A4A4A4FF00A4A4
310
FF0000000000000000FF00A4A4FFA40000A4FB0000000000A40000A4FF00A4A4FF0000000000000000FF00A4A4FF00A4A4000000000000A4A4A4A400FF00A4A4FF0000000000000000FF00A4A4FFA400000000000000000000000000FF00A4A4FF0000000000000000FF00A4A4FF0000000000000000000000000000FF00A4
310
A4FF0000000000000000FF00A4A4FF0000000000000000000000000000FF00A4A4FF0000000000000000FF00A4A4FF0000000000000000000000000000FF00A4A4FF0000000000000000FF00A4A4FF000000000000000000000000000000000000000000000000000000000000000000000000000000000000000000000000
310
0000000000000000000000000000000000000000000000000000000000000000000000000000000000000000000000000000000000000000
102
{BLKREFS
331
2D19
331
36D7
331
36DC
102
}
1001
ACAD
1000
DesignCenter Data
1002
{
1070
     1
1070
     4
1002
}
  0
BLOCK_RECORD
  5
2707
102
{ACAD_XDICTIONARY
360
3913
102
}
330
1
100
AcDbSymbolTableRecord
100
AcDbBlockTableRecord
  2
07103
340
0
102
{BLKREFS
331
272E
102
}
1001
ACAD
1000
DesignCenter Data
1002
{
1070
     1
1070
     4
1002
}
  0
BLOCK_RECORD
  5
271B
330
1
100
AcDbSymbolTableRecord
100
AcDbBlockTableRecord
  2
9700529
340
0
102
{BLKREFS
331
2731
102
}
1001
ACAD
1000
DesignCenter Data
1002
{
1070
     1
1070
     4
1002
}
  0
BLOCK_RECORD
  5
2720
330
1
100
AcDbSymbolTableRecord
100
AcDbBlockTableRecord
  2
Timber Profile 14
340
0
102
{BLKREFS
331
2730
102
}
1001
ACAD
1000
DesignCenter Data
1002
{
1070
     1
1070
     4
1002
}
  0
BLOCK_RECORD
  5
2726
330
1
100
AcDbSymbolTableRecord
100
AcDbBlockTableRecord
  2
9010100
340
0
102
{BLKREFS
331
272F
102
}
1001
ACAD
1000
DesignCenter Data
1002
{
1070
     1
1070
     4
1002
}
  0
BLOCK_RECORD
  5
272B
330
1
100
AcDbSymbolTableRecord
100
AcDbBlockTableRecord
  2
07103Sash
340
0
310
2800000020000000200000000100080000000000000400000000000000000000000000000000000000000000000080000080000000808000800000008000800080800000C0C0C000C0DCC000F0CAA6000020400000206000002080000020A0000020C0000020E00000400000004020000040400000406000004080000040A0
310
000040C0000040E00000600000006020000060400000606000006080000060A0000060C0000060E00000800000008020000080400000806000008080000080A0000080C0000080E00000A0000000A0200000A0400000A0600000A0800000A0A00000A0C00000A0E00000C0000000C0200000C0400000C0600000C0800000C0
310
A00000C0C00000C0E00000E0000000E0200000E0400000E0600000E0800000E0A00000E0C00000E0E00040000000400020004000400040006000400080004000A0004000C0004000E00040200000402020004020400040206000402080004020A0004020C0004020E000404000004040200040404000404060004040800040
310
40A0004040C0004040E00040600000406020004060400040606000406080004060A0004060C0004060E00040800000408020004080400040806000408080004080A0004080C0004080E00040A0000040A0200040A0400040A0600040A0800040A0A00040A0C00040A0E00040C0000040C0200040C0400040C0600040C08000
310
40C0A00040C0C00040C0E00040E0000040E0200040E0400040E0600040E0800040E0A00040E0C00040E0E00080000000800020008000400080006000800080008000A0008000C0008000E00080200000802020008020400080206000802080008020A0008020C0008020E00080400000804020008040400080406000804080
310
008040A0008040C0008040E00080600000806020008060400080606000806080008060A0008060C0008060E00080800000808020008080400080806000808080008080A0008080C0008080E00080A0000080A0200080A0400080A0600080A0800080A0A00080A0C00080A0E00080C0000080C0200080C0400080C0600080C0
310
800080C0A00080C0C00080C0E00080E0000080E0200080E0400080E0600080E0800080E0A00080E0C00080E0E000C0000000C0002000C0004000C0006000C0008000C000A000C000C000C000E000C0200000C0202000C0204000C0206000C0208000C020A000C020C000C020E000C0400000C0402000C0404000C0406000C0
310
408000C040A000C040C000C040E000C0600000C0602000C0604000C0606000C0608000C060A000C060C000C060E000C0800000C0802000C0804000C0806000C0808000C080A000C080C000C080E000C0A00000C0A02000C0A04000C0A06000C0A08000C0A0A000C0A0C000C0A0E000C0C00000C0C02000C0C04000C0C06000
310
C0C08000C0C0A000F0FBFF00A4A0A000808080000000FF0000FF000000FFFF00FF000000FF00FF00FFFF0000FFFFFF0000000000000000000000000000000000000000000000000000000000000000000000000000000000000000000000000000000000000000000000000000000000000000000000000000000000000000
310
000000000000000000000000000000000000000000000000000000000000000000000000000000000000000000000000000000000000000000000000FBFBFBFBFBFBFBFBFBFBFBFB0000000000000000000000000000000000000000FBFBFBFBFBFBFBFBFBFBFBFBFBFB0000000000000000000000000000000000000000FB
310
FB000000000000000000FBFBFB000000000000000000000000000000000000FBFB0000000000000000FB0000FBFBFB00000000000000000000000000000000FBFB00000000000000FBFB00000000FBFB00000000000000000000000000FB00FBFB000000000000FBFB000000FBFBFBFB00000000000000000000000000FBFB
310
FBFB0000000000FBFB00000000FBA4A4FB00000000000000000000000000FBFBFB00000000FBFBFBFB000000A4A4A4A4A4A4000000000000000000000000FBFB0000000000FBFBFB00000000000000000000000000000000000000000000FBFB0000000000FB00FB00000000000000000000000000000000000000000000FB
310
FB000000000000FBFB00000000000000000000000000000000000000000000FBFB00000000000000FB00000000000000000000000000000000000000000000FBFB0000000000FBFBFB00000000000000000000000000000000000000000000FBFB0000000000FBFBFB0000000000000000000000000000FB00FBFB00000000
310
FBFB0000000000FB00FB0000000000000000000000000000A4A4A4A4A4A4A4A4A4A4A4A4A4A4A4FB0000000000000000000000000000FAFAA4A4A4A4A4A4A4A4A4A4A4A4A4A4A4FB0000000000000000000000000000FA000000000000000000000000000000A4A4FBFBFB0000000000000000000000FA0000000000000000
310
0000000000FAA4A4A4A4A4FB0000000000000000000000FA000000000000000000000000000000000000FAFB0000000000000000000000FAFAFAFAFAFAFAFAFAFAFAFAFAFAFAA4A4A4A4A4FB0000000000000000000000000000000000000000000000000000A4A4A4A4A40000000000000000000000000000000000000000
310
00000000000000A4A4A4A400000000000000000000000000000000000000000000000000000000A4A40000000000000000000000000000000000000000000000000000000000000000000000000000000000000000000000000000000000000000000000000000000000000000000000000000000000000000000000000000
310
0000000000000000000000000000000000000000000000000000000000000000000000000000000000000000000000000000000000000000
102
{BLKREFS
331
2733
331
2CEF
102
}
1001
ACAD
1000
DesignCenter Data
1002
{
1070
     1
1070
     4
1002
}
  0
BLOCK_RECORD
  5
2CF5
102
{ACAD_XDICTIONARY
360
3921
102
}
330
1
100
AcDbSymbolTableRecord
100
AcDbBlockTableRecord
  2
07115
340
0
102
{BLKREFS
331
2CF9
102
}
1001
ACAD
1000
DesignCenter Data
1002
{
1070
     1
1070
     4
1002
}
  0
BLOCK_RECORD
  5
2D00
330
1
100
AcDbSymbolTableRecord
100
AcDbBlockTableRecord
  2
9700533
340
0
102
{BLKREFS
331
2D06
102
}
1001
ACAD
1000
DesignCenter Data
1002
{
1070
     1
1070
     4
1002
}
  0
BLOCK_RECORD
  5
2D08
330
1
100
AcDbSymbolTableRecord
100
AcDbBlockTableRecord
  2
Timber Profile 19
340
0
102
{BLKREFS
331
2D0C
102
}
1001
ACAD
1000
DesignCenter Data
1002
{
1070
     1
1070
     4
1002
}
  0
BLOCK_RECORD
  5
33E7
330
1
100
AcDbSymbolTableRecord
100
AcDbBlockTableRecord
  2
smartwood a4 SM border
340
0
102
{BLKREFS
331
33EC
331
3756
331
376C
102
}
1001
ACAD
1000
DesignCenter Data
1002
{
1070
     1
1070
     4
1002
}
  0
BLOCK_RECORD
  5
3408
330
1
100
AcDbSymbolTableRecord
100
AcDbBlockTableRecord
  2
smartwood a4 SM attributes (2)
340
0
102
{BLKREFS
331
3421
331
3757
331
376D
102
}
1001
ACAD
1000
DesignCenter Data
1002
{
1070
     1
1070
     4
1002
}
  0
BLOCK_RECORD
  5
34CE
330
1
100
AcDbSymbolTableRecord
100
AcDbBlockTableRecord
  2
Timber Profile 24 - modified
340
0
102
{BLKREFS
331
3517
102
}
1001
ACAD
1000
DesignCenter Data
1002
{
1070
     1
1070
     4
1002
}
  0
BLOCK_RECORD
  5
3513
330
1
100
AcDbSymbolTableRecord
100
AcDbBlockTableRecord
  2
07438sightline
340
0
310
2800000020000000200000000100080000000000000400000000000000000000000000000000000000000000000080000080000000808000800000008000800080800000C0C0C000C0DCC000F0CAA6000020400000206000002080000020A0000020C0000020E00000400000004020000040400000406000004080000040A0
310
000040C0000040E00000600000006020000060400000606000006080000060A0000060C0000060E00000800000008020000080400000806000008080000080A0000080C0000080E00000A0000000A0200000A0400000A0600000A0800000A0A00000A0C00000A0E00000C0000000C0200000C0400000C0600000C0800000C0
310
A00000C0C00000C0E00000E0000000E0200000E0400000E0600000E0800000E0A00000E0C00000E0E00040000000400020004000400040006000400080004000A0004000C0004000E00040200000402020004020400040206000402080004020A0004020C0004020E000404000004040200040404000404060004040800040
310
40A0004040C0004040E00040600000406020004060400040606000406080004060A0004060C0004060E00040800000408020004080400040806000408080004080A0004080C0004080E00040A0000040A0200040A0400040A0600040A0800040A0A00040A0C00040A0E00040C0000040C0200040C0400040C0600040C08000
310
40C0A00040C0C00040C0E00040E0000040E0200040E0400040E0600040E0800040E0A00040E0C00040E0E00080000000800020008000400080006000800080008000A0008000C0008000E00080200000802020008020400080206000802080008020A0008020C0008020E00080400000804020008040400080406000804080
310
008040A0008040C0008040E00080600000806020008060400080606000806080008060A0008060C0008060E00080800000808020008080400080806000808080008080A0008080C0008080E00080A0000080A0200080A0400080A0600080A0800080A0A00080A0C00080A0E00080C0000080C0200080C0400080C0600080C0
310
800080C0A00080C0C00080C0E00080E0000080E0200080E0400080E0600080E0800080E0A00080E0C00080E0E000C0000000C0002000C0004000C0006000C0008000C000A000C000C000C000E000C0200000C0202000C0204000C0206000C0208000C020A000C020C000C020E000C0400000C0402000C0404000C0406000C0
310
408000C040A000C040C000C040E000C0600000C0602000C0604000C0606000C0608000C060A000C060C000C060E000C0800000C0802000C0804000C0806000C0808000C080A000C080C000C080E000C0A00000C0A02000C0A04000C0A06000C0A08000C0A0A000C0A0C000C0A0E000C0C00000C0C02000C0C04000C0C06000
310
C0C08000C0C0A000F0FBFF00A4A0A000808080000000FF0000FF000000FFFF00FF000000FF00FF00FFFF0000FFFFFF00000000000000000000000000000000000000000000000000000000000000000000000000000000000000000000000000000000000000000000000000000000000000FBFBFBFBFBFBFBFBFBFBFBFBFB
310
FBFBFBFB0000000000000000000000000000FBFBFBFBFBFBFBFBFBFBFBFBFBFBFBFBFBFB0000000000000000000000000000FBFBFB0000000000000000000000FBFB0000000000000000000000000000000000FBFB0000000000000000000000FBFB0000000000000000000000000000000000FBFB00000000000000000000
310
00FBFB0000000000000000000000000000000000FBFB0000000000000000000000FBFB0000000000000000000000000000000000FBFB0000000000000000000000FBFBFBFB000000000000000000000000000000FBFB0000000000000000000000FBFBFBFB000000000000000000000000000000FBFB000000000000000000
310
0000FBFBFBFB000000000000000000000000000000FBFBFBFB000000000000000000FBFBFBFB000000000000000000000000000000FBFBFBFB00000000000000000000FBFBFB000000000000000000000000000000FB00FBFB00000000000000000000FB00FB000000000000000000000000000000FBFBFBFB000000000000
310
000000FBFBFBFB000000000000000000000000000000FBFB00000000000000000000000000FBFB000000000000000000000000000000FBFB00000000000000000000000000FBFB000000000000000000000000000000FBFB00000000000000000000000000FBFB000000000000000000000000000000FB00FBFBFBFBFBFBFB
310
FBFBFB000000FBFB00000000000000000000000000000000FBFBFBFBFBFBFBFBFBFBFBFBFBFBFBFB0000000000FBFB00FBFB00000000000000000000000000000000FBFBFBFBFBA4A4A4A4A4A4A4A4A4A4A400000000000000000000000000000000000000FBFBA4A4A4A4A4A4A4A4A4A4A4FAFA0000000000000000000000
310
000000000000FBFBA4A4000000A4000000000000FA0000000000000000000000000000000000FBFBA4A4000000A4A40000000000FA0000000000000000000000000000000000FBA4A400A4000000A4A400000000FA0000000000000000000000000000000000FBA4A4A4FAA4000000A4A4A4A4A4FA00000000000000000000
310
0000000000FAFAFAFAA4A4FAA4A400000000000000FA000000000000000000000000000000FA0000000000000000A4A40000000000FA000000000000000000000000000000FA00000000000000000000A4A4A4A4A4FA000000000000000000000000000000FAFAFAFAFAFAFAFAFAFAFAFAFAFAFAFAFA000000000000000000
310
0000000000000000000000000000000000000000000000000000000000000000000000000000000000000000000000000000000000000000
102
{BLKREFS
331
3519
102
}
1001
ACAD
1000
DesignCenter Data
1002
{
1070
     1
1070
     4
1002
}
  0
ENDTAB
  0
ENDSEC
  0
SECTION
  2
BLOCKS
  0
BLOCK
  5
20
330
1F
100
AcDbEntity
  8
0
100
AcDbBlockBegin
  2
*Model_Space
 70
     0
 10
0.0
 20
0.0
 30
0.0
  3
*Model_Space
  1

  0
ENDBLK
  5
21
330
1F
100
AcDbEntity
  8
0
100
AcDbBlockEnd
  0
BLOCK
  5
33DF
330
33DD
100
AcDbEntity
 67
     1
  8
0
100
AcDbBlockBegin
  2
*Paper_Space
 70
     0
 10
0.0
 20
0.0
 30
0.0
  3
*Paper_Space
  1

  0
ENDBLK
  5
33E0
330
33DD
100
AcDbEntity
 67
     1
  8
0
100
AcDbBlockEnd
  0
BLOCK
  5
267A
330
2679
100
AcDbEntity
  8
0
100
AcDbBlockBegin
  2
07100
 70
     0
 10
412.3820800908974
 20
422.2176400418753
 30
0.0
  3
07100
  1
07100.dwg
  0
LWPOLYLINE
  5
38DF
102
{ACAD_REACTORS
330
38E0
102
}
330
2679
100
AcDbEntity
  8
APL Joinery
  6
Continuous
100
AcDbPolyline
 90
      100
 70
     1
 43
0.0
 10
407.1258300908974
 20
407.8904305773189
 42
-0.406909285354144
 10
406.8820800908975
 20
408.1403524401081
 10
406.8820800908975
 20
424.7412301935552
 42
-0.3571470433414134
 10
408.0860084823975
 20
426.2117204528363
 10
413.0820800908972
 20
427.2176400418754
 10
421.8825800908957
 20
427.2176400418754
 10
421.8825800908957
 20
437.7176400418762
 10
437.5325800908972
 20
437.7176400418762
 10
437.5325800908972
 20
442.7176400418753
 10
450.7556760195601
 20
442.7176400418755
 42
0.2544747761516115
 10
450.696505755367
 20
439.8263709579055
 42
-0.5622195450562853
 10
450.4745161408605
 20
439.4613900418749
 10
450.1325800908957
 20
439.4613900418749
 42
0.4142135623730951
 10
449.8825800908957
 20
439.211390041875
 10
449.8825800908957
 20
437.9676400418771
 42
0.4142135623730951
 10
450.1325800908957
 20
437.7176400418762
 10
456.9825800908961
 20
437.7176400418772
 10
456.9825800908961
 20
427.2176400418754
 10
459.9825800908961
 20
427.2176400418754
 10
459.9825800908961
 20
428.7176400418736
 10
458.3825800908957
 20
428.7176400418736
 10
458.3825800908961
 20
437.7176400418772
 42
0.4142135623730951
 10
456.9825800908961
 20
439.1176400418768
 10
455.6830800908969
 20
439.1176400418768
 10
455.6830800908959
 20
439.3480285867577
 42
0.6243132269123214
 10
454.3195396190705
 20
440.0144227537007
 42
-2.046147069503621
 10
454.319539619071
 20
442.4208573300497
 42
0.4767438882633759
 10
455.5979130921818
 20
442.7176400418753
 10
456.9825800908961
 20
442.7176400418741
 42
0.4142135623730951
 10
458.3825800908957
 20
444.1176400418741
 10
458.3825800908957
 20
447.7176400418754
 10
461.709555143821
 20
447.7176400418754
 10
462.209555143821
 20
448.2176400418735
 10
477.209555143821
 20
448.2176400418735
 10
477.709555143821
 20
447.7176400418735
 10
478.959555143821
 20
447.7176400418735
 42
0.9999999999999998
 10
478.959555143821
 20
449.2176400418735
 10
458.3825800908957
 20
449.2176400418735
 10
458.3825800908957
 20
450.4176400418745
 10
458.8825800908957
 20
450.4176400418746
 42
0.9999999999999998
 10
458.8825800908957
 20
451.6176400418745
 10
458.3825800908957
 20
451.6176400418745
 10
458.3825800908966
 20
457.9676400418735
 10
462.732580090897
 20
457.9676400418735
 42
0.9999999999999145
 10
462.732580090897
 20
459.4676400418745
 10
458.3825800908957
 20
459.4676400418745
 10
458.3825800908957
 20
462.8176400418753
 10
458.8825800908957
 20
462.8176400418753
 42
0.9999999999999998
 10
458.8825800908957
 20
464.0176400418753
 10
458.3825800908957
 20
464.0176400418753
 10
458.3825800908957
 20
465.2176400418754
 10
454.8825800908957
 20
465.2176400418754
 10
454.8825800908957
 20
463.1676400418752
 42
0.9999999999999998
 10
455.8825800908957
 20
463.1676400418752
 10
455.8825800908957
 20
463.9176400418752
 10
457.3825800908958
 20
463.9176400418752
 10
457.3825800908958
 20
458.4176400418751
 10
455.8825800908957
 20
458.4176400418751
 10
455.8825800908957
 20
459.1676400418752
 42
0.9999999999999998
 10
454.8825800908957
 20
459.1676400418752
 10
454.8825800908957
 20
457.117640041875
 10
456.8825800908958
 20
457.117640041875
 10
456.8825800908958
 20
455.617640041875
 10
457.1325800908957
 20
455.617640041875
 10
457.1325800908957
 20
453.9176400418751
 10
457.4325800908968
 20
453.6176400418749
 10
457.1325800908957
 20
453.3176400418757
 10
457.1325800908957
 20
451.617640041875
 10
456.8825800908958
 20
451.617640041875
 10
456.8825800908958
 20
444.2176400418754
 10
446.5325800908954
 20
444.2176400418754
 10
446.1325800908958
 20
443.8176400418757
 10
445.7325800908961
 20
444.2176400418754
 10
433.5325800908972
 20
444.2176400418754
 42
0.9999999999999998
 10
433.5325800908972
 20
443.2176400418753
 10
436.0325800908972
 20
443.2176400418753
 10
436.0325800908972
 20
439.2176400418763
 10
427.2825800908972
 20
439.2176400418763
 10
426.8825800908957
 20
438.8176400418766
 10
426.4825800908961
 20
439.2176400418763
 10
421.8825800908957
 20
439.2176400418763
 10
421.8825800908957
 20
441.3150485456059
 10
422.8490864418419
 20
442.989086651282
 42
0.3394542588633784
 10
422.8093567861938
 20
443.2908633465792
 10
421.8825800908957
 20
444.2176400418754
 10
420.3825800908957
 20
444.2176400418754
 10
420.3825800908957
 20
430.2176400418753
 10
407.7899368739002
 20
427.6822107121177
 42
0.3571470433414134
 10
405.3820800908974
 20
424.7412301935552
 10
405.3820800908974
 20
403.2176400418753
 42
0.4142135623730951
 10
406.3820800908975
 20
402.2176400418754
 10
412.1320800908974
 20
402.2176400418754
 42
0.4142135623730951
 10
412.3820800908974
 20
402.4676400418753
 10
412.3820800908974
 20
403.4676400418753
 42
0.4142135623730951
 10
412.1320800908974
 20
403.7176400418753
 10
411.6503150881467
 20
403.7176400418753
 42
-0.5908090823378033
 10
411.4389994395025
 20
404.1012278281349
 42
0.3201949615811702
 10
411.2422449260619
 20
407.6097940923825
 42
0.9999999999999998
 10
410.0719152557326
 20
406.6715358855195
 42
-2.083394336380681
 10
407.6922449260608
 20
406.6715358855194
 42
0.6205504467590894
  0
HATCH
  5
38E0
330
2679
100
AcDbEntity
  8
APL Hatch
100
AcDbHatch
 10
0.0
 20
0.0
 30
0.0
210
0.0
220
0.0
230
1.0
  2
SOLID
 70
     1
 71
     1
 91
        1
 92
        1
 93
      100
 72
     2
 10
407.1320800908974
 20
408.1403524401081
 40
0.2500000000000131
 50
91.43254373757162
 51
180.0
 73
     0
 72
     1
 10
406.8820800908975
 20
408.1403524401081
 11
406.8820800908975
 21
424.7412301935552
 72
     2
 10
408.3820800908967
 20
424.7412301935559
 40
1.499999999999317
 50
179.9999999999696
 51
258.6161471069981
 73
     0
 72
     1
 10
408.0860084823975
 20
426.2117204528363
 11
413.0820800908972
 21
427.2176400418754
 72
     1
 10
413.0820800908972
 20
427.2176400418754
 11
421.8825800908957
 21
427.2176400418754
 72
     1
 10
421.8825800908957
 20
427.2176400418754
 11
421.8825800908957
 21
437.7176400418762
 72
     1
 10
421.8825800908957
 20
437.7176400418762
 11
437.5325800908972
 21
437.7176400418762
 72
     1
 10
437.5325800908972
 20
437.7176400418762
 11
437.5325800908972
 21
442.7176400418753
 72
     1
 10
437.5325800908972
 20
442.7176400418753
 11
450.7556760195601
 21
442.7176400418755
 72
     2
 10
453.3825800908967
 20
441.217640041876
 40
3.025000000000496
 50
150.2730117288945
 51
207.3821817981256
 73
     1
 72
     2
 10
450.4745161408605
 20
439.711390041875
 40
0.2500000000000165
 50
332.6178182018861
 51
450.0
 73
     0
 72
     1
 10
450.4745161408605
 20
439.4613900418749
 11
450.1325800908957
 21
439.4613900418749
 72
     2
 10
450.1325800908957
 20
439.211390041875
 40
0.25
 50
90.0
 51
180.0
 73
     1
 72
     1
 10
449.8825800908957
 20
439.211390041875
 11
449.8825800908957
 21
437.9676400418771
 72
     2
 10
450.1325800908962
 20
437.9676400418767
 40
0.2500000000004547
 50
179.9999999998957
 51
269.9999999998958
 73
     1
 72
     1
 10
450.1325800908957
 20
437.7176400418762
 11
456.9825800908961
 21
437.7176400418772
 72
     1
 10
456.9825800908961
 20
437.7176400418772
 11
456.9825800908961
 21
427.2176400418754
 72
     1
 10
456.9825800908961
 20
427.2176400418754
 11
459.9825800908961
 21
427.2176400418754
 72
     1
 10
459.9825800908961
 20
427.2176400418754
 11
459.9825800908961
 21
428.7176400418736
 72
     1
 10
459.9825800908961
 20
428.7176400418736
 11
458.3825800908957
 21
428.7176400418736
 72
     1
 10
458.3825800908957
 20
428.7176400418736
 11
458.3825800908961
 21
437.7176400418772
 72
     2
 10
456.9825800908962
 20
437.717640041877
 40
1.399999999999806
 50
0.000000000006979
 51
90.00000000000698
 73
     1
 72
     1
 10
456.9825800908961
 20
439.1176400418768
 11
455.6830800908969
 21
439.1176400418768
 72
     1
 10
455.6830800908969
 20
439.1176400418768
 11
455.6830800908959
 21
439.3480285867577
 72
     2
 10
454.8384686357779
 20
439.3480285867576
 40
0.844611455118013
 50
0.0000000000115682
 51
127.908313681073
 73
     1
 72
     2
 10
453.3825800908961
 20
441.2176400418753
 40
1.524999999999786
 50
52.0916863189523
 51
307.9083136810661
 73
     0
 72
     2
 10
454.838468635778
 20
443.0872514969932
 40
0.8446114551181407
 50
232.0916863189533
 51
334.0484329360907
 73
     1
 72
     1
 10
455.5979130921818
 20
442.7176400418753
 11
456.9825800908961
 21
442.7176400418741
 72
     2
 10
456.9825800908959
 20
444.1176400418739
 40
1.399999999999806
 50
270.000000000007
 51
360.000000000007
 73
     1
 72
     1
 10
458.3825800908957
 20
444.1176400418741
 11
458.3825800908957
 21
447.7176400418754
 72
     1
 10
458.3825800908957
 20
447.7176400418754
 11
461.709555143821
 21
447.7176400418754
 72
     1
 10
461.709555143821
 20
447.7176400418754
 11
462.209555143821
 21
448.2176400418735
 72
     1
 10
462.209555143821
 20
448.2176400418735
 11
477.209555143821
 21
448.2176400418735
 72
     1
 10
477.209555143821
 20
448.2176400418735
 11
477.709555143821
 21
447.7176400418735
 72
     1
 10
477.709555143821
 20
447.7176400418735
 11
478.959555143821
 21
447.7176400418735
 72
     2
 10
478.959555143821
 20
448.4676400418735
 40
0.75
 50
270.0
 51
450.0
 73
     1
 72
     1
 10
478.959555143821
 20
449.2176400418735
 11
458.3825800908957
 21
449.2176400418735
 72
     1
 10
458.3825800908957
 20
449.2176400418735
 11
458.3825800908957
 21
450.4176400418745
 72
     1
 10
458.3825800908957
 20
450.4176400418745
 11
458.8825800908957
 21
450.4176400418746
 72
     2
 10
458.8825800908957
 20
451.0176400418745
 40
0.5999999999999659
 50
270.0
 51
450.0
 73
     1
 72
     1
 10
458.8825800908957
 20
451.6176400418745
 11
458.3825800908957
 21
451.6176400418745
 72
     1
 10
458.3825800908957
 20
451.6176400418745
 11
458.3825800908966
 21
457.9676400418735
 72
     1
 10
458.3825800908966
 20
457.9676400418735
 11
462.732580090897
 21
457.9676400418735
 72
     2
 10
462.732580090897
 20
458.717640041874
 40
0.7500000000004548
 50
270.0000000000043
 51
449.9999999999956
 73
     1
 72
     1
 10
462.732580090897
 20
459.4676400418745
 11
458.3825800908957
 21
459.4676400418745
 72
     1
 10
458.3825800908957
 20
459.4676400418745
 11
458.3825800908957
 21
462.8176400418753
 72
     1
 10
458.3825800908957
 20
462.8176400418753
 11
458.8825800908957
 21
462.8176400418753
 72
     2
 10
458.8825800908957
 20
463.4176400418753
 40
0.5999999999999659
 50
270.0
 51
450.0
 73
     1
 72
     1
 10
458.8825800908957
 20
464.0176400418753
 11
458.3825800908957
 21
464.0176400418753
 72
     1
 10
458.3825800908957
 20
464.0176400418753
 11
458.3825800908957
 21
465.2176400418754
 72
     1
 10
458.3825800908957
 20
465.2176400418754
 11
454.8825800908957
 21
465.2176400418754
 72
     1
 10
454.8825800908957
 20
465.2176400418754
 11
454.8825800908957
 21
463.1676400418752
 72
     2
 10
455.3825800908957
 20
463.1676400418752
 40
0.5
 50
180.0
 51
360.0
 73
     1
 72
     1
 10
455.8825800908957
 20
463.1676400418752
 11
455.8825800908957
 21
463.9176400418752
 72
     1
 10
455.8825800908957
 20
463.9176400418752
 11
457.3825800908958
 21
463.9176400418752
 72
     1
 10
457.3825800908958
 20
463.9176400418752
 11
457.3825800908958
 21
458.4176400418751
 72
     1
 10
457.3825800908958
 20
458.4176400418751
 11
455.8825800908957
 21
458.4176400418751
 72
     1
 10
455.8825800908957
 20
458.4176400418751
 11
455.8825800908957
 21
459.1676400418752
 72
     2
 10
455.3825800908957
 20
459.1676400418752
 40
0.5
 50
0.0
 51
180.0
 73
     1
 72
     1
 10
454.8825800908957
 20
459.1676400418752
 11
454.8825800908957
 21
457.117640041875
 72
     1
 10
454.8825800908957
 20
457.117640041875
 11
456.8825800908958
 21
457.117640041875
 72
     1
 10
456.8825800908958
 20
457.117640041875
 11
456.8825800908958
 21
455.617640041875
 72
     1
 10
456.8825800908958
 20
455.617640041875
 11
457.1325800908957
 21
455.617640041875
 72
     1
 10
457.1325800908957
 20
455.617640041875
 11
457.1325800908957
 21
453.9176400418751
 72
     1
 10
457.1325800908957
 20
453.9176400418751
 11
457.4325800908968
 21
453.6176400418749
 72
     1
 10
457.4325800908968
 20
453.6176400418749
 11
457.1325800908957
 21
453.3176400418757
 72
     1
 10
457.1325800908957
 20
453.3176400418757
 11
457.1325800908957
 21
451.617640041875
 72
     1
 10
457.1325800908957
 20
451.617640041875
 11
456.8825800908958
 21
451.617640041875
 72
     1
 10
456.8825800908958
 20
451.617640041875
 11
456.8825800908958
 21
444.2176400418754
 72
     1
 10
456.8825800908958
 20
444.2176400418754
 11
446.5325800908954
 21
444.2176400418754
 72
     1
 10
446.5325800908954
 20
444.2176400418754
 11
446.1325800908958
 21
443.8176400418757
 72
     1
 10
446.1325800908958
 20
443.8176400418757
 11
445.7325800908961
 21
444.2176400418754
 72
     1
 10
445.7325800908961
 20
444.2176400418754
 11
433.5325800908972
 21
444.2176400418754
 72
     2
 10
433.5325800908972
 20
443.7176400418754
 40
0.5
 50
90.0
 51
270.0
 73
     1
 72
     1
 10
433.5325800908972
 20
443.2176400418753
 11
436.0325800908972
 21
443.2176400418753
 72
     1
 10
436.0325800908972
 20
443.2176400418753
 11
436.0325800908972
 21
439.2176400418763
 72
     1
 10
436.0325800908972
 20
439.2176400418763
 11
427.2825800908972
 21
439.2176400418763
 72
     1
 10
427.2825800908972
 20
439.2176400418763
 11
426.8825800908957
 21
438.8176400418766
 72
     1
 10
426.8825800908957
 20
438.8176400418766
 11
426.4825800908961
 21
439.2176400418763
 72
     1
 10
426.4825800908961
 20
439.2176400418763
 11
421.8825800908957
 21
439.2176400418763
 72
     1
 10
421.8825800908957
 20
439.2176400418763
 11
421.8825800908957
 21
441.3150485456059
 72
     1
 10
421.8825800908957
 20
441.3150485456059
 11
422.8490864418419
 21
442.989086651282
 72
     2
 10
422.6325800908961
 20
443.1140866512832
 40
0.2500000000002443
 50
329.9999999997315
 51
404.9999999997329
 73
     1
 72
     1
 10
422.8093567861938
 20
443.2908633465792
 11
421.8825800908957
 21
444.2176400418754
 72
     1
 10
421.8825800908957
 20
444.2176400418754
 11
420.3825800908957
 21
444.2176400418754
 72
     1
 10
420.3825800908957
 20
444.2176400418754
 11
420.3825800908957
 21
430.2176400418753
 72
     1
 10
420.3825800908957
 20
430.2176400418753
 11
407.7899368739002
 21
427.6822107121177
 72
     2
 10
408.3820800908974
 20
424.7412301935552
 40
3.000000000000019
 50
101.3838528929718
 51
180.0
 73
     1
 72
     1
 10
405.3820800908974
 20
424.7412301935552
 11
405.3820800908974
 21
403.2176400418753
 72
     2
 10
406.3820800908975
 20
403.2176400418753
 40
1.0
 50
180.0
 51
270.0
 73
     1
 72
     1
 10
406.3820800908975
 20
402.2176400418754
 11
412.1320800908974
 21
402.2176400418754
 72
     2
 10
412.1320800908974
 20
402.4676400418753
 40
0.25
 50
270.0
 51
360.0
 73
     1
 72
     1
 10
412.3820800908974
 20
402.4676400418753
 11
412.3820800908974
 21
403.4676400418753
 72
     2
 10
412.1320800908974
 20
403.4676400418753
 40
0.25
 50
0.0
 51
90.0
 73
     1
 72
     1
 10
412.1320800908974
 20
403.7176400418753
 11
411.6503150881467
 21
403.7176400418753
 72
     2
 10
411.6503150881471
 20
403.9676400418751
 40
0.2499999999997726
 50
90.00000000009119
 51
212.2999183635763
 73
     0
 72
     2
 10
408.8820800908973
 20
405.717640041875
 40
3.024999999999915
 50
327.7000816365276
 51
398.7192973222455
 73
     1
 72
     2
 10
410.6570800908973
 20
407.140664988951
 40
0.749999999999785
 50
38.71929732224645
 51
218.7192973222437
 73
     1
 72
     2
 10
408.8820800908968
 20
405.7176400418747
 40
1.5250000000009
 50
321.2807026777562
 51
578.7192973222365
 73
     0
 72
     2
 10
407.1070800908966
 20
407.1406649889516
 40
0.7499999999998657
 50
321.2807026776973
 51
448.5674562623716
 73
     1
 97
        1
330
38DF
 75
     0
 76
     1
 98
        1
 10
0.0
 20
0.0
  0
ENDBLK
  5
267B
330
2679
100
AcDbEntity
  8
0
100
AcDbBlockEnd
  0
BLOCK
  5
267F
330
267E
100
AcDbEntity
  8
0
100
AcDbBlockBegin
  2
sw30mmliner
 70
     0
 10
-8.320245268962722
 20
142.2739088327281
 30
0.0
  3
sw30mmliner
  1
sw30mmliner.dwg
  0
LWPOLYLINE
  5
3434
330
267E
100
AcDbEntity
  8
APL Joinery
  6
Continuous
 62
     3
100
AcDbPolyline
 90
       16
 70
   129
 43
0.0
 10
-8.320245268962722
 20
161.273908832728
 10
-8.320245268962722
 20
152.973908832728
 10
-3.920245268962716
 20
152.973908832728
 10
-3.920245268962716
 20
150.473908832728
 10
-8.320245268962722
 20
150.473908832728
 10
-8.320245268962722
 20
142.2739088327281
 10
16.67975473103728
 20
142.2739088327281
 10
16.67975473103728
 20
131.273908832728
 10
58.57975473103727
 20
131.273908832728
 10
58.57975473103727
 20
139.2739088327281
 10
68.57975473103727
 20
139.2739088327281
 10
68.57975473103727
 20
131.273908832728
 10
77.57975473103726
 20
131.273908832728
 42
0.4142135623730951
 10
80.57975473103727
 20
134.273908832728
 10
80.57975473103727
 20
158.273908832728
 42
0.4142135623730951
 10
77.57975473103726
 20
161.273908832728
  0
ARC
  5
3435
330
267E
100
AcDbEntity
  8
APL Joinery
  6
Continuous
 62
     8
100
AcDbCircle
 10
-2.065094850108238
 20
126.3181393429162
 30
0.0
 40
41.9195481519577
100
AcDbArc
 50
10.24507817588775
 51
50.73613270831355
  0
ARC
  5
3436
330
267E
100
AcDbEntity
  8
APL Joinery
  6
Continuous
 62
     8
100
AcDbCircle
 10
-2.065094850108238
 20
126.3181393429162
 30
0.0
 40
61.9195481519577
100
AcDbArc
 50
14.45446489788398
 51
31.61173285031439
  0
ARC
  5
3437
330
267E
100
AcDbEntity
  8
APL Joinery
  6
Continuous
 62
     8
100
AcDbCircle
 10
-2.065094850108238
 20
126.3181393429162
 30
0.0
 40
81.91954815195769
100
AcDbArc
 50
11.94794822801606
 51
23.34026053111568
  0
ARC
  5
3438
330
267E
100
AcDbEntity
  8
APL Joinery
  6
Continuous
 62
     8
100
AcDbCircle
 10
-2.065094850108238
 20
126.3181393429162
 30
0.0
 40
21.9195481519577
100
AcDbArc
 50
57.3495468426925
 51
88.31417642809208
  0
LINE
  5
3439
330
267E
100
AcDbEntity
  8
APL Joinery
  6
Continuous
 62
     8
100
AcDbLine
 10
1.439132372933531
 20
144.773908832728
 30
0.0
 11
4.097335334867297
 21
158.773908832728
 31
0.0
  0
LINE
  5
343A
330
267E
100
AcDbEntity
  8
APL Joinery
  6
Continuous
 62
     8
100
AcDbLine
 10
19.17975473103728
 20
143.487533006339
 30
0.0
 11
31.20445811643854
 21
158.773908832728
 31
0.0
  0
LINE
  5
343B
330
267E
100
AcDbEntity
  8
APL Joinery
  6
Continuous
 62
     8
100
AcDbLine
 10
23.56650084485508
 20
133.773908832728
 30
0.0
 11
78.07975473103725
 21
149.6308324496542
 31
0.0
  0
ENDBLK
  5
2680
330
267E
100
AcDbEntity
  8
0
100
AcDbBlockEnd
  0
BLOCK
  5
2684
330
2683
100
AcDbEntity
  8
0
100
AcDbBlockBegin
  2
07438
 70
     0
 10
436.325250536159
 20
36.66410654514334
 30
0.0
  3
07438
  1
07438.dwg
  0
LWPOLYLINE
  5
38E3
102
{ACAD_REACTORS
330
38E5
102
}
330
2683
100
AcDbEntity
  8
APL Joinery
  6
Continuous
100
AcDbPolyline
 90
       29
 70
     1
 43
0.0
 10
420.796679107587
 20
63.08270271029969
 42
-0.0604498752216261
 10
420.298064992431
 20
63.73258719137683
 42
0.6669066090348409
 10
418.9266583780278
 20
63.54040445040501
 42
-0.3412868470081918
 10
417.4752505361586
 20
62.41910654514526
 10
404.7252505361586
 20
62.41910654514526
 42
0.4142135623730951
 10
403.7252505361595
 20
61.41910654514527
 10
403.7252505361595
 20
39.16410654514334
 42
0.4142135623730951
 10
404.7252505361595
 20
38.16410654514334
 10
419.6075933096946
 20
38.16410654514334
 42
0.5313489649886676
 10
420.0713955182157
 20
38.85088853402529
 42
-0.2978796563631881
 10
420.796679107588
 20
42.50051037998724
 42
-1.000000000000019
 10
421.9038219647309
 20
41.41573635104039
 42
2.379795897113228
 10
424.546679107588
 20
41.41573635104029
 42
-0.9999999999999998
 10
425.6538219647309
 20
42.50051037998729
 42
-0.2978796563631958
 10
426.3791055541032
 20
38.85088853402587
 42
0.5313489649887251
 10
426.8429077626244
 20
38.16410654514334
 10
433.4252505361593
 20
38.16410654514334
 42
0.4142135623730951
 10
434.4252505361593
 20
39.16410654514334
 10
434.4252505361593
 20
58.66410654514334
 42
-0.4142135623730951
 10
435.9252505361594
 20
60.16410654514334
 10
437.4252505361593
 20
60.16410654514334
 42
0.4142135623730951
 10
437.9252505361593
 20
60.66410654514334
 10
437.9252505361593
 20
66.41910654514345
 42
0.4142135623730951
 10
436.9252505361593
 20
67.41910654514345
 10
426.8429077626235
 20
67.41910654514345
 42
0.5313489649887251
 10
426.3791055541024
 20
66.73232455626133
 42
-0.2978796563631958
 10
425.6538219647301
 20
63.08270271029866
 42
-0.9999999999999996
 10
424.5466791075871
 20
64.16747673924634
 42
2.379795897113631
 10
421.90382196473
 20
64.16747673924577
 42
-1.00000000000014
  0
LWPOLYLINE
  5
38E4
102
{ACAD_REACTORS
330
38E5
102
}
330
2683
100
AcDbEntity
  8
APL Joinery
  6
Continuous
100
AcDbPolyline
 90
       60
 70
     1
 43
0.0
 10
404.2520272314551
 20
67.99232984984723
 10
403.3252505361589
 20
68.91910654514345
 10
401.825250536159
 20
68.91910654514345
 10
401.825250536159
 20
37.16410654514334
 42
0.4142135623730951
 10
402.325250536159
 20
36.66410654514334
 10
404.575250536159
 20
36.66410654514334
 10
404.575250536159
 20
34.66410654514334
 10
405.5752505361589
 20
34.66410654514334
 10
405.5752505361589
 20
36.66410654514334
 10
434.3252505361589
 20
36.66410654514334
 42
0.4142135623730951
 10
436.325250536159
 20
38.66410654514334
 10
436.325250536159
 20
58.66410654514334
 10
439.825250536159
 20
58.66410654514334
 10
439.825250536159
 20
65.36410654514179
 10
440.1252505361582
 20
65.06410654514161
 10
450.4752505361604
 20
65.06410654514161
 10
450.4752505361604
 20
68.06410654514161
 10
449.2752505361606
 20
68.06410654514161
 10
449.2752505361606
 20
66.46410654514125
 10
440.1252505361582
 20
66.46410654514125
 10
439.825250536159
 20
66.16410654514197
 10
439.825250536159
 20
89.91910654514345
 10
436.325250536159
 20
89.91910654514345
 10
436.325250536159
 20
87.86910654514235
 42
0.9999999999999998
 10
437.3252505361589
 20
87.86910654514235
 10
437.3252505361589
 20
88.61910654514236
 10
438.825250536159
 20
88.61910654514236
 10
438.825250536159
 20
83.11910654514235
 10
437.3252505361589
 20
83.11910654514235
 10
437.3252505361589
 20
83.86910654514236
 42
0.9999999999999998
 10
436.325250536159
 20
83.86910654514236
 10
436.325250536159
 20
81.81910654514309
 10
438.3252505361589
 20
81.81910654514309
 10
438.3252505361589
 20
80.31910654514309
 10
438.575250536159
 20
80.31910654514309
 10
438.575250536159
 20
78.61910654514417
 10
438.87525053616
 20
78.31910654514309
 10
438.575250536159
 20
78.01910654514381
 10
438.575250536159
 20
76.31910654514308
 10
438.3252505361589
 20
76.31910654514308
 10
438.3252505361589
 20
68.91910654514345
 10
427.9752505361586
 20
68.91910654514345
 10
427.5752505361589
 20
68.51910654514381
 10
427.1752505361593
 20
68.91910654514345
 10
414.9752505361586
 20
68.91910654514345
 42
0.9999999999999998
 10
414.9752505361586
 20
67.91910654514345
 10
417.4752505361586
 20
67.91910654514345
 10
417.4752505361586
 20
67.41910654514345
 10
420.0556300460122
 20
67.41910654514345
 42
-0.5675210391690518
 10
420.2757425800504
 20
67.05057185672088
 42
0.096741013795249
 10
419.8948489890304
 20
65.82404336900829
 42
-0.3821661969546914
 10
419.646916634022
 20
65.60104681296603
 42
0.3406114348430476
 10
417.4752505361586
 20
63.91910654514527
 10
408.7252505361586
 20
63.91910654514527
 10
408.3252505361589
 20
63.51910654514381
 10
407.9252505361593
 20
63.91910654514527
 10
403.8252505361589
 20
63.91910654514527
 42
-0.4142135623730951
 10
403.3252505361589
 20
64.41910654514527
 10
403.3252505361589
 20
66.01651504887399
 10
404.2917568871051
 20
67.6905531545492
 42
0.3394542588633784
  0
HATCH
  5
38E5
330
2683
100
AcDbEntity
  8
APL Hatch
100
AcDbHatch
 10
0.0
 20
0.0
 30
0.0
210
0.0
220
0.0
230
1.0
  2
SOLID
 70
     1
 71
     1
 91
        2
 92
        1
 93
       60
 72
     1
 10
404.2520272314551
 20
67.99232984984723
 11
403.3252505361589
 21
68.91910654514345
 72
     1
 10
403.3252505361589
 20
68.91910654514345
 11
401.825250536159
 21
68.91910654514345
 72
     1
 10
401.825250536159
 20
68.91910654514345
 11
401.825250536159
 21
37.16410654514334
 72
     2
 10
402.325250536159
 20
37.16410654514334
 40
0.5
 50
180.0
 51
270.0
 73
     1
 72
     1
 10
402.325250536159
 20
36.66410654514334
 11
404.575250536159
 21
36.66410654514334
 72
     1
 10
404.575250536159
 20
36.66410654514334
 11
404.575250536159
 21
34.66410654514334
 72
     1
 10
404.575250536159
 20
34.66410654514334
 11
405.5752505361589
 21
34.66410654514334
 72
     1
 10
405.5752505361589
 20
34.66410654514334
 11
405.5752505361589
 21
36.66410654514334
 72
     1
 10
405.5752505361589
 20
36.66410654514334
 11
434.3252505361589
 21
36.66410654514334
 72
     2
 10
434.3252505361589
 20
38.66410654514334
 40
2.0
 50
270.0
 51
360.0
 73
     1
 72
     1
 10
436.325250536159
 20
38.66410654514334
 11
436.325250536159
 21
58.66410654514334
 72
     1
 10
436.325250536159
 20
58.66410654514334
 11
439.825250536159
 21
58.66410654514334
 72
     1
 10
439.825250536159
 20
58.66410654514334
 11
439.825250536159
 21
65.36410654514179
 72
     1
 10
439.825250536159
 20
65.36410654514179
 11
440.1252505361582
 21
65.06410654514161
 72
     1
 10
440.1252505361582
 20
65.06410654514161
 11
450.4752505361604
 21
65.06410654514161
 72
     1
 10
450.4752505361604
 20
65.06410654514161
 11
450.4752505361604
 21
68.06410654514161
 72
     1
 10
450.4752505361604
 20
68.06410654514161
 11
449.2752505361606
 21
68.06410654514161
 72
     1
 10
449.2752505361606
 20
68.06410654514161
 11
449.2752505361606
 21
66.46410654514125
 72
     1
 10
449.2752505361606
 20
66.46410654514125
 11
440.1252505361582
 21
66.46410654514125
 72
     1
 10
440.1252505361582
 20
66.46410654514125
 11
439.825250536159
 21
66.16410654514197
 72
     1
 10
439.825250536159
 20
66.16410654514197
 11
439.825250536159
 21
89.91910654514345
 72
     1
 10
439.825250536159
 20
89.91910654514345
 11
436.325250536159
 21
89.91910654514345
 72
     1
 10
436.325250536159
 20
89.91910654514345
 11
436.325250536159
 21
87.86910654514235
 72
     2
 10
436.8252505361589
 20
87.86910654514235
 40
0.5
 50
180.0
 51
360.0
 73
     1
 72
     1
 10
437.3252505361589
 20
87.86910654514235
 11
437.3252505361589
 21
88.61910654514236
 72
     1
 10
437.3252505361589
 20
88.61910654514236
 11
438.825250536159
 21
88.61910654514236
 72
     1
 10
438.825250536159
 20
88.61910654514236
 11
438.825250536159
 21
83.11910654514235
 72
     1
 10
438.825250536159
 20
83.11910654514235
 11
437.3252505361589
 21
83.11910654514235
 72
     1
 10
437.3252505361589
 20
83.11910654514235
 11
437.3252505361589
 21
83.86910654514236
 72
     2
 10
436.8252505361589
 20
83.86910654514236
 40
0.5
 50
0.0
 51
180.0
 73
     1
 72
     1
 10
436.325250536159
 20
83.86910654514236
 11
436.325250536159
 21
81.81910654514309
 72
     1
 10
436.325250536159
 20
81.81910654514309
 11
438.3252505361589
 21
81.81910654514309
 72
     1
 10
438.3252505361589
 20
81.81910654514309
 11
438.3252505361589
 21
80.31910654514309
 72
     1
 10
438.3252505361589
 20
80.31910654514309
 11
438.575250536159
 21
80.31910654514309
 72
     1
 10
438.575250536159
 20
80.31910654514309
 11
438.575250536159
 21
78.61910654514417
 72
     1
 10
438.575250536159
 20
78.61910654514417
 11
438.87525053616
 21
78.31910654514309
 72
     1
 10
438.87525053616
 20
78.31910654514309
 11
438.575250536159
 21
78.01910654514381
 72
     1
 10
438.575250536159
 20
78.01910654514381
 11
438.575250536159
 21
76.31910654514308
 72
     1
 10
438.575250536159
 20
76.31910654514308
 11
438.3252505361589
 21
76.31910654514308
 72
     1
 10
438.3252505361589
 20
76.31910654514308
 11
438.3252505361589
 21
68.91910654514345
 72
     1
 10
438.3252505361589
 20
68.91910654514345
 11
427.9752505361586
 21
68.91910654514345
 72
     1
 10
427.9752505361586
 20
68.91910654514345
 11
427.5752505361589
 21
68.51910654514381
 72
     1
 10
427.5752505361589
 20
68.51910654514381
 11
427.1752505361593
 21
68.91910654514345
 72
     1
 10
427.1752505361593
 20
68.91910654514345
 11
414.9752505361586
 21
68.91910654514345
 72
     2
 10
414.9752505361586
 20
68.41910654514345
 40
0.5
 50
90.0
 51
270.0
 73
     1
 72
     1
 10
414.9752505361586
 20
67.91910654514345
 11
417.4752505361586
 21
67.91910654514345
 72
     1
 10
417.4752505361586
 20
67.91910654514345
 11
417.4752505361586
 21
67.41910654514345
 72
     1
 10
417.4752505361586
 20
67.41910654514345
 11
420.0556300460122
 21
67.41910654514345
 72
     2
 10
420.0556300460122
 20
67.16910654514326
 40
0.2500000000001847
 50
270.000000000013
 51
388.3032891696901
 73
     0
 72
     2
 10
423.2252505361599
 20
65.46220703186198
 40
3.350000000000415
 50
151.6967108303066
 51
173.7993377284854
 73
     1
 72
     2
 10
419.64631156014
 20
65.85104608073635
 40
0.2500000000001974
 50
6.200662271676968
 51
89.86132714568098
 73
     0
 72
     2
 10
419.652362298962
 20
63.35105340303538
 40
2.249999999999556
 50
90.13867285436694
 51
165.3763923539196
 73
     1
 72
     1
 10
417.4752505361586
 20
63.91910654514527
 11
408.7252505361586
 21
63.91910654514527
 72
     1
 10
408.7252505361586
 20
63.91910654514527
 11
408.3252505361589
 21
63.51910654514381
 72
     1
 10
408.3252505361589
 20
63.51910654514381
 11
407.9252505361593
 21
63.91910654514527
 72
     1
 10
407.9252505361593
 20
63.91910654514527
 11
403.8252505361589
 21
63.91910654514527
 72
     2
 10
403.8252505361589
 20
64.41910654514527
 40
0.5
 50
90.0
 51
180.0
 73
     0
 72
     1
 10
403.3252505361589
 20
64.41910654514527
 11
403.3252505361589
 21
66.01651504887399
 72
     1
 10
403.3252505361589
 20
66.01651504887399
 11
404.2917568871051
 21
67.6905531545492
 72
     2
 10
404.0752505361579
 20
67.8155531545496
 40
0.2500000000011548
 50
330.0000000000475
 51
405.0000000000552
 73
     1
 97
        1
330
38E4
 92
       16
 93
       29
 72
     2
 10
423.2252505361584
 20
65.4622070318614
 40
3.400000000000602
 50
135.5846914027957
 51
149.4219440464481
 73
     0
 72
     2
 10
419.652362298962
 20
63.35105340303504
 40
0.7499999999996986
 50
30.57805595353652
 51
165.3763923539151
 73
     1
 72
     2
 10
417.4752505361586
 20
63.91910654514527
 40
1.500000000000006
 50
14.62360764609013
 51
90.0
 73
     0
 72
     1
 10
417.4752505361586
 20
62.41910654514526
 11
404.7252505361586
 21
62.41910654514526
 72
     2
 10
404.7252505361591
 20
61.41910654514572
 40
0.9999999999995452
 50
90.00000000002605
 51
180.000000000026
 73
     1
 72
     1
 10
403.7252505361595
 20
61.41910654514527
 11
403.7252505361595
 21
39.16410654514334
 72
     2
 10
404.7252505361595
 20
39.16410654514334
 40
1.0
 50
180.0
 51
270.0
 73
     1
 72
     1
 10
404.7252505361595
 20
38.16410654514334
 11
419.6075933096946
 21
38.16410654514334
 72
     2
 10
419.6075933096947
 20
38.66410654514309
 40
0.4999999999997442
 50
269.999999999987
 51
381.9355856718543
 73
     1
 72
     2
 10
423.2252505361596
 20
40.12100605842653
 40
3.4000000000001
 50
158.0644143281155
 51
224.415308597189
 73
     0
 72
     2
 10
421.3502505361594
 20
41.95812336551383
 40
0.7750000000000483
 50
224.4153085971889
 51
404.4153085971929
 73
     0
 72
     2
 10
423.2252505361594
 20
40.1210060584264
 40
1.849999999999965
 50
135.5846914028049
 51
404.4153085971892
 73
     1
 72
     2
 10
425.1002505361594
 20
41.95812336551379
 40
0.7750000000000317
 50
135.5846914028003
 51
315.5846914028037
 73
     0
 72
     2
 10
423.2252505361598
 20
40.12100605842674
 40
3.399999999999594
 50
315.5846914028062
 51
381.9355856718812
 73
     0
 72
     2
 10
426.8429077626244
 20
38.66410654514334
 40
0.5000000000000047
 50
158.0644143281158
 51
270.0
 73
     1
 72
     1
 10
426.8429077626244
 20
38.16410654514334
 11
433.4252505361593
 21
38.16410654514334
 72
     2
 10
433.4252505361593
 20
39.16410654514334
 40
1.0
 50
270.0
 51
360.0
 73
     1
 72
     1
 10
434.4252505361593
 20
39.16410654514334
 11
434.4252505361593
 21
58.66410654514334
 72
     2
 10
435.9252505361594
 20
58.66410654514334
 40
1.5
 50
180.0
 51
270.0
 73
     0
 72
     1
 10
435.9252505361594
 20
60.16410654514334
 11
437.4252505361593
 21
60.16410654514334
 72
     2
 10
437.4252505361593
 20
60.66410654514334
 40
0.5
 50
270.0
 51
360.0
 73
     1
 72
     1
 10
437.9252505361593
 20
60.66410654514334
 11
437.9252505361593
 21
66.41910654514345
 72
     2
 10
436.9252505361593
 20
66.41910654514345
 40
1.0
 50
0.0
 51
90.0
 73
     1
 72
     1
 10
436.9252505361593
 20
67.41910654514345
 11
426.8429077626235
 21
67.41910654514345
 72
     2
 10
426.8429077626233
 20
66.91910654514369
 40
0.4999999999997585
 50
89.99999999998697
 51
201.9355856718758
 73
     1
 72
     2
 10
423.225250536158
 20
65.46220703185989
 40
3.400000000000702
 50
338.064414328116
 51
404.4153085971912
 73
     0
 72
     2
 10
425.1002505361586
 20
63.6250897247725
 40
0.775000000000306
 50
44.41530859721433
 51
224.4153085972143
 73
     0
 72
     2
 10
423.2252505361583
 20
65.46220703186029
 40
1.850000000000179
 50
315.5846914028132
 51
584.4153085972116
 73
     1
 72
     2
 10
421.3502505361586
 20
63.62508972477264
 40
0.7749999999998038
 50
315.5846914028235
 51
495.5846914028409
 73
     0
 97
        1
330
38E3
 75
     0
 76
     1
 98
        1
 10
0.0
 20
0.0
  0
ENDBLK
  5
2685
330
2683
100
AcDbEntity
  8
0
100
AcDbBlockEnd
  0
BLOCK
  5
268F
330
268E
100
AcDbEntity
  8
0
100
AcDbBlockBegin
  2
9700520
 70
     0
 10
430.5991069265696
 20
234.3886777084823
 30
0.0
  3
9700520
  1
9700520.dwg
  0
LWPOLYLINE
  5
38E8
330
268E
100
AcDbEntity
  8
APL Joinery
  6
Continuous
 62
     8
100
AcDbPolyline
 90
       12
 70
     1
 43
0.0
 10
419.9991069265686
 20
255.4386777084819
 10
420.9991069265678
 20
255.4386777084819
 10
420.9991069265678
 20
235.8386777084819
 10
428.6491069265691
 20
235.8386777084819
 10
428.6491069265691
 20
238.4386777084814
 10
430.6491069265692
 20
238.4386777084814
 10
430.6491069265692
 20
234.5386777084818
 10
429.3491069265699
 20
234.5386777084818
 10
429.3491069265699
 20
232.9386777084814
 10
428.0491069265687
 20
232.9386777084814
 10
428.0491069265687
 20
234.5386777084818
 10
419.9991069265686
 20
234.5386777084818
  0
ENDBLK
  5
2690
330
268E
100
AcDbEntity
  8
0
100
AcDbBlockEnd
  0
BLOCK
  5
26A9
330
26A8
100
AcDbEntity
  8
0
100
AcDbBlockBegin
  2
6Glass
 70
     0
 10
101.8368839708302
 20
399.4111348733001
 30
0.0
  3
6Glass
  1
6Glass.dwg
  0
LINE
  5
343C
330
26A8
100
AcDbEntity
  8
APL Joinery
 62
     7
100
AcDbLine
 10
95.33688397083029
 20
412.4111348732999
 30
0.0
 11
95.33688397083029
 21
392.4111348733
 31
0.0
  0
LINE
  5
343D
330
26A8
100
AcDbEntity
  8
APL Joinery
 62
     7
100
AcDbLine
 10
89.33688397083029
 20
412.4111348732999
 30
0.0
 11
95.33688397083029
 21
412.4111348732999
 31
0.0
  0
LINE
  5
343E
330
26A8
100
AcDbEntity
  8
APL Joinery
 62
     8
100
AcDbLine
 10
93.33688397083028
 20
412.4111348732999
 30
0.0
 11
93.33688397083028
 21
392.4111348733
 31
0.0
  0
LINE
  5
343F
330
26A8
100
AcDbEntity
  8
APL Joinery
 62
     7
100
AcDbLine
 10
89.33688397083029
 20
412.4111348732999
 30
0.0
 11
89.33688397083029
 21
392.4111348733
 31
0.0
  0
LINE
  5
3440
330
26A8
100
AcDbEntity
  8
APL Joinery
 62
     8
100
AcDbLine
 10
91.33688397083028
 20
412.4111348732999
 30
0.0
 11
91.33688397083028
 21
392.4111348733
 31
0.0
  0
ENDBLK
  5
26AA
330
26A8
100
AcDbEntity
  8
0
100
AcDbBlockEnd
  0
BLOCK
  5
26AF
330
26AE
100
AcDbEntity
  8
0
100
AcDbBlockBegin
  2
9010604
 70
     0
 10
-20.17351297792279
 20
130.681482016425
 30
0.0
  3
9010604
  1
9010604.dwg
  0
LWPOLYLINE
  5
38F3
330
26AE
100
AcDbEntity
  8
APL Joinery
 62
   252
100
AcDbPolyline
 90
        2
 70
     0
 43
0.0
 10
16.60163658520415
 20
134.3235541766534
 42
0.6709480368361744
 10
16.17351297792268
 20
134.1481347349457
210
0.0
220
0.0
230
-1.0
  0
LWPOLYLINE
  5
38F4
330
26AE
100
AcDbEntity
  8
APL Joinery
 62
   252
100
AcDbPolyline
 90
        2
 70
     0
 43
0.0
 10
16.67351297792268
 20
128.8441344391318
 42
0.9999999999999998
 10
16.17351297792268
 20
128.8441344391318
210
0.0
220
0.0
230
-1.0
  0
LWPOLYLINE
  5
38F5
330
26AE
100
AcDbEntity
  8
APL Joinery
 62
   252
100
AcDbPolyline
 90
        2
 70
     0
 43
0.0
 10
16.67351297792269
 20
125.4689079447544
 42
0.9999999999999998
 10
16.17351297792269
 20
125.4689079447544
210
0.0
220
0.0
230
-1.0
  0
LWPOLYLINE
  5
38F6
330
26AE
100
AcDbEntity
  8
APL Joinery
 62
   252
100
AcDbPolyline
 90
        2
 70
     0
 43
0.0
 10
-16.17351297792268
 20
128.8441344391318
 10
-16.1735129779228
 20
127.9621344391317
  0
LWPOLYLINE
  5
38F7
330
26AE
100
AcDbEntity
  8
APL Joinery
 62
   252
100
AcDbPolyline
 90
        2
 70
     0
 43
0.0
 10
-16.17351297792268
 20
134.1481347349457
 10
-16.1735129779228
 20
132.4795000512589
  0
LWPOLYLINE
  5
38F8
330
26AE
100
AcDbEntity
  8
APL Joinery
 62
   252
100
AcDbPolyline
 90
        2
 70
     0
 43
0.0
 10
16.17351297792542
 20
132.4795000512256
 42
0.2679491924311239
 10
17.67351297795256
 20
130.3216344391175
210
0.0
220
0.0
230
-1.0
  0
LWPOLYLINE
  5
38F9
330
26AE
100
AcDbEntity
  8
APL Joinery
 62
   252
100
AcDbPolyline
 90
        6
 70
     0
 43
0.0
 10
-17.67351297792268
 20
130.3216344391317
 10
-17.67351297792259
 20
127.9076182450579
 42
0.493145426031304
 10
-17.48469012115723
 20
127.7627293711144
 10
-17.41469393282016
 20
127.7814847932528
 42
0.3394542588633749
 10
-16.67351297792268
 20
128.7474106195419
 10
-16.67351297792279
 20
128.8441344391318
  0
LWPOLYLINE
  5
38FA
330
26AE
100
AcDbEntity
  8
APL Joinery
 62
   252
100
AcDbPolyline
 90
        2
 70
     0
 43
0.0
 10
16.17351297792268
 20
127.9621344391317
 42
0.4142135623730951
 10
17.67351297792268
 20
126.4621344391317
210
0.0
220
0.0
230
-1.0
  0
LWPOLYLINE
  5
38FB
330
26AE
100
AcDbEntity
  8
APL Joinery
 62
   252
100
AcDbPolyline
 90
        2
 70
     0
 43
0.0
 10
16.67351297792269
 20
122.0936814503771
 42
0.9999999999999998
 10
16.17351297792269
 20
122.0936814503771
210
0.0
220
0.0
230
-1.0
  0
LWPOLYLINE
  5
38FC
330
26AE
100
AcDbEntity
  8
APL Joinery
 62
   252
100
AcDbPolyline
 90
        2
 70
     0
 43
0.0
 10
-16.17351297792269
 20
122.0936814503771
 10
-16.1735129779228
 20
121.2116814503773
  0
LWPOLYLINE
  5
38FD
330
26AE
100
AcDbEntity
  8
APL Joinery
 62
   252
100
AcDbPolyline
 90
        2
 70
     0
 43
0.0
 10
16.17351297792269
 20
121.2116814503773
 42
0.2513102605358356
 10
16.84402567435407
 20
119.9619011443961
210
0.0
220
0.0
230
-1.0
  0
LWPOLYLINE
  5
38FE
330
26AE
100
AcDbEntity
  8
APL Joinery
 62
   252
100
AcDbPolyline
 90
        2
 70
     0
 43
0.0
 10
16.17351297792269
 20
124.5869079447544
 42
0.4142135623730951
 10
17.67351297792269
 20
123.0869079447544
210
0.0
220
0.0
230
-1.0
  0
LWPOLYLINE
  5
38FF
330
26AE
100
AcDbEntity
  8
APL Joinery
 62
   252
100
AcDbPolyline
 90
        6
 70
     0
 43
0.0
 10
-17.67351297792269
 20
123.0869079447544
 10
-17.6735129779226
 20
121.1571652563034
 42
0.493145426031304
 10
-17.48469012115723
 20
121.01227638236
 10
-17.41469393282017
 20
121.0310318044981
 42
0.3394542588633749
 10
-16.67351297792269
 20
121.9969576307872
 10
-16.6735129779228
 20
122.0936814503773
  0
LWPOLYLINE
  5
3900
330
26AE
100
AcDbEntity
  8
APL Joinery
 62
   252
100
AcDbPolyline
 90
        6
 70
     0
 43
0.0
 10
-17.67351297792268
 20
126.4621344391317
 10
-17.6735129779226
 20
124.5323917506806
 42
0.493145426031304
 10
-17.48469012115701
 20
124.3875028767373
 10
-17.41469393282017
 20
124.4062582988755
 42
0.3394542588633749
 10
-16.67351297792269
 20
125.3721841251645
 10
-16.6735129779228
 20
125.4689079447544
  0
LWPOLYLINE
  5
3901
330
26AE
100
AcDbEntity
  8
APL Joinery
 62
   252
100
AcDbPolyline
 90
        2
 70
     0
 43
0.0
 10
-16.17351297792268
 20
125.4689079447544
 10
-16.1735129779228
 20
124.5869079447544
  0
LWPOLYLINE
  5
3902
330
26AE
100
AcDbEntity
  8
APL Joinery
 62
   252
100
AcDbPolyline
 90
        5
 70
     0
 43
0.0
 10
-16.84402567440342
 20
119.9619011443633
 10
-18.92388950453384
 20
118.5814820164251
 10
-20.17351297792281
 20
120.4886926987968
 10
-20.17351297792281
 20
125.131482016425
 10
-21.10930520105367
 20
127.2276565962382
  0
LWPOLYLINE
  5
3903
330
26AE
100
AcDbEntity
  8
APL Joinery
 62
   252
100
AcDbPolyline
 90
        2
 70
     0
 43
0.0
 10
21.10930520105035
 20
127.2276565962311
 42
0.543279747118861
 10
20.65273625983471
 20
127.931482016425
210
0.0
220
0.0
230
-1.0
  0
LWPOLYLINE
  5
3904
330
26AE
100
AcDbEntity
  8
APL Joinery
 62
   252
100
AcDbPolyline
 90
        5
 70
     0
 43
0.0
 10
-20.65273625983471
 20
127.931482016425
 10
-20.1735129779228
 20
127.931482016425
 10
-20.1735129779228
 20
130.7814820164249
 10
-21.1735129779228
 20
130.681482016425
 10
-21.1735129779228
 20
131.6862565916781
  0
LWPOLYLINE
  5
3905
330
26AE
100
AcDbEntity
  8
APL Joinery
 62
   252
100
AcDbPolyline
 90
        2
 70
     0
 43
0.0
 10
-21.17351297755487
 20
131.6862565917625
 42
0.149906020253322
 10
-16.6016365851351
 20
134.3235541767276
  0
ENDBLK
  5
26B0
330
26AE
100
AcDbEntity
  8
0
100
AcDbBlockEnd
  0
BLOCK
  5
26CD
330
26CC
100
AcDbEntity
  8
0
100
AcDbBlockBegin
  2
07123
 70
     0
 10
458.3656891128131
 20
292.4876175000117
 30
0.0
  3
07123
  1
07123.dwg
  0
LWPOLYLINE
  5
3908
102
{ACAD_REACTORS
330
3909
102
}
330
26CC
100
AcDbEntity
  8
APL Joinery
  6
Continuous
100
AcDbPolyline
 90
       56
 70
     1
 43
0.0
 10
459.5121357222217
 20
306.5340641094199
 42
-0.9999999999999797
 10
460.2192425034092
 20
307.2411708906055
 10
461.7727958940023
 20
305.6876175000123
 42
-0.198912367379658
 10
462.0656891128158
 20
304.9805107188258
 10
462.0656891128158
 20
304.2353124947366
 42
-0.1873013852563519
 10
461.8037365730718
 20
303.5605636922864
 10
461.3598098581149
 20
303.074991901237
 42
0.6521072359563518
 10
461.7288335882434
 20
302.2376175000117
 10
462.7656891128165
 20
302.2376175000117
 42
-0.9999999999999998
 10
462.7656891128165
 20
301.2376175000117
 10
459.9003636353329
 20
301.2376175000117
 42
0.2105751711947796
 10
459.5313399052041
 20
301.0749919012377
 10
453.6345243070663
 20
294.6249919012381
 42
0.6521072359563482
 10
454.0035480371928
 20
293.7876175000128
 10
456.0544192755945
 20
293.7876175000128
 42
0.1989123673796545
 10
456.7615260567811
 20
294.0805107188261
 10
458.5416894616386
 20
295.8606741236834
 42
-0.3394542588634284
 10
459.7487962428252
 20
296.0195927462809
 10
460.1156891128133
 20
295.8077670490304
 42
-1.163404169897045
 10
459.4983642097079
 20
295.0355310938692
 42
0.4259052264678404
 10
459.137925062859
 20
295.0426961625298
 10
458.1813745377661
 20
294.0861456374358
 42
0.4142135623730951
 10
458.1813745377651
 20
293.3790388562501
 10
458.2192425034102
 20
293.341170890605
 42
-0.6681786379192989
 10
457.8656891128169
 20
292.4876175000117
 10
440.5727954482293
 20
292.4876175000117
 42
-0.1989123673797415
 10
440.2192420576359
 20
292.6340641094185
 10
437.5424653623388
 20
295.3108408047155
 42
-0.668178637919367
 10
437.719242057635
 20
295.7376175000117
 10
438.3300891105548
 20
295.7376175000117
 10
438.3300891105548
 20
296.9876175000117
 10
440.3800891105541
 20
296.9876175000117
 42
-0.9999999999999998
 10
440.3800891105541
 20
295.9876175000117
 10
439.6300891105541
 20
295.9876175000117
 10
439.6300891105541
 20
295.0616946875852
 10
440.2041662981276
 20
294.4876175000117
 10
440.8800891105541
 20
294.4876175000117
 10
440.8800891105541
 20
294.0376175000128
 42
0.4142135623730951
 10
441.1300891105541
 20
293.7876175000128
 10
443.6300891105541
 20
293.7876175000128
 42
0.4142135623730951
 10
443.8800891105541
 20
294.0376175000128
 10
443.8800891105541
 20
294.4876175000117
 10
445.1300891105541
 20
294.4876175000117
 10
445.1300891105541
 20
295.9876175000117
 10
444.3800891105541
 20
295.9876175000117
 42
-0.9999999999999998
 10
444.3800891105541
 20
296.9876175000117
 10
445.4300891105552
 20
296.9876175000117
 42
-0.4142135623730951
 10
446.4300891105552
 20
295.9876175000117
 10
446.4300891105552
 20
293.7876175000129
 10
448.9041058039487
 20
293.7876175000128
 42
0.2105751711947817
 10
452.5943431052322
 20
295.4138734877578
 10
458.3656891128169
 20
301.7266335070253
 10
458.3656891128169
 20
302.4876175000117
 10
459.061407295728
 20
302.4876175000117
 10
460.5640551380639
 20
304.1312297890105
 42
0.4011595793581357
 10
460.5331144589938
 20
305.5130853726477
  0
HATCH
  5
3909
330
26CC
100
AcDbEntity
  8
APL Hatch
100
AcDbHatch
 10
0.0
 20
0.0
 30
0.0
210
0.0
220
0.0
230
1.0
  2
SOLID
 70
     1
 71
     1
 91
        1
 92
        1
 93
       56
 72
     2
 10
459.8656891128155
 20
306.8876175000127
 40
0.5000000000000443
 50
135.0000000000783
 51
315.0000000000783
 73
     0
 72
     1
 10
460.2192425034092
 20
307.2411708906055
 11
461.7727958940023
 21
305.6876175000123
 72
     2
 10
461.0656891128158
 20
304.9805107188258
 40
1.000000000000007
 50
315.0
 51
360.0
 73
     0
 72
     1
 10
462.0656891128158
 20
304.9805107188258
 11
462.0656891128158
 21
304.2353124947366
 72
     2
 10
461.0656891128159
 20
304.2353124947378
 40
0.9999999999999431
 50
0.0000000000683946
 51
42.43464631024123
 73
     0
 72
     1
 10
461.8037365730718
 20
303.5605636922864
 11
461.3598098581149
 21
303.074991901237
 72
     2
 10
461.7288335882434
 20
302.7376175000117
 40
0.5000000000000034
 50
137.5653536898278
 51
270.0
 73
     1
 72
     1
 10
461.7288335882434
 20
302.2376175000117
 11
462.7656891128165
 21
302.2376175000117
 72
     2
 10
462.7656891128165
 20
301.7376175000117
 40
0.5
 50
270.0
 51
450.0
 73
     0
 72
     1
 10
462.7656891128165
 20
301.2376175000117
 11
459.9003636353329
 21
301.2376175000117
 72
     2
 10
459.9003636353319
 20
300.7376175000115
 40
0.5000000000002274
 50
89.99999999987624
 51
137.5653536897021
 73
     1
 72
     1
 10
459.5313399052041
 20
301.0749919012377
 11
453.6345243070663
 21
294.6249919012381
 72
     2
 10
454.0035480371938
 20
294.2876175000124
 40
0.4999999999996426
 50
137.5653536897282
 51
269.9999999998893
 73
     1
 72
     1
 10
454.0035480371928
 20
293.7876175000128
 11
456.0544192755945
 21
293.7876175000128
 72
     2
 10
456.0544192755947
 20
294.7876175000129
 40
1.000000000000113
 50
269.9999999999902
 51
314.9999999999885
 73
     1
 72
     1
 10
456.7615260567811
 20
294.0805107188261
 11
458.5416894616386
 21
295.8606741236834
 72
     2
 10
459.2487962428249
 20
295.1535673424968
 40
0.9999999999998474
 50
225.0000000000138
 51
300.0000000000227
 73
     0
 72
     1
 10
459.7487962428252
 20
296.0195927462809
 11
460.1156891128133
 21
295.8077670490304
 72
     2
 10
459.8656891128134
 20
295.3747543471383
 40
0.4999999999998649
 50
300.0000000000014
 51
497.2776334669029
 73
     0
 72
     2
 10
459.3147017581562
 20
294.8659194672341
 40
0.2499999999996247
 50
42.72236653332014
 51
135.0000000002211
 73
     1
 72
     1
 10
459.137925062859
 20
295.0426961625298
 11
458.1813745377661
 21
294.0861456374358
 72
     2
 10
458.5349279283585
 20
293.7325922468425
 40
0.4999999999994414
 50
134.9999999999263
 51
224.9999999999171
 73
     1
 72
     1
 10
458.1813745377651
 20
293.3790388562501
 11
458.2192425034102
 21
293.341170890605
 72
     2
 10
457.8656891128169
 20
292.9876175000117
 40
0.500000000000004
 50
315.0
 51
450.0
 73
     0
 72
     1
 10
457.8656891128169
 20
292.4876175000117
 11
440.5727954482293
 21
292.4876175000117
 72
     2
 10
440.5727954482292
 20
292.9876175000117
 40
0.5
 50
89.99999999999349
 51
135.0000000000138
 73
     0
 72
     1
 10
440.2192420576359
 20
292.6340641094185
 11
437.5424653623388
 21
295.3108408047155
 72
     2
 10
437.7192420576352
 20
295.4876175000121
 40
0.2499999999997207
 50
134.9999999999631
 51
269.9999999999739
 73
     0
 72
     1
 10
437.719242057635
 20
295.7376175000117
 11
438.3300891105548
 21
295.7376175000117
 72
     1
 10
438.3300891105548
 20
295.7376175000117
 11
438.3300891105548
 21
296.9876175000117
 72
     1
 10
438.3300891105548
 20
296.9876175000117
 11
440.3800891105541
 21
296.9876175000117
 72
     2
 10
440.3800891105541
 20
296.4876175000117
 40
0.5
 50
270.0
 51
450.0
 73
     0
 72
     1
 10
440.3800891105541
 20
295.9876175000117
 11
439.6300891105541
 21
295.9876175000117
 72
     1
 10
439.6300891105541
 20
295.9876175000117
 11
439.6300891105541
 21
295.0616946875852
 72
     1
 10
439.6300891105541
 20
295.0616946875852
 11
440.2041662981276
 21
294.4876175000117
 72
     1
 10
440.2041662981276
 20
294.4876175000117
 11
440.8800891105541
 21
294.4876175000117
 72
     1
 10
440.8800891105541
 20
294.4876175000117
 11
440.8800891105541
 21
294.0376175000128
 72
     2
 10
441.1300891105541
 20
294.0376175000128
 40
0.25
 50
180.0
 51
270.0
 73
     1
 72
     1
 10
441.1300891105541
 20
293.7876175000128
 11
443.6300891105541
 21
293.7876175000128
 72
     2
 10
443.6300891105541
 20
294.0376175000128
 40
0.25
 50
270.0
 51
360.0
 73
     1
 72
     1
 10
443.8800891105541
 20
294.0376175000128
 11
443.8800891105541
 21
294.4876175000117
 72
     1
 10
443.8800891105541
 20
294.4876175000117
 11
445.1300891105541
 21
294.4876175000117
 72
     1
 10
445.1300891105541
 20
294.4876175000117
 11
445.1300891105541
 21
295.9876175000117
 72
     1
 10
445.1300891105541
 20
295.9876175000117
 11
444.3800891105541
 21
295.9876175000117
 72
     2
 10
444.3800891105541
 20
296.4876175000117
 40
0.5
 50
90.0
 51
270.0
 73
     0
 72
     1
 10
444.3800891105541
 20
296.9876175000117
 11
445.4300891105552
 21
296.9876175000117
 72
     2
 10
445.4300891105552
 20
295.9876175000117
 40
1.0
 50
270.0
 51
360.0
 73
     0
 72
     1
 10
446.4300891105552
 20
295.9876175000117
 11
446.4300891105552
 21
293.7876175000129
 72
     1
 10
446.4300891105552
 20
293.7876175000129
 11
448.9041058039487
 21
293.7876175000128
 72
     2
 10
448.9041058039507
 20
298.7876175000114
 40
4.999999999998578
 50
269.9999999999765
 51
317.5653536898046
 73
     1
 72
     1
 10
452.5943431052322
 20
295.4138734877578
 11
458.3656891128169
 21
301.7266335070253
 72
     1
 10
458.3656891128169
 20
301.7266335070253
 11
458.3656891128169
 21
302.4876175000117
 72
     1
 10
458.3656891128169
 20
302.4876175000117
 11
459.061407295728
 21
302.4876175000117
 72
     1
 10
459.061407295728
 20
302.4876175000117
 11
460.5640551380639
 21
304.1312297890105
 72
     2
 10
459.8260076778072
 20
304.8059785914611
 40
1.000000000000083
 50
317.565353689823
 51
404.9999999999953
 73
     1
 72
     1
 10
460.5331144589938
 20
305.5130853726477
 11
459.5121357222217
 21
306.5340641094199
 97
        1
330
3908
 75
     0
 76
     1
 98
        1
 10
0.0
 20
0.0
  0
ENDBLK
  5
26CE
330
26CC
100
AcDbEntity
  8
0
100
AcDbBlockEnd
  0
BLOCK
  5
26D3
330
26D2
100
AcDbEntity
  8
0
100
AcDbBlockBegin
  2
9700158
 70
     0
 10
174.0833845896645
 20
209.1838914698199
 30
0.0
  3
9700158
  1
9700158.dwg
  0
LWPOLYLINE
  5
390C
330
26D2
100
AcDbEntity
  8
APL Joinery
 62
     8
100
AcDbPolyline
 90
       16
 70
     0
 43
0.0
 10
170.0844615238645
 20
210.7276577404199
 10
170.5812307214826
 20
205.3929768350096
 42
-1.73205080756885
 10
169.7943127780645
 20
205.7545845650198
 10
169.5990464418646
 20
208.6720902866199
 10
169.5856905330645
 20
209.0611154212198
 10
169.5833845896645
 20
211.1173474922199
 10
169.6471993674645
 20
211.4735521188198
 10
169.6839086074645
 20
211.5745025288198
 10
169.7450906740645
 20
211.6876893520199
 10
169.8123909474645
 20
211.7702851420198
 10
169.9286368740645
 20
211.8651173452199
 10
170.0142917672645
 20
211.9171221018198
 10
170.1427741072645
 20
211.9630086518199
 10
170.2804337572645
 20
211.9905405818199
 10
170.3333845896645
 20
212.0043371268199
 10
169.5919031330645
 20
214.7715835956199
  0
LWPOLYLINE
  5
390D
330
26D2
100
AcDbEntity
  8
APL Joinery
 62
     8
100
AcDbPolyline
 90
       20
 70
     0
 43
0.0
 10
170.0844615237555
 20
210.7276577405251
 42
-1.047538523474869
 10
170.5833845896645
 20
210.7508376296199
 10
170.5833845896645
 20
205.6338914698199
 42
0.4142135623730951
 10
171.0833845896645
 20
205.1338914698199
 10
171.5833845896645
 20
205.1338914698199
 10
171.5833845896645
 20
207.9338914698198
 10
172.8333845896645
 20
207.9338914698198
 10
172.8333845896645
 20
207.4338914698198
 42
0.9999999999999998
 10
173.8333845896645
 20
207.4338914698198
 10
173.8333845896645
 20
210.9338914698199
 42
0.9999999999999998
 10
172.8333845896645
 20
210.9338914698199
 10
172.8333845896645
 20
210.4338914698199
 10
171.5833845896645
 20
210.4338914698199
 10
171.5833845896645
 20
213.2338914698199
 10
175.6833845896645
 20
213.2338914698199
 10
176.1792862290088
 20
215.9388095026067
 42
0.4683749459846007
 10
175.9333845896645
 20
216.2338914698199
 10
175.1833845896646
 20
216.2338914698199
 10
169.7838326132251
 20
215.081328357083
 42
0.4325719375873472
 10
169.5919031330922
 20
214.7715835957442
  0
LWPOLYLINE
  5
390E
330
26D2
100
AcDbEntity
  8
APL Joinery
 62
     8
100
AcDbPolyline
 90
        2
 70
     0
 43
0.0
 10
172.2085048132645
 20
207.9338914698198
 10
172.2085048132645
 20
210.4338914698199
  0
ENDBLK
  5
26D4
330
26D2
100
AcDbEntity
  8
0
100
AcDbBlockEnd
  0
BLOCK
  5
26E2
330
26E1
100
AcDbEntity
  8
0
100
AcDbBlockBegin
  2
07123Glaze
 70
     0
 10
0.0
 20
0.0
 30
0.0
  3
07123Glaze
  1

  0
INSERT
  5
26F1
330
26E1
100
AcDbEntity
  8
APL Joinery
100
AcDbBlockReference
  2
07123
 10
0.0
 20
0.0
 30
0.0
 41
-1.0
 50
90.0
  0
INSERT
  5
26F2
330
26E1
100
AcDbEntity
  8
APL Joinery
100
AcDbBlockReference
  2
9010604
 10
-4.5
 20
20.03560000225832
 30
0.0
 41
-1.0
  0
INSERT
  5
26F3
330
26E1
100
AcDbEntity
  8
APL Joinery
100
AcDbBlockReference
  2
9700158
 10
-37.0
 20
16.94999999999891
 30
0.0
 41
-1.0
  0
LINE
  5
26F4
330
26E1
100
AcDbEntity
  8
APL Joinery
 62
     7
100
AcDbLine
 10
-14.50000000000005
 20
9.487756305405753
 30
0.0
 11
-26.50000000000006
 21
9.487756305405753
 31
0.0
  0
LINE
  5
26F5
330
26E1
100
AcDbEntity
  8
APL Joinery
 62
     7
100
AcDbLine
 10
-14.50000000000005
 20
15.48775630540575
 30
0.0
 11
-26.50000000000006
 21
15.48775630540575
 31
0.0
  0
INSERT
  5
26F6
330
26E1
100
AcDbEntity
  8
APL Joinery
100
AcDbBlockReference
  2
6Glass
 10
-39.0
 20
22.48775630540558
 30
0.0
 50
180.0
  0
INSERT
  5
26F7
330
26E1
100
AcDbEntity
  8
APL Joinery
100
AcDbBlockReference
  2
6Glass
 10
-21.0
 20
22.48775630540558
 30
0.0
 50
180.0
  0
ENDBLK
  5
26E3
330
26E1
100
AcDbEntity
  8
0
100
AcDbBlockEnd
  0
BLOCK
  5
2708
330
2707
100
AcDbEntity
  8
0
100
AcDbBlockBegin
  2
07103
 70
     0
 10
494.0467264791148
 20
408.3095849969407
 30
0.0
  3
07103
  1
07103.dwg
  0
LWPOLYLINE
  5
3910
102
{ACAD_REACTORS
330
3912
102
}
330
2707
100
AcDbEntity
  8
APL Joinery
  6
Continuous
100
AcDbPolyline
 90
       74
 70
     1
 43
0.0
 10
486.4049948130859
 20
401.4784354062674
 10
480.9372350254932
 20
409.692910204529
 42
-0.3573073485341374
 10
481.0625785385654
 20
410.9541167128311
 10
490.1680468226747
 20
420.0595849969407
 10
492.2962983302766
 20
420.0595849969407
 10
492.2962983302766
 20
421.3095849969407
 10
511.0967264791149
 20
421.3095849969407
 42
0.9999999999999998
 10
511.0967264791149
 20
422.8095849969407
 10
507.2967264791157
 20
422.8095849969407
 42
-0.4142135623730951
 10
507.0467264791156
 20
423.0595849969407
 10
507.0467264791156
 20
426.3614675875855
 42
-0.4142135623730951
 10
507.2967264791157
 20
426.6114675875854
 10
519.0467264791156
 20
426.6114675875854
 10
519.0467264791156
 20
420.9095849969411
 10
525.1467264791151
 20
420.9095849969411
 42
-0.4142135623730951
 10
525.3967264791151
 20
420.6595849969411
 10
525.3967264791151
 20
419.7595849969415
 42
0.4142135623730951
 10
525.6467264791151
 20
419.5095849969415
 10
526.5467264791157
 20
419.5095849969415
 42
0.4142135623730951
 10
526.7967264791157
 20
419.7595849969415
 10
526.7967264791157
 20
422.3095849969407
 10
520.4467264791153
 20
422.3095849969407
 10
520.4467264791153
 20
429.4114675875857
 10
519.2467264791154
 20
429.4114675875857
 10
519.2467264791154
 20
428.0114675875851
 10
513.3967264791151
 20
428.0114675875851
 10
513.3967264791151
 20
466.0595849969407
 10
509.8967264791151
 20
466.0595849969407
 10
509.8967264791151
 20
464.0095849969405
 42
0.9999999999999998
 10
510.8967264791151
 20
464.0095849969405
 10
510.8967264791151
 20
464.7595849969405
 10
512.3967264791152
 20
464.7595849969405
 10
512.3967264791152
 20
459.2595849969406
 10
510.8967264791151
 20
459.2595849969406
 10
510.8967264791151
 20
460.0095849969405
 42
0.9999999999999998
 10
509.8967264791151
 20
460.0095849969405
 10
509.8967264791151
 20
457.9595849969413
 10
511.8967264791151
 20
457.9595849969413
 10
511.8967264791151
 20
456.4595849969413
 10
512.1467264791151
 20
456.4595849969413
 10
512.1467264791151
 20
452.4595849969413
 10
511.8967264791151
 20
452.4595849969413
 10
511.8967264791151
 20
447.0595849969408
 42
-0.4142135623730951
 10
509.8967264791151
 20
445.0595849969407
 10
488.5467264791157
 20
445.0595849969407
 42
0.9999999999999998
 10
488.5467264791157
 20
444.0595849969407
 10
491.0467264791157
 20
444.0595849969407
 10
491.0467264791157
 20
440.0595849969407
 10
476.8967264791151
 20
440.0595849969407
 10
476.8967264791151
 20
442.1569935006713
 10
477.8632328300616
 20
443.8310316063473
 42
0.3394542588633301
 10
477.8235031744117
 20
444.132808301644
 10
476.8967264791151
 20
445.0595849969407
 10
475.3967264791151
 20
445.0595849969407
 10
475.3967264791151
 20
418.3334035902848
 42
0.1478844142756872
 10
477.072223536533
 20
412.7924063191301
 10
485.156319371699
 20
400.6472858155943
 42
0.2509566172926127
 10
487.6536702544733
 20
399.3095849969408
 10
491.0467264791147
 20
399.3095849969408
 42
0.4142135623730951
 10
492.0467264791148
 20
400.3095849969407
 10
492.0467264791148
 20
401.3595849969409
 42
0.9999999999999998
 10
491.0467264791147
 20
401.3595849969409
 10
491.0467264791147
 20
400.6095849969409
 10
489.5467264791148
 20
400.6095849969409
 10
489.5467264791148
 20
406.1095849969409
 10
491.0467264791147
 20
406.1095849969409
 10
491.0467264791147
 20
405.359584996941
 42
0.9999999999999998
 10
492.0467264791148
 20
405.359584996941
 10
492.0467264791148
 20
406.4095849969411
 42
0.4142135623730951
 10
491.0467264791147
 20
407.4095849969411
 10
489.5467264791148
 20
407.4095849969411
 42
0.4142135623730951
 10
488.0467264791148
 20
405.9095849969411
 10
488.0467264791148
 20
401.3153199271977
 42
-0.4459564851225481
 10
487.4932545914353
 20
400.818187392326
 42
-0.2226658265771438
  0
LWPOLYLINE
  5
3911
102
{ACAD_REACTORS
330
3912
102
}
330
2707
100
AcDbEntity
  8
APL Joinery
  6
Continuous
100
AcDbPolyline
 90
       27
 70
     1
 43
0.0
 10
497.8626446329609
 20
426.7344822248993
 42
-0.9999999999999998
 10
498.9299523252697
 20
427.7884529502705
 42
-0.3548088091890836
 10
499.3397914444508
 20
423.5855590229147
 42
0.5978996910514593
 10
499.7567306930084
 20
422.8095849969407
 10
505.5467264791157
 20
422.8095849969407
 10
505.5467264791157
 20
426.2614675875851
 42
-0.4142135623730951
 10
507.2967264791157
 20
428.0114675875851
 10
511.3967264791151
 20
428.0114675875851
 42
0.4142135623730951
 10
511.8967264791151
 20
428.5114675875851
 10
511.8967264791151
 20
443.0595849969408
 42
0.4142135623730951
 10
511.3967264791151
 20
443.5595849969407
 10
493.0467264791157
 20
443.5595849969407
 42
0.4142135623730951
 10
492.5467264791157
 20
443.0595849969408
 10
492.5467264791157
 20
440.0595849969407
 42
-0.4142135623730951
 10
491.0467264791157
 20
438.5595849969408
 10
477.3967264791151
 20
438.5595849969408
 42
0.4142135623730951
 10
476.8967264791151
 20
438.0595849969408
 10
476.896726479115
 20
418.3334035902847
 42
0.1478844142756755
 10
478.3208989779203
 20
413.6235559098032
 10
478.9591933542949
 20
412.6646160016355
 42
0.4735056154819743
 10
480.4987504297392
 20
412.5116089475654
 10
489.9912701273786
 20
422.0041286452035
 42
-0.1989123673796641
 10
491.9358137756415
 20
422.8095849969407
 10
493.3358662652215
 20
422.8095849969407
 42
0.5978996910514752
 10
493.752805513779
 20
423.5855590229146
 42
-0.354808809189094
 10
494.162644632961
 20
427.7884529502705
 42
-1.00000000000004
 10
495.229952325269
 20
426.7344822248991
 42
2.392909508455622
  0
HATCH
  5
3912
330
2707
100
AcDbEntity
  8
APL Hatch
100
AcDbHatch
 10
0.0
 20
0.0
 30
0.0
210
0.0
220
0.0
230
1.0
  2
SOLID
 70
     1
 71
     1
 91
        2
 92
       16
 93
       27
 72
     2
 10
498.3962984791153
 20
427.261467587585
 40
0.7500000000002328
 50
135.360227041443
 51
315.3602270414491
 73
     0
 72
     2
 10
496.5462984791149
 20
425.4345849969405
 40
3.350000000000496
 50
315.3602270414142
 51
393.5007603850511
 73
     0
 72
     2
 10
499.7567306930084
 20
423.3095849969407
 40
0.5000000000000253
 50
146.4992396149542
 51
270.0
 73
     1
 72
     1
 10
499.7567306930084
 20
422.8095849969407
 11
505.5467264791157
 21
422.8095849969407
 72
     1
 10
505.5467264791157
 20
422.8095849969407
 11
505.5467264791157
 21
426.2614675875851
 72
     2
 10
507.2967264791157
 20
426.2614675875851
 40
1.75
 50
180.0
 51
270.0
 73
     0
 72
     1
 10
507.2967264791157
 20
428.0114675875851
 11
511.3967264791151
 21
428.0114675875851
 72
     2
 10
511.3967264791151
 20
428.5114675875851
 40
0.5
 50
270.0
 51
360.0
 73
     1
 72
     1
 10
511.8967264791151
 20
428.5114675875851
 11
511.8967264791151
 21
443.0595849969408
 72
     2
 10
511.3967264791151
 20
443.0595849969408
 40
0.5
 50
0.0
 51
90.0
 73
     1
 72
     1
 10
511.3967264791151
 20
443.5595849969407
 11
493.0467264791157
 21
443.5595849969407
 72
     2
 10
493.0467264791157
 20
443.0595849969408
 40
0.5
 50
90.0
 51
180.0
 73
     1
 72
     1
 10
492.5467264791157
 20
443.0595849969408
 11
492.5467264791157
 21
440.0595849969407
 72
     2
 10
491.0467264791157
 20
440.0595849969407
 40
1.5
 50
360.0
 51
450.0
 73
     0
 72
     1
 10
491.0467264791157
 20
438.5595849969408
 11
477.3967264791151
 21
438.5595849969408
 72
     2
 10
477.3967264791151
 20
438.0595849969408
 40
0.5
 50
90.0
 51
180.0
 73
     1
 72
     1
 10
476.8967264791151
 20
438.0595849969408
 11
476.896726479115
 21
418.3334035902847
 72
     2
 10
485.3967264791152
 20
418.3334035902848
 40
8.50000000000017
 50
180.0000000000004
 51
213.6487285868878
 73
     1
 72
     1
 10
478.3208989779203
 20
413.6235559098032
 11
478.9591933542949
 21
412.6646160016355
 72
     2
 10
479.7916436485524
 20
413.2187157287514
 40
0.9999999999996809
 50
213.6487285869261
 51
315.0000000000368
 73
     1
 72
     1
 10
480.4987504297392
 20
412.5116089475654
 11
489.9912701273786
 21
422.0041286452035
 72
     2
 10
491.9358137756416
 20
420.0595849969408
 40
2.749999999999861
 50
224.9999999999941
 51
269.9999999999953
 73
     0
 72
     1
 10
491.9358137756415
 20
422.8095849969407
 11
493.3358662652215
 21
422.8095849969407
 72
     2
 10
493.3358662652215
 20
423.3095849969407
 40
0.5
 50
269.9999999999935
 51
393.500760385044
 73
     1
 72
     2
 10
496.5462984791153
 20
425.4345849969399
 40
3.350000000000573
 50
146.4992396149599
 51
224.6397729585988
 73
     0
 72
     2
 10
494.696298479115
 20
427.2614675875849
 40
0.7499999999999897
 50
224.6397729585814
 51
404.6397729585875
 73
     0
 72
     2
 10
496.5462984791151
 20
425.4345849969415
 40
1.849999999999111
 50
135.3602270414172
 51
404.6397729585926
 73
     1
 97
        1
330
3911
 92
        1
 93
       74
 72
     1
 10
486.4049948130859
 20
401.4784354062674
 11
480.9372350254932
 21
409.692910204529
 72
     2
 10
481.7696853197516
 20
410.2470099316442
 40
1.000000000000091
 50
146.3512714131326
 51
225.000000000023
 73
     0
 72
     1
 10
481.0625785385654
 20
410.9541167128311
 11
490.1680468226747
 21
420.0595849969407
 72
     1
 10
490.1680468226747
 20
420.0595849969407
 11
492.2962983302766
 21
420.0595849969407
 72
     1
 10
492.2962983302766
 20
420.0595849969407
 11
492.2962983302766
 21
421.3095849969407
 72
     1
 10
492.2962983302766
 20
421.3095849969407
 11
511.0967264791149
 21
421.3095849969407
 72
     2
 10
511.0967264791149
 20
422.0595849969408
 40
0.75
 50
270.0
 51
450.0
 73
     1
 72
     1
 10
511.0967264791149
 20
422.8095849969407
 11
507.2967264791157
 21
422.8095849969407
 72
     2
 10
507.2967264791157
 20
423.0595849969407
 40
0.25
 50
90.0
 51
180.0
 73
     0
 72
     1
 10
507.0467264791156
 20
423.0595849969407
 11
507.0467264791156
 21
426.3614675875855
 72
     2
 10
507.2967264791157
 20
426.3614675875855
 40
0.25
 50
180.0
 51
270.0
 73
     0
 72
     1
 10
507.2967264791157
 20
426.6114675875854
 11
519.0467264791156
 21
426.6114675875854
 72
     1
 10
519.0467264791156
 20
426.6114675875854
 11
519.0467264791156
 21
420.9095849969411
 72
     1
 10
519.0467264791156
 20
420.9095849969411
 11
525.1467264791151
 21
420.9095849969411
 72
     2
 10
525.1467264791151
 20
420.6595849969411
 40
0.25
 50
270.0
 51
360.0
 73
     0
 72
     1
 10
525.3967264791151
 20
420.6595849969411
 11
525.3967264791151
 21
419.7595849969415
 72
     2
 10
525.6467264791151
 20
419.7595849969415
 40
0.25
 50
180.0
 51
270.0
 73
     1
 72
     1
 10
525.6467264791151
 20
419.5095849969415
 11
526.5467264791157
 21
419.5095849969415
 72
     2
 10
526.5467264791157
 20
419.7595849969415
 40
0.25
 50
270.0
 51
360.0
 73
     1
 72
     1
 10
526.7967264791157
 20
419.7595849969415
 11
526.7967264791157
 21
422.3095849969407
 72
     1
 10
526.7967264791157
 20
422.3095849969407
 11
520.4467264791153
 21
422.3095849969407
 72
     1
 10
520.4467264791153
 20
422.3095849969407
 11
520.4467264791153
 21
429.4114675875857
 72
     1
 10
520.4467264791153
 20
429.4114675875857
 11
519.2467264791154
 21
429.4114675875857
 72
     1
 10
519.2467264791154
 20
429.4114675875857
 11
519.2467264791154
 21
428.0114675875851
 72
     1
 10
519.2467264791154
 20
428.0114675875851
 11
513.3967264791151
 21
428.0114675875851
 72
     1
 10
513.3967264791151
 20
428.0114675875851
 11
513.3967264791151
 21
466.0595849969407
 72
     1
 10
513.3967264791151
 20
466.0595849969407
 11
509.8967264791151
 21
466.0595849969407
 72
     1
 10
509.8967264791151
 20
466.0595849969407
 11
509.8967264791151
 21
464.0095849969405
 72
     2
 10
510.3967264791151
 20
464.0095849969405
 40
0.5
 50
180.0
 51
360.0
 73
     1
 72
     1
 10
510.8967264791151
 20
464.0095849969405
 11
510.8967264791151
 21
464.7595849969405
 72
     1
 10
510.8967264791151
 20
464.7595849969405
 11
512.3967264791152
 21
464.7595849969405
 72
     1
 10
512.3967264791152
 20
464.7595849969405
 11
512.3967264791152
 21
459.2595849969406
 72
     1
 10
512.3967264791152
 20
459.2595849969406
 11
510.8967264791151
 21
459.2595849969406
 72
     1
 10
510.8967264791151
 20
459.2595849969406
 11
510.8967264791151
 21
460.0095849969405
 72
     2
 10
510.3967264791151
 20
460.0095849969405
 40
0.5
 50
0.0
 51
180.0
 73
     1
 72
     1
 10
509.8967264791151
 20
460.0095849969405
 11
509.8967264791151
 21
457.9595849969413
 72
     1
 10
509.8967264791151
 20
457.9595849969413
 11
511.8967264791151
 21
457.9595849969413
 72
     1
 10
511.8967264791151
 20
457.9595849969413
 11
511.8967264791151
 21
456.4595849969413
 72
     1
 10
511.8967264791151
 20
456.4595849969413
 11
512.1467264791151
 21
456.4595849969413
 72
     1
 10
512.1467264791151
 20
456.4595849969413
 11
512.1467264791151
 21
452.4595849969413
 72
     1
 10
512.1467264791151
 20
452.4595849969413
 11
511.8967264791151
 21
452.4595849969413
 72
     1
 10
511.8967264791151
 20
452.4595849969413
 11
511.8967264791151
 21
447.0595849969408
 72
     2
 10
509.8967264791151
 20
447.0595849969408
 40
2.0
 50
360.0
 51
450.0
 73
     0
 72
     1
 10
509.8967264791151
 20
445.0595849969407
 11
488.5467264791157
 21
445.0595849969407
 72
     2
 10
488.5467264791157
 20
444.5595849969407
 40
0.5
 50
90.0
 51
270.0
 73
     1
 72
     1
 10
488.5467264791157
 20
444.0595849969407
 11
491.0467264791157
 21
444.0595849969407
 72
     1
 10
491.0467264791157
 20
444.0595849969407
 11
491.0467264791157
 21
440.0595849969407
 72
     1
 10
491.0467264791157
 20
440.0595849969407
 11
476.8967264791151
 21
440.0595849969407
 72
     1
 10
476.8967264791151
 20
440.0595849969407
 11
476.8967264791151
 21
442.1569935006713
 72
     1
 10
476.8967264791151
 20
442.1569935006713
 11
477.8632328300616
 21
443.8310316063473
 72
     2
 10
477.6467264791151
 20
443.956031606347
 40
0.2500000000000753
 50
330.0000000000852
 51
405.0000000000737
 73
     1
 72
     1
 10
477.8235031744117
 20
444.132808301644
 11
476.8967264791151
 21
445.0595849969407
 72
     1
 10
476.8967264791151
 20
445.0595849969407
 11
475.3967264791151
 21
445.0595849969407
 72
     1
 10
475.3967264791151
 20
445.0595849969407
 11
475.3967264791151
 21
418.3334035902848
 72
     2
 10
485.3967264791146
 20
418.3334035902846
 40
9.999999999999545
 50
179.9999999999993
 51
213.6487285868891
 73
     1
 72
     1
 10
477.072223536533
 20
412.7924063191301
 11
485.156319371699
 21
400.6472858155943
 72
     2
 10
487.6536702544735
 20
402.3095849969406
 40
2.999999999999848
 50
213.6487285868885
 51
269.9999999999978
 73
     1
 72
     1
 10
487.6536702544733
 20
399.3095849969408
 11
491.0467264791147
 21
399.3095849969408
 72
     2
 10
491.0467264791147
 20
400.3095849969407
 40
1.0
 50
270.0
 51
360.0
 73
     1
 72
     1
 10
492.0467264791148
 20
400.3095849969407
 11
492.0467264791148
 21
401.3595849969409
 72
     2
 10
491.5467264791147
 20
401.3595849969409
 40
0.5
 50
0.0
 51
180.0
 73
     1
 72
     1
 10
491.0467264791147
 20
401.3595849969409
 11
491.0467264791147
 21
400.6095849969409
 72
     1
 10
491.0467264791147
 20
400.6095849969409
 11
489.5467264791148
 21
400.6095849969409
 72
     1
 10
489.5467264791148
 20
400.6095849969409
 11
489.5467264791148
 21
406.1095849969409
 72
     1
 10
489.5467264791148
 20
406.1095849969409
 11
491.0467264791147
 21
406.1095849969409
 72
     1
 10
491.0467264791147
 20
406.1095849969409
 11
491.0467264791147
 21
405.359584996941
 72
     2
 10
491.5467264791147
 20
405.359584996941
 40
0.5
 50
180.0
 51
360.0
 73
     1
 72
     1
 10
492.0467264791148
 20
405.359584996941
 11
492.0467264791148
 21
406.4095849969411
 72
     2
 10
491.0467264791147
 20
406.4095849969411
 40
1.0
 50
0.0
 51
90.0
 73
     1
 72
     1
 10
491.0467264791147
 20
407.4095849969411
 11
489.5467264791148
 21
407.4095849969411
 72
     2
 10
489.5467264791148
 20
405.9095849969411
 40
1.5
 50
90.0
 51
180.0
 73
     1
 72
     1
 10
488.0467264791148
 20
405.9095849969411
 11
488.0467264791148
 21
401.3153199271977
 72
     2
 10
487.5467264791147
 20
401.3153199271977
 40
0.5
 50
360.0
 51
456.1391673652599
 73
     0
 72
     2
 10
487.6536702544726
 20
402.309584996941
 40
1.499999999999656
 50
96.1391673652194
 51
146.3512714130889
 73
     0
 97
        1
330
3910
 75
     0
 76
     1
 98
        1
 10
0.0
 20
0.0
  0
ENDBLK
  5
2709
330
2707
100
AcDbEntity
  8
0
100
AcDbBlockEnd
  0
BLOCK
  5
271C
330
271B
100
AcDbEntity
  8
0
100
AcDbBlockBegin
  2
9700529
 70
     0
 10
781.9306002937151
 20
277.8363373982324
 30
0.0
  3
9700529
  1
9700529.dwg
  0
LWPOLYLINE
  5
3915
330
271B
100
AcDbEntity
  8
APL Joinery
  6
Continuous
 62
     8
100
AcDbPolyline
 90
       14
 70
     1
 43
0.0
 10
774.6306002937147
 20
314.2344548075874
 10
774.6306002937147
 20
279.2863373982321
 10
779.980600293715
 20
279.2863373982321
 10
779.980600293715
 20
281.8863373982316
 10
781.9806002937146
 20
281.8863373982316
 10
781.9806002937146
 20
270.7844548075875
 10
780.6806002937149
 20
270.7844548075875
 10
780.6806002937149
 20
277.9863373982319
 10
779.3806002937151
 20
277.9863373982319
 10
779.3806002937151
 20
276.4863373982319
 10
778.0806002937149
 20
276.4863373982319
 10
778.0806002937149
 20
277.9863373982319
 10
773.6306002937147
 20
277.9863373982319
 10
773.6306002937147
 20
314.2344548075874
  0
ENDBLK
  5
271D
330
271B
100
AcDbEntity
  8
0
100
AcDbBlockEnd
  0
BLOCK
  5
2721
330
2720
100
AcDbEntity
  8
0
100
AcDbBlockBegin
  2
Timber Profile 14
 70
     0
 10
393.7519846435696
 20
820.8839080702457
 30
0.0
  3
Timber Profile 14
  1
Timber Profile 14.dwg
  0
LWPOLYLINE
  5
3917
330
2720
100
AcDbEntity
  8
APL Joinery
  6
Continuous
 62
     3
100
AcDbPolyline
 90
        8
 70
     1
 43
0.0
 10
391.7019846435692
 20
818.3339080702477
 10
386.7019846435687
 20
818.3339080702477
 10
386.7019846435687
 20
856.4320254796042
 10
398.5019846435694
 20
856.4320254796037
 10
398.5019846435698
 20
809.7320254796034
 10
393.8019846435695
 20
809.7320254796038
 10
393.8019846435695
 20
821.6339080702475
 10
391.7019846435687
 20
821.633908070248
  0
SPLINE
  5
3918
330
2720
100
AcDbEntity
  8
APL Joinery
 62
     8
100
AcDbSpline
210
0.0
220
0.0
230
1.0
 70
     8
 71
     3
 72
    10
 73
     6
 74
     4
 42
0.0000000001
 43
0.0000000001
 44
0.0000000001
 40
0.0
 40
0.0
 40
0.0
 40
0.0
 40
5.263591546577339
 40
10.30985873790608
 40
15.81802698952888
 40
15.81802698952888
 40
15.81802698952888
 40
15.81802698952888
 10
395.0380500373597
 20
855.4752186760918
 30
0.0
 10
394.89416405571
 20
853.7003268954194
 30
0.0
 10
394.612332889282
 20
850.2238254663334
 30
0.0
 10
391.6248487596279
 20
845.6714687065561
 30
0.0
 10
389.0323190059914
 20
843.3002743516691
 30
0.0
 10
387.679324792558
 20
842.0627910647029
 30
0.0
 11
395.0380500373597
 21
855.4752186760918
 31
0.0
 11
394.1723178228613
 21
850.2833111555382
 31
0.0
 11
391.575120367043
 21
845.9567215122081
 31
0.0
 11
387.679324792558
 21
842.0627910647029
 31
0.0
  0
SPLINE
  5
3919
330
2720
100
AcDbEntity
  8
APL Joinery
 62
     8
100
AcDbSpline
210
0.0
220
0.0
230
1.0
 70
     8
 71
     3
 72
    11
 73
     7
 74
     5
 42
0.0000000001
 43
0.0000000001
 44
0.0000000001
 40
0.0
 40
0.0
 40
0.0
 40
0.0
 40
5.642376584452415
 40
9.888772310793711
 40
15.5710224310065
 40
19.40985520851824
 40
19.40985520851824
 40
19.40985520851824
 40
19.40985520851824
 10
397.458452421487
 20
846.0232058202477
 30
0.0
 10
397.3042749500872
 20
844.0837523734545
 30
0.0
 10
397.034065068257
 20
840.6846858177821
 30
0.0
 10
393.4912435035322
 20
836.7140537572922
 30
0.0
 10
391.3805634006039
 20
832.4927010298289
 30
0.0
 10
388.6113428291015
 20
830.8322635653421
 30
0.0
 10
387.4948128280252
 20
830.1627870118714
 30
0.0
 11
397.458452421487
 21
846.0232058202477
 31
0.0
 11
396.3513806342912
 21
840.4905025407675
 31
0.0
 11
393.9527283410171
 21
836.9864557601635
 31
0.0
 11
390.6315162250799
 21
832.3758683236638
 31
0.0
 11
387.4948128280252
 21
830.1627870118714
 31
0.0
  0
ENDBLK
  5
2722
330
2720
100
AcDbEntity
  8
0
100
AcDbBlockEnd
  0
BLOCK
  5
2727
330
2726
100
AcDbEntity
  8
0
100
AcDbBlockBegin
  2
9010100
 70
     0
 10
-698.0412257018842
 20
103.9239421823788
 30
0.0
  3
9010100
  1
9010100.dwg
  0
LWPOLYLINE
  5
391B
330
2726
100
AcDbEntity
  8
APL Joinery
 62
   252
100
AcDbPolyline
 90
       16
 70
     1
 43
0.0
 10
-697.0412257018843
 20
102.9239421823788
 10
-695.7492784149856
 20
102.9239421823788
 10
-694.0229808775646
 20
98.81824357162003
 42
0.9293418001092543
 10
-693.550394430906
 20
98.97737999157357
 10
-694.5444653146969
 20
102.8447215218598
 10
-693.5412257018843
 20
103.4239421823788
 10
-693.5412257018843
 20
104.4239421823788
 10
-694.5663527677213
 20
105.0157995697934
 10
-693.5768325592873
 20
108.8654371152974
 42
0.9293418001092604
 10
-694.0494190059462
 20
109.024573535251
 10
-695.7735859449865
 20
104.9239421823788
 10
-697.0412257018843
 20
104.9239421823788
 10
-697.0412257018843
 20
106.1739421823788
 10
-698.0412257018842
 20
106.1739421823788
 10
-698.0412257018842
 20
101.6739421823788
 10
-697.0412257018843
 20
101.6739421823788
  0
ENDBLK
  5
2728
330
2726
100
AcDbEntity
  8
0
100
AcDbBlockEnd
  0
BLOCK
  5
272C
330
272B
100
AcDbEntity
  8
0
100
AcDbBlockBegin
  2
07103Sash
 70
     0
 10
0.0
 20
0.0
 30
0.0
  3
07103Sash
  1

  0
INSERT
  5
272E
330
272B
100
AcDbEntity
  8
APL Joinery
100
AcDbBlockReference
  2
07103
 10
0.0
 20
0.0
 30
0.0
 50
90.0
  0
INSERT
  5
272F
330
272B
100
AcDbEntity
  8
APL Joinery
100
AcDbBlockReference
  2
9010100
 10
4.949999999999818
 20
-4.5
 30
0.0
 50
90.0
  0
INSERT
  5
2730
330
272B
100
AcDbEntity
  8
APL Joinery
100
AcDbBlockReference
  2
Timber Profile 14
 10
-25.15188259064399
 20
27.74999999999972
 30
0.0
 50
90.0
  0
INSERT
  5
2731
330
272B
100
AcDbEntity
  8
APL Joinery
100
AcDbBlockReference
  2
9700529
 10
-21.10188259064489
 20
27.70000000000027
 30
0.0
 50
90.0
  0
INSERT
  5
2732
330
272B
100
AcDbEntity
  8
APL Joinery
100
AcDbBlockReference
  2
9700158
 10
-16.94999999999163
 20
37.00000000002001
 30
0.0
 50
90.0
  0
ENDBLK
  5
272D
330
272B
100
AcDbEntity
  8
0
100
AcDbBlockEnd
  0
BLOCK
  5
2CF6
330
2CF5
100
AcDbEntity
  8
0
100
AcDbBlockBegin
  2
07115
 70
     0
 10
512.1971153237406
 20
337.6639635712871
 30
0.0
  3
07115
  1
07115.dwg
  0
LWPOLYLINE
  5
391E
102
{ACAD_REACTORS
330
3920
102
}
330
2CF5
100
AcDbEntity
  8
APL Joinery
  6
Continuous
100
AcDbPolyline
 90
       68
 70
     1
 43
0.0
 10
551.4624821884705
 20
322.3763015378171
 10
556.2583751349135
 20
324.3628254399233
 42
0.9999999999999996
 10
555.6843499863658
 20
325.7486447386899
 10
550.8884570399231
 20
323.7621208365843
 42
-0.5345111359507692
 10
550.1971153237414
 20
324.2240606028398
 10
550.1971153237397
 20
358.6639635712871
 10
546.6971153237405
 20
358.6639635712871
 10
546.6971153237405
 20
356.6139635712878
 42
0.9999999999999998
 10
547.6971153237415
 20
356.613963571286
 10
547.6971153237406
 20
357.3639635712861
 10
549.1971153237397
 20
357.3639635712861
 10
549.1971153237406
 20
351.8639635712869
 10
547.6971153237415
 20
351.8639635712869
 10
547.6971153237406
 20
352.6139635712878
 42
0.9999999999999998
 10
546.6971153237397
 20
352.613963571286
 10
546.6971153237415
 20
350.5639635712868
 10
548.6971153237406
 20
350.5639635712868
 10
548.6971153237406
 20
349.0639635712877
 10
548.9471153237405
 20
349.0639635712867
 10
548.9471153237405
 20
347.363963571286
 10
549.2471153237407
 20
347.0639635712867
 10
548.9471153237405
 20
346.7639635712875
 10
548.9471153237405
 20
345.0639635712868
 10
548.6971153237397
 20
345.0639635712868
 10
548.6971153237415
 20
337.6639635712871
 10
525.3471153237411
 20
337.6639635712871
 42
0.9999999999999998
 10
525.3471153237402
 20
336.6639635712871
 10
527.8471153237402
 20
336.663963571288
 10
527.8471153237411
 20
332.6639635712871
 10
513.6971153237396
 20
332.6639635712871
 10
513.6971153237415
 20
334.7613720750177
 10
514.6636216746871
 20
336.4354101806929
 42
0.3394542588633389
 10
514.6238920190373
 20
336.7371868759905
 10
513.6971153237405
 20
337.6639635712871
 10
512.1971153237406
 20
337.663963571288
 10
512.1971153237397
 20
307.959382107043
 42
0.1989123673796662
 10
512.9293483707751
 20
306.1916151540765
 10
533.9336593564508
 20
285.1873041683992
 10
534.99431952823
 20
286.2479643401801
 10
534.9943195282309
 20
287.5586245119602
 42
0.3394542588633719
 10
534.8090242895064
 20
287.8001059685315
 10
532.9418773982039
 20
288.3004064702071
 10
531.4587856222994
 20
289.7834982461116
 10
541.4643465760869
 20
299.7890591999038
 10
544.2927737008337
 20
296.9606320751572
 10
542.5250067478669
 20
295.1928651221896
 42
0.9999999999999799
 10
543.2321135290536
 20
294.485758341003
 10
559.7430568697596
 20
310.9967016817108
 10
564.9756470505395
 20
305.7641115009309
 10
565.1524237458358
 20
305.940888196228
 10
566.3545052738542
 20
304.7388066682087
 10
566.7787693425658
 20
304.7388066682068
 10
566.7787693425649
 20
304.314542599497
 10
567.9808508705843
 20
303.1124610714795
 10
567.8040741752862
 20
302.9356843761851
 10
568.8647343470662
 20
301.8750242044042
 10
567.4505207846928
 20
300.4608106420309
 10
568.9000896861249
 20
299.0112417405981
 42
0.9999999999999596
 10
569.6071964673125
 20
299.7183485217864
 10
569.076866381422
 20
300.2486786076751
 10
570.1375265532029
 20
301.3093387794551
 10
574.0266138497278
 20
297.4202514829284
 10
572.9659536779478
 20
296.3595913111493
 10
572.4356235920573
 20
296.8899213970379
 42
0.9999999999999598
 10
571.7285168108715
 20
296.1828146158513
 10
573.1780857123045
 20
294.7332457144201
 10
575.652959446456
 20
297.2081194485744
 10
551.3002705140587
 20
321.5608083809683
 42
-0.5345111359512283
  0
LWPOLYLINE
  5
391F
102
{ACAD_REACTORS
330
3920
102
}
330
2CF5
100
AcDbEntity
  8
APL Joinery
  6
Continuous
100
AcDbPolyline
 90
       47
 70
     1
 43
0.0
 10
548.486814225779
 20
305.3674675030817
 42
2.083394336380743
 10
550.1694952528765
 20
307.0501485301795
 42
-1.000000000000026
 10
550.3335945584143
 20
308.5411453168708
 42
-0.2475859549385928
 10
552.6712107955479
 20
306.9588953423771
 42
0.5035199589280463
 10
553.4658468037674
 20
306.8408119592767
 10
558.3288433073862
 20
311.7038084628957
 42
0.4142135623730951
 10
558.3288433073863
 20
312.4109152440832
 10
548.6971153237415
 20
322.0426432277271
 10
548.6971153237397
 20
335.663963571288
 42
0.4142135623730951
 10
548.1971153237387
 20
336.1639635712862
 10
541.3197997145476
 20
336.1639635712871
 42
0.5035199589280133
 10
540.8414047654968
 20
335.518573500365
 42
-0.2475859549385188
 10
540.3072801589051
 20
332.7468095207803
 42
-0.999999999999982
 10
539.1369504885752
 20
333.6850677276433
 42
2.083394336380303
 10
536.7572801589044
 20
333.6850677276426
 42
-1.000000000000022
 10
535.5869504885752
 20
332.7468095207804
 42
-0.2475859549385294
 10
535.0528258819825
 20
335.518573500365
 42
0.5035199589278708
 10
534.5744309329319
 20
336.1639635712871
 10
529.3471153237402
 20
336.1639635712853
 10
529.3471153237402
 20
331.1639635712871
 10
522.0697997145476
 20
331.1639635712871
 42
0.5035199589280133
 10
521.5914047654969
 20
330.5185735003651
 42
-0.2475859549385228
 10
521.0572801589067
 20
327.7468095207796
 42
-0.9999999999999996
 10
519.8869504885753
 20
328.6850677276443
 42
2.08339433638035
 10
517.5072801589062
 20
328.6850677276426
 42
-0.9999999999999998
 10
516.3369504885761
 20
327.7468095207796
 42
-0.2475859549385165
 10
515.8028258819844
 20
330.5185735003649
 42
0.5035199589278658
 10
515.3244309329319
 20
331.1639635712871
 10
514.1971153237415
 20
331.1639635712871
 42
0.4142135623730951
 10
513.6971153237424
 20
330.6639635712871
 10
513.6971153237405
 20
307.9593821070429
 42
0.1989123673796594
 10
513.990008542555
 20
307.2522753258563
 10
530.0445720599242
 20
291.1977118084859
 42
0.414213562373095
 10
530.7516788411109
 20
291.197711808486
 10
531.5488113529077
 20
291.9948443202828
 42
0.5035199589277071
 10
531.4307279698085
 20
292.7894803285024
 42
-0.2475859549384975
 10
529.8484779953138
 20
295.127096565635
 42
-0.9999999999999968
 10
531.3394747820045
 20
295.2911958711721
 42
2.083394336380818
 10
533.0221558091039
 20
296.97387689827
 42
-0.9999999999999998
 10
533.18625511464
 20
298.4648736849612
 42
-0.247585954938604
 10
535.5238713517752
 20
296.8826237104685
 42
0.5035199589280649
 10
536.3185073599931
 20
296.7645403273681
 10
541.4643465760869
 20
301.910379543462
 10
544.9998804820203
 20
298.3748456375305
 10
548.6961507966815
 20
302.0711159521917
 42
0.5035199589277609
 10
548.5780674135813
 20
302.8657519604113
 42
-0.2475859549384935
 10
546.9958174390886
 20
305.2033681975444
 42
-0.9999999999999998
  0
HATCH
  5
3920
330
2CF5
100
AcDbEntity
  8
APL Hatch
100
AcDbHatch
 10
0.0
 20
0.0
 30
0.0
210
0.0
220
0.0
230
1.0
  2
SOLID
 70
     1
 71
     1
 91
        2
 92
       16
 93
       47
 72
     2
 10
550.0026609589141
 20
305.5343017970445
 40
1.524999999999429
 50
186.2807026777654
 51
443.7192973222472
 73
     1
 72
     2
 10
550.2515449056454
 20
307.7956469235252
 40
0.7500000000002997
 50
96.28070267778419
 51
276.2807026777846
 73
     0
 72
     2
 10
550.0026609589147
 20
305.5343017970447
 40
3.02499999999959
 50
276.2807026777583
 51
331.9046677439197
 73
     0
 72
     2
 10
553.1122934131738
 20
307.1943653498704
 40
0.5000000000005644
 50
208.0953322560864
 51
315.0
 73
     1
 72
     1
 10
553.4658468037674
 20
306.8408119592767
 11
558.3288433073862
 21
311.7038084628957
 72
     2
 10
557.9752899167925
 20
312.0573618534895
 40
0.5000000000007275
 50
315.0
 51
404.9999999999815
 73
     1
 72
     1
 10
558.3288433073863
 20
312.4109152440832
 11
548.6971153237415
 21
322.0426432277271
 72
     1
 10
548.6971153237415
 20
322.0426432277271
 11
548.6971153237397
 21
335.663963571288
 72
     2
 10
548.1971153237402
 20
335.6639635712867
 40
0.4999999999995453
 50
0.0000000001563306
 51
90.00000000015633
 73
     1
 72
     1
 10
548.1971153237387
 20
336.1639635712862
 11
541.3197997145476
 21
336.1639635712871
 72
     2
 10
541.3197997145476
 20
335.663963571287
 40
0.5000000000001137
 50
90.0
 51
196.9046677439079
 73
     1
 72
     2
 10
537.9471153237404
 20
334.6389635712867
 40
3.024999999999207
 50
343.0953322560822
 51
398.7192973222287
 73
     0
 72
     2
 10
539.7221153237401
 20
333.2159386242119
 40
0.7500000000000511
 50
38.71929732223016
 51
218.7192973222322
 73
     0
 72
     2
 10
537.9471153237395
 20
334.6389635712871
 40
1.525000000000136
 50
321.2807026777852
 51
578.7192973222481
 73
     1
 72
     2
 10
536.1721153237398
 20
333.2159386242115
 40
0.7499999999995361
 50
321.2807026777773
 51
501.2807026777772
 73
     0
 72
     2
 10
537.9471153237391
 20
334.6389635712875
 40
3.024999999999157
 50
141.2807026777515
 51
196.9046677439001
 73
     0
 72
     2
 10
534.5744309329317
 20
335.663963571287
 40
0.5000000000001207
 50
343.0953322560858
 51
449.9999999999739
 73
     1
 72
     1
 10
534.5744309329319
 20
336.1639635712871
 11
529.3471153237402
 21
336.1639635712853
 72
     1
 10
529.3471153237402
 20
336.1639635712853
 11
529.3471153237402
 21
331.1639635712871
 72
     1
 10
529.3471153237402
 20
331.1639635712871
 11
522.0697997145476
 21
331.1639635712871
 72
     2
 10
522.0697997145475
 20
330.6639635712871
 40
0.5
 50
89.99999999998697
 51
196.9046677439155
 73
     1
 72
     2
 10
518.6971153237406
 20
329.638963571285
 40
3.024999999999736
 50
343.0953322560492
 51
398.7192973221969
 73
     0
 72
     2
 10
520.472115323741
 20
328.215938624212
 40
0.7500000000011166
 50
38.71929732224838
 51
218.719297322245
 73
     0
 72
     2
 10
518.6971153237401
 20
329.6389635712869
 40
1.52499999999907
 50
321.2807026778078
 51
578.7192973222726
 73
     1
 72
     2
 10
516.9221153237412
 20
328.215938624211
 40
0.7500000000001754
 50
321.2807026777718
 51
501.2807026777752
 73
     0
 72
     2
 10
518.6971153237414
 20
329.6389635712863
 40
3.024999999999972
 50
141.2807026777735
 51
196.9046677439202
 73
     0
 72
     2
 10
515.3244309329326
 20
330.6639635712863
 40
0.5000000000007925
 50
343.0953322561909
 51
450.0000000000781
 73
     1
 72
     1
 10
515.3244309329319
 20
331.1639635712871
 11
514.1971153237415
 21
331.1639635712871
 72
     2
 10
514.1971153237419
 20
330.6639635712876
 40
0.4999999999995453
 50
90.00000000005213
 51
180.0000000000521
 73
     1
 72
     1
 10
513.6971153237424
 20
330.6639635712871
 11
513.6971153237405
 21
307.9593821070429
 72
     2
 10
514.6971153237411
 20
307.959382107044
 40
1.000000000000568
 50
180.0000000000619
 51
225.0000000000599
 73
     1
 72
     1
 10
513.990008542555
 20
307.2522753258563
 11
530.0445720599242
 21
291.1977118084859
 72
     2
 10
530.3981254505174
 20
291.5512651990793
 40
0.5000000000000443
 50
225.0000000000138
 51
315.0000000000138
 73
     1
 72
     1
 10
530.7516788411109
 20
291.197711808486
 11
531.5488113529077
 21
291.9948443202828
 72
     2
 10
531.1952579623143
 20
292.3483977108769
 40
0.5000000000006874
 50
314.9999999999493
 51
421.9046677438032
 73
     1
 72
     2
 10
532.8553215151404
 20
295.4580301651367
 40
3.025000000000371
 50
118.0953322560621
 51
173.7192973222043
 73
     0
 72
     2
 10
530.5939763886592
 20
295.2091462184036
 40
0.7500000000000364
 50
173.7192973222398
 51
353.7192973222389
 73
     0
 72
     2
 10
532.8553215151406
 20
295.4580301651341
 40
1.525000000000359
 50
186.2807026777315
 51
443.7192973222166
 73
     1
 72
     2
 10
533.1042054618719
 20
297.7193752916156
 40
0.7500000000002002
 50
96.28070267771512
 51
276.2807026777243
 73
     0
 72
     2
 10
532.8553215151421
 20
295.4580301651342
 40
3.025000000000364
 50
276.2807026777242
 51
331.9046677438873
 73
     0
 72
     2
 10
535.9649539694002
 20
297.1180937179611
 40
0.4999999999994408
 50
208.0953322560665
 51
314.9999999999908
 73
     1
 72
     1
 10
536.3185073599931
 20
296.7645403273681
 11
541.4643465760869
 21
301.910379543462
 72
     1
 10
541.4643465760869
 20
301.910379543462
 11
544.9998804820203
 21
298.3748456375305
 72
     1
 10
544.9998804820203
 20
298.3748456375305
 11
548.6961507966815
 21
302.0711159521917
 72
     2
 10
548.3425974060877
 20
302.4246693427854
 40
0.5000000000006472
 50
315.0000000000092
 51
421.9046677438905
 73
     1
 72
     2
 10
550.0026609589146
 20
305.5343017970439
 40
3.024999999999513
 50
118.0953322561025
 51
173.7192973222446
 73
     0
 72
     2
 10
547.7413158324338
 20
305.285417850313
 40
0.7499999999998228
 50
173.7192973222292
 51
353.7192973222293
 73
     0
 97
        1
330
391F
 92
        1
 93
       68
 72
     1
 10
551.4624821884705
 20
322.3763015378171
 11
556.2583751349135
 21
324.3628254399233
 72
     2
 10
555.9713625606397
 20
325.0557350893066
 40
0.749999999999849
 50
292.5000000000059
 51
472.5000000000059
 73
     1
 72
     1
 10
555.6843499863658
 20
325.7486447386899
 11
550.8884570399231
 21
323.7621208365843
 72
     2
 10
550.697115323741
 20
324.2240606028395
 40
0.4999999999994686
 50
67.50000000003947
 51
180.0000000000325
 73
     0
 72
     1
 10
550.1971153237414
 20
324.2240606028398
 11
550.1971153237397
 21
358.6639635712871
 72
     1
 10
550.1971153237397
 20
358.6639635712871
 11
546.6971153237405
 21
358.6639635712871
 72
     1
 10
546.6971153237405
 20
358.6639635712871
 11
546.6971153237405
 21
356.6139635712878
 72
     2
 10
547.1971153237411
 20
356.613963571287
 40
0.5000000000004548
 50
179.9999999998957
 51
359.9999999998958
 73
     1
 72
     1
 10
547.6971153237415
 20
356.613963571286
 11
547.6971153237406
 21
357.3639635712861
 72
     1
 10
547.6971153237406
 20
357.3639635712861
 11
549.1971153237397
 21
357.3639635712861
 72
     1
 10
549.1971153237397
 20
357.3639635712861
 11
549.1971153237406
 21
351.8639635712869
 72
     1
 10
549.1971153237406
 20
351.8639635712869
 11
547.6971153237415
 21
351.8639635712869
 72
     1
 10
547.6971153237415
 20
351.8639635712869
 11
547.6971153237406
 21
352.6139635712878
 72
     2
 10
547.1971153237401
 20
352.613963571287
 40
0.5000000000004548
 50
0.0000000001042204
 51
180.0000000001042
 73
     1
 72
     1
 10
546.6971153237397
 20
352.613963571286
 11
546.6971153237415
 21
350.5639635712868
 72
     1
 10
546.6971153237415
 20
350.5639635712868
 11
548.6971153237406
 21
350.5639635712868
 72
     1
 10
548.6971153237406
 20
350.5639635712868
 11
548.6971153237406
 21
349.0639635712877
 72
     1
 10
548.6971153237406
 20
349.0639635712877
 11
548.9471153237405
 21
349.0639635712867
 72
     1
 10
548.9471153237405
 20
349.0639635712867
 11
548.9471153237405
 21
347.363963571286
 72
     1
 10
548.9471153237405
 20
347.363963571286
 11
549.2471153237407
 21
347.0639635712867
 72
     1
 10
549.2471153237407
 20
347.0639635712867
 11
548.9471153237405
 21
346.7639635712875
 72
     1
 10
548.9471153237405
 20
346.7639635712875
 11
548.9471153237405
 21
345.0639635712868
 72
     1
 10
548.9471153237405
 20
345.0639635712868
 11
548.6971153237397
 21
345.0639635712868
 72
     1
 10
548.6971153237397
 20
345.0639635712868
 11
548.6971153237415
 21
337.6639635712871
 72
     1
 10
548.6971153237415
 20
337.6639635712871
 11
525.3471153237411
 21
337.6639635712871
 72
     2
 10
525.3471153237406
 20
337.1639635712871
 40
0.5
 50
89.99999999994789
 51
269.9999999999479
 73
     1
 72
     1
 10
525.3471153237402
 20
336.6639635712871
 11
527.8471153237402
 21
336.663963571288
 72
     1
 10
527.8471153237402
 20
336.663963571288
 11
527.8471153237411
 21
332.6639635712871
 72
     1
 10
527.8471153237411
 20
332.6639635712871
 11
513.6971153237396
 21
332.6639635712871
 72
     1
 10
513.6971153237396
 20
332.6639635712871
 11
513.6971153237415
 21
334.7613720750177
 72
     1
 10
513.6971153237415
 20
334.7613720750177
 11
514.6636216746871
 21
336.4354101806929
 72
     2
 10
514.4471153237401
 20
336.5604101806931
 40
0.2500000000008234
 50
330.0000000000488
 51
405.0000000000368
 73
     1
 72
     1
 10
514.6238920190373
 20
336.7371868759905
 11
513.6971153237405
 21
337.6639635712871
 72
     1
 10
513.6971153237405
 20
337.6639635712871
 11
512.1971153237406
 21
337.663963571288
 72
     1
 10
512.1971153237406
 20
337.663963571288
 11
512.1971153237397
 21
307.959382107043
 72
     2
 10
514.6971153237406
 20
307.9593821070452
 40
2.500000000000909
 50
180.0000000000495
 51
225.0000000000516
 73
     1
 72
     1
 10
512.9293483707751
 20
306.1916151540765
 11
533.9336593564508
 21
285.1873041683992
 72
     1
 10
533.9336593564508
 20
285.1873041683992
 11
534.99431952823
 21
286.2479643401801
 72
     1
 10
534.99431952823
 20
286.2479643401801
 11
534.9943195282309
 21
287.5586245119602
 72
     2
 10
534.7443195282314
 20
287.5586245119597
 40
0.2499999999994316
 50
0.0000000001042204
 51
75.00000000010442
 73
     1
 72
     1
 10
534.8090242895064
 20
287.8001059685315
 11
532.9418773982039
 21
288.3004064702071
 72
     1
 10
532.9418773982039
 20
288.3004064702071
 11
531.4587856222994
 21
289.7834982461116
 72
     1
 10
531.4587856222994
 20
289.7834982461116
 11
541.4643465760869
 21
299.7890591999038
 72
     1
 10
541.4643465760869
 20
299.7890591999038
 11
544.2927737008337
 21
296.9606320751572
 72
     1
 10
544.2927737008337
 20
296.9606320751572
 11
542.5250067478669
 21
295.1928651221896
 72
     2
 10
542.8785601384602
 20
294.8393117315963
 40
0.5000000000000443
 50
135.0000000000046
 51
315.0000000000046
 73
     1
 72
     1
 10
543.2321135290536
 20
294.485758341003
 11
559.7430568697596
 21
310.9967016817108
 72
     1
 10
559.7430568697596
 20
310.9967016817108
 11
564.9756470505395
 21
305.7641115009309
 72
     1
 10
564.9756470505395
 20
305.7641115009309
 11
565.1524237458358
 21
305.940888196228
 72
     1
 10
565.1524237458358
 20
305.940888196228
 11
566.3545052738542
 21
304.7388066682087
 72
     1
 10
566.3545052738542
 20
304.7388066682087
 11
566.7787693425658
 21
304.7388066682068
 72
     1
 10
566.7787693425658
 20
304.7388066682068
 11
566.7787693425649
 21
304.314542599497
 72
     1
 10
566.7787693425649
 20
304.314542599497
 11
567.9808508705843
 21
303.1124610714795
 72
     1
 10
567.9808508705843
 20
303.1124610714795
 11
567.8040741752862
 21
302.9356843761851
 72
     1
 10
567.8040741752862
 20
302.9356843761851
 11
568.8647343470662
 21
301.8750242044042
 72
     1
 10
568.8647343470662
 20
301.8750242044042
 11
567.4505207846928
 21
300.4608106420309
 72
     1
 10
567.4505207846928
 20
300.4608106420309
 11
568.9000896861249
 21
299.0112417405981
 72
     2
 10
569.2536430767187
 20
299.3647951311923
 40
0.5000000000010491
 50
225.0000000000369
 51
405.0000000000276
 73
     1
 72
     1
 10
569.6071964673125
 20
299.7183485217864
 11
569.076866381422
 21
300.2486786076751
 72
     1
 10
569.076866381422
 20
300.2486786076751
 11
570.1375265532029
 21
301.3093387794551
 72
     1
 10
570.1375265532029
 20
301.3093387794551
 11
574.0266138497278
 21
297.4202514829284
 72
     1
 10
574.0266138497278
 20
297.4202514829284
 11
572.9659536779478
 21
296.3595913111493
 72
     1
 10
572.9659536779478
 20
296.3595913111493
 11
572.4356235920573
 21
296.8899213970379
 72
     2
 10
572.0820702014645
 20
296.5363680064446
 40
0.4999999999997629
 50
45.00000000003685
 51
225.0000000000369
 73
     1
 72
     1
 10
571.7285168108715
 20
296.1828146158513
 11
573.1780857123045
 21
294.7332457144201
 72
     1
 10
573.1780857123045
 20
294.7332457144201
 11
575.652959446456
 21
297.2081194485744
 72
     1
 10
575.652959446456
 20
297.2081194485744
 11
551.3002705140587
 21
321.5608083809683
 72
     2
 10
551.653823904652
 20
321.9143617715612
 40
0.499999999999803
 50
135.0000000000322
 51
247.5000000001125
 73
     0
 97
        1
330
391E
 75
     0
 76
     1
 98
        1
 10
0.0
 20
0.0
  0
ENDBLK
  5
2CF7
330
2CF5
100
AcDbEntity
  8
0
100
AcDbBlockEnd
  0
BLOCK
  5
2D01
330
2D00
100
AcDbEntity
  8
0
100
AcDbBlockBegin
  2
9700533
 70
     0
 10
637.5499528626219
 20
155.5904473059522
 30
0.0
  3
9700533
  1
9700533.dwg
  0
LWPOLYLINE
  5
3923
330
2D00
100
AcDbEntity
  8
APL Joinery
  6
Continuous
 62
     8
100
AcDbPolyline
 90
       28
 70
     1
 43
0.0
 10
657.1043255240052
 20
128.3750579064843
 10
634.4222698069907
 20
151.0571136235004
 42
-0.5345111359507444
 10
634.5844814814016
 20
151.8726067803491
 10
639.430124598357
 20
153.8797378778118
 10
639.4492587699764
 20
153.8335439011882
 42
0.9999999999999998
 10
640.3731383024875
 20
154.216227333553
 10
638.574526170372
 20
158.5584611363537
 42
0.9999999999999998
 10
637.6506466378612
 20
158.1757777039888
 10
637.6697808094787
 20
158.1295837273647
 10
632.8241376925229
 20
156.1224526298999
 42
-0.5345111359508924
 10
632.1327959763404
 20
156.5843923961555
 10
632.1327959763395
 20
188.6616632136604
 10
631.1327959763388
 20
188.6616632136608
 10
631.13279597634
 20
156.5843923961583
 42
0.5345111359507849
 10
633.2068211248877
 20
155.1985730973914
 10
634.7083758039433
 20
155.8205374101009
 10
635.3032427207681
 20
155.7422216947669
 10
635.7651824870226
 20
155.9335634109499
 10
635.650377457315
 20
156.2107272707033
 10
638.0524642418427
 20
157.2057041948528
 10
639.047441165992
 20
154.8036174103232
 10
636.6453543814623
 20
153.8086404861738
 10
636.5305493517536
 20
154.0858043459277
 10
636.0686095854979
 20
153.8944626297452
 10
635.7033527280921
 20
153.4184506255701
 10
634.2017980490354
 20
152.7964863128607
 42
0.5345111359509311
 10
633.7151630258025
 20
150.3500068423137
 10
656.397218742817
 20
127.6679511252983
  0
ENDBLK
  5
2D02
330
2D00
100
AcDbEntity
  8
0
100
AcDbBlockEnd
  0
BLOCK
  5
2D09
330
2D08
100
AcDbEntity
  8
0
100
AcDbBlockBegin
  2
Timber Profile 19
 70
     0
 10
435.3359565643321
 20
612.0366270179535
 30
0.0
  3
Timber Profile 19
  1
Timber Profile 19.dwg
  0
LWPOLYLINE
  5
3925
330
2D08
100
AcDbEntity
  8
APL Joinery
  6
Continuous
 62
     3
100
AcDbPolyline
 90
       12
 70
     1
 43
0.0
 10
457.422274056887
 20
651.5050588446111
 42
0.4142135623730617
 10
450.8894592325064
 20
654.2110393453429
 10
436.1013234290635
 20
648.0855929333406
 42
-0.1989123673795954
 10
434.5705896996023
 20
648.0855929333405
 10
419.7824538961599
 20
654.2110393453415
 42
0.4142135623730707
 10
413.2496390717778
 20
651.5050588446105
 10
399.7256065719957
 20
618.8551561656644
 10
432.2359565643346
 20
605.3889282813409
 10
432.2359565643341
 20
613.3866270179545
 10
438.4359565643312
 20
613.3866270179545
 10
438.4359565643335
 20
605.3889282813409
 10
470.9463065566724
 20
618.8551561656639
  0
SPLINE
  5
3926
330
2D08
100
AcDbEntity
  8
APL Joinery
 62
     8
100
AcDbSpline
210
0.0
220
0.0
230
1.0
 70
     8
 71
     3
 72
    10
 73
     6
 74
     4
 42
0.0000000001
 43
0.0000000001
 44
0.0000000001
 40
0.0
 40
0.0
 40
0.0
 40
0.0
 40
9.911908116756421
 40
18.72333204569151
 40
24.45540376577131
 40
24.45540376577131
 40
24.45540376577131
 40
24.45540376577131
 10
410.4544363327299
 20
640.2674751513441
 30
0.0
 10
413.7703589699565
 20
640.0305831173075
 30
0.0
 10
420.0340490529649
 20
639.58310033599
 30
0.0
 10
428.0482135206777
 20
642.3108118549328
 30
0.0
 10
431.7615078377754
 20
645.4546533786708
 30
0.0
 10
433.2250397050134
 20
646.6937451022517
 30
0.0
 11
410.4544363327299
 21
640.2674751513441
 31
0.0
 11
420.3663444494863
 21
640.2674751513441
 31
0.0
 11
428.6709190305568
 21
643.2128499463146
 31
0.0
 11
433.2250397050134
 21
646.6937451022517
 31
0.0
  0
SPLINE
  5
3927
330
2D08
100
AcDbEntity
  8
APL Joinery
 62
     8
100
AcDbSpline
210
0.0
220
0.0
230
1.0
 70
     8
 71
     3
 72
    11
 73
     7
 74
     5
 42
0.0000000001
 43
0.0000000001
 44
0.0000000001
 40
0.0
 40
0.0
 40
0.0
 40
0.0
 40
11.54722017285554
 40
27.46345027272591
 40
37.76828271794729
 40
44.59633610021312
 40
44.59633610021312
 40
44.59633610021312
 40
44.59633610021312
 10
410.990214177958
 20
635.9832951840721
 30
0.0
 10
414.8213629517881
 20
635.6250654025636
 30
0.0
 10
423.9332151779053
 20
634.773065904555
 30
0.0
 10
436.6647140220548
 20
635.7126751126273
 30
0.0
 10
446.979807414311
 20
640.6469217085693
 30
0.0
 10
450.5531878401521
 20
645.1620645776528
 30
0.0
 10
451.9773047430758
 20
646.9615067060299
 30
0.0
 11
410.990214177958
 21
635.9832951840721
 31
0.0
 11
422.5094603254069
 21
635.180013219327
 31
0.0
 11
438.3149427197054
 21
637.0543415991851
 31
0.0
 11
447.4231840686193
 21
641.8740419274236
 31
0.0
 11
451.9773047430758
 21
646.9615067060299
 31
0.0
  0
ENDBLK
  5
2D0A
330
2D08
100
AcDbEntity
  8
0
100
AcDbBlockEnd
  0
BLOCK
  5
33E8
330
33E7
100
AcDbEntity
  8
0
100
AcDbBlockBegin
  2
smartwood a4 SM border
 70
     0
 10
0.0
 20
0.0
 30
0.0
  3
smartwood a4 SM border
  1
smartwood a4 SM border.dwg
  0
TEXT
  5
3929
330
33E7
100
AcDbEntity
  8
APL Border
100
AcDbText
 10
50.59500000000003
 20
260.4903256579735
 30
0.0
 40
2.5
  1
Cad Ref.
  7
Arial-Bold
100
AcDbText
  0
TEXT
  5
392A
330
33E7
100
AcDbEntity
  8
APL Border
100
AcDbText
 10
86.34500000000002
 20
260.4903256579735
 30
0.0
 40
2.5
  1
Scale
  7
Arial-Bold
100
AcDbText
  0
TEXT
  5
392B
330
33E7
100
AcDbEntity
  8
APL Border
100
AcDbText
 10
106.595
 20
260.4903256579735
 30
0.0
 40
2.5
  1
Date
  7
Arial-Bold
100
AcDbText
  0
TEXT
  5
392C
330
33E7
100
AcDbEntity
  8
APL Border
100
AcDbText
 10
38.28915075034109
 20
2.689999999999997
 30
0.0
 40
1.75
  1
Product Manual 2011:1       Architectural Profiles Ltd. NB. Technical specifications subject to change without notice.
  7
Arial-Regular
 72
     1
 11
100.595
 21
2.689999999999997
 31
0.0
100
AcDbText
  0
MTEXT
  5
392D
330
33E7
100
AcDbEntity
  8
APL Border
100
AcDbMText
 10
65.62154724931708
 20
2.589999999999999
 30
0.0
 40
1.75
 41
2.550279071751219
 71
     8
 72
     5
  1
{\fCommercialPi BT|b0|i0|c2|p18;a}
  7
Arial-Regular
 73
     1
 44
1.0
1001
ACAD
1000
MTEXTBEGIN
1070
    73
1070
     1
1070
    44
1040
1.0
1070
    74
1070
     0
1000
MTEXTEND
  0
LWPOLYLINE
  5
392E
330
33E7
100
AcDbEntity
  8
APL Border
100
AcDbPolyline
 90
        2
 70
     0
 43
0.1
 10
189.595
 20
264.94
 10
50.59500000000003
 20
264.94
  0
LWPOLYLINE
  5
392F
330
33E7
100
AcDbEntity
  8
APL Border
100
AcDbPolyline
 90
        2
 70
     0
 43
0.1
 10
11.59500000000003
 20
5.939999999999997
 10
189.595
 20
5.939999999999997
  0
MTEXT
  5
3930
330
33E7
100
AcDbEntity
  8
APL Border
100
AcDbMText
 10
23.67538783647292
 20
270.7761693860163
 30
0.0
 40
5.299999999999999
 41
19.73351692440951
 71
     1
 72
     5
  1
{\fBook Antiqua|b0|i0|c0|p18;w}ood
  7
Times New Roman - Regular
 73
     1
 44
1.0
1001
ACAD
1000
MTEXTBEGIN
1070
    73
1070
     1
1070
    44
1040
1.0
1070
    74
1070
     0
1000
MTEXTEND
  0
ELLIPSE
  5
3932
102
{ACAD_REACTORS
330
3937
102
}
330
33E7
100
AcDbEntity
  8
APL Border
100
AcDbEllipse
 10
29.84950874715276
 20
269.0814048081144
 30
0.0
 11
-16.84682124459841
 21
0.4533421263139781
 31
0.0
210
0.0
220
0.0
230
1.0
 40
0.4004023718890052
 41
3.319153797531644
 42
4.72316325263933
  0
ELLIPSE
  5
3933
102
{ACAD_REACTORS
330
3937
102
}
330
33E7
100
AcDbEntity
  8
APL Border
100
AcDbEllipse
 10
29.74950874715276
 20
269.5814048081144
 30
0.0
 11
18.29645482212482
 21
0.1554481253131277
 31
0.0
210
0.0
220
0.0
230
1.0
 40
0.4217850638291509
 41
4.55200959415153
 42
5.610358989911128
  0
ELLIPSE
  5
3934
102
{ACAD_REACTORS
330
3937
102
}
330
33E7
100
AcDbEntity
  8
APL Border
100
AcDbEllipse
 10
29.74950874715276
 20
268.5814048081144
 30
0.0
 11
17.46996531743542
 21
1.044704257257092
 31
0.0
210
0.0
220
0.0
230
0.9999999999999998
 40
0.4379375984541014
 41
4.521982387362084
 42
5.649576101878832
  0
ELLIPSE
  5
3935
102
{ACAD_REACTORS
330
3937
102
}
330
33E7
100
AcDbEntity
  8
APL Border
100
AcDbEllipse
 10
30.84950874715276
 20
269.8814048081144
 30
0.0
 11
-16.74489455126359
 21
0.1068617375822129
 31
0.0
210
0.0
220
0.0
230
1.0
 40
0.3957593505602212
 41
-0.0140565277795168
 42
2.526331138818026
  0
ELLIPSE
  5
3936
102
{ACAD_REACTORS
330
3937
102
}
330
33E7
100
AcDbEntity
  8
APL Border
100
AcDbEllipse
 10
30.34950874715276
 20
269.5814048081144
 30
0.0
 11
-16.75
 21
0.0
 31
0.0
210
0.0
220
0.0
230
1.0
 40
0.4029850746268657
 41
6.209043324945823
 42
12.10581662267785
  0
HATCH
  5
3937
330
33E7
100
AcDbEntity
  8
APL Border
100
AcDbHatch
 10
0.0
 20
0.0
 30
0.0
210
0.0
220
0.0
230
1.0
  2
SOLID
 70
     1
 71
     1
 91
        3
 92
        5
 93
        5
 72
     3
 10
29.84950874715276
 20
269.0814048081144
 11
-16.84682124459841
 21
0.4533421263139781
 40
0.4004023718890052
 50
88.45856240750569
 51
175.8902112425113
 73
     0
 72
     2
 10
44.67714020925939
 20
269.2071355523921
 40
1.890748898226122
 50
340.8735689376148
 51
382.2290912344739
 73
     0
 72
     2
 10
41.51959182547458
 20
270.2447528778072
 40
5.211423477554833
 50
19.65518680593698
 51
55.12585124074014
 73
     0
 72
     3
 10
30.34950874715276
 20
269.5814048081144
 11
-16.75
 21
0.0
 40
0.4029850746268657
 50
525.6794536794745
 51
348.6935611181874
 73
     1
 72
     2
 10
29.60957360403146
 20
242.9098529133927
 40
32.92242621724226
 50
244.3237283389977
 51
270.4175692479047
 73
     0
 97
        5
330
3936
330
393A
330
3932
330
3945
330
3944
 92
        5
 93
        4
 72
     3
 10
30.84950874715276
 20
269.8814048081144
 11
-16.74489455126359
 21
0.1068617375822129
 40
0.3957593505602212
 50
195.6270825703936
 51
360.318754259222
 73
     0
 72
     2
 10
17.870699176928
 20
269.9064821669413
 40
3.767898811686352
 50
182.6608816075128
 51
206.3929086446277
 73
     0
 72
     2
 10
16.28271146983885
 20
269.5778144790396
 40
2.684837801621857
 50
131.7324572923458
 51
169.189096032782
 73
     1
 72
     3
 10
30.34950874715276
 20
269.5814048081144
 11
-16.75
 21
0.0
 40
0.4029850746268657
 50
358.2854785228978
 51
525.6794536794776
 73
     1
 97
        4
330
3935
330
393E
330
393F
330
3936
 92
        5
 93
        9
 72
     2
 10
23.33536788863245
 20
278.6194209938267
 40
17.2590652710141
 50
239.5349412106921
 51
252.4590542466208
 73
     1
 72
     2
 10
26.60089549689329
 20
289.2363088326019
 40
28.36660625123186
 50
252.6329792468225
 51
270.588845138434
 73
     1
 72
     3
 10
29.74950874715276
 20
268.5814048081144
 11
17.46996531743545
 21
1.044704257257094
 40
0.4379375984541014
 50
246.2451393282852
 51
342.165250303591
 73
     1
 72
     3
 10
29.74950874715276
 20
269.5814048081144
 11
18.29645482212482
 21
0.1554481253131277
 40
0.4217850638291509
 50
18.57778891659629
 51
110.9834979725197
 73
     0
 72
     3
 10
29.74950874715276
 20
269.5814048081144
 11
17.34970603451196
 21
0.3014458951867201
 40
0.4441716687466341
 50
111.492116901814
 51
177.6950000689094
 73
     0
 72
     2
 10
15.8463477617491
 20
269.5207324823547
 40
3.491202579869705
 50
164.4648671532029
 51
195.6449073964833
 73
     0
 72
     2
 10
12.41226765070615
 20
270.4824469054599
 40
0.0750000000000129
 50
344.3550926036264
 51
501.1312117459546
 73
     1
 72
     2
 10
15.55515394903143
 20
268.1982842226753
 40
3.960153949031391
 50
143.9372392604366
 51
199.8052767528797
 73
     1
 72
     2
 10
18.12711839863348
 20
269.6545364822648
 40
6.891465295079229
 50
203.9548519902146
 51
239.068349295085
 73
     1
 97
        9
330
393B
330
3943
330
3942
330
3941
330
3940
330
393D
330
393C
330
3934
330
3933
 75
     0
 76
     1
 47
0.0305803701263538
 98
        3
 10
35.28102042538729
 20
275.5954279676816
 10
16.9851601393558
 20
265.9626110897854
 10
14.87409983201144
 20
264.188949598939
  0
MTEXT
  5
3938
330
33E7
100
AcDbEntity
  8
APL Border
100
AcDbMText
 10
18.74489831846832
 20
273.6217875585393
 30
0.0
 40
3.8
 41
22.4226
 71
     1
 72
     5
  1
{\fCalisto MT|b0|i0|c0|p18;S}MART
  7
Times New Roman - Regular
 73
     1
 44
1.0
1001
ACAD
1000
MTEXTBEGIN
1070
    73
1070
     1
1070
    44
1040
1.0
1070
    74
1070
     0
1000
MTEXTEND
  0
MTEXT
  5
3939
330
33E7
100
AcDbEntity
  8
APL Border
100
AcDbMText
 10
18.65989831846832
 20
273.6217875585393
 30
0.0
 40
3.8
 41
22.4226
 71
     1
 72
     5
  1
{\fCalisto MT|b0|i0|c0|p18;S}MART
  7
Times New Roman - Regular
 73
     1
 44
1.0
1001
ACAD
1000
MTEXTBEGIN
1070
    73
1070
     1
1070
    44
1040
1.0
1070
    74
1070
     0
1000
MTEXTEND
  0
ARC
  5
393A
102
{ACAD_REACTORS
330
3937
102
}
330
33E7
100
AcDbEntity
  8
APL Border
100
AcDbCircle
 10
29.60957360403142
 20
242.9098529133927
 30
0.0
 40
32.92242621724227
100
AcDbArc
 50
89.58243075209727
 51
115.6762716610028
  0
ELLIPSE
  5
393B
102
{ACAD_REACTORS
330
3937
102
}
330
33E7
100
AcDbEntity
  8
APL Border
100
AcDbEllipse
 10
29.74950874715276
 20
269.5814048081144
 30
0.0
 11
17.34970603451196
 21
0.3014458951867201
 31
0.0
210
0.0
220
0.0
230
1.0
 40
0.4441716687466341
 41
3.231967416867259
 42
4.539246861848816
  0
ARC
  5
393C
102
{ACAD_REACTORS
330
3937
102
}
330
33E7
100
AcDbEntity
  8
APL Border
100
AcDbCircle
 10
26.60089549689345
 20
289.2363088326019
 30
0.0
 40
28.36660625123188
100
AcDbArc
 50
252.6329792467665
 51
270.5888451384333
  0
ARC
  5
393D
102
{ACAD_REACTORS
330
3937
102
}
330
33E7
100
AcDbEntity
  8
APL Border
100
AcDbCircle
 10
23.33536788863257
 20
278.6194209938267
 30
0.0
 40
17.25906527101414
100
AcDbArc
 50
239.5349412106916
 51
252.4590542465295
  0
ARC
  5
393E
102
{ACAD_REACTORS
330
3937
102
}
330
33E7
100
AcDbEntity
  8
APL Border
100
AcDbCircle
 10
17.87069917692793
 20
269.9064821669413
 30
0.0
 40
3.767898811686282
100
AcDbArc
 50
153.6070913553711
 51
177.3391183924929
  0
ARC
  5
393F
102
{ACAD_REACTORS
330
3937
102
}
330
33E7
100
AcDbEntity
  8
APL Border
100
AcDbCircle
 10
16.28271146983881
 20
269.5778144790396
 30
0.0
 40
2.684837801621823
100
AcDbArc
 50
131.7324572923451
 51
169.1890960327197
  0
ARC
  5
3940
102
{ACAD_REACTORS
330
3937
102
}
330
33E7
100
AcDbEntity
  8
APL Border
100
AcDbCircle
 10
18.12711839863346
 20
269.6545364822648
 30
0.0
 40
6.891465295079221
100
AcDbArc
 50
203.9548519902172
 51
239.0683492950841
  0
ARC
  5
3941
102
{ACAD_REACTORS
330
3937
102
}
330
33E7
100
AcDbEntity
  8
APL Border
100
AcDbCircle
 10
15.55515394903143
 20
268.1982842226753
 30
0.0
 40
3.960153949031401
100
AcDbArc
 50
143.9372392604394
 51
199.8052767528839
  0
ARC
  5
3942
102
{ACAD_REACTORS
330
3937
102
}
330
33E7
100
AcDbEntity
  8
APL Border
100
AcDbCircle
 10
12.41226765070622
 20
270.48244690546
 30
0.0
 40
0.075
100
AcDbArc
 50
344.355092603511
 51
141.1312117461879
  0
ARC
  5
3943
102
{ACAD_REACTORS
330
3937
102
}
330
33E7
100
AcDbEntity
  8
APL Border
100
AcDbCircle
 10
15.8463477617491
 20
269.5207324823547
 30
0.0
 40
3.491202579869703
100
AcDbArc
 50
164.355092603516
 51
195.5351328468004
  0
ARC
  5
3944
102
{ACAD_REACTORS
330
3937
102
}
330
33E7
100
AcDbEntity
  8
APL Border
100
AcDbCircle
 10
41.51959182547463
 20
270.2447528778072
 30
0.0
 40
5.211423477554786
100
AcDbArc
 50
304.8741487592643
 51
340.3448131940653
  0
ARC
  5
3945
102
{ACAD_REACTORS
330
3937
102
}
330
33E7
100
AcDbEntity
  8
APL Border
100
AcDbCircle
 10
44.67714020925941
 20
269.2071355523921
 30
0.0
 40
1.890748898226107
100
AcDbArc
 50
337.7709087655318
 51
19.12643106237982
  0
ENDBLK
  5
33E9
330
33E7
100
AcDbEntity
  8
0
100
AcDbBlockEnd
  0
BLOCK
  5
3411
330
3408
100
AcDbEntity
  8
0
100
AcDbBlockBegin
  2
smartwood a4 SM attributes (2)
 70
     2
 10
0.0
 20
0.0
 30
0.0
  3
smartwood a4 SM attributes (2)
  1

  0
ATTDEF
  5
3783
330
3408
100
AcDbEntity
  8
APL Border
100
AcDbText
 10
50.59500000000003
 20
272.44
 30
0.0
 40
3.5
  1
DRAWING TITLE LINE 1
  7
Arial-Regular
100
AcDbAttributeDefinition
  3
Drawing Title Line 1
  2
DRAWINGTITLE_1
 70
     0
  0
ATTDEF
  5
3784
330
3408
100
AcDbEntity
  8
APL Border
100
AcDbText
 10
50.59500000000003
 20
266.94
 30
0.0
 40
3.5
  1
DRAWING TITLE LINE 2
  7
Arial-Regular
100
AcDbAttributeDefinition
  3
Drawing Title Line 2
  2
DRAWINGTITLE_2
 70
     0
  0
ATTDEF
  5
3785
330
3408
100
AcDbEntity
  8
APL Border
100
AcDbText
 10
65.59500000000003
 20
260.4903256579735
 30
0.0
 40
2.5
  1
VSAW01-0
  7
Arial-Regular
100
AcDbAttributeDefinition
  3
CAD Reference
  2
VSAW01-0
 70
     0
  0
ATTDEF
  5
3786
330
3408
100
AcDbEntity
  8
APL Border
100
AcDbText
 10
96.34500000000002
 20
260.4903256579735
 30
0.0
 40
2.5
  1
1:2
  7
Arial-Regular
100
AcDbAttributeDefinition
  3
Scale
  2
1:2
 70
     0
  0
ATTDEF
  5
3787
330
3408
100
AcDbEntity
  8
APL Border
100
AcDbText
 10
115.595
 20
260.4903256579735
 30
0.0
 40
2.5
  1
20.09.02
  7
Arial-Regular
100
AcDbAttributeDefinition
  3
Scale
  2
20.09.02
 70
     0
  0
ATTDEF
  5
3788
330
3408
100
AcDbEntity
  8
APL Border
100
AcDbText
 10
11.59500000000003
 20
2.689999999999997
 30
0.0
 40
4.5
  1
1.2.34
  7
Arial-Regular
100
AcDbAttributeDefinition
  3
Page Number (Left)
  2
1.2.34
 70
     0
  0
ATTDEF
  5
3789
330
3408
100
AcDbEntity
  8
APL Border
100
AcDbText
 10
172.1168281036835
 20
2.689999999999997
 30
0.0
 40
4.5
  1
1.2.34
  7
Arial-Regular
 72
     2
 11
189.595
 21
2.689999999999997
 31
0.0
100
AcDbAttributeDefinition
  3
Page Number (Right)
  2
1.2.34
 70
     0
  0
ENDBLK
  5
3412
330
3408
100
AcDbEntity
  8
0
100
AcDbBlockEnd
  0
BLOCK
  5
3510
330
34CE
100
AcDbEntity
  8
0
100
AcDbBlockBegin
  2
Timber Profile 24 - modified
 70
     0
 10
0.0
 20
0.0
 30
0.0
  3
Timber Profile 24 - modified
  1

  0
POLYLINE
  5
34CF
330
34CE
100
AcDbEntity
  8
APL Joinery
 62
     8
100
AcDb2dPolyline
 66
     1
 10
0.0
 20
0.0
 30
0.0
 70
     4
  0
VERTEX
  5
34D0
330
34CF
100
AcDbEntity
  8
APL Joinery
 62
     8
100
AcDbVertex
100
AcDb2dVertex
 10
-6.171725596005785
 20
-8.867431087744506
 30
0.0
 70
    16
  0
VERTEX
  5
34D1
330
34CF
100
AcDbEntity
  8
APL Joinery
 62
     8
100
AcDbVertex
100
AcDb2dVertex
 10
-6.171725596005785
 20
-8.867431087744506
 30
0.0
 70
     8
  0
VERTEX
  5
34D2
330
34CF
100
AcDbEntity
  8
APL Joinery
 62
     8
100
AcDbVertex
100
AcDb2dVertex
 10
-4.958847443297599
 20
-9.646175489956476
 30
0.0
 70
     8
  0
VERTEX
  5
34D3
330
34CF
100
AcDbEntity
  8
APL Joinery
 62
     8
100
AcDbVertex
100
AcDb2dVertex
 10
-3.901952979033012
 20
-10.41923238194548
 30
0.0
 70
     8
  0
VERTEX
  5
34D4
330
34CF
100
AcDbEntity
  8
APL Joinery
 62
     8
100
AcDbVertex
100
AcDb2dVertex
 10
-2.988394869606736
 20
-11.18765500831162
 30
0.0
 70
     8
  0
VERTEX
  5
34D5
330
34CF
100
AcDbEntity
  8
APL Joinery
 62
     8
100
AcDbVertex
100
AcDb2dVertex
 10
-2.205525781414507
 20
-11.952496613655
 30
0.0
 70
     8
  0
VERTEX
  5
34D6
330
34CF
100
AcDbEntity
  8
APL Joinery
 62
     8
100
AcDbVertex
100
AcDb2dVertex
 10
-1.540698380851381
 20
-12.71481044257575
 30
0.0
 70
     8
  0
VERTEX
  5
34D7
330
34CF
100
AcDbEntity
  8
APL Joinery
 62
     8
100
AcDbVertex
100
AcDb2dVertex
 10
-0.9812653343126385
 20
-13.475649739674
 30
0.0
 70
     8
  0
VERTEX
  5
34D8
330
34CF
100
AcDbEntity
  8
APL Joinery
 62
     8
100
AcDbVertex
100
AcDb2dVertex
 10
-0.5145793081933335
 20
-14.23606774954979
 30
0.0
 70
     8
  0
VERTEX
  5
34D9
330
34CF
100
AcDbEntity
  8
APL Joinery
 62
     8
100
AcDbVertex
100
AcDb2dVertex
 10
-0.1279929688889752
 20
-14.99711771680327
 30
0.0
 70
     8
  0
VERTEX
  5
34DA
330
34CF
100
AcDbEntity
  8
APL Joinery
 62
     8
100
AcDbVertex
100
AcDb2dVertex
 10
0.1905789127172284
 20
-15.76181897270467
 30
0.0
 70
     8
  0
VERTEX
  5
34DB
330
34CF
100
AcDbEntity
  8
APL Joinery
 62
     8
100
AcDbVertex
100
AcDb2dVertex
 10
0.4509731477894548
 20
-16.54105519520468
 30
0.0
 70
     8
  0
VERTEX
  5
34DC
330
34CF
100
AcDbEntity
  8
APL Joinery
 62
     8
100
AcDbVertex
100
AcDb2dVertex
 10
0.6624644430036142
 20
-17.34767614892414
 30
0.0
 70
     8
  0
VERTEX
  5
34DD
330
34CF
100
AcDbEntity
  8
APL Joinery
 62
     8
100
AcDbVertex
100
AcDb2dVertex
 10
0.8343275050358442
 20
-18.1945315984839
 30
0.0
 70
     8
  0
VERTEX
  5
34DE
330
34CF
100
AcDbEntity
  8
APL Joinery
 62
     8
100
AcDbVertex
100
AcDb2dVertex
 10
0.9758370405622827
 20
-19.09447130850478
 30
0.0
 70
     8
  0
VERTEX
  5
34DF
330
34CF
100
AcDbEntity
  8
APL Joinery
 62
     8
100
AcDbVertex
100
AcDb2dVertex
 10
1.096267756259067
 20
-20.06034504360761
 30
0.0
 70
     8
  0
VERTEX
  5
34E0
330
34CF
100
AcDbEntity
  8
APL Joinery
 62
     8
100
AcDbVertex
100
AcDb2dVertex
 10
1.20489435880188
 20
-21.10500256841326
 30
0.0
 70
     8
  0
VERTEX
  5
34E1
330
34CF
100
AcDbEntity
  8
APL Joinery
 62
     8
100
AcDbVertex
100
AcDb2dVertex
 10
1.310991554867086
 20
-22.24129364754251
 30
0.0
 70
     8
  0
VERTEX
  5
34E2
330
34CF
100
AcDbEntity
  8
APL Joinery
 62
     8
100
AcDbVertex
100
AcDb2dVertex
 10
-2.718163529877642
 20
-10.95260239136266
 30
0.0
 70
    16
  0
VERTEX
  5
34E3
330
34CF
100
AcDbEntity
  8
APL Joinery
 62
     8
100
AcDbVertex
100
AcDb2dVertex
 10
0.5914987986851657
 20
-14.97914222904021
 30
0.0
 70
    16
  0
VERTEX
  5
34E4
330
34CF
100
AcDbEntity
  8
APL Joinery
 62
     8
100
AcDbVertex
100
AcDb2dVertex
 10
1.02319405695141
 20
-19.07758401777002
 30
0.0
 70
    16
  0
VERTEX
  5
34E5
330
34CF
100
AcDbEntity
  8
APL Joinery
 62
     8
100
AcDbVertex
100
AcDb2dVertex
 10
1.310991554866973
 20
-22.24129364754251
 30
0.0
 70
    16
  0
SEQEND
  5
34E6
330
34CF
100
AcDbEntity
  8
APL Joinery
 62
     8
  0
LINE
  5
34E7
330
34CE
100
AcDbEntity
  8
APL Joinery
 62
     3
100
AcDbLine
 10
9.049999999998135
 20
-23.49500000000418
 30
0.0
 11
9.049999999998135
 21
8.749999999998777
 31
0.0
  0
LINE
  5
34E8
330
34CE
100
AcDbEntity
  8
APL Joinery
 62
     3
100
AcDbLine
 10
-7.350000000002467
 20
-0.0000000000000284
 30
0.0
 11
-7.350000000002467
 21
-23.49500000000418
 31
0.0
  0
POLYLINE
  5
34E9
330
34CE
100
AcDbEntity
  8
APL Joinery
 62
     8
100
AcDb2dPolyline
 66
     1
 10
0.0
 20
0.0
 30
0.0
 70
     4
  0
VERTEX
  5
34EA
330
34E9
100
AcDbEntity
  8
APL Joinery
 62
     8
100
AcDbVertex
100
AcDb2dVertex
 10
-4.981734675335246
 20
-1.317036570409726
 30
0.0
 70
    16
  0
VERTEX
  5
34EB
330
34E9
100
AcDbEntity
  8
APL Joinery
 62
     8
100
AcDbVertex
100
AcDb2dVertex
 10
-4.981734675335246
 20
-1.317036570409726
 30
0.0
 70
     8
  0
VERTEX
  5
34EC
330
34E9
100
AcDbEntity
  8
APL Joinery
 62
     8
100
AcDbVertex
100
AcDb2dVertex
 10
-2.949494645873073
 20
-2.503893907670288
 30
0.0
 70
     8
  0
VERTEX
  5
34ED
330
34E9
100
AcDbEntity
  8
APL Joinery
 62
     8
100
AcDbVertex
100
AcDb2dVertex
 10
-1.270866413285148
 20
-3.638317258042832
 30
0.0
 70
     8
  0
VERTEX
  5
34EE
330
34E9
100
AcDbEntity
  8
APL Joinery
 62
     8
100
AcDbVertex
100
AcDb2dVertex
 10
0.1016145723567661
 20
-4.721858816063843
 30
0.0
 70
     8
  0
VERTEX
  5
34EF
330
34E9
100
AcDbEntity
  8
APL Joinery
 62
     8
100
AcDbVertex
100
AcDb2dVertex
 10
1.215412860980677
 20
-5.756070776269751
 30
0.0
 70
     8
  0
VERTEX
  5
34F0
330
34E9
100
AcDbEntity
  8
APL Joinery
 62
     8
100
AcDbVertex
100
AcDb2dVertex
 10
2.117993002514594
 20
-6.742505333197044
 30
0.0
 70
     8
  0
VERTEX
  5
34F1
330
34E9
100
AcDbEntity
  8
APL Joinery
 62
     8
100
AcDbVertex
100
AcDb2dVertex
 10
2.856819546886526
 20
-7.682714681382265
 30
0.0
 70
     8
  0
VERTEX
  5
34F2
330
34E9
100
AcDbEntity
  8
APL Joinery
 62
     8
100
AcDbVertex
100
AcDb2dVertex
 10
3.479357044024482
 20
-8.578251015361786
 30
0.0
 70
     8
  0
VERTEX
  5
34F3
330
34E9
100
AcDbEntity
  8
APL Joinery
 62
     8
100
AcDbVertex
100
AcDb2dVertex
 10
4.033070043856241
 20
-9.430666529671952
 30
0.0
 70
     8
  0
VERTEX
  5
34F4
330
34E9
100
AcDbEntity
  8
APL Joinery
 62
     8
100
AcDbVertex
100
AcDb2dVertex
 10
4.556680893939073
 20
-10.24242500794372
 30
0.0
 70
     8
  0
VERTEX
  5
34F5
330
34E9
100
AcDbEntity
  8
APL Joinery
 62
     8
100
AcDbVertex
100
AcDb2dVertex
 10
5.053943132345352
 20
-11.01963659018434
 30
0.0
 70
     8
  0
VERTEX
  5
34F6
330
34E9
100
AcDbEntity
  8
APL Joinery
 62
     8
100
AcDbVertex
100
AcDb2dVertex
 10
5.519868094776484
 20
-11.76932300549532
 30
0.0
 70
     8
  0
VERTEX
  5
34F7
330
34E9
100
AcDbEntity
  8
APL Joinery
 62
     8
100
AcDbVertex
100
AcDb2dVertex
 10
5.949467116933647
 20
-12.49850598297826
 30
0.0
 70
     8
  0
VERTEX
  5
34F8
330
34E9
100
AcDbEntity
  8
APL Joinery
 62
     8
100
AcDbVertex
100
AcDb2dVertex
 10
6.337751534518474
 20
-13.2142072517347
 30
0.0
 70
     8
  0
VERTEX
  5
34F9
330
34E9
100
AcDbEntity
  8
APL Joinery
 62
     8
100
AcDbVertex
100
AcDb2dVertex
 10
6.679732683232032
 20
-13.92344854086625
 30
0.0
 70
     8
  0
VERTEX
  5
34FA
330
34E9
100
AcDbEntity
  8
APL Joinery
 62
     8
100
AcDbVertex
100
AcDb2dVertex
 10
6.970421898775953
 20
-14.63325157947437
 30
0.0
 70
     8
  0
VERTEX
  5
34FB
330
34E9
100
AcDbEntity
  8
APL Joinery
 62
     8
100
AcDbVertex
100
AcDb2dVertex
 10
7.204830516851416
 20
-15.3506380966607
 30
0.0
 70
     8
  0
VERTEX
  5
34FC
330
34E9
100
AcDbEntity
  8
APL Joinery
 62
     8
100
AcDbVertex
100
AcDb2dVertex
 10
7.379445395027687
 20
-16.08270003772281
 30
0.0
 70
     8
  0
VERTEX
  5
34FD
330
34E9
100
AcDbEntity
  8
APL Joinery
 62
     8
100
AcDbVertex
100
AcDb2dVertex
 10
7.49665547834445
 20
-16.8368102127427
 30
0.0
 70
     8
  0
VERTEX
  5
34FE
330
34E9
100
AcDbEntity
  8
APL Joinery
 62
     8
100
AcDbVertex
100
AcDb2dVertex
 10
7.56032523370959
 20
-17.62041164799831
 30
0.0
 70
     8
  0
VERTEX
  5
34FF
330
34E9
100
AcDbEntity
  8
APL Joinery
 62
     8
100
AcDbVertex
100
AcDb2dVertex
 10
7.574319128030538
 20
-18.44094736976768
 30
0.0
 70
     8
  0
VERTEX
  5
3500
330
34E9
100
AcDbEntity
  8
APL Joinery
 62
     8
100
AcDbVertex
100
AcDb2dVertex
 10
7.542501628214949
 20
-19.30586040432877
 30
0.0
 70
     8
  0
VERTEX
  5
3501
330
34E9
100
AcDbEntity
  8
APL Joinery
 62
     8
100
AcDbVertex
100
AcDb2dVertex
 10
7.468737201170824
 20
-20.22259377795962
 30
0.0
 70
     8
  0
VERTEX
  5
3502
330
34E9
100
AcDbEntity
  8
APL Joinery
 62
     8
100
AcDbVertex
100
AcDb2dVertex
 10
7.356890313805251
 20
-21.1985905169382
 30
0.0
 70
     8
  0
VERTEX
  5
3503
330
34E9
100
AcDbEntity
  8
APL Joinery
 62
     8
100
AcDbVertex
100
AcDb2dVertex
 10
7.210825433026343
 20
-22.24129364754251
 30
0.0
 70
     8
  0
VERTEX
  5
3504
330
34E9
100
AcDbEntity
  8
APL Joinery
 62
     8
100
AcDbVertex
100
AcDb2dVertex
 10
0.9512451767762968
 20
-4.553281180765424
 30
0.0
 70
    16
  0
VERTEX
  5
3505
330
34E9
100
AcDbEntity
  8
APL Joinery
 62
     8
100
AcDbVertex
100
AcDb2dVertex
 10
4.260909482554211
 20
-9.874065197754333
 30
0.0
 70
    16
  0
VERTEX
  5
3506
330
34E9
100
AcDbEntity
  8
APL Joinery
 62
     8
100
AcDbVertex
100
AcDb2dVertex
 10
7.858369309033037
 20
-15.19484921474347
 30
0.0
 70
    16
  0
VERTEX
  5
3507
330
34E9
100
AcDbEntity
  8
APL Joinery
 62
     8
100
AcDbVertex
100
AcDb2dVertex
 10
7.642520691292588
 20
-19.36519408707178
 30
0.0
 70
    16
  0
VERTEX
  5
3508
330
34E9
100
AcDbEntity
  8
APL Joinery
 62
     8
100
AcDbVertex
100
AcDb2dVertex
 10
7.210825433026343
 20
-22.24129364754251
 30
0.0
 70
    16
  0
SEQEND
  5
3509
330
34E9
100
AcDbEntity
  8
APL Joinery
 62
     8
  0
LINE
  5
350A
330
34CE
100
AcDbEntity
  8
APL Joinery
 62
     3
100
AcDbLine
 10
-7.350000000002467
 20
-23.49500000000418
 30
0.0
 11
9.049999999998135
 21
-23.49500000000418
 31
0.0
  0
LINE
  5
350B
330
34CE
100
AcDbEntity
  8
APL Joinery
 62
     3
100
AcDbLine
 10
2.049999999999954
 20
8.749999999998777
 30
0.0
 11
2.049999999999954
 21
-3.30000000000021
 31
0.0
  0
LINE
  5
350C
330
34CE
100
AcDbEntity
  8
APL Joinery
 62
     3
100
AcDbLine
 10
0.0
 20
0.0
 30
0.0
 11
0.0
 21
-3.30000000000021
 31
0.0
  0
LINE
  5
350D
330
34CE
100
AcDbEntity
  8
APL Joinery
 62
     3
100
AcDbLine
 10
2.049999999999954
 20
-3.30000000000021
 30
0.0
 11
0.0
 21
-3.30000000000021
 31
0.0
  0
LINE
  5
350E
330
34CE
100
AcDbEntity
  8
APL Joinery
 62
     3
100
AcDbLine
 10
0.0
 20
0.0
 30
0.0
 11
-7.350000000002467
 21
-0.0000000000000284
 31
0.0
  0
LINE
  5
350F
330
34CE
100
AcDbEntity
  8
APL Joinery
 62
     3
100
AcDbLine
 10
2.049999999999954
 20
8.749999999998777
 30
0.0
 11
9.049999999998135
 21
8.749999999998777
 31
0.0
  0
ENDBLK
  5
3511
330
34CE
100
AcDbEntity
  8
0
100
AcDbBlockEnd
  0
BLOCK
  5
3514
330
3513
100
AcDbEntity
  8
0
100
AcDbBlockBegin
  2
07438sightline
 70
     0
 10
0.0
 20
0.0
 30
0.0
  3
07438sightline
  1

  0
INSERT
  5
3516
330
3513
100
AcDbEntity
  8
APL Joinery
100
AcDbBlockReference
  2
07438
 10
-0.0000000000000284
 20
34.5
 30
0.0
 43
-1.0
 50
90.0
210
0.0
220
0.0
230
-1.0
  0
INSERT
  5
3517
330
3513
100
AcDbEntity
  8
APL Joinery
100
AcDbBlockReference
  2
Timber Profile 24 - modified
 10
32.84999999999798
 20
46.70000000000095
 30
0.0
 50
90.0
  0
INSERT
  5
3518
330
3513
100
AcDbEntity
  8
APL Joinery
100
AcDbBlockReference
  2
9700520
 10
-31.39999999999833
 20
48.65000000000145
 30
0.0
 43
-1.0
 50
90.0
210
0.0
220
0.0
230
-1.0
  0
ENDBLK
  5
3515
330
3513
100
AcDbEntity
  8
0
100
AcDbBlockEnd
  0
ENDSEC
  0
SECTION
  2
ENTITIES
  0
INSERT
  5
2733
330
1F
100
AcDbEntity
  8
APL Joinery
100
AcDbBlockReference
  2
07103Sash
 10
175.6676970115965
 20
94.44867605004674
 30
0.0
 50
315.0
  0
MTEXT
  5
274D
330
1F
100
AcDbEntity
  8
APL Notes
100
AcDbMText
 10
132.7499101555677
 20
220.9934875367153
 30
0.0
 40
2.5
 41
8.1887
 71
     1
 72
     1
  1

 73
     1
 44
1.0
1001
ACAD
1000
MTEXTBEGIN
1070
    73
1070
     1
1070
    44
1040
1.0
1070
    74
1070
     0
1000
MTEXTEND
  0
MTEXT
  5
274F
330
1F
100
AcDbEntity
  8
APL Notes
100
AcDbMText
 10
136.6335555021901
 20
220.9934875367153
 30
0.0
 40
2.5
 41
8.1887
 71
     1
 72
     1
  1

 73
     1
 44
1.0
1001
ACAD
1000
MTEXTBEGIN
1070
    73
1070
     1
1070
    44
1040
1.0
1070
    74
1070
     0
1000
MTEXTEND
  0
TEXT
  5
2750
330
1F
100
AcDbEntity
  8
APL Notes
100
AcDbText
 10
293.8993564144839
 20
146.9465989786879
 30
0.0
 40
5.0
  1
Optional
  7
Arial-Regular
100
AcDbText
  0
TEXT
  5
2751
330
1F
100
AcDbEntity
  8
APL Notes
100
AcDbText
 10
293.8993564144839
 20
139.9465989786879
 30
0.0
 40
5.0
  1
Sightline Adaptors
  7
Arial-Regular
100
AcDbText
  0
TEXT
  5
2759
330
1F
100
AcDbEntity
  8
APL Notes
100
AcDbText
 10
293.8993564144839
 20
132.9465989786879
 30
0.0
 40
5.0
  1
(To match Sash)
  7
Arial-Regular
100
AcDbText
  0
LINE
  5
2CEA
330
1F
100
AcDbEntity
  8
APL Joinery
 62
     8
100
AcDbLine
 10
85.88114695606526
 20
172.7093855722382
 30
0.0
 11
97.59934184692607
 21
160.9911906813774
 31
0.0
  0
LINE
  5
2CEB
330
1F
100
AcDbEntity
  8
APL Joinery
 62
     8
100
AcDbLine
 10
87.29536051843835
 20
174.1235991346113
 30
0.0
 11
99.01355540929916
 21
162.4054042437505
 31
0.0
  0
LINE
  5
2CEC
330
1F
100
AcDbEntity
  8
APL Joinery
 62
     7
100
AcDbLine
 10
88.70957408081144
 20
175.5378126969844
 30
0.0
 11
100.4277689716722
 21
163.8196178061236
 31
0.0
  0
LINE
  5
2CED
330
1F
100
AcDbEntity
  8
APL Joinery
 62
     7
100
AcDbLine
 10
84.46693339369216
 20
171.2951720098651
 30
0.0
 11
96.18512828455298
 21
159.5769771190043
 31
0.0
  0
INSERT
  5
2CEF
330
1F
100
AcDbEntity
  8
APL Joinery
100
AcDbBlockReference
  2
07103Sash
 10
44.80690056860072
 20
225.3094724930426
 30
0.0
 41
-1.0
 50
315.0
  0
INSERT
  5
2CF1
330
1F
100
AcDbEntity
  8
APL Joinery
100
AcDbBlockReference
  2
07100
 10
23.59334357961495
 20
235.2086138762649
 30
0.0
 41
-1.0
 50
225.0
  0
INSERT
  5
2CF4
330
1F
100
AcDbEntity
  8
APL Joinery
100
AcDbBlockReference
  2
sw30mmliner
 10
75.99030961892626
 20
249.4218137315051
 30
0.0
 41
-1.0
 50
225.0
  0
INSERT
  5
2CF9
330
1F
100
AcDbEntity
  8
APL Joinery
100
AcDbBlockReference
  2
07115
 10
175.6676970115965
 20
94.44867605004674
 30
0.0
 50
44.99999999999999
  0
INSERT
  5
2D06
330
1F
100
AcDbEntity
  8
APL Joinery
100
AcDbBlockReference
  2
9700533
 10
215.823140506776
 20
117.1792889036201
 30
0.0
 41
-1.0
 50
270.0
  0
INSERT
  5
2D0C
330
1F
100
AcDbEntity
  8
APL Joinery
100
AcDbBlockReference
  2
Timber Profile 19
 10
216.6200374357772
 20
119.1031682774279
 30
0.0
 50
337.4999999999809
  0
TEXT
  5
2D0F
330
1F
100
AcDbEntity
  8
APL Notes
100
AcDbText
 10
234.5218564144849
 20
65.71213201733724
 30
0.0
 40
5.0
  1
07438
  7
Arial-Bold
100
AcDbText
  0
TEXT
  5
2D11
330
1F
100
AcDbEntity
  8
APL Notes
100
AcDbText
 10
203.2920656823617
 20
65.7121320173378
 30
0.0
 40
5.0
  1
07115
  7
Arial-Bold
100
AcDbText
  0
TEXT
  5
2D12
330
1F
100
AcDbEntity
  8
APL Notes
100
AcDbText
 10
266.5976101891349
 20
65.7121320173373
 30
0.0
 40
5.0
  1
07123
  7
Arial-Bold
100
AcDbText
  0
TEXT
  5
2D14
330
1F
100
AcDbEntity
  8
APL Notes
100
AcDbText
 10
124.5195117506883
 20
92.79817673558943
 30
0.0
 40
5.0
  1
07103
  7
Arial-Bold
 72
     2
 11
143.9431133877961
 21
97.79817673558945
 31
0.0
100
AcDbText
 73
     3
  0
TEXT
  5
2D15
330
1F
100
AcDbEntity
  8
APL Notes
100
AcDbText
 10
109.783102446149
 20
107.5345860401288
 30
0.0
 40
5.0
  1
07123
  7
Arial-Bold
 72
     2
 11
129.2067040832568
 21
112.5345860401288
 31
0.0
100
AcDbText
 73
     3
  0
TEXT
  5
2D16
330
1F
100
AcDbEntity
  8
APL Notes
100
AcDbText
 10
42.64944624984432
 20
174.6682422364337
 30
0.0
 40
5.0
  1
07123
  7
Arial-Bold
 72
     2
 11
62.07304788695211
 21
179.6682422364337
 31
0.0
100
AcDbText
 73
     3
  0
TEXT
  5
2D17
330
1F
100
AcDbEntity
  8
APL Notes
100
AcDbText
 10
26.7327996170357
 20
190.5848888692423
 30
0.0
 40
5.0
  1
07103
  7
Arial-Bold
 72
     2
 11
46.15640125414347
 21
195.5848888692422
 31
0.0
100
AcDbText
 73
     3
  0
TEXT
  5
2D18
330
1F
100
AcDbEntity
  8
APL Notes
100
AcDbText
 10
23.59334357961495
 20
240.2086138762649
 30
0.0
 40
5.0
  1
07100
  7
Arial-Bold
100
AcDbText
  0
INSERT
  5
2D19
330
1F
100
AcDbEntity
  8
APL Joinery
100
AcDbBlockReference
  2
07123Glaze
 10
57.60553330807761
 20
186.1357568153081
 30
0.0
 50
225.0000000000001
  0
LINE
  5
2D1A
330
1F
100
AcDbEntity
  8
APL Joinery
 62
     7
100
AcDbLine
 10
101.4374961421693
 20
188.2657347583423
 30
0.0
 11
113.1556910330301
 21
176.5475398674814
 31
0.0
  0
LINE
  5
2D1B
330
1F
100
AcDbEntity
  8
APL Joinery
 62
     8
100
AcDbLine
 10
100.0232825797962
 20
186.8515211959691
 30
0.0
 11
111.741477470657
 21
175.1333263051083
 31
0.0
  0
LINE
  5
2D1C
330
1F
100
AcDbEntity
  8
APL Joinery
 62
     8
100
AcDbLine
 10
98.6090690174231
 20
185.437307633596
 30
0.0
 11
110.3272639082839
 21
173.7191127427352
 31
0.0
  0
LINE
  5
2D1D
330
1F
100
AcDbEntity
  8
APL Joinery
 62
     7
100
AcDbLine
 10
97.19485545505001
 20
184.0230940712229
 30
0.0
 11
108.9130503459108
 21
172.3048991803621
 31
0.0
  0
LEADER
  5
2D22
330
1F
100
AcDbEntity
  8
APL Notes
100
AcDbLeader
  3
ISO-25
 76
     3
 10
255.0218564144849
 20
108.8121320173376
 30
0.0
 10
286.8993564144839
 20
149.4465989786879
 30
0.0
 10
291.8993564144839
 20
149.4465989786879
 30
0.0
1001
ACAD
1000
DSTYLE
1002
{
1070
   147
1040
0.625
1070
    77
1070
     0
1002
}
  0
LINE
  5
30C4
330
1F
100
AcDbEntity
  8
APL Notes
  6
Continuous
 62
     2
100
AcDbLine
 10
136.9999991921495
 20
342.000000110887
 30
0.0
 11
216.9999991921495
 21
342.000000110887
 31
0.0
  0
LINE
  5
30C5
330
1F
100
AcDbEntity
  8
APL Notes
  6
Continuous
 62
     2
100
AcDbLine
 10
216.9999991921495
 20
422.000000110887
 30
0.0
 11
136.9999991921495
 21
422.000000110887
 31
0.0
  0
LINE
  5
30C6
330
1F
100
AcDbEntity
  8
APL Notes
  6
Continuous
 62
     2
100
AcDbLine
 10
136.9999991921495
 20
345.000000110887
 30
0.0
 11
216.9999991921495
 21
345.000000110887
 31
0.0
  0
LINE
  5
30C7
330
1F
100
AcDbEntity
  8
APL Notes
  6
Continuous
 62
     2
100
AcDbLine
 10
216.9999991921495
 20
419.0000001108869
 30
0.0
 11
136.9999991921495
 21
419.0000001108869
 31
0.0
  0
LINE
  5
30CA
330
1F
100
AcDbEntity
  8
APL Notes
  6
Continuous
 62
     2
100
AcDbLine
 10
216.5857856297494
 20
423.0000001108869
 30
0.0
 11
137.4142127545492
 21
423.0000001108869
 31
0.0
  0
LINE
  5
30CC
330
1F
100
AcDbEntity
  8
APL Notes
  6
Continuous
 62
     2
100
AcDbLine
 10
136.9999991921495
 20
422.000000110887
 30
0.0
 11
136.9999991921495
 21
342.000000110887
 31
0.0
  0
LINE
  5
30CD
330
1F
100
AcDbEntity
  8
APL Notes
  6
Continuous
 62
     2
100
AcDbLine
 10
140.9999991921495
 20
419.0000001108869
 30
0.0
 11
140.9999991921495
 21
345.000000110887
 31
0.0
  0
LINE
  5
30CF
330
1F
100
AcDbEntity
  8
APL Notes
  6
Continuous
 62
     2
100
AcDbLine
 10
136.9999991921495
 20
342.000000110887
 30
0.0
 11
136.9999991921495
 21
422.000000110887
 31
0.0
  0
LINE
  5
30D0
330
1F
100
AcDbEntity
  8
APL Notes
  6
Continuous
 62
     2
100
AcDbLine
 10
136.9999991921495
 20
342.000000110887
 30
0.0
 11
96.99999919214953
 21
362.0000001108869
 31
0.0
  0
LINE
  5
30D1
330
1F
100
AcDbEntity
  8
APL Notes
  6
Continuous
 62
     2
100
AcDbLine
 10
133.9999991921495
 20
346.500000110887
 30
0.0
 11
133.9999991921495
 21
420.5000001108869
 31
0.0
  0
LINE
  5
30D2
330
1F
100
AcDbEntity
  8
APL Notes
  6
Continuous
 62
     2
100
AcDbLine
 10
136.9999991921495
 20
345.000000110887
 30
0.0
 11
98.99999919214952
 21
364.000000110887
 31
0.0
  0
LINE
  5
30D3
330
1F
100
AcDbEntity
  8
APL Notes
  6
Continuous
 62
     2
100
AcDbLine
 10
133.9999991921495
 20
346.500000110887
 30
0.0
 11
130.9999991921495
 21
351.3541020772872
 31
0.0
  0
LINE
  5
30D4
330
1F
100
AcDbEntity
  8
APL Notes
  6
Continuous
 62
     2
100
AcDbLine
 10
143.9999991921495
 20
348.000000110887
 30
0.0
 11
140.9999991921495
 21
345.000000110887
 31
0.0
  0
LINE
  5
30D5
330
1F
100
AcDbEntity
  8
APL Notes
  6
Continuous
 62
     2
100
AcDbLine
 10
136.9999991921495
 20
422.000000110887
 30
0.0
 11
96.99999919214953
 21
442.0000001108869
 31
0.0
  0
LINE
  5
30D6
330
1F
100
AcDbEntity
  8
APL Notes
  6
Continuous
 62
     2
100
AcDbLine
 10
137.4142127545492
 20
423.0000001108869
 30
0.0
 11
98.41421275454923
 21
442.0000001108869
 31
0.0
  0
LINE
  5
30D7
330
1F
100
AcDbEntity
  8
APL Notes
  6
Continuous
 62
     2
100
AcDbLine
 10
136.9999991921495
 20
419.0000001108869
 30
0.0
 11
98.99999919214952
 21
438.0000001108869
 31
0.0
  0
LINE
  5
30DD
330
1F
100
AcDbEntity
  8
APL Notes
  6
DASHED
 62
     7
 48
20.0
100
AcDbLine
 10
116.4999991921495
 20
415.8335922459879
 30
0.0
 11
101.9999991921495
 21
365.8541020772371
 31
0.0
  0
LINE
  5
30DE
330
1F
100
AcDbEntity
  8
APL Notes
  6
Continuous
 62
     2
100
AcDbLine
 10
96.99999919214953
 20
362.0000001108869
 30
0.0
 11
96.99999919214953
 21
442.0000001108869
 31
0.0
  0
LINE
  5
30DF
330
1F
100
AcDbEntity
  8
APL Notes
  6
Continuous
 62
     2
100
AcDbLine
 10
98.99999919214952
 20
364.000000110887
 30
0.0
 11
98.99999919214952
 21
438.0000001108869
 31
0.0
  0
LINE
  5
30E2
330
1F
100
AcDbEntity
  8
APL Notes
  6
Continuous
 62
     2
100
AcDbLine
 10
96.99999919214953
 20
362.0000001108869
 30
0.0
 11
98.99999919214952
 21
364.000000110887
 31
0.0
  0
LINE
  5
30E3
330
1F
100
AcDbEntity
  8
APL Notes
  6
Continuous
 62
     2
100
AcDbLine
 10
98.99999919214952
 20
364.000000110887
 30
0.0
 11
101.9999991921495
 21
365.8541020772873
 31
0.0
  0
TEXT
  5
30E4
330
1F
100
AcDbEntity
  8
APL Notes
  6
Continuous
 62
     7
100
AcDbText
 10
84.67938939407559
 20
384.169865720132
 30
0.0
 40
5.0
  1
A
  7
Arial-Bold
100
AcDbText
  0
LINE
  5
30E5
330
1F
100
AcDbEntity
  8
APL Notes
  6
Continuous
 62
     8
100
AcDbLine
 10
106.6726940452043
 20
397.8761464776829
 30
0.0
 11
87.86233077682442
 21
407.2813281118729
 31
0.0
  0
LINE
  5
30E6
330
1F
100
AcDbEntity
  8
APL Notes
  6
Continuous
 62
     2
100
AcDbLine
 10
96.99999919214953
 20
442.0000001108869
 30
0.0
 11
98.41421275454923
 21
442.0000001108869
 31
0.0
  0
LINE
  5
30E7
330
1F
100
AcDbEntity
  8
APL Notes
  6
Continuous
 62
     2
100
AcDbLine
 10
96.99999919214953
 20
442.0000001108869
 30
0.0
 11
98.99999919214952
 21
438.0000001108869
 31
0.0
  0
LINE
  5
30E8
330
1F
100
AcDbEntity
  8
APL Notes
  6
Continuous
 62
     2
100
AcDbLine
 10
98.99999919214952
 20
438.0000001108869
 30
0.0
 11
101.9999991921941
 21
433.1458981447146
 31
0.0
  0
LINE
  5
30EA
330
1F
100
AcDbEntity
  8
APL Notes
  6
DASHED
 62
     7
 48
20.0
100
AcDbLine
 10
116.4999991921495
 20
415.8335922459879
 30
0.0
 11
130.9999991921495
 21
351.3541020772371
 31
0.0
  0
LINE
  5
30EB
330
1F
100
AcDbEntity
  8
APL Notes
  6
Continuous
 62
     8
100
AcDbLine
 10
150.8239462453359
 20
377.2391732143872
 30
0.0
 11
125.6417012140568
 21
389.8302957300267
 31
0.0
  0
TEXT
  5
30F0
330
1F
100
AcDbEntity
  8
APL Notes
  6
Continuous
 62
     7
100
AcDbText
 10
147.7325172460401
 20
353.9532263991503
 30
0.0
 40
5.0
  1
A
  7
Arial-Bold
100
AcDbText
  0
LINE
  5
30F1
330
1F
100
AcDbEntity
  8
APL Notes
  6
DASHED
 62
     7
 48
20.0
100
AcDbLine
 10
121.5964255698997
 20
413.2853790571127
 30
0.0
 11
111.4035728143993
 21
418.381805434863
 31
0.0
  0
LINE
  5
30F2
330
1F
100
AcDbEntity
  8
APL Notes
  6
Continuous
 62
     2
100
AcDbLine
 10
133.9999991921495
 20
420.5000001108869
 30
0.0
 11
130.999999192105
 21
418.6458981447592
 31
0.0
  0
LINE
  5
30F3
330
1F
100
AcDbEntity
  8
APL Notes
  6
Continuous
 62
     2
100
AcDbLine
 10
143.9999991921495
 20
416.0000001108869
 30
0.0
 11
140.9999991921495
 21
419.0000001108869
 31
0.0
  0
LINE
  5
30F7
330
1F
100
AcDbEntity
  8
APL Notes
  6
Continuous
 62
     2
100
AcDbLine
 10
137.4142127545492
 20
423.0000001108869
 30
0.0
 11
136.9999991921495
 21
422.000000110887
 31
0.0
  0
LINE
  5
30F8
330
1F
100
AcDbEntity
  8
APL Notes
  6
Continuous
 62
     2
100
AcDbLine
 10
216.9999991921495
 20
342.000000110887
 30
0.0
 11
216.9999991921495
 21
422.000000110887
 31
0.0
  0
LINE
  5
30F9
330
1F
100
AcDbEntity
  8
APL Notes
  6
Continuous
 62
     2
100
AcDbLine
 10
216.9999991921495
 20
342.000000110887
 30
0.0
 11
256.9999991921495
 21
362.0000001108869
 31
0.0
  0
LINE
  5
30FA
330
1F
100
AcDbEntity
  8
APL Notes
  6
Continuous
 62
     2
100
AcDbLine
 10
212.9999991921495
 20
345.000000110887
 30
0.0
 11
212.9999991921495
 21
419.0000001108869
 31
0.0
  0
LINE
  5
30FC
330
1F
100
AcDbEntity
  8
APL Notes
  6
Continuous
 62
     2
100
AcDbLine
 10
219.9999991921495
 20
346.500000110887
 30
0.0
 11
219.9999991921495
 21
420.5000001108869
 31
0.0
  0
LINE
  5
30FD
330
1F
100
AcDbEntity
  8
APL Notes
  6
Continuous
 62
     2
100
AcDbLine
 10
216.9999991921495
 20
345.000000110887
 30
0.0
 11
254.9999991921495
 21
364.000000110887
 31
0.0
  0
LINE
  5
30FE
330
1F
100
AcDbEntity
  8
APL Notes
  6
Continuous
 62
     2
100
AcDbLine
 10
219.9999991921495
 20
346.500000110887
 30
0.0
 11
221.9999991921495
 21
349.7360680884872
 31
0.0
  0
LINE
  5
30FF
330
1F
100
AcDbEntity
  8
APL Notes
  6
Continuous
 62
     2
100
AcDbLine
 10
212.9999991921495
 20
345.000000110887
 30
0.0
 11
209.9999991921495
 21
348.000000110887
 31
0.0
  0
LINE
  5
3103
330
1F
100
AcDbEntity
  8
APL Notes
  6
Continuous
 62
     2
100
AcDbLine
 10
212.9999991921495
 20
419.0000001108869
 30
0.0
 11
209.9999991921495
 21
416.0000001108869
 31
0.0
  0
LINE
  5
3104
330
1F
100
AcDbEntity
  8
APL Notes
  6
Continuous
 62
     2
100
AcDbLine
 10
256.9999991921495
 20
362.0000001108869
 30
0.0
 11
256.9999991921495
 21
442.0000001108869
 31
0.0
  0
LINE
  5
3105
330
1F
100
AcDbEntity
  8
APL Notes
  6
Continuous
 62
     2
100
AcDbLine
 10
254.9999991921495
 20
364.000000110887
 30
0.0
 11
254.9999991921495
 21
438.0000001108869
 31
0.0
  0
LINE
  5
3106
330
1F
100
AcDbEntity
  8
APL Notes
  6
Continuous
 62
     2
100
AcDbLine
 10
221.9999991921495
 20
349.7360680884872
 30
0.0
 11
221.9999991921495
 21
419.2639321334868
 31
0.0
  0
LINE
  5
3107
330
1F
100
AcDbEntity
  8
APL Notes
  6
Continuous
 62
     2
100
AcDbLine
 10
252.9999991921495
 20
365.2360680884872
 30
0.0
 11
252.9999991921495
 21
434.7639321334868
 31
0.0
  0
LINE
  5
3108
330
1F
100
AcDbEntity
  8
APL Notes
  6
Continuous
 62
     2
100
AcDbLine
 10
221.9999991921495
 20
349.7360680884872
 30
0.0
 11
252.9999991921495
 21
365.2360680884872
 31
0.0
  0
LINE
  5
310C
330
1F
100
AcDbEntity
  8
APL Notes
  6
Continuous
 62
     2
100
AcDbLine
 10
256.9999991921495
 20
362.0000001108869
 30
0.0
 11
254.9999991921495
 21
364.000000110887
 31
0.0
  0
LINE
  5
310D
330
1F
100
AcDbEntity
  8
APL Notes
  6
Continuous
 62
     2
100
AcDbLine
 10
254.9999991921495
 20
364.000000110887
 30
0.0
 11
252.9999991921495
 21
365.2360680884872
 31
0.0
  0
LINE
  5
310E
330
1F
100
AcDbEntity
  8
APL Notes
  6
Continuous
 62
     2
100
AcDbLine
 10
216.9999991921495
 20
422.000000110887
 30
0.0
 11
256.9999991921495
 21
442.0000001108869
 31
0.0
  0
LINE
  5
310F
330
1F
100
AcDbEntity
  8
APL Notes
  6
Continuous
 62
     2
100
AcDbLine
 10
216.5857856297494
 20
423.0000001108869
 30
0.0
 11
255.5857856297493
 21
442.0000001108869
 31
0.0
  0
LINE
  5
3110
330
1F
100
AcDbEntity
  8
APL Notes
  6
Continuous
 62
     2
100
AcDbLine
 10
216.9999991921495
 20
419.0000001108869
 30
0.0
 11
254.9999991921495
 21
438.0000001108869
 31
0.0
  0
LINE
  5
3111
330
1F
100
AcDbEntity
  8
APL Notes
  6
Continuous
 62
     2
100
AcDbLine
 10
221.9999991921495
 20
419.2639321334868
 30
0.0
 11
252.9999991921495
 21
434.7639321334868
 31
0.0
  0
LINE
  5
3115
330
1F
100
AcDbEntity
  8
APL Notes
  6
Continuous
 62
     2
100
AcDbLine
 10
216.5857856297494
 20
423.0000001108869
 30
0.0
 11
216.9999991921495
 21
422.000000110887
 31
0.0
  0
LINE
  5
3116
330
1F
100
AcDbEntity
  8
APL Notes
  6
Continuous
 62
     2
100
AcDbLine
 10
219.9999991921495
 20
420.5000001108869
 30
0.0
 11
221.9999991921495
 21
419.2639321334868
 31
0.0
  0
LINE
  5
3117
330
1F
100
AcDbEntity
  8
APL Notes
  6
Continuous
 62
     2
100
AcDbLine
 10
256.9999991921495
 20
442.0000001108869
 30
0.0
 11
255.5857856297493
 21
442.0000001108869
 31
0.0
  0
LINE
  5
3118
330
1F
100
AcDbEntity
  8
APL Notes
  6
Continuous
 62
     2
100
AcDbLine
 10
256.9999991921495
 20
442.0000001108869
 30
0.0
 11
254.9999991921495
 21
438.0000001108869
 31
0.0
  0
LINE
  5
3119
330
1F
100
AcDbEntity
  8
APL Notes
  6
Continuous
 62
     2
100
AcDbLine
 10
254.9999991921495
 20
438.0000001108869
 30
0.0
 11
252.9999991921495
 21
434.7639321334868
 31
0.0
  0
LEADER
  5
311B
330
1F
100
AcDbEntity
  8
APL Notes
 62
     8
100
AcDbLeader
  3
ISO-25
 76
     2
 10
87.86233077682442
 20
389.983366573527
 30
0.0
 10
87.86233077682442
 20
407.2813281118729
 30
0.0
1001
ACAD
1000
DSTYLE
1002
{
1070
   147
1040
0.625
1070
    77
1070
     0
1002
}
  0
LEADER
  5
311C
330
1F
100
AcDbEntity
  8
APL Notes
 62
     8
100
AcDbLeader
  3
ISO-25
 76
     2
 10
150.8239462453359
 20
359.9412116760413
 30
0.0
 10
150.8239462453359
 20
377.2391732143872
 30
0.0
1001
ACAD
1000
DSTYLE
1002
{
1070
   147
1040
0.625
1070
    77
1070
     0
1002
}
  0
LWPOLYLINE
  5
3368
330
1F
100
AcDbEntity
  8
APL Notes
100
AcDbPolyline
 90
        4
 70
     1
 43
0.3
 10
202.4999991921495
 20
218.7567470319397
 10
202.4999991921495
 20
229.7567470319397
 10
151.4999991921495
 20
229.7567470319397
 10
151.4999991921495
 20
218.7567470319397
  0
TEXT
  5
3369
330
1F
100
AcDbEntity
  8
APL Notes
100
AcDbText
 10
154.4999991921495
 20
221.7567470319397
 30
0.0
 40
5.0
  1
SECTION A-A
  7
Arial-Bold
100
AcDbText
  0
LINE
  5
33A4
330
1F
100
AcDbEntity
  8
APL Notes
  6
Continuous
 62
     2
100
AcDbLine
 10
209.9999991921495
 20
416.0000001108869
 30
0.0
 11
143.9999991921495
 21
416.0000001108869
 31
0.0
  0
LINE
  5
33A5
330
1F
100
AcDbEntity
  8
APL Notes
  6
Continuous
 62
     2
100
AcDbLine
 10
143.9999991921495
 20
416.0000001108869
 30
0.0
 11
143.9999991921495
 21
348.000000110887
 31
0.0
  0
LINE
  5
33A6
330
1F
100
AcDbEntity
  8
APL Notes
  6
Continuous
 62
     2
100
AcDbLine
 10
209.9999991921495
 20
348.000000110887
 30
0.0
 11
209.9999991921495
 21
416.0000001108869
 31
0.0
  0
LINE
  5
33A7
330
1F
100
AcDbEntity
  8
APL Notes
  6
Continuous
 62
     2
100
AcDbLine
 10
143.9999991921495
 20
348.000000110887
 30
0.0
 11
209.9999991921495
 21
348.000000110887
 31
0.0
  0
LINE
  5
33A8
330
1F
100
AcDbEntity
  8
APL Notes
  6
Continuous
 62
     2
100
AcDbLine
 10
130.9999991921495
 20
351.3541020772371
 30
0.0
 11
130.9999991921495
 21
418.6458981447369
 31
0.0
  0
LINE
  5
33A9
330
1F
100
AcDbEntity
  8
APL Notes
  6
Continuous
 62
     2
100
AcDbLine
 10
130.9999991921495
 20
418.6458981447369
 30
0.0
 11
101.9999991921495
 21
433.1458981447369
 31
0.0
  0
LINE
  5
33AA
330
1F
100
AcDbEntity
  8
APL Notes
  6
Continuous
 62
     2
100
AcDbLine
 10
101.9999991921495
 20
365.8541020772371
 30
0.0
 11
101.9999991921495
 21
433.1458981447369
 31
0.0
  0
LINE
  5
33AB
330
1F
100
AcDbEntity
  8
APL Notes
  6
Continuous
 62
     2
100
AcDbLine
 10
130.9999991921495
 20
351.3541020772371
 30
0.0
 11
101.9999991921495
 21
365.8541020772371
 31
0.0
  0
TEXT
  5
33C0
330
1F
100
AcDbEntity
  8
APL Notes
100
AcDbText
 10
169.9365612658193
 20
47.09409464372789
 30
0.0
 40
5.0
  1
135%%D
  7
Arial-Bold
 72
     1
 11
176.9999991921495
 21
47.09409464372789
 31
0.0
100
AcDbText
  0
TEXT
  5
33C1
330
1F
100
AcDbEntity
  8
APL Notes
100
AcDbText
 10
147.3495899152054
 20
40.09409464372788
 30
0.0
 40
5.0
  1
CORNER OPTION
  7
Arial-Bold
 72
     1
 11
176.9999991921495
 21
40.09409464372788
 31
0.0
100
AcDbText
  0
INSERT
  5
3519
330
1F
100
AcDbEntity
  8
APL Joinery
100
AcDbBlockReference
  2
07438sightline
 10
228.1443564144848
 20
72.71213201733724
 30
0.0
  0
LWPOLYLINE
  5
35F2
330
1F
100
AcDbEntity
  8
0
100
AcDbPolyline
 90
        4
 70
     1
 43
0.0
 10
353.9999991921495
 20
0.0000001108869583
 10
353.9999991921495
 20
482.0000001108869
 10
-0.0000008078504834
 20
482.0000001108869
 10
-0.0000008078504834
 20
0.0000001108869583
  0
INSERT
  5
36D7
330
1F
100
AcDbEntity
  8
APL Joinery
100
AcDbBlockReference
  2
07123Glaze
 10
260.399356414486
 20
72.71213201733724
 30
0.0
 50
270.0
  0
LINE
  5
36D8
330
1F
100
AcDbEntity
  8
APL Joinery
 62
     8
100
AcDbLine
 10
123.0676100907915
 20
135.522922437512
 30
0.0
 11
111.3494151999307
 21
147.2411173283728
 31
0.0
  0
LINE
  5
36D9
330
1F
100
AcDbEntity
  8
APL Joinery
 62
     8
100
AcDbLine
 10
124.4818236531646
 20
136.9371359998851
 30
0.0
 11
112.7636287623037
 21
148.6553308907459
 31
0.0
  0
LINE
  5
36DA
330
1F
100
AcDbEntity
  8
APL Joinery
 62
     7
100
AcDbLine
 10
125.8960372155377
 20
138.3513495622582
 30
0.0
 11
114.1778423246768
 21
150.069544453119
 31
0.0
  0
LINE
  5
36DB
330
1F
100
AcDbEntity
  8
APL Joinery
 62
     7
100
AcDbLine
 10
121.6533965284184
 20
134.1087088751389
 30
0.0
 11
109.9352016375576
 21
145.8269037659997
 31
0.0
  0
INSERT
  5
36DC
330
1F
100
AcDbEntity
  8
APL Joinery
100
AcDbBlockReference
  2
07123Glaze
 10
136.4939813338614
 20
107.2473087895243
 30
0.0
 41
-1.0
 50
45.0
  0
LINE
  5
36DD
330
1F
100
AcDbEntity
  8
APL Joinery
 62
     7
100
AcDbLine
 10
138.6239592768955
 20
151.079271623616
 30
0.0
 11
126.9057643860347
 21
162.7974665144768
 31
0.0
  0
LINE
  5
36DE
330
1F
100
AcDbEntity
  8
APL Joinery
 62
     8
100
AcDbLine
 10
137.2097457145224
 20
149.6650580612429
 30
0.0
 11
125.4915508236616
 21
161.3832529521037
 31
0.0
  0
LINE
  5
36DF
330
1F
100
AcDbEntity
  8
APL Joinery
 62
     8
100
AcDbLine
 10
135.7955321521493
 20
148.2508444988698
 30
0.0
 11
124.0773372612885
 21
159.9690393897306
 31
0.0
  0
LINE
  5
36E0
330
1F
100
AcDbEntity
  8
APL Joinery
 62
     7
100
AcDbLine
 10
134.3813185897762
 20
146.8366309364967
 30
0.0
 11
122.6631236989154
 21
158.5548258273576
 31
0.0
  0
VIEWPORT
  5
33E4
102
{ACAD_XDICTIONARY
360
3871
102
}
330
33DD
100
AcDbEntity
 67
     1
  8
0
100
AcDbViewport
 10
111.5094435879398
 20
145.0152950264835
 30
0.0
 40
504.4533174094326
 41
299.2029704978584
 68
     1
 69
     1
 12
111.5094435879398
 22
145.0152950264835
 13
0.0
 23
0.0
 14
10.0
 24
10.0
 15
10.0
 25
10.0
 16
0.0
 26
0.0
 36
1.0
 17
0.0
 27
0.0
 37
0.0
 42
50.0
 43
0.0
 44
0.0
 45
299.2029704978584
 50
0.0
 51
0.0
 72
 20000
 90
    32800
  1

281
     0
 71
     1
 74
     0
110
0.0
120
0.0
130
0.0
111
1.0
121
0.0
131
0.0
112
0.0
122
1.0
132
0.0
 79
     0
146
0.0
  0
VIEWPORT
  5
33E6
102
{ACAD_XDICTIONARY
360
3873
102
}
330
33DD
100
AcDbEntity
 67
     1
  8
0
100
AcDbViewport
 10
112.19
 20
133.6899999999999
 30
0.0
 40
178.0
 41
241.9999999999999
 68
     2
 69
     2
 12
177.0000000163699
 22
241.0000012331306
 13
0.0
 23
0.0
 14
10.0
 24
10.0
 15
10.0
 25
10.0
 16
0.0
 26
0.0
 36
1.0
 17
0.0
 27
0.0
 37
0.0
 42
50.0
 43
0.0
 44
0.0
 45
483.9999999999998
 50
0.0
 51
0.0
 72
 20000
 90
    32864
  1

281
     0
 71
     1
 74
     0
110
0.0
120
0.0
130
0.0
111
1.0
121
0.0
131
0.0
112
0.0
122
1.0
132
0.0
 79
     0
146
0.0
  0
INSERT
  5
33EC
330
33DD
100
AcDbEntity
 67
     1
  8
APL Border
100
AcDbBlockReference
  2
smartwood a4 SM border
 10
11.59500000000003
 20
2.689999999999997
 30
0.0
  0
INSERT
  5
3421
330
33DD
100
AcDbEntity
 67
     1
  8
APL Border
100
AcDbBlockReference
 66
     1
  2
smartwood a4 SM attributes (2)
 10
11.59500000000003
 20
2.689999999999997
 30
0.0
  0
ATTRIB
  5
3422
330
3421
100
AcDbEntity
 67
     1
  8
APL Border
100
AcDbText
 10
62.19000000000005
 20
275.13
 30
0.0
 40
3.5
  1
BAY WINDOW
  7
Arial-Regular
100
AcDbAttribute
  2
DRAWINGTITLE_1
 70
     0
  0
ATTRIB
  5
3423
330
3421
100
AcDbEntity
 67
     1
  8
APL Border
100
AcDbText
 10
62.19000000000005
 20
269.63
 30
0.0
 40
3.5
  1
CROSS SECTION
  7
Arial-Regular
100
AcDbAttribute
  2
DRAWINGTITLE_2
 70
     0
  0
ATTRIB
  5
3424
330
3421
100
AcDbEntity
 67
     1
  8
APL Border
100
AcDbText
 10
77.19000000000005
 20
263.1803256579735
 30
0.0
 40
2.5
  1
SGH02-0
  7
Arial-Regular
100
AcDbAttribute
  2
VSAW01-0
 70
     0
  0
ATTRIB
  5
3425
330
3421
100
AcDbEntity
 67
     1
  8
APL Border
100
AcDbText
 10
107.94
 20
263.1803256579735
 30
0.0
 40
2.5
  1
1:2
  7
Arial-Regular
100
AcDbAttribute
  2
1:2
 70
     0
  0
ATTRIB
  5
3426
330
3421
100
AcDbEntity
 67
     1
  8
APL Border
100
AcDbText
 10
127.19
 20
263.1803256579735
 30
0.0
 40
2.5
  1
01.06.11
  7
Arial-Regular
100
AcDbAttribute
  2
20.09.02
 70
     0
  0
ATTRIB
  5
3427
330
3421
100
AcDbEntity
 67
     1
  8
APL Border
100
AcDbText
 10
23.19000000000006
 20
5.379999999999995
 30
0.0
 40
4.5
  1

  7
Arial-Regular
100
AcDbAttribute
  2
1.2.34
 70
     0
  0
ATTRIB
  5
3428
330
3421
100
AcDbEntity
 67
     1
  8
APL Border
100
AcDbText
 10
201.1900000000001
 20
5.379999999999995
 30
0.0
 40
4.5
  1

  7
Arial-Regular
 72
     2
 11
201.1900000000001
 21
5.379999999999995
 31
0.0
100
AcDbAttribute
  2
1.2.34
 70
     0
  0
SEQEND
  5
3429
330
3421
100
AcDbEntity
 67
     1
  8
APL Joinery
  0
ENDSEC
  0
SECTION
  2
OBJECTS
  0
DICTIONARY
  5
C
330
0
100
AcDbDictionary
281
     1
  3
ACAD_COLOR
350
358C
  3
ACAD_GROUP
350
D
  3
ACAD_LAYOUT
350
1A
  3
ACAD_MATERIAL
350
3562
  3
ACAD_MLEADERSTYLE
350
35B1
  3
ACAD_MLINESTYLE
350
17
  3
ACAD_PLOTSETTINGS
350
19
  3
ACAD_PLOTSTYLENAME
350
E
  3
ACAD_SCALELIST
350
358F
  3
ACAD_TABLESTYLE
350
358D
  3
ACAD_VISUALSTYLE
350
357B
  3
AcadDim
350
275C
  3
ACDB_RECOMPOSE_DATA
350
3635
  3
ACDBHEADERROUNDTRIPXREC
350
3971
  3
AcDbVariableDictionary
350
3B
  3
DWGPROPS
350
3970
  0
DICTIONARY
  5
3637
330
8
100
AcDbDictionary
280
     1
281
     1
  3
ACAD_XREC_ROUNDTRIP
360
3865
  0
DICTIONARY
  5
35DE
330
2
100
AcDbDictionary
280
     1
281
     1
  3
ACAD_LAYERSTATES
360
35DF
  0
DICTIONARY
  5
35F9
330
10
100
AcDbDictionary
280
     1
281
     1
  3
ACAD_XREC_ROUNDTRIP
360
3866
  3
ADSK_XREC_LAYER_RECONCILED
360
35FA
  0
DICTIONARY
  5
35FB
330
2B
100
AcDbDictionary
280
     1
281
     1
  3
ACAD_XREC_ROUNDTRIP
360
3869
  3
ADSK_XREC_LAYER_RECONCILED
360
35FC
  0
DICTIONARY
  5
35FD
330
75
100
AcDbDictionary
280
     1
281
     1
  3
ACAD_XREC_ROUNDTRIP
360
386A
  3
ADSK_XREC_LAYER_RECONCILED
360
35FE
  0
DICTIONARY
  5
35FF
330
3148
100
AcDbDictionary
280
     1
281
     1
  3
ACAD_XREC_ROUNDTRIP
360
386B
  3
ADSK_XREC_LAYER_RECONCILED
360
3600
  0
DICTIONARY
  5
3603
330
35BB
100
AcDbDictionary
280
     1
281
     1
  3
ACAD_XREC_ROUNDTRIP
360
387A
  3
ADSK_XREC_LAYER_RECONCILED
360
3604
  0
DICTIONARY
  5
35F3
330
1F
100
AcDbDictionary
280
     1
281
     1
  3
ACAD_SORTENTS
360
35F4
  0
DICTIONARY
  5
38E1
330
2679
100
AcDbDictionary
280
     1
281
     1
  0
DICTIONARY
  5
38E6
330
2683
100
AcDbDictionary
280
     1
281
     1
  0
DICTIONARY
  5
390A
330
26CC
100
AcDbDictionary
280
     1
281
     1
  0
DICTIONARY
  5
3913
330
2707
100
AcDbDictionary
280
     1
281
     1
  0
DICTIONARY
  5
3921
330
2CF5
100
AcDbDictionary
280
     1
281
     1
  0
DICTIONARY
  5
3871
330
33E4
100
AcDbDictionary
280
     1
281
     1
  3
ACAD_XREC_ROUNDTRIP
360
3872
  0
DICTIONARY
  5
3873
330
33E6
100
AcDbDictionary
280
     1
281
     1
  3
ACAD_XREC_ROUNDTRIP
360
3874
  0
DICTIONARY
  5
358C
102
{ACAD_REACTORS
330
C
102
}
330
C
100
AcDbDictionary
281
     1
  0
DICTIONARY
  5
D
102
{ACAD_REACTORS
330
C
102
}
330
C
100
AcDbDictionary
281
     1
  0
DICTIONARY
  5
1A
102
{ACAD_REACTORS
330
C
102
}
330
C
100
AcDbDictionary
281
     1
  3
Model
350
22
  3
Vantage A4
350
33DE
  0
DICTIONARY
  5
3562
102
{ACAD_REACTORS
330
C
102
}
330
C
100
AcDbDictionary
281
     1
  3
ByBlock
350
356B
  3
ByLayer
350
3563
  3
Global
350
3573
  0
DICTIONARY
  5
35B1
102
{ACAD_REACTORS
330
C
102
}
330
C
100
AcDbDictionary
281
     1
  3
Standard
350
35B2
  0
DICTIONARY
  5
17
102
{ACAD_REACTORS
330
C
102
}
330
C
100
AcDbDictionary
281
     1
  3
Standard
350
18
  0
DICTIONARY
  5
19
102
{ACAD_REACTORS
330
C
102
}
330
C
100
AcDbDictionary
281
     1
  3
A4 Specifier Manual Hardcopy
350
3296
  3
A4 Specifier Manual PDF
350
3297
  0
ACDBDICTIONARYWDFLT
  5
E
102
{ACAD_REACTORS
330
C
102
}
330
C
100
AcDbDictionary
281
     1
  3
Normal
350
F
100
AcDbDictionaryWithDefault
340
F
  0
DICTIONARY
  5
358F
102
{ACAD_REACTORS
330
C
102
}
330
C
100
AcDbDictionary
281
     1
  3
A0
350
3590
  3
A1
350
3591
  3
A2
350
3592
  3
A3
350
3593
  3
A4
350
3594
  3
A5
350
3595
  3
A6
350
3596
  3
A7
350
3597
  3
A8
350
3598
  3
A9
350
3599
  3
B0
350
359A
  3
B1
350
359B
  3
B2
350
359C
  3
B3
350
359D
  3
B4
350
359E
  3
B5
350
359F
  3
B6
350
35A0
  3
B7
350
35A1
  3
B8
350
35A2
  3
B9
350
35A3
  3
C0
350
35A4
  3
C1
350
35A5
  3
C2
350
35A6
  3
C3
350
35A7
  3
C4
350
35A8
  3
C5
350
35A9
  3
C6
350
35AA
  3
C7
350
35AB
  3
C8
350
35AC
  3
C9
350
35AD
  3
D0
350
35AE
  3
D1
350
35AF
  3
D2
350
35B0
  0
DICTIONARY
  5
358D
102
{ACAD_REACTORS
330
C
102
}
330
C
100
AcDbDictionary
281
     1
  3
Standard
350
358E
  0
DICTIONARY
  5
357B
102
{ACAD_REACTORS
330
C
102
}
330
C
100
AcDbDictionary
281
     1
  3
2dWireframe
350
3581
  3
3D Hidden
350
3583
  3
3dWireframe
350
3582
  3
Basic
350
3580
  3
Brighten
350
3587
  3
ColorChange
350
358B
  3
Conceptual
350
3584
  3
Dim
350
3586
  3
Facepattern
350
358A
  3
Flat
350
357C
  3
FlatWithEdges
350
357D
  3
Gouraud
350
357E
  3
GouraudWithEdges
350
357F
  3
Linepattern
350
3589
  3
Realistic
350
3585
  3
Thicken
350
3588
  0
XRECORD
  5
275C
102
{ACAD_REACTORS
330
C
102
}
330
C
100
AcDbXrecord
280
     1
 90
   990106
  3

 60
     0
 61
     0
 62
     1
 63
     3
 64
     0
 65
     0
 66
     0
 67
     3
 68
     1
 69
     0
 70
     0
 71
     0
 72
     0
 40
8.188652110585962
170
     0
  0
XRECORD
  5
3635
102
{ACAD_REACTORS
330
C
102
}
330
C
100
AcDbXrecord
280
     1
 90
        1
330
358E
  0
DICTIONARY
  5
3971
102
{ACAD_REACTORS
330
C
102
}
330
C
100
AcDbDictionary
281
     1
  0
DICTIONARY
  5
3B
102
{ACAD_REACTORS
330
C
102
}
330
C
100
AcDbDictionary
281
     1
  3
CANNOSCALE
350
3673
  3
CMLEADERSTYLE
350
3672
  3
CTABLESTYLE
350
3671
  3
DIMASSOC
350
3D
  3
HIDETEXT
350
3C
  3
INDEXCTL
350
3675
  3
PROJECTNAME
350
380F
  3
SORTENTS
350
3674
  0
XRECORD
  5
3970
102
{ACAD_REACTORS
330
C
102
}
330
C
100
AcDbXrecord
280
     1
  1
DWGPROPS COOKIE
  2

  3

  4

  6

  7

  8
homer
  9

300
=
301
=
302
=
303
=
304
=
305
=
306
=
307
=
308
=
309
=
 40
0.3207152199074074
 41
2452283.468413125
 42
2455812.471835336
  1

 90
        0
  0
XRECORD
  5
3865
102
{ACAD_REACTORS
330
3637
102
}
330
3637
100
AcDbXrecord
280
     1
102
VTR_0.000_0.000_1.000_1.000_VISUALSTYLE
340
3581
102
VTR_0.000_0.000_1.000_1.000_GRIDDISPLAY
 70
     3
102
VTR_0.000_0.000_1.000_1.000_GRIDMAJOR
 70
     5
102
VTR_0.000_0.000_1.000_1.000_DEFAULTLIGHTING
280
     1
102
VTR_0.000_0.000_1.000_1.000_DEFAULTLIGHTINGTYPE
 70
     1
102
VTR_0.000_0.000_1.000_1.000_BRIGHTNESS
141
0.0
102
VTR_0.000_0.000_1.000_1.000_CONTRAST
142
0.0
  0
DICTIONARY
  5
35DF
102
{ACAD_REACTORS
330
35DE
102
}
330
35DE
100
AcDbDictionary
281
     1
  0
XRECORD
  5
3866
102
{ACAD_REACTORS
330
35F9
102
}
330
35F9
100
AcDbXrecord
280
     1
102
MATERIAL
340
3573
  0
XRECORD
  5
35FA
102
{ACAD_REACTORS
330
35F9
102
}
330
35F9
100
AcDbXrecord
280
     1
290
     1
  0
XRECORD
  5
3869
102
{ACAD_REACTORS
330
35FB
102
}
330
35FB
100
AcDbXrecord
280
     1
102
MATERIAL
340
3573
  0
XRECORD
  5
35FC
102
{ACAD_REACTORS
330
35FB
102
}
330
35FB
100
AcDbXrecord
280
     1
290
     1
  0
XRECORD
  5
386A
102
{ACAD_REACTORS
330
35FD
102
}
330
35FD
100
AcDbXrecord
280
     1
102
MATERIAL
340
3573
  0
XRECORD
  5
35FE
102
{ACAD_REACTORS
330
35FD
102
}
330
35FD
100
AcDbXrecord
280
     1
290
     1
  0
XRECORD
  5
386B
102
{ACAD_REACTORS
330
35FF
102
}
330
35FF
100
AcDbXrecord
280
     1
102
MATERIAL
340
3573
  0
XRECORD
  5
3600
102
{ACAD_REACTORS
330
35FF
102
}
330
35FF
100
AcDbXrecord
280
     1
290
     1
  0
XRECORD
  5
387A
102
{ACAD_REACTORS
330
3603
102
}
330
3603
100
AcDbXrecord
280
     1
102
MATERIAL
340
3573
  0
XRECORD
  5
3604
102
{ACAD_REACTORS
330
3603
102
}
330
3603
100
AcDbXrecord
280
     1
290
     1
  0
SORTENTSTABLE
  5
35F4
102
{ACAD_REACTORS
330
35F3
102
}
330
35F3
100
AcDbSortentsTable
330
1F
331
30F9
  5
30FD
331
30D2
  5
30D5
331
30EB
  5
30F2
331
310C
  5
310F
331
2CF4
  5
2D0D
331
2D15
  5
2D19
331
30E7
  5
30EB
331
3108
  5
310E
331
2D11
  5
2D16
331
30CA
  5
30CF
331
30E3
  5
30E6
331
2733
  5
2751
331
3104
  5
3107
331
2CEC
  5
2CF1
331
3117
  5
311B
331
30C6
  5
30CC
331
30DF
  5
30E4
331
30F2
  5
30F8
331
33AA
  5
33C1
331
2D1C
  5
30C5
331
30FC
  5
30FF
331
30D5
  5
30DD
331
33A6
  5
33A9
331
310F
  5
3115
331
3368
  5
33A4
331
2D18
  5
2D1C
331
30F8
  5
30FC
331
30D1
  5
30D4
331
30EA
  5
30F1
331
3119
  5
311D
331
2D14
  5
2D18
331
30CD
  5
30D1
331
2D06
  5
2D11
331
30E6
  5
30EA
331
3107
  5
310D
331
2CEF
  5
2CF4
331
2759
  5
2CC9
331
33C1
  5
35F5
331
30E2
  5
30E5
331
3103
  5
3106
331
2CEB
  5
2CF0
331
2D0C
  5
2D12
331
3116
  5
3119
331
30C5
  5
30CA
331
30DE
  5
30E3
331
30FF
  5
3105
331
30F1
  5
30F7
331
33A9
  5
33C0
331
2751
  5
2CC8
331
2D1B
  5
30C4
331
30D4
  5
30D7
331
311C
  5
3369
331
33A5
  5
33A8
331
274D
  5
2759
331
310E
  5
3111
331
2D17
  5
2D1B
331
30D0
  5
30D3
331
3118
  5
311C
331
35F2
  5
262B
331
30CC
  5
30D0
331
30E5
  5
30E8
331
3106
  5
310C
331
2D0F
  5
2D15
331
33C0
  5
35F2
331
2D22
  5
35F7
331
2CEA
  5
2CEF
331
3115
  5
3118
331
30C4
  5
30C7
331
30DD
  5
30E2
331
30D7
  5
30DF
331
30FE
  5
3104
331
30F0
  5
30F3
331
33A8
  5
33AB
331
2750
  5
2CC6
331
3111
  5
3117
331
2CF9
  5
2D0F
331
2D1A
  5
2D22
331
3519
  5
35F6
331
30D3
  5
30D6
331
30FA
  5
30FE
331
311B
  5
3368
331
310D
  5
3110
331
33A4
  5
33A7
331
2D16
  5
2D1A
331
30CF
  5
30D2
331
30E8
  5
30F0
331
2CF1
  5
2D06
331
2D12
  5
2D17
331
30E4
  5
30E7
331
3105
  5
3108
331
2CED
  5
2CF2
331
30F7
  5
30FA
331
30C7
  5
30CD
331
30F3
  5
30F9
331
33AB
  5
3519
331
2D1D
  5
30C6
331
30FD
  5
3103
331
30D6
  5
30DE
331
274F
  5
2CC5
331
3110
  5
3116
331
33A7
  5
33AA
331
3369
  5
33A6
331
2D19
  5
2D1D
  0
XRECORD
  5
3872
102
{ACAD_REACTORS
330
3871
102
}
330
3871
100
AcDbXrecord
280
     1
102
VISUALSTYLE
340
3581
102
GRIDDISPLAY
 70
     0
102
GRIDMAJOR
 70
     5
102
DEFAULTLIGHTING
280
     1
102
DEFAULTLIGHTINGTYPE
 70
     1
102
BRIGHTNESS
141
0.0
102
CONTRAST
142
0.0
102
SHADEPLOT
 70
     0
  0
XRECORD
  5
3874
102
{ACAD_REACTORS
330
3873
102
}
330
3873
100
AcDbXrecord
280
     1
102
VISUALSTYLE
340
3581
102
GRIDDISPLAY
 70
     0
102
GRIDMAJOR
 70
     5
102
DEFAULTLIGHTING
280
     1
102
DEFAULTLIGHTINGTYPE
 70
     1
102
BRIGHTNESS
141
0.0
102
CONTRAST
142
0.0
102
SHADEPLOT
 70
     0
  0
LAYOUT
  5
22
102
{ACAD_XDICTIONARY
360
3972
102
}
102
{ACAD_REACTORS
330
1A
102
}
330
1A
100
AcDbPlotSettings
  1

  2
\\APL01\HP LaserJet 4MV
  4
A4
  6

 40
6.043083190917968
 41
6.720414161682128
 42
7.821090698242187
 43
5.027069091796875
 44
210.0579986572266
 45
296.9259948730469
 46
0.0
 47
0.0
 48
55.19893561856474
 49
77.41415496436935
140
329.6878846931311
141
251.7976535946928
142
1.0
143
1.0
 70
 11936
 72
     1
 73
     1
 74
     4
  7

 75
     0
147
1.0
148
-55.19893561856474
149
-77.41415496436935
100
AcDbLayout
  1
Model
 70
     1
 71
     0
 10
0.0
 20
0.0
 11
12.0
 21
9.0
 12
0.0
 22
0.0
 32
0.0
 14
0.0
 24
0.0
 34
0.0
 15
0.0
 25
0.0
 35
0.0
146
0.0
 13
0.0
 23
0.0
 33
0.0
 16
1.0
 26
0.0
 36
0.0
 17
0.0
 27
1.0
 37
0.0
 76
     0
330
1F
331
351D
  0
LAYOUT
  5
33DE
102
{ACAD_XDICTIONARY
360
35E3
102
}
102
{ACAD_REACTORS
330
1A
102
}
330
1A
100
AcDbPlotSettings
  1

  2
\\Aplfp01\APL Technical HP5100 PSLaser
  4
A4
  6

 40
5.027082920074462
 41
5.408084392547607
 42
5.70440673828125
 43
5.365753173828125
 44
209.8886566162109
 45
297.0530090332031
 46
0.0
 47
0.0
 48
0.0
 49
0.0
140
0.0
141
0.0
142
1.0
143
1.0
 70
   688
 72
     1
 73
     0
 74
     5
  7
A4 Specifier Manual.ctb
 75
    16
147
1.0
148
-11.59219819990875
149
-1.896874902429658
100
AcDbLayout
  1
Vantage A4
 70
     1
 71
     1
 10
6.565115279834287
 20
-3.511209490117948
 11
216.4537718960452
 21
293.5417995430852
 12
0.0
 22
0.0
 32
0.0
 14
23.18044706418215
 24
4.593203749878057
 34
-0.0015258207003583
 15
201.1995659542675
 25
279.5675810587587
 35
0.0000000349246037
146
0.0
 13
0.0
 23
0.0
 33
0.0
 16
1.0
 26
0.0
 36
0.0
 17
0.0
 27
1.0
 37
0.0
 76
     0
330
33DD
331
33E4
1001
ACAD_PSEXT
1000
\\Aplfp01\APL Technical HP5100 PSLaser
1000
HP LaserJet 5100 PS
1000
APL Technical Office
1000

1070
     0
  0
MATERIAL
  5
356B
102
{ACAD_XDICTIONARY
360
356C
102
}
102
{ACAD_REACTORS
330
3562
102
}
330
3562
100
AcDbMaterial
  1
ByBlock
 72
     0
 73
     2
 43
0.0008202099737533
 43
0.0
 43
0.0
 43
0.0
 43
0.0
 43
0.0008202099737533
 43
0.0
 43
0.0
 43
0.0
 43
0.0
 43
1.0
 43
0.0
 43
0.0
 43
0.0
 43
0.0
 43
1.0
 77
     0
 78
     2
 47
0.0008202099737533
 47
0.0
 47
0.0
 47
0.0
 47
0.0
 47
0.0008202099737533
 47
0.0
 47
0.0
 47
0.0
 47
0.0
 47
1.0
 47
0.0
 47
0.0
 47
0.0
 47
0.0
 47
1.0
171
     0
172
     2
 49
0.0008202099737533
 49
0.0
 49
0.0
 49
0.0
 49
0.0
 49
0.0008202099737533
 49
0.0
 49
0.0
 49
0.0
 49
0.0
 49
1.0
 49
0.0
 49
0.0
 49
0.0
 49
0.0
 49
1.0
175
     0
176
     2
142
0.0008202099737533
142
0.0
142
0.0
142
0.0
142
0.0
142
0.0008202099737533
142
0.0
142
0.0
142
0.0
142
0.0
142
1.0
142
0.0
142
0.0
142
0.0
142
0.0
142
1.0
179
     0
270
     2
144
0.0008202099737533
144
0.0
144
0.0
144
0.0
144
0.0
144
0.0008202099737533
144
0.0
144
0.0
144
0.0
144
0.0
144
1.0
144
0.0
144
0.0
144
0.0
144
0.0
144
1.0
274
     2
147
0.0008202099737533
147
0.0
147
0.0
147
0.0
147
0.0
147
0.0008202099737533
147
0.0
147
0.0
147
0.0
147
0.0
147
1.0
147
0.0
147
0.0
147
0.0
147
0.0
147
1.0
  0
MATERIAL
  5
3563
102
{ACAD_XDICTIONARY
360
3564
102
}
102
{ACAD_REACTORS
330
3562
102
}
330
3562
100
AcDbMaterial
  1
ByLayer
 72
     0
 73
     2
 43
0.0008202099737533
 43
0.0
 43
0.0
 43
0.0
 43
0.0
 43
0.0008202099737533
 43
0.0
 43
0.0
 43
0.0
 43
0.0
 43
1.0
 43
0.0
 43
0.0
 43
0.0
 43
0.0
 43
1.0
 77
     0
 78
     2
 47
0.0008202099737533
 47
0.0
 47
0.0
 47
0.0
 47
0.0
 47
0.0008202099737533
 47
0.0
 47
0.0
 47
0.0
 47
0.0
 47
1.0
 47
0.0
 47
0.0
 47
0.0
 47
0.0
 47
1.0
171
     0
172
     2
 49
0.0008202099737533
 49
0.0
 49
0.0
 49
0.0
 49
0.0
 49
0.0008202099737533
 49
0.0
 49
0.0
 49
0.0
 49
0.0
 49
1.0
 49
0.0
 49
0.0
 49
0.0
 49
0.0
 49
1.0
175
     0
176
     2
142
0.0008202099737533
142
0.0
142
0.0
142
0.0
142
0.0
142
0.0008202099737533
142
0.0
142
0.0
142
0.0
142
0.0
142
1.0
142
0.0
142
0.0
142
0.0
142
0.0
142
1.0
179
     0
270
     2
144
0.0008202099737533
144
0.0
144
0.0
144
0.0
144
0.0
144
0.0008202099737533
144
0.0
144
0.0
144
0.0
144
0.0
144
1.0
144
0.0
144
0.0
144
0.0
144
0.0
144
1.0
274
     2
147
0.0008202099737533
147
0.0
147
0.0
147
0.0
147
0.0
147
0.0008202099737533
147
0.0
147
0.0
147
0.0
147
0.0
147
1.0
147
0.0
147
0.0
147
0.0
147
0.0
147
1.0
  0
MATERIAL
  5
3573
102
{ACAD_XDICTIONARY
360
3574
102
}
102
{ACAD_REACTORS
330
3562
102
}
330
3562
100
AcDbMaterial
  1
Global
 72
     0
 73
     2
 43
0.0008202099737533
 43
0.0
 43
0.0
 43
0.0
 43
0.0
 43
0.0008202099737533
 43
0.0
 43
0.0
 43
0.0
 43
0.0
 43
1.0
 43
0.0
 43
0.0
 43
0.0
 43
0.0
 43
1.0
 77
     0
 78
     2
 47
0.0008202099737533
 47
0.0
 47
0.0
 47
0.0
 47
0.0
 47
0.0008202099737533
 47
0.0
 47
0.0
 47
0.0
 47
0.0
 47
1.0
 47
0.0
 47
0.0
 47
0.0
 47
0.0
 47
1.0
171
     0
172
     2
 49
0.0008202099737533
 49
0.0
 49
0.0
 49
0.0
 49
0.0
 49
0.0008202099737533
 49
0.0
 49
0.0
 49
0.0
 49
0.0
 49
1.0
 49
0.0
 49
0.0
 49
0.0
 49
0.0
 49
1.0
175
     0
176
     2
142
0.0008202099737533
142
0.0
142
0.0
142
0.0
142
0.0
142
0.0008202099737533
142
0.0
142
0.0
142
0.0
142
0.0
142
1.0
142
0.0
142
0.0
142
0.0
142
0.0
142
1.0
179
     0
270
     2
144
0.0008202099737533
144
0.0
144
0.0
144
0.0
144
0.0
144
0.0008202099737533
144
0.0
144
0.0
144
0.0
144
0.0
144
1.0
144
0.0
144
0.0
144
0.0
144
0.0
144
1.0
274
     2
147
0.0008202099737533
147
0.0
147
0.0
147
0.0
147
0.0
147
0.0008202099737533
147
0.0
147
0.0
147
0.0
147
0.0
147
1.0
147
0.0
147
0.0
147
0.0
147
0.0
147
1.0
  0
ACAD_PROXY_OBJECT
  5
35B2
102
{ACAD_REACTORS
330
35B1
102
}
330
35B1
100
AcDbProxyObject
 90
      499
 91
      509
 95
   983063
 70
     0
 93
      618
310
40901902A4063FBFFFFFE000000000000002040AD7A3703D0AD73F4254DD185B99185C99000000000000000104090141901A00000000000004100000000000000041025764000000000000300FC0
340
14
340
0
340
11
340
0
 94
        0
1001
ACAD_MLEADERVER
1070
     2
1001
ACAD
1000
AcRTDxfName
1000
MLEADERSTYLE
1000
AcRTDxfName
1000
MLEADERSTYLE
1000
AcRTDxfName
1000
MLEADERSTYLE
1000
AcRTDxfName
1000
MLEADERSTYLE
1000
AcRTDxfName
1000
MLEADERSTYLE
  0
MLINESTYLE
  5
18
102
{ACAD_REACTORS
330
17
102
}
330
17
100
AcDbMlineStyle
  2
STANDARD
 70
     0
  3

 62
   256
 51
90.0
 52
90.0
 71
     2
 49
0.5
 62
   256
  6
BYLAYER
 49
-0.5
 62
   256
  6
BYLAYER
  0
PLOTSETTINGS
  5
3296
102
{ACAD_XDICTIONARY
360
3974
102
}
102
{ACAD_REACTORS
330
19
102
}
330
19
100
AcDbPlotSettings
  1
A4 Specifier Manual Hardcopy
  2
A4 Specifier Manual.pc3
  4
A4
  6

 40
6.0
 41
5.0
 42
6.97332763671875
 43
5.96832275390625
 44
209.9733276367187
 45
296.9683227539062
 46
10.5
 47
-1.0
 48
55.19893561856474
 49
77.41415496436935
140
329.6878846931311
141
251.7976535946928
142
1.0
143
2.0
 70
  1712
 72
     1
 73
     0
 74
     1
  7
A4 specifier manual.ctb
 75
    17
147
0.5
148
2.225667800726114
149
26.13925412475783
  0
PLOTSETTINGS
  5
3297
102
{ACAD_XDICTIONARY
360
3976
102
}
102
{ACAD_REACTORS
330
19
102
}
330
19
100
AcDbPlotSettings
  1
A4 Specifier Manual PDF
  2
Acrobat Distiller.pc3
  4
A4
  6

 40
3.174999952316284
 41
3.174999952316284
 42
3.175003051757812
 43
3.17498779296875
 44
209.9098358154297
 45
297.0318298339844
 46
12.0
 47
3.0
 48
55.19893561856474
 49
77.41415496436935
140
329.6878846931311
141
251.7976535946928
142
1.0
143
2.0
 70
  1712
 72
     1
 73
     0
 74
     1
  7
A4 Specifier Manual.ctb
 75
    17
147
0.5
148
2.231438335389952
149
26.15846035871732
  0
ACDBPLACEHOLDER
  5
F
102
{ACAD_REACTORS
330
E
102
}
330
E
  0
ACAD_PROXY_OBJECT
  5
3590
102
{ACAD_REACTORS
330
358F
102
}
330
358F
100
AcDbProxyObject
 90
      499
 91
      508
 95
   983063
 70
     0
 93
       49
310
904313A3100580
 94
        0
1001
ACAD
1000
AcRTDxfName
1000
SCALE
1000
AcRTDxfName
1000
SCALE
1000
AcRTDxfName
1000
SCALE
1000
AcRTDxfName
1000
SCALE
1000
AcRTDxfName
1000
SCALE
  0
ACAD_PROXY_OBJECT
  5
3591
102
{ACAD_REACTORS
330
358F
102
}
330
358F
100
AcDbProxyObject
 90
      499
 91
      508
 95
   983063
 70
     0
 93
      113
310
904313A32004000000000000004040
 94
        0
1001
ACAD
1000
AcRTDxfName
1000
SCALE
1000
AcRTDxfName
1000
SCALE
1000
AcRTDxfName
1000
SCALE
1000
AcRTDxfName
1000
SCALE
1000
AcRTDxfName
1000
SCALE
  0
ACAD_PROXY_OBJECT
  5
3592
102
{ACAD_REACTORS
330
358F
102
}
330
358F
100
AcDbProxyObject
 90
      499
 91
      508
 95
   983063
 70
     0
 93
      113
310
904313A34004000000000000104040
 94
        0
1001
ACAD
1000
AcRTDxfName
1000
SCALE
1000
AcRTDxfName
1000
SCALE
1000
AcRTDxfName
1000
SCALE
1000
AcRTDxfName
1000
SCALE
1000
AcRTDxfName
1000
SCALE
  0
ACAD_PROXY_OBJECT
  5
3593
102
{ACAD_REACTORS
330
358F
102
}
330
358F
100
AcDbProxyObject
 90
      499
 91
      508
 95
   983063
 70
     0
 93
      113
310
904313A35004000000000000144040
 94
        0
1001
ACAD
1000
AcRTDxfName
1000
SCALE
1000
AcRTDxfName
1000
SCALE
1000
AcRTDxfName
1000
SCALE
1000
AcRTDxfName
1000
SCALE
1000
AcRTDxfName
1000
SCALE
  0
ACAD_PROXY_OBJECT
  5
3594
102
{ACAD_REACTORS
330
358F
102
}
330
358F
100
AcDbProxyObject
 90
      499
 91
      508
 95
   983063
 70
     0
 93
      113
310
904313A38004000000000000204040
 94
        0
1001
ACAD
1000
AcRTDxfName
1000
SCALE
1000
AcRTDxfName
1000
SCALE
1000
AcRTDxfName
1000
SCALE
1000
AcRTDxfName
1000
SCALE
1000
AcRTDxfName
1000
SCALE
  0
ACAD_PROXY_OBJECT
  5
3595
102
{ACAD_REACTORS
330
358F
102
}
330
358F
100
AcDbProxyObject
 90
      499
 91
      508
 95
   983063
 70
     0
 93
      121
310
905313A3130004000000000000244040
 94
        0
1001
ACAD
1000
AcRTDxfName
1000
SCALE
1000
AcRTDxfName
1000
SCALE
1000
AcRTDxfName
1000
SCALE
1000
AcRTDxfName
1000
SCALE
1000
AcRTDxfName
1000
SCALE
  0
ACAD_PROXY_OBJECT
  5
3596
102
{ACAD_REACTORS
330
358F
102
}
330
358F
100
AcDbProxyObject
 90
      499
 91
      508
 95
   983063
 70
     0
 93
      121
310
905313A3136004000000000000304020
 94
        0
1001
ACAD
1000
AcRTDxfName
1000
SCALE
1000
AcRTDxfName
1000
SCALE
1000
AcRTDxfName
1000
SCALE
1000
AcRTDxfName
1000
SCALE
1000
AcRTDxfName
1000
SCALE
  0
ACAD_PROXY_OBJECT
  5
3597
102
{ACAD_REACTORS
330
358F
102
}
330
358F
100
AcDbProxyObject
 90
      499
 91
      508
 95
   983063
 70
     0
 93
      121
310
905313A3230004000000000000344040
 94
        0
1001
ACAD
1000
AcRTDxfName
1000
SCALE
1000
AcRTDxfName
1000
SCALE
1000
AcRTDxfName
1000
SCALE
1000
AcRTDxfName
1000
SCALE
1000
AcRTDxfName
1000
SCALE
  0
ACAD_PROXY_OBJECT
  5
3598
102
{ACAD_REACTORS
330
358F
102
}
330
358F
100
AcDbProxyObject
 90
      499
 91
      508
 95
   983063
 70
     0
 93
      121
310
905313A33300040000000000003E4020
 94
        0
1001
ACAD
1000
AcRTDxfName
1000
SCALE
1000
AcRTDxfName
1000
SCALE
1000
AcRTDxfName
1000
SCALE
1000
AcRTDxfName
1000
SCALE
1000
AcRTDxfName
1000
SCALE
  0
ACAD_PROXY_OBJECT
  5
3599
102
{ACAD_REACTORS
330
358F
102
}
330
358F
100
AcDbProxyObject
 90
      499
 91
      508
 95
   983063
 70
     0
 93
      121
310
905313A3430004000000000000444040
 94
        0
1001
ACAD
1000
AcRTDxfName
1000
SCALE
1000
AcRTDxfName
1000
SCALE
1000
AcRTDxfName
1000
SCALE
1000
AcRTDxfName
1000
SCALE
1000
AcRTDxfName
1000
SCALE
  0
ACAD_PROXY_OBJECT
  5
359A
102
{ACAD_REACTORS
330
358F
102
}
330
358F
100
AcDbProxyObject
 90
      499
 91
      508
 95
   983063
 70
     0
 93
      121
310
905313A3530004000000000000494020
 94
        0
1001
ACAD
1000
AcRTDxfName
1000
SCALE
1000
AcRTDxfName
1000
SCALE
1000
AcRTDxfName
1000
SCALE
1000
AcRTDxfName
1000
SCALE
1000
AcRTDxfName
1000
SCALE
  0
ACAD_PROXY_OBJECT
  5
359B
102
{ACAD_REACTORS
330
358F
102
}
330
358F
100
AcDbProxyObject
 90
      499
 91
      508
 95
   983063
 70
     0
 93
      129
310
906313A313030004000000000000594000
 94
        0
1001
ACAD
1000
AcRTDxfName
1000
SCALE
1000
AcRTDxfName
1000
SCALE
1000
AcRTDxfName
1000
SCALE
1000
AcRTDxfName
1000
SCALE
1000
AcRTDxfName
1000
SCALE
  0
ACAD_PROXY_OBJECT
  5
359C
102
{ACAD_REACTORS
330
358F
102
}
330
358F
100
AcDbProxyObject
 90
      499
 91
      508
 95
   983063
 70
     0
 93
      113
310
904323A31000000000000000010101
 94
        0
1001
ACAD
1000
AcRTDxfName
1000
SCALE
1000
AcRTDxfName
1000
SCALE
1000
AcRTDxfName
1000
SCALE
1000
AcRTDxfName
1000
SCALE
1000
AcRTDxfName
1000
SCALE
  0
ACAD_PROXY_OBJECT
  5
359D
102
{ACAD_REACTORS
330
358F
102
}
330
358F
100
AcDbProxyObject
 90
      499
 91
      508
 95
   983063
 70
     0
 93
      113
310
904343A31000000000000000410100
 94
        0
1001
ACAD
1000
AcRTDxfName
1000
SCALE
1000
AcRTDxfName
1000
SCALE
1000
AcRTDxfName
1000
SCALE
1000
AcRTDxfName
1000
SCALE
1000
AcRTDxfName
1000
SCALE
  0
ACAD_PROXY_OBJECT
  5
359E
102
{ACAD_REACTORS
330
358F
102
}
330
358F
100
AcDbProxyObject
 90
      499
 91
      508
 95
   983063
 70
     0
 93
      113
310
904383A31000000000000000810101
 94
        0
1001
ACAD
1000
AcRTDxfName
1000
SCALE
1000
AcRTDxfName
1000
SCALE
1000
AcRTDxfName
1000
SCALE
1000
AcRTDxfName
1000
SCALE
1000
AcRTDxfName
1000
SCALE
  0
ACAD_PROXY_OBJECT
  5
359F
102
{ACAD_REACTORS
330
358F
102
}
330
358F
100
AcDbProxyObject
 90
      499
 91
      508
 95
   983063
 70
     0
 93
      121
310
90531303A31000000000000000910120
 94
        0
1001
ACAD
1000
AcRTDxfName
1000
SCALE
1000
AcRTDxfName
1000
SCALE
1000
AcRTDxfName
1000
SCALE
1000
AcRTDxfName
1000
SCALE
1000
AcRTDxfName
1000
SCALE
  0
ACAD_PROXY_OBJECT
  5
35A0
102
{ACAD_REACTORS
330
358F
102
}
330
358F
100
AcDbProxyObject
 90
      499
 91
      508
 95
   983063
 70
     0
 93
      129
310
9063130303A31000000000000001650100
 94
        0
1001
ACAD
1000
AcRTDxfName
1000
SCALE
1000
AcRTDxfName
1000
SCALE
1000
AcRTDxfName
1000
SCALE
1000
AcRTDxfName
1000
SCALE
1000
AcRTDxfName
1000
SCALE
  0
ACAD_PROXY_OBJECT
  5
35A1
102
{ACAD_REACTORS
330
358F
102
}
330
358F
100
AcDbProxyObject
 90
      499
 91
      508
 95
   983063
 70
     0
 93
      265
310
90F312F31323822203D2031272D302200000000000000200FC000000000000284018
 94
        0
1001
ACAD
1000
AcRTDxfName
1000
SCALE
1000
AcRTDxfName
1000
SCALE
1000
AcRTDxfName
1000
SCALE
1000
AcRTDxfName
1000
SCALE
1000
AcRTDxfName
1000
SCALE
  0
ACAD_PROXY_OBJECT
  5
35A2
102
{ACAD_REACTORS
330
358F
102
}
330
358F
100
AcDbProxyObject
 90
      499
 91
      508
 95
   983063
 70
     0
 93
      257
310
90E312F363422203D2031272D302200000000000000240FC000000000000284066
 94
        0
1001
ACAD
1000
AcRTDxfName
1000
SCALE
1000
AcRTDxfName
1000
SCALE
1000
AcRTDxfName
1000
SCALE
1000
AcRTDxfName
1000
SCALE
1000
AcRTDxfName
1000
SCALE
  0
ACAD_PROXY_OBJECT
  5
35A3
102
{ACAD_REACTORS
330
358F
102
}
330
358F
100
AcDbProxyObject
 90
      499
 91
      508
 95
   983063
 70
     0
 93
      257
310
90E312F333222203D2031272D302200000000000000280FC000000000000284019
 94
        0
1001
ACAD
1000
AcRTDxfName
1000
SCALE
1000
AcRTDxfName
1000
SCALE
1000
AcRTDxfName
1000
SCALE
1000
AcRTDxfName
1000
SCALE
1000
AcRTDxfName
1000
SCALE
  0
ACAD_PROXY_OBJECT
  5
35A4
102
{ACAD_REACTORS
330
358F
102
}
330
358F
100
AcDbProxyObject
 90
      499
 91
      508
 95
   983063
 70
     0
 93
      257
310
90E312F313622203D2031272D3022000000000000002C0FC000000000000284066
 94
        0
1001
ACAD
1000
AcRTDxfName
1000
SCALE
1000
AcRTDxfName
1000
SCALE
1000
AcRTDxfName
1000
SCALE
1000
AcRTDxfName
1000
SCALE
1000
AcRTDxfName
1000
SCALE
  0
ACAD_PROXY_OBJECT
  5
35A5
102
{ACAD_REACTORS
330
358F
102
}
330
358F
100
AcDbProxyObject
 90
      499
 91
      508
 95
   983063
 70
     0
 93
      257
310
90E332F333222203D2031272D3022000000000000002E0FC000000000000284019
 94
        0
1001
ACAD
1000
AcRTDxfName
1000
SCALE
1000
AcRTDxfName
1000
SCALE
1000
AcRTDxfName
1000
SCALE
1000
AcRTDxfName
1000
SCALE
1000
AcRTDxfName
1000
SCALE
  0
ACAD_PROXY_OBJECT
  5
35A6
102
{ACAD_REACTORS
330
358F
102
}
330
358F
100
AcDbProxyObject
 90
      499
 91
      508
 95
   983063
 70
     0
 93
      249
310
90D312F3822203D2031272D302200000000000000300FC000000000000284078
 94
        0
1001
ACAD
1000
AcRTDxfName
1000
SCALE
1000
AcRTDxfName
1000
SCALE
1000
AcRTDxfName
1000
SCALE
1000
AcRTDxfName
1000
SCALE
1000
AcRTDxfName
1000
SCALE
  0
ACAD_PROXY_OBJECT
  5
35A7
102
{ACAD_REACTORS
330
358F
102
}
330
358F
100
AcDbProxyObject
 90
      499
 91
      508
 95
   983063
 70
     0
 93
      257
310
90E332F313622203D2031272D302200000000000000320FC000000000000284019
 94
        0
1001
ACAD
1000
AcRTDxfName
1000
SCALE
1000
AcRTDxfName
1000
SCALE
1000
AcRTDxfName
1000
SCALE
1000
AcRTDxfName
1000
SCALE
1000
AcRTDxfName
1000
SCALE
  0
ACAD_PROXY_OBJECT
  5
35A8
102
{ACAD_REACTORS
330
358F
102
}
330
358F
100
AcDbProxyObject
 90
      499
 91
      508
 95
   983063
 70
     0
 93
      249
310
90D312F3422203D2031272D302200000000000000340FC000000000000284078
 94
        0
1001
ACAD
1000
AcRTDxfName
1000
SCALE
1000
AcRTDxfName
1000
SCALE
1000
AcRTDxfName
1000
SCALE
1000
AcRTDxfName
1000
SCALE
1000
AcRTDxfName
1000
SCALE
  0
ACAD_PROXY_OBJECT
  5
35A9
102
{ACAD_REACTORS
330
358F
102
}
330
358F
100
AcDbProxyObject
 90
      499
 91
      508
 95
   983063
 70
     0
 93
      249
310
90D332F3822203D2031272D302200000000000000360FC000000000000284028
 94
        0
1001
ACAD
1000
AcRTDxfName
1000
SCALE
1000
AcRTDxfName
1000
SCALE
1000
AcRTDxfName
1000
SCALE
1000
AcRTDxfName
1000
SCALE
1000
AcRTDxfName
1000
SCALE
  0
ACAD_PROXY_OBJECT
  5
35AA
102
{ACAD_REACTORS
330
358F
102
}
330
358F
100
AcDbProxyObject
 90
      499
 91
      508
 95
   983063
 70
     0
 93
      249
310
90D312F3222203D2031272D302200000000000000380FC000000000000284040
 94
        0
1001
ACAD
1000
AcRTDxfName
1000
SCALE
1000
AcRTDxfName
1000
SCALE
1000
AcRTDxfName
1000
SCALE
1000
AcRTDxfName
1000
SCALE
1000
AcRTDxfName
1000
SCALE
  0
ACAD_PROXY_OBJECT
  5
35AB
102
{ACAD_REACTORS
330
358F
102
}
330
358F
100
AcDbProxyObject
 90
      499
 91
      508
 95
   983063
 70
     0
 93
      249
310
90D332F3422203D2031272D3022000000000000003A0FC000000000000284028
 94
        0
1001
ACAD
1000
AcRTDxfName
1000
SCALE
1000
AcRTDxfName
1000
SCALE
1000
AcRTDxfName
1000
SCALE
1000
AcRTDxfName
1000
SCALE
1000
AcRTDxfName
1000
SCALE
  0
ACAD_PROXY_OBJECT
  5
35AC
102
{ACAD_REACTORS
330
358F
102
}
330
358F
100
AcDbProxyObject
 90
      499
 91
      508
 95
   983063
 70
     0
 93
      169
310
90B3122203D2031272D3022004000000000000284000
 94
        0
1001
ACAD
1000
AcRTDxfName
1000
SCALE
1000
AcRTDxfName
1000
SCALE
1000
AcRTDxfName
1000
SCALE
1000
AcRTDxfName
1000
SCALE
1000
AcRTDxfName
1000
SCALE
  0
ACAD_PROXY_OBJECT
  5
35AD
102
{ACAD_REACTORS
330
358F
102
}
330
358F
100
AcDbProxyObject
 90
      499
 91
      508
 95
   983063
 70
     0
 93
      265
310
90F312D312F3222203D2031272D3022000000000000003E0FC000000000000284062
 94
        0
1001
ACAD
1000
AcRTDxfName
1000
SCALE
1000
AcRTDxfName
1000
SCALE
1000
AcRTDxfName
1000
SCALE
1000
AcRTDxfName
1000
SCALE
1000
AcRTDxfName
1000
SCALE
  0
ACAD_PROXY_OBJECT
  5
35AE
102
{ACAD_REACTORS
330
358F
102
}
330
358F
100
AcDbProxyObject
 90
      499
 91
      508
 95
   983063
 70
     0
 93
      233
310
90B3322203D2031272D30220000000000000002100000000000000284000
 94
        0
1001
ACAD
1000
AcRTDxfName
1000
SCALE
1000
AcRTDxfName
1000
SCALE
1000
AcRTDxfName
1000
SCALE
1000
AcRTDxfName
1000
SCALE
1000
AcRTDxfName
1000
SCALE
  0
ACAD_PROXY_OBJECT
  5
35AF
102
{ACAD_REACTORS
330
358F
102
}
330
358F
100
AcDbProxyObject
 90
      499
 91
      508
 95
   983063
 70
     0
 93
      233
310
90B3622203D2031272D30220000000000000006100000000000000284062
 94
        0
1001
ACAD
1000
AcRTDxfName
1000
SCALE
1000
AcRTDxfName
1000
SCALE
1000
AcRTDxfName
1000
SCALE
1000
AcRTDxfName
1000
SCALE
1000
AcRTDxfName
1000
SCALE
  0
ACAD_PROXY_OBJECT
  5
35B0
102
{ACAD_REACTORS
330
358F
102
}
330
358F
100
AcDbProxyObject
 90
      499
 91
      508
 95
   983063
 70
     0
 93
      257
310
90E31272D3022203D2031272D3022000000000000000A100000000000000284019
 94
        0
1001
ACAD
1000
AcRTDxfName
1000
SCALE
1000
AcRTDxfName
1000
SCALE
1000
AcRTDxfName
1000
SCALE
1000
AcRTDxfName
1000
SCALE
1000
AcRTDxfName
1000
SCALE
  0
TABLESTYLE
  5
358E
102
{ACAD_XDICTIONARY
360
3633
102
}
102
{ACAD_REACTORS
330
358D
102
}
330
358D
100
AcDbTableStyle
  3
Standard
 70
     0
 71
     0
 40
1.5
 41
1.5
280
     0
281
     0
  7
Standard
140
4.5
170
     2
 62
     0
 63
     7
283
     0
274
    -2
284
     1
 64
     0
275
    -2
285
     1
 65
     0
276
    -2
286
     1
 66
     0
277
    -2
287
     1
 67
     0
278
    -2
288
     1
 68
     0
279
    -2
289
     1
 69
     0
  7
Standard
140
6.0
170
     5
 62
     0
 63
     7
283
     0
274
    -2
284
     1
 64
     0
275
    -2
285
     1
 65
     0
276
    -2
286
     1
 66
     0
277
    -2
287
     1
 67
     0
278
    -2
288
     1
 68
     0
279
    -2
289
     1
 69
     0
  7
Standard
140
4.5
170
     5
 62
     0
 63
     7
283
     0
274
    -2
284
     1
 64
     0
275
    -2
285
     1
 65
     0
276
    -2
286
     1
 66
     0
277
    -2
287
     1
 67
     0
278
    -2
288
     1
 68
     0
279
    -2
289
     1
 69
     0
  0
ACAD_PROXY_OBJECT
  5
3581
102
{ACAD_REACTORS
330
357B
102
}
330
357B
100
AcDbProxyObject
 90
      499
 91
      506
 95
   983063
 70
     0
 93
      444
310
430C9915DA5C99599C985B59401049028333333333333E3BF0000000000000FB0107901411070040501600405405064090741402480A0340
 94
        0
1001
ACAD
1000
AcRTDxfName
1000
VISUALSTYLE
1000
AcDbSavedByObjectVersion
1070
     0
1000
AcRTDxfName
1000
VISUALSTYLE
1000
AcRTDxfName
1000
VISUALSTYLE
1000
AcRTDxfName
1000
VISUALSTYLE
1000
AcRTDxfName
1000
VISUALSTYLE
  0
ACAD_PROXY_OBJECT
  5
3583
102
{ACAD_REACTORS
330
357B
102
}
330
357B
100
AcDbProxyObject
 90
      499
 91
      506
 95
   983063
 70
     0
 93
      508
310
428CD108121A5919195B8010640502408333333333333E3BF0000000000000FB01079024090700405020000000000001110200405405064090740C02480A0340
 94
        0
1001
ACAD
1000
AcRTDxfName
1000
VISUALSTYLE
1000
AcDbSavedByObjectVersion
1070
     0
1000
AcRTDxfName
1000
VISUALSTYLE
1000
AcRTDxfName
1000
VISUALSTYLE
1000
AcRTDxfName
1000
VISUALSTYLE
1000
AcRTDxfName
1000
VISUALSTYLE
  0
ACAD_PROXY_OBJECT
  5
3582
102
{ACAD_REACTORS
330
357B
102
}
330
357B
100
AcDbProxyObject
 90
      499
 91
      506
 95
   983063
 70
     0
 93
      444
310
430CD915DA5C99599C985B59401059028333333333333E3BF0000000000000FB0107901411070040501600405405064090741402480A0340
 94
        0
1001
ACAD
1000
AcRTDxfName
1000
VISUALSTYLE
1000
AcDbSavedByObjectVersion
1070
     0
1000
AcRTDxfName
1000
VISUALSTYLE
1000
AcRTDxfName
1000
VISUALSTYLE
1000
AcRTDxfName
1000
VISUALSTYLE
1000
AcRTDxfName
1000
VISUALSTYLE
  0
ACAD_PROXY_OBJECT
  5
3580
102
{ACAD_REACTORS
330
357B
102
}
330
357B
100
AcDbProxyObject
 90
      499
 91
      506
 95
   983063
 70
     0
 93
      396
310
4190985CDA58C0107406404333333333333E3BF0000000000000FB0107A41107004050150841D405064090741402480A0354
 94
        0
1001
ACAD
1000
AcRTDxfName
1000
VISUALSTYLE
1000
AcDbSavedByObjectVersion
1070
     0
1000
AcRTDxfName
1000
VISUALSTYLE
1000
AcRTDxfName
1000
VISUALSTYLE
1000
AcRTDxfName
1000
VISUALSTYLE
1000
AcRTDxfName
1000
VISUALSTYLE
  0
ACAD_PROXY_OBJECT
  5
3587
102
{ACAD_REACTORS
330
357B
102
}
330
357B
100
AcDbProxyObject
 90
      499
 91
      506
 95
   983063
 70
     0
 93
      436
310
42509C9A59DA1D195B8010C409028333333333333E3BF0000000000000FB010790141107004050150841D405064090741402480A02995A
 94
        0
1001
ACAD
1000
AcRTDxfName
1000
VISUALSTYLE
1000
AcDbSavedByObjectVersion
1070
     0
1000
AcRTDxfName
1000
VISUALSTYLE
1000
AcRTDxfName
1000
VISUALSTYLE
1000
AcRTDxfName
1000
VISUALSTYLE
1000
AcRTDxfName
1000
VISUALSTYLE
  0
ACAD_PROXY_OBJECT
  5
358B
102
{ACAD_REACTORS
330
357B
102
}
330
357B
100
AcDbProxyObject
 90
      499
 91
      506
 95
   983063
 70
     0
 93
      460
310
4310DBDB1BDC90DA185B99D9401104090240C333333333333E3BF0000000000000FB0108901411070040501508421405064090741402480A0352
 94
        0
1001
ACAD
1000
AcRTDxfName
1000
VISUALSTYLE
1000
AcDbSavedByObjectVersion
1070
     0
1000
AcRTDxfName
1000
VISUALSTYLE
1000
AcRTDxfName
1000
VISUALSTYLE
1000
AcRTDxfName
1000
VISUALSTYLE
1000
AcRTDxfName
1000
VISUALSTYLE
  0
ACAD_PROXY_OBJECT
  5
3584
102
{ACAD_REACTORS
330
357B
102
}
330
357B
100
AcDbProxyObject
 90
      499
 91
      506
 95
   983063
 70
     0
 93
      508
310
42D0DBDB98D95C1D1D585B0010940D028333333333333E3BF0000000000000FB0107902409070040501000000000000111010841D405064090740C02480A0342
 94
        0
1001
ACAD
1000
AcRTDxfName
1000
VISUALSTYLE
1000
AcDbSavedByObjectVersion
1070
     0
1000
AcRTDxfName
1000
VISUALSTYLE
1000
AcRTDxfName
1000
VISUALSTYLE
1000
AcRTDxfName
1000
VISUALSTYLE
1000
AcRTDxfName
1000
VISUALSTYLE
  0
ACAD_PROXY_OBJECT
  5
3586
102
{ACAD_REACTORS
330
357B
102
}
330
357B
100
AcDbProxyObject
 90
      499
 91
      506
 95
   983063
 70
     0
 93
      420
310
41111A5B4010B409028333333333333E3BF0000000000000FB010790141107004050150841D405064090741402480A02677FFFFFD2
 94
        0
1001
ACAD
1000
AcRTDxfName
1000
VISUALSTYLE
1000
AcDbSavedByObjectVersion
1070
     0
1000
AcRTDxfName
1000
VISUALSTYLE
1000
AcRTDxfName
1000
VISUALSTYLE
1000
AcRTDxfName
1000
VISUALSTYLE
1000
AcRTDxfName
1000
VISUALSTYLE
  0
ACAD_PROXY_OBJECT
  5
358A
102
{ACAD_REACTORS
330
357B
102
}
330
357B
100
AcDbProxyObject
 90
      499
 91
      506
 95
   983063
 70
     0
 93
      452
310
43119858D95C185D1D195C9B8010F409028333333333333E3BF0000000000000FB010790141107004050150841D405064090741402480A0354
 94
        0
1001
ACAD
1000
AcRTDxfName
1000
VISUALSTYLE
1000
AcDbSavedByObjectVersion
1070
     0
1000
AcRTDxfName
1000
VISUALSTYLE
1000
AcRTDxfName
1000
VISUALSTYLE
1000
AcRTDxfName
1000
VISUALSTYLE
1000
AcRTDxfName
1000
VISUALSTYLE
  0
ACAD_PROXY_OBJECT
  5
357C
102
{ACAD_REACTORS
330
357B
102
}
330
357B
100
AcDbProxyObject
 90
      499
 91
      506
 95
   983063
 70
     0
 93
      396
310
41519B185D00240901404333333333333E3BF0000000000000F9010740A41107004050150841D405064090741402480A1B58
 94
        0
1001
ACAD
1000
AcRTDxfName
1000
VISUALSTYLE
1000
AcDbSavedByObjectVersion
1070
     0
1000
AcRTDxfName
1000
VISUALSTYLE
1000
AcRTDxfName
1000
VISUALSTYLE
1000
AcRTDxfName
1000
VISUALSTYLE
1000
AcRTDxfName
1000
VISUALSTYLE
  0
ACAD_PROXY_OBJECT
  5
357D
102
{ACAD_REACTORS
330
357B
102
}
330
357B
100
AcDbProxyObject
 90
      499
 91
      506
 95
   983063
 70
     0
 93
      484
310
43919B185D15DA5D1A115919D95CC010140901404333333333333E3BF0000000000000F9010740901411070040501600405405064090741402480A1B58
 94
        0
1001
ACAD
1000
AcRTDxfName
1000
VISUALSTYLE
1000
AcDbSavedByObjectVersion
1070
     0
1000
AcRTDxfName
1000
VISUALSTYLE
1000
AcRTDxfName
1000
VISUALSTYLE
1000
AcRTDxfName
1000
VISUALSTYLE
1000
AcRTDxfName
1000
VISUALSTYLE
  0
ACAD_PROXY_OBJECT
  5
357E
102
{ACAD_REACTORS
330
357B
102
}
330
357B
100
AcDbProxyObject
 90
      499
 91
      506
 95
   983063
 70
     0
 93
      420
310
4211DBDD5C985D590010240902404333333333333E3BF0000000000000F9010740A411070040501641D405064090741402480A1B58
 94
        0
1001
ACAD
1000
AcRTDxfName
1000
VISUALSTYLE
1000
AcDbSavedByObjectVersion
1070
     0
1000
AcRTDxfName
1000
VISUALSTYLE
1000
AcRTDxfName
1000
VISUALSTYLE
1000
AcRTDxfName
1000
VISUALSTYLE
1000
AcRTDxfName
1000
VISUALSTYLE
  0
ACAD_PROXY_OBJECT
  5
357F
102
{ACAD_REACTORS
330
357B
102
}
330
357B
100
AcDbProxyObject
 90
      499
 91
      506
 95
   983063
 70
     0
 93
      508
310
4451DBDD5C985D5915DA5D1A115919D95CC010340902404333333333333E3BF0000000000000F9010740901411070040501600405405064090741402480A1B50
 94
        0
1001
ACAD
1000
AcRTDxfName
1000
VISUALSTYLE
1000
AcDbSavedByObjectVersion
1070
     0
1000
AcRTDxfName
1000
VISUALSTYLE
1000
AcRTDxfName
1000
VISUALSTYLE
1000
AcRTDxfName
1000
VISUALSTYLE
1000
AcRTDxfName
1000
VISUALSTYLE
  0
ACAD_PROXY_OBJECT
  5
3589
102
{ACAD_REACTORS
330
357B
102
}
330
357B
100
AcDbProxyObject
 90
      499
 91
      506
 95
   983063
 70
     0
 93
      452
310
43131A5B995C185D1D195C9B8010E409028333333333333E3BF0000000000000FB010790141107004050750841D405064090741402483A0353
 94
        0
1001
ACAD
1000
AcRTDxfName
1000
VISUALSTYLE
1000
AcDbSavedByObjectVersion
1070
     0
1000
AcRTDxfName
1000
VISUALSTYLE
1000
AcRTDxfName
1000
VISUALSTYLE
1000
AcRTDxfName
1000
VISUALSTYLE
1000
AcRTDxfName
1000
VISUALSTYLE
  0
ACAD_PROXY_OBJECT
  5
3585
102
{ACAD_REACTORS
330
357B
102
}
330
357B
100
AcDbProxyObject
 90
      499
 91
      506
 95
   983063
 70
     0
 93
      428
310
429499585B1A5CDD1A58C0108409028333333333333E3BF0000000000000FB01079019070040501508421405064090741402480A1B48
 94
        0
1001
ACAD
1000
AcRTDxfName
1000
VISUALSTYLE
1000
AcDbSavedByObjectVersion
1070
     0
1000
AcRTDxfName
1000
VISUALSTYLE
1000
AcRTDxfName
1000
VISUALSTYLE
1000
AcRTDxfName
1000
VISUALSTYLE
1000
AcRTDxfName
1000
VISUALSTYLE
  0
ACAD_PROXY_OBJECT
  5
3588
102
{ACAD_REACTORS
330
357B
102
}
330
357B
100
AcDbProxyObject
 90
      499
 91
      506
 95
   983063
 70
     0
 93
      420
310
42151A1A58DAD95B8010D409028333333333333E3BF0000000000000FB010790141107004050150C41D405064090741402480A0352
 94
        0
1001
ACAD
1000
AcRTDxfName
1000
VISUALSTYLE
1000
AcDbSavedByObjectVersion
1070
     0
1000
AcRTDxfName
1000
VISUALSTYLE
1000
AcRTDxfName
1000
VISUALSTYLE
1000
AcRTDxfName
1000
VISUALSTYLE
1000
AcRTDxfName
1000
VISUALSTYLE
  0
DICTIONARYVAR
  5
3673
102
{ACAD_REACTORS
330
3B
102
}
330
3B
100
DictionaryVariables
280
     0
  1
1:1
  0
DICTIONARYVAR
  5
3672
102
{ACAD_REACTORS
330
3B
102
}
330
3B
100
DictionaryVariables
280
     0
  1
STANDARD
  0
DICTIONARYVAR
  5
3671
102
{ACAD_REACTORS
330
3B
102
}
330
3B
100
DictionaryVariables
280
     0
  1
STANDARD
  0
DICTIONARYVAR
  5
3D
102
{ACAD_REACTORS
330
3B
102
}
330
3B
100
DictionaryVariables
280
     0
  1
2
  0
DICTIONARYVAR
  5
3C
102
{ACAD_REACTORS
330
3B
102
}
330
3B
100
DictionaryVariables
280
     0
  1
1
  0
DICTIONARYVAR
  5
3675
102
{ACAD_REACTORS
330
3B
102
}
330
3B
100
DictionaryVariables
280
     0
  1
0
  0
DICTIONARYVAR
  5
380F
102
{ACAD_REACTORS
330
3B
102
}
330
3B
100
DictionaryVariables
280
     0
  1

  0
DICTIONARYVAR
  5
3674
102
{ACAD_REACTORS
330
3B
102
}
330
3B
100
DictionaryVariables
280
     0
  1
127
  0
DICTIONARY
  5
3972
330
22
100
AcDbDictionary
280
     1
281
     1
  3
ACAD_XREC_ROUNDTRIP
360
3973
  0
DICTIONARY
  5
35E3
330
33DE
100
AcDbDictionary
280
     1
281
     1
  3
ACAD_XREC_ROUNDTRIP
360
3978
  3
ADSK_XREC_LAYOUTTHUMBNAIL
360
35E4
  0
DICTIONARY
  5
356C
330
356B
100
AcDbDictionary
280
     1
281
     1
  3
ACAD_XREC_ROUNDTRIP
360
3876
  3
BUMPTILE
360
356E
  3
DIFFUSETILE
360
356D
  3
OPACITYTILE
360
3571
  3
REFLECTIONTILE
360
3570
  3
REFRACTIONTILE
360
3572
  3
SPECULARTILE
360
356F
  0
DICTIONARY
  5
3564
330
3563
100
AcDbDictionary
280
     1
281
     1
  3
ACAD_XREC_ROUNDTRIP
360
3875
  3
BUMPTILE
360
3566
  3
DIFFUSETILE
360
3565
  3
OPACITYTILE
360
3569
  3
REFLECTIONTILE
360
3568
  3
REFRACTIONTILE
360
356A
  3
SPECULARTILE
360
3567
  0
DICTIONARY
  5
3574
330
3573
100
AcDbDictionary
280
     1
281
     1
  3
ACAD_XREC_ROUNDTRIP
360
3877
  3
BUMPTILE
360
3576
  3
DIFFUSETILE
360
3575
  3
OPACITYTILE
360
3579
  3
REFLECTIONTILE
360
3578
  3
REFRACTIONTILE
360
357A
  3
SPECULARTILE
360
3577
  0
DICTIONARY
  5
3974
330
3296
100
AcDbDictionary
280
     1
281
     1
  3
ACAD_XREC_ROUNDTRIP
360
3975
  0
DICTIONARY
  5
3976
330
3297
100
AcDbDictionary
280
     1
281
     1
  3
ACAD_XREC_ROUNDTRIP
360
3977
  0
DICTIONARY
  5
3633
330
358E
100
AcDbDictionary
280
     1
281
     1
  3
ACAD_ROUNDTRIP_2008_TABLESTYLE_CELLSTYLEMAP
360
3863
  3
ACAD_XREC_ROUNDTRIP
360
3878
  0
XRECORD
  5
3973
102
{ACAD_REACTORS
330
3972
102
}
330
3972
100
AcDbXrecord
280
     1
102
SHADEPLOT
 70
     0
102
SHADEPLOTRESLEVEL
 70
     2
102
SHADEPLOTCUSTOMDPI
 70
   300
  0
XRECORD
  5
3978
102
{ACAD_REACTORS
330
35E3
102
}
330
35E3
100
AcDbXrecord
280
     1
102
SHADEPLOT
 70
     0
102
SHADEPLOTRESLEVEL
 70
     2
102
SHADEPLOTCUSTOMDPI
 70
   300
  0
XRECORD
  5
35E4
102
{ACAD_REACTORS
330
35E3
102
}
330
35E3
100
AcDbXrecord
280
     1
310
28000000630000008C0000000100080000000000B0360000000000000000000000010000000000000000000000000000FFFFFF000000000000000000000000000000000000000000000000000000000000000000330000006600000099000000CC000000FF00000000330000333300006633000099330000CC330000FF3300
310
0000660000336600006666000099660000CC660000FF66000000990000339900006699000099990000CC990000FF99000000CC000033CC000066CC000099CC0000CCCC0000FFCC000000FF000033FF000066FF000099FF0000CCFF0000FFFF000000003300330033006600330099003300CC003300FF003300003333003333
310
33006633330099333300CC333300FF33330000663300336633006666330099663300CC663300FF66330000993300339933006699330099993300CC993300FF99330000CC330033CC330066CC330099CC3300CCCC3300FFCC330000FF330033FF330066FF330099FF3300CCFF3300FFFF330000006600330066006600660099
310
006600CC006600FF00660000336600333366006633660099336600CC336600FF33660000666600336666006666660099666600CC666600FF66660000996600339966006699660099996600CC996600FF99660000CC660033CC660066CC660099CC6600CCCC6600FFCC660000FF660033FF660066FF660099FF6600CCFF6600
310
FFFF660000009900330099006600990099009900CC009900FF00990000339900333399006633990099339900CC339900FF33990000669900336699006666990099669900CC669900FF66990000999900339999006699990099999900CC999900FF99990000CC990033CC990066CC990099CC9900CCCC9900FFCC990000FF99
310
0033FF990066FF990099FF9900CCFF9900FFFF99000000CC003300CC006600CC009900CC00CC00CC00FF00CC000033CC003333CC006633CC009933CC00CC33CC00FF33CC000066CC003366CC006666CC009966CC00CC66CC00FF66CC000099CC003399CC006699CC009999CC00CC99CC00FF99CC0000CCCC0033CCCC0066CC
310
CC0099CCCC00CCCCCC00FFCCCC0000FFCC0033FFCC0066FFCC0099FFCC00CCFFCC00FFFFCC000000FF003300FF006600FF009900FF00CC00FF00FF00FF000033FF003333FF006633FF009933FF00CC33FF00FF33FF000066FF003366FF006666FF009966FF00CC66FF00FF66FF000099FF003399FF006699FF009999FF00CC
310
99FF00FF99FF0000CCFF0033CCFF0066CCFF0099CCFF00CCCCFF00FFCCFF0000FFFF0033FFFF0066FFFF0099FFFF00CCFFFF00FFFFFF00000000000D0D0D001A1A1A00282828003535350043434300505050005D5D5D006B6B6B00787878008686860093939300A1A1A100AEAEAE00BBBBBB00C9C9C900D6D6D600E4E4E400
310
F1F1F100FFFFFF0000000000000000000000000000000000000000000000000000000000000000000000000000000000F5F5F5F5F5F5F5F5F5F5F5F5F5F5F5F5F5F5F5F5F5F5F5F5F5F5F5F5F5F5F5F5F5F5F5F5F5F5F5F5F5F5F5F5F5F5F5F5F5F5F5F5F5F5F5F5F5F5F5F5F5F5F5F5F5F5F5F5F5F5F5F5F5F5F5F5F5F5F5
310
F5F5F5F5F5F5F5F5F5F5F5F5F5F5F5F5F5F5F5EF6CE2E2E2E2E2E2E2E2E2E2E2E2E2E2E2E2E2E2E2E2E2E2E2E2E2E2E2E2E2E2E2E2E2E2E2E2E2E2E2E2E2E2E2E2E2E2E2E2E2E2E2E2E2E2E2E2E2E2E2E2E2E2E2E2E2E2E2E2E2E2E2E2E2E2E2E2E2E2E2E2E2E2E2E2E2E2E2E2E2E2E2E2E2E2E2E2E2F5EF40E2E2E2E2E2E2
310
E2E2E2E2E2E2E2E2E2E2E2E2E2E2E2E2E2E2E2E2E2E2E2E2E2E2E2E2E2E2E2E2E2E2E2E2E2E2E2E2E2E2E2E2E2E2E2E2E2E2E2E2E2E2E2E2E2E2E2E2E2E2E2E2E2E2E2E2E2E2E2E2E2E2E2E2E2E2E2E2E2E2E2E2E2E2E2E2E2E2E2F5EF00E2F5F5F5F5F5F5F5F5E2E2E2E2E2E2E2E2F5F5F5F5F5F5F5F5F5F5F5F5F5F5F5F5
310
F5E2E2E2E2E2E2E2F5F5F5F5F5F5F5F5F5F5F5F5F5F5E2E2E2E2E2E2E2E2E2F5F5F5F5F5F5F5F5F5F5F5F5F5F5F5E2E2E2E2E2E2E2E2F5F5F5F5F5F5F5F5E2E2F5EF00E2F5E2E2E2E2E2E2E2E2E2E2E2E2E2E2E2E2E2F5F5F5F5F5F5F5F5F5F5F5F5F5F5F5F5F5F5F5F5F5F5F5F5F5F5F5F5F5F5F5F5F5F5F5F5F5F5F5F5F5
310
F5F5F5F5F5F5F5F5F5F5F5F5F5F5F5F5F5E2E2E2E2E2E2E2E2E2E2E2E2E2E2E2E2E2F5E2E2F5EF08E2F5E2E2E2E2E2E2E2E2E2E2E2E2E2E2E2E2E2F5F5F5F5F5F5F5F5F5F5F5F5F5F5F5F5F5F5F5F5F5F5F5F5F5F5F5F5F5F5F5F5F5F5F5F5F5F5F5F5F5F5F5F5F5F5F5F5F5F5F5F5F5F5F5F5F5F5E2E2E2E2E2E2E2E2E2E2
310
E2E2E2E2E2E2E2F5E2E2F5EF40E2F5E2E2E2E2E2F5F5F5F5F5F5F5F5F5F5F5F5F5F5F5F5F5F5F5F5F5F5F5F5F5F5F5F5F5F5F5F5F5F5F5F5F5F5F5F5F5F5F5F5F5F5F5F5F5F5F5F5F5F5F5F5F5F5F5F5F5F5F5F5F5F5F5F5F5F5F5F5F5F5F5F5F5F5F5F5F5F5F5F5E2E2E2F5E2E2F5EF8EE2F5E2E2E2E2E2E2E2E2E2E2E2E2
310
E2E2E2E2E2E2E2E2E2E2E2E2E2E2E2E2E2E2E2E2E2E2E2E2E2E2E2E2E2E2E2E2E2E2E2E2E2E2E2E2E2E2E2E2E2E2E2E2E2E2E2E2E2E2E2E2E2E2E2E2E2E2E2E2E2E2E2E2E2E2E2E2E2E2E2E2E2E2E2E2F5E2E2F5EF40E2F5E2E2E2E2E2F5F5F5F5F5F5F5F5F5F5F5F5F5F5F5F5F5F5F5F5F5F5F5F5F5F5F5F5F5F5F5F5F5F5
310
F5F5F5F5F5F5F5F5F5F5F5F5F5F5F5F5F5F5F5F5F5F5F5F5F5F5F5F5F5F5F5F5F5F5F5F5F5F5F5F5F5F5F5F5F5F5F5F5F5F5E2E2E2F5E2E2F5EF00E2F5E2E2E2E2E2F5E2E2E2E2E2E2E2E2E2E2E2E2E2E2E2E2E2E2E2E2E2E2E2E2E2E2E2E2E2E2E2E2E2E2E2E2E2E2E2E2E2E2E2E2E2E2E2E2E2E2E2E2E2E2E2E2E2E2E2E2
310
E2E2E2E2E2E2E2E2E2E2E2E2E2E2E2E2E2E2E2E2E2E2F5E2E2E2F5E2E2F5EF00E2F5E2E2E2E2E2F5E2E2E2E2E2E2E2E2E2E2E2E2E2E2E2E2E2E2E2E2E2E2E2E2E2E2E2E2E2E2E2E2E2E2E2E2E2E2E2E2E2E2E2E2E2E2E2E2E2E2E2E2E2E2E2E2E2E2E2E2E2E2E2E2E2E2E2E2E2E2E2E2E2E2E2E2E2E2E2E2E2E2F5E2E2E2F5
310
E2E2F5EF2FE2F5E2E2E2E2E2F5E2E2E2E2E2E2E2E2E2E2E2E2E2E2E2E2E2E2E2E2E2E2E2E2E2E2E2E2E2E2E2E2E2E2E2E2E2E2E2E2E2E2E2E2E2E2E2E2E2E2E2E2E2E2E2E2E2E2E2E2E2E2E2E2E2E2E2E2E2E2E2E2E2E2E2E2E2E2E2E2E2E2F5E2E2E2F5E2E2F5EF40E2E2E2E2E2E2E2F5E2E2E2E2E2E2E2E2E2E2E2E2E2E2
310
E2E2E2E2E2E2E2E2E2E2E2E2E2E2E2E2E2E2E2E2E2E2E2E2E2E2E2E2E2E2E2E2E2E2E2E2E2E2E2E2E2E2E2E2E2E2E2E2E2E2E2E2E2E2E2E2E2E2E2E2E2E2E2E2E2E2E2E2F5E2E2E2E2E2E2F5EF61E2E2E2E2E2E2E2F5E2E2E2E2E2E2E2E2E2E2E2E2E2E2E2E2E2E2E2E2E2E2E2E2E2E2E2E2E2E2E2E2E2E2E2E2E2E2E2E2E2
310
E2E2E2E2E2E2E2E2E2E2E2E2E2E2E2E2E2E2E2E2E2E2E2E2E2E2E2E2E2E2E2E2E2E2E2E2E2E2E2E2E2F5E2E2E2E2E2E2F5EF40E2E2E2E2E2E2E2F5E2E2E2E2E2E2E2E2E2E2E2E2E2E2E2E2E2E2E2E2E2E2E2E2E2E2E2E2E2E2E2E2E2E2E2E2E2E2E2E2E2E2E2E2E2E2E2E2E2E2E2E2E2E2E2E2E2E2E2E2E2E2E2E2E2E2E2E2
310
E2E2E2E2E2E2E2E2E2E2E2E2E2E2F5E2E2E2E2E2E2F5EF00E2E2E2E2E2E2E2F5E2E2E2E2E2E2E2E2E2E2E2E2E2E2E2E2E2E2E2E2E2E2E2E2E2E2E2E2E2E2E2E2E2E2E2E2E2E2E2E2E2E2E2E2E2E2E2E2E2E2E2E2E2E2E2E2E2E2E2E2E2E2E2E2E2E2E2E2E2E2E2E2E2E2E2E2E2E2E2E2E2E2F5E2E2E2E2E2E2F5EF00E2E2E2
310
E2E2E2E2F5E2E2E2E2E2E2E2E2E2E2E2E2E2E2E2E2E2E2E2E2E2E2E2E2E2E2E2E2E2E2E2E2E2E2E2E2E2E2E2E2E2E2E2E2E2E2E2E2E2E2E2E2E2E2E2E2E2E2E2E2E2E2E2E2E2E2E2E2E2E2E2E2E2E2E2E2E2E2E2E2E2E2F5E2E2E2E2E2E2F5EF77E2E2E2E2E2E2E2F5E2E2E2E2E2E2E2E2E2E2E2E2E2E2E2E2E2E2E2E2E2E2
310
E2E2E2E2E2E2E2E2E2E2E2E2F5F5F5F5F5F5F5F5F5F5F5F5F5E2E2E2E2E2E2E2E2E2E2E2E2E2E2E2E2E2E2E2E2E2E2E2E2E2E2E2E2E2E2E2E2E2E2E2F5E2E2E2E2E2E2F5EF40E2E2E2E2E2E2E2F5E2E2E2E2E2E2E2E2E2E2E2E2E2E2E2E2E2E2E2E2E2E2E2E2E2E2E2E2E2E2E2E2E2E2F5F5F5F5F5F5F5F5F5F5F5F5F5E2E2
310
E2E2E2E2E2E2E2E2E2E2E2E2E2E2E2E2E2E2E2E2E2E2E2E2E2E2E2E2E2E2E2E2E2F5E2E2E2E2E2E2F5EFCFE2E2E2E2E2E2E2F5E2E2E2E2E2E2E2E2E2E2E2E2E2E2E2E2E2E2E2E2E2E2E2E2E2E2E2E2E2E2E2E2E2E2E2E2E2E2E2F5F5F5E2E2E2E2E2E2E2E2E2E2E2E2E2E2E2E2E2E2E2E2E2E2E2E2E2E2E2E2E2E2E2E2E2E2
310
E2E2E2E2E2E2F5E2E2E2E2E2E2F5EF40E2E2E2E2E2E2E2F5E2E2E2E2E2E2E2E2E2E2E2E2E2E2E2E2E2E2E2E2E2E2E2E2E2E2E2E2E2E2E2E2E2E2E2E2E2E2E2E2E2E2E2E2E2E2E2E2E2E2E2E2E2E2E2E2E2E2E2E2E2E2E2E2E2E2E2E2E2E2E2E2E2E2E2E2E2E2E2E2E2E2F5E2E2E2E2E2E2F5EF00E2E2E2E2E2E2E2F5E2E2E2
310
E2E2E2E2E2E2E2E2E2E2E2E2E2E2E2E2E2E2E2E2E2E2E2E2E2E2E2E2E2E2E2E2E2E2E2E2E2E2E2E2E2E2E2E2E2E2E2E2E2E2E2E2E2E2E2E2E2E2E2E2E2E2E2E2E2E2E2E2E2E2E2E2E2E2E2E2E2E2E2F5E2E2E2E2E2E2F5EF00E2F5E2E2E2E2E2F5E2E2E2E2E2E2E2E2E2E2E2E2E2E2E2E2E2E2E2E2E2E2E2E2E2E2E2E2E2E2
310
E2E2E2E2E2E2E2E2E2E2E2E2E2E2E2E2E2E2E2E2E2E2E2E2E2E2E2E2E2E2E2E2E2E2E2E2E2E2E2E2E2E2E2E2E2E2E2E2E2E2E2E2F5E2E2E2F5E2E2F5EF2EE2F5E2E2E2E2E2F5E2E2E2E2E2E2E2E2E2E2E2E2E2E2E2E2E2E2E2E2E2E2E2E2E2E2E2E2E2E2E2E2E2E2E2E2E2E2E2E2E2E2E2E2E2E2E2F5F5F5F5E2E2E2F5F5F5
310
F5F5E2E2F5F5F5F5F5E2E2E2E2E2E2E2E2E2E2E2E2E2E2E2E2F5E2E2E2F5E2E2F5EF40E2F5E2E2E2E2E2F5E2E2E2E2E2E2E2E2E2E2E2E2E2E2E2E2E2E2E2E2E2E2E2E2E2E2E2E2E2E2E2E2E2E2E2E2E2E2E2E2E2E2E2E2E2E2E2F5F5F5F5E2E2E2F5F5F5F5F5E2E2F5F5F5F5F5E2E2E2E2E2E2E2E2E2E2E2E2E2E2E2E2F5E2
310
E2E2F5E2E2F5EF83E2F5E2E2E2E2E2F5E2E2E2E2E2E2E2E2E2E2E2E2E2E2E2E2E2E2E2E2E2E2E2E2E2E2E2E2E2E2E2E2E2E2E2E2E2E2E2E2E2E2E2E2E2EFEFEFEFEFEFEFEFEFEFEFEFEFEFEFEFEFEFEFEFEFE2E2E2E2E2E2E2E2E2E2E2E2E2E2E2E2F5E2E2E2F5E2E2F5EF40E2F5E2E2E2E2E2F5E2E2E2E2E2E2E2E2E2E2E2
310
E2E2E2E2E2E2E2E2E2E2E2E2E2E2E2E2E2E2E2E2E2E2E2E2E2E2E2E2E2E2E2E2E2EFEFE2E2E2E2EFEFEFEFE2E2E2E2E2EFEFEFECECECECE2E2E2E2E2E2E2E2E2E2E2E2E2E2E2E2F5E2E2E2F5E2E2F5EF00E2F5E2E2E2E2E2F5E2E2E2E2E2E2E2E2E2E2E2E2E2E2E2E2E2E2E2E2E2E2E2E2E2E2E2E2E2E2E2E2E2E2E2E2E2E2
310
E2EFEFEFE2EFEFE2E2E2E2E2EFEFEFEFE2E2E2E2E2EFEFE2ECECECECECECE2E2E2E2E2E2E2E2E2E2E2E2E2E2F5E2E2E2F5E2E2F5EF00E2F5E2E2E2E2E2F5E2E2E2E2E2E2E2E2E2E2E2E2E2E2E2E2E2E2E2E2E2E2E2E2E2E2E2E2E2E2E2E2E2E2E2EFEFEFEFEFEFECEFEFE2E2E2E2E2E2E2EFEFEFE2E2E2E2E2EFEFE2ECECEC
310
ECECECE2E2E2E2E2E2E2E2E2E2E2E2E2E2F5E2E2E2F5E2E2F5EF19E2F5E2E2E2E2E2F5E2E2E2E2E2E2E2E2E2E2E2E2E2E2E2E2E2E2E2E2E2E2E2E2E2E2E2E2F5F5F5F5F5E2EFEFEFEFEFEFECEFEFEFE2E2E2E2E2E2E2EFEFEFEFE2E2E2E2EFEFE2F5E2F5E2E2E2E2E2E2E2E2E2E2E2E2E2E2E2E2E2F5E2E2E2F5E2E2F5EF40
310
E2F5E2E2E2E2E2F5E2E2E2E2E2E2E2E2E2E2E2E2E2E2E2E2E2E2E2E2E2E2E2E2E2E2E2E2F5F5F5F5F5E2EFEFE2EFEFE2EFEFEFEFE2E2E2E2E2E2E2EFEFEFEFE2E2E2E2EFEFE2F5E2F5E2E2E2E2E2E2E2E2E2E2E2E2E2E2E2E2E2F5E2E2E2F5E2E2F5EFADE2F5E2E2E2E2E2F5E2E2E2E2E2E2E2E2E2E2E2E2E2E2E2E2E2E2E2
310
E2E2E2E2E2E2E2E2E2E2E2E2E2E2EFEFE2E2EFEFE2E2E2E2EFE2E2E2E2E2E2E2EFEFEFEFE2E2E2E2EFEFE2F5F5F5F5F5F5E2E2E2E2E2E2E2E2E2E2E2E2E2E2F5E2E2E2F5E2E2F5EF40E2F5E2E2E2E2E2F5E2E2E2E2E2E2E2E2E2E2E2E2E2E2E2E2E2E2E2E2E2E2E2E2E2E2E2E2E2E2E2EFEFEFE2E2E2EFEFE2E2E2EFEFEFE2
310
E2E2E2E2E2EFEFEFEFEFEFEFEFE2EFE2ECECECECECECE2E2E2E2E2E2E2E2E2E2E2E2E2E2F5E2E2E2F5E2E2F5EF00E2F5E2E2E2E2E2F5E2E2E2E2E2E2E2E2E2E2E2E2E2E2E2E2E2E2E2E2E2E2E2E2E2F5F5F5F5E2E2EFEFEFEFE2E2EFEFEFE2E2E2EFEFEFE2E2E2EFEFEFEFEFEFEFEFEFEFF5EFEFEFECECECE2E2E2E2E2E2E2
310
E2E2E2E2E2E2E2E2E2F5E2E2E2F5E2E2F5EF00E2F5E2E2E2E2E2F5E2E2E2E2E2E2E2E2E2E2E2E2E2E2E2E2E2E2E2E2E2E2E2E2E2E2E2E2E2E2EFEFEFEFEFEFE2E2EFEFEFE2E2E2EFEFEFE2ECEC2828282828282828EFF5ECECECECECECECE2E2E2E2E2E2E2E2E2E2E2E2E2E2E2F5E2E2E2F5E2E2F5EF18E2F5E2E2E2E2E2F5
310
E2E2E2E2E2E2E2E2E2E2E2E2E2E2E2E2E2E2E2E2E2E2E2E2E2E2E2E2E2EFECECE2EFEFEFE2E2E2EFEFEFE2E2E2EFEFECEF28EC28E2E2E2E2E2E228EFF5ECECECE2E228E2E2E2E2E2E2E2E2E2E2E2E2E2E2E2F5E2E2E2F5E2E2F5EF40E2F5E2E2E2E2E2F5E2E2E2E2E2E2E2E2E2E2E2E2E2E2E2E2E2E2E2E2E2E2E2E2E2E2E2
310
E2EFECECECE2E2EFEFE2E2E2E2EFEFEFE2E2E2ECEF28282828E2E2E2E2E2E228ECECF5ECECECEC28E2E2E2E2E2E2E2E2E2E2E2E2E2E2E2F5E2E2E2F5E2E2F5EFE1E2F5E2E2E2E2E2F5E2E2E2E2E2E2E2E2E2E2E2E2E2E2E2E2E2E2E2E2E2E2E2E2E2E2E2E2ECECECE2ECE2E2EFEFE2E2EFECECECECECEF2828E2E2E2E2E2E2
310
E2E2E2E228E2E2F5ECECECEC28E2E2E2E2E2E2E2E2E2E2E2E2E2E2E2F5E2E2E2F5E2E2F5EF40E2F5E2E2E2E2E2F5E2E2E2E2E2E2E2E2E2E2E2E2E2E2E2E2E2E2E2E2E2E2E2E2E2E2E2E2ECF5ECECE2F5E2E2EFEFEFECECECECEFEF28E2E2E2E2E2E2E2E2E2E2E2E228282828F528ECEC28E2E2E2E2E2E2E2E2E2E2E2E2E2E2
310
E2F5E2E2E2F5E2E2F5EF00E2E2E2E2E2E2E2F5E2E2E2E2E2E2E2E2E2E2E2E2E2E2E2E2E2E2E2E2E2E2E2E2E2E2E2E2F5ECECE2F5E2ECE2E2EFECE2E2ECEFEF28E2E2E2E2E2E2E2E2E2E2E2E2E228E2E2E2E2F5E2E2E2E2F5F5F5F5F5F5F5F5F5F5F5F5E2E2F5E2E2E2E2E2E2F5EF00E2E2E2E2E2E2E2F5E2E2E2E2E2E2E2E2
310
E2E2E2E2E2E2E2E2E2E2E2E2E2E2E2E2E2E2E2F5ECF5E2E2E2ECECF5EFECECE2E228E228E2E2E2E2E2E2E2E2E2E2E2E2E2E228E2E2E2E2E2F5E2E2E2F5F5F5F5F5F5F5F5F5F5F5F5F5E2F5E2E2E2E2E2E2F5EF42E2E2E2E2E2E2E2F5E2E2E2E2E2E2E2E2E2E2E2E2E2E2E2E2E2E2E2E2E2E2E2E2E2E2F5ECF5E2E2E2ECECF5
310
ECECE2ECE228E2E2E228E2E2E2E2E2ECECECECECECECE228E2E2E2E2E2F5E2E2E2F5F5F5F5F5F5F5F5F5F5F5F5F5E2F5E2E2E2E2E2E2F5EF40E2E2E2E2E2E2E2F5E2E2E2E2E2E2E2E2E2E2E2E2E2E2E2E2E2E2E2E2E2E2E2E2E2F5ECF5E2E2E2F5ECF5ECECECE2EC28E2E2E2E2E228E2E2ECECECE2E2E2E2E2ECEC28E2E2E2
310
E2E2E2F5E2E2F5F5F5F5F5F5E2E2E2E2E2E2E2E2F5E2E2E2E2E2E2F5EF73E2E2E2E2E2E2E2F5E2E2E2E2E2E2E2E2E2E2E2E2E2E2E2E2E2E2E2E2E2E2E2E2E2ECF5E2E2E2F5ECF5ECECE2ECECECE2E2E2E2E2E2E228ECECECECECEC282828282828E2E2E2E2E2E2E2F5F5F5F5F5F5F5F5E2E2E2E2E2E2E2E2F5E2E2E2E2E2E2
310
F5EF40E2E2E2E2E2E2E2F5E2E2E2E2E2E2E2E2E2E2E2E2E2E2E2E2E2E2E2E2E2E2E2E2E2E2E2E2E2F5ECF5E2E2E2ECEC28E2E2E2E2E2E2E2E2E2ECECE2E2E228E2E2E2E2E2E2E2E2E2E2E2E2E2E2E2E2E2E2E2E2E2E2E2E2E2E2E2E2E2F5E2E2E2E2E2E2F5EF00E2E2E2E2E2E2E2F5E2E2E2E2E2E2E2E2E2E2E2E2E2E2E2E2
310
E2E2E2E2E2E2F5E2E2E2E2E2F5ECF5E2E2E2E2EC28E2E2E2E2E2E2E2E2E2E2E228E2E228E2E2E2E2E2E2E2E2E2E2E2E2E2E2E2E2E2E2E2E2E2E2E2E2E2E2E2E2E2E2F5E2E2E2E2E2E2F5EF00E2E2E2E2E2E2E2F5E2E2E2E2E2E2E2E2E2E2E2E2E2E2E2E2E2E2E2E2E2F5ECF5E2E2E2E2ECF5E2E2E2E2E2E2E2E2E2E2E2E2E2
310
E2E2E2E2E2E22828E2E2E2E2E2E2E2E2E2E2E2E2E2E2E2E2E2E2E2E2E2E2E2E2E2E2E2E2E2E2E2F5E2E2E2E2E2E2F5EF71E2E2E2E2E2E2E2F5E2E2E2E2E2E2E2E2E2E2E2E2E2E2E2E2E2E2E2E2F5ECF5E2E2E2E2E2E2E2E2E2E2E2E2E2E2E2E2E2E2E2E2E2E2E2E2E2E2E2E2E2E2E2E2E2E2E2E2E2E2E2E2E2E2E2E2E2E2E2
310
E2E2E2E2E2E2E2E2E2E2E2E2F5E2E2E2E2E2E2F5EF40E2F5E2E2E2E2E2F5E2E2E2E2E2E2E2E2E2F5F5F5F5F5E2EFEFECE2ECE2F5E2E2E2F5E2E2E2E2E2E2E2E2E2E2E2E2E2E2E2E2E2E2E2E2E2E2E2E2E2E2E2E2E2E2E2E2E2E2E2E2E2E2E2E2E2E2E2E2E2E2E2E2E2E2E2E2E2E2E2E2F5E2E2E2F5E2E2F5EF84E2F5E2E2E2
310
E2E2F5E2E2E2E2E2E2E2E2E2F5F5F5F5F5EFEFECECECE2F5E2E2E2F5ECF5E2E2E2E2E2E2E2E2E2E2E2E2E2E2E2E2E2E2E2E2E2E2E2E2E2E2E2E2E2E2E2E2E2E2E2E2E2E2E2E2E2E2E2E2E2E2E2E2E2E2E2E2E2E2E2F5E2E2E2F5E2E2F5EF40E2F5E2E2E2E2E2F5E2E2E2E2E2E2E2E2E2E2E2E2E2E2EFECECECECF5E2E2E2F5
310
ECF5E2E2E2E2E2E2E2E2E2E2E2E2E2E2E2E2E2E2E2E2E2E2E2E2E2E2E2E2E2E2E2E2E2E2E2E2E2E2E2E2E2E2E2E2E2E2E2E2E2E2E2E2E2E2E2E2F5E2E2E2F5E2E2F5EF00E2F5E2E2E2E2E2F5E2E2E2E2E2E2E2E2E2E2E2E2EFEFEFECECECF5E2E2E2F5E2F5E2E2E2E2E2E2E2E2E2E2E2E2E2E2E2E2E2E2E2E2E2E2E2E2E2E2
310
E2E2E2E2E2E2E2E2E2E2E2E2E2E2E2E2E2E2E2E2E2E2E2E2E2E2E2E2E2E2E2F5E2E2E2F5E2E2F5EF00E2F5E2E2E2E2E2F5E2E2E2E2E2F5F5F5F5F5E2EFEFEFEFE2ECF5F5E2F5ECE2F5E2E2E2E2E2E2E2E2E2E2E2E2E2E2E2E2E2E2E2E2E2E2E2E2E2E2E2E2E2E2E2E2E2E2E2E2E2E2E2E2E2E2E2E2E2E2E2E2E2E2E2E2E2E2
310
E2E2E2E2F5E2E2E2F5E2E2F5EFE3E2F5E2E2E2E2E2F5E2E2E2E2E2F5F5F5F5F5E2EFEFEFEFEFE2E2F5F5ECECF5E2E2E2E2E2E2E2E2E2E2E2E2E2E2E2E2E2E2E2E2E2E2E2E2E2E2E2E2E2E2E2E2E2E2E2E2E2E2E2E2E2E2E2E2E2E2E2E2E2E2E2E2E2E2E2E2E2E2E2F5E2E2E2F5E2E2F5EF40E2F5E2E2E2E2E2F5E2E2E2E2E2
310
E2E2E2E2EFEFEFE2EFEFEFEFE2F5ECECECECECE2E2E2E2E2E2E2E2E2E2E2E2E2E2E2E2E2E2E2E2E2E2E2E2E2E2E2E2E2E2E2E2E2E2E2E2E2E2E2E2E2E2E2E2E2E2E2E2E2E2E2E2E2E2E2E2E2E2F5E2E2E2F5E2E2F5EF89E2F5E2E2E2E2E2F5E2E2E2E2E2E2E2E2EFEFEFE2E2E2EFEFEFEFE2ECECEC28E2ECE2E2E2E2E2E2E2
310
E2E2E2E2E2E2E2E2E2E2E2E2E2E2E2E2E2E2E2E2E2E2E2E2E2E2E2E2E2E2E2E2E2E2E2E2E2E2E2E2E2E2E2E2E2E2E2E2E2E2F5E2E2E2F5E2E2F5EF40E2F5E2E2E2E2E2F5E2E2E2E2E2E2E2E2EFEFE2E2E2E2E2E2E2EFEFE2ECECECECEC28E2E2E2E2E2E2E2E2E2E2E2E2E2E2E2E2E2E2E2E2E2E2E2E2E2E2E2E2E2E2E2E2E2
310
E2E2E2E2E2E2E2E2E2E2E2E2E2E2E2E2E2E2E2E2E2E2E2F5E2E2E2F5E2E2F5EF00E2F5E2E2E2E2E2F5E2E2E2E2E2E2E2EFEFEFEFEFEFEFE2E2E2E2EFECECE2E2EC28E2E2E2E2E2E2E2E2E2E2E2E2E2E2E2E2E2E2E2E2E2E2E2E2E2E2E2E2E2E2E2E2E2E2E2E2E2E2E2E2E2E2E2E2E2E2E2E2E2E2E2E2E2E2E2E2E2F5E2E2E2
310
F5E2E2F5EF00E2F5E2E2E2E2E2F5E2E2E2E2E2E2E2EFEFEFEFEFEFEFEFE2E2EFECECECECECECE2E2E2E2E2E2E2E2E2E2E2E2E2E2E2E2E2E2E2E2E2E2E2E2E2E2E2E2E2E2E2E2E2E2E2E2E2E2E2E2E2E2E2E2E2E2E2E2E2E2E2E2E2E2E2E2E2E2F5E2E2E2F5E2E2F5EFE9E2F5E2E2E2E2E2F5E2E2E2E2E2E2E2EFDCE2E2E2EF
310
EFEFEFE2ECECE2E2E228E2E2E2E2E2E2E2E2E2E2E2F5F5F5F5F5F5F5F5F5F5F5F5F5F5E2E2E2E2E2E2E2E2E2E2E2E2E2E2E2E2E2E2E2E2E2E2E2E2E2E2E2E2E2E2E2E2E2E2F5E2E2E2F5E2E2F5EF40E2F5E2E2E2E2E2F5E2E2E2E2E2E2E2EFECEFEFE2E2EFEFEFECECECE22828E2E2E2E2E2E2E2E2E2E2E2E2F5F5F5F5F5F5
310
F5F5F5F5F5F5F5F5E2E2E2E2E2E2E2E2E2E2E2E2E2E2E2E2E2E2E2E2E2E2E2E2E2E2E2E2E2E2E2E2E2E2F5E2E2E2F5E2E2F5EF10E2F5E2E2E2E2E2F5E2E2E2E2EFEFE2EFEFEFEFE2E2E2E2EFEFECEC28E2E2E2E2E2E2E2E2E2E2E2E2E2E2F5F5F5F5F5F5F5F5F5F5F5F5F5F5E2E2E2E2E2E2E2E2E2E2E2E2E2E2E2E2E2E2E2
310
E2E2E2E2E2E2E2E2E2E2E2E2E2E2E2F5E2E2E2F5E2E2F5EF40E2F5E2E2E2E2E2F5E2E2E2EFE2EFEFE2EFEFEFE2EFE2E2E2ECEC28ECE2E2E2E2E2E2E2E2E2E2E2E2E2E2E2E2E2E2E2E2E2E2E2E2E2E2E2E2E2E2E2E2E2E2E2E2E2E2E2E2E2E2E2E2E2E2E2E2E2E2E2E2E2E2E2E2E2E2E2E2E2E2F5E2E2E2F5E2E2F5EF00E2F5
310
E2E2E2E2E2F5E2E2EFE2E2F5F5F5F5E2EFEFEFEFE2E2EC28EFEF28E2E2E2E2E2E2E2E2E2E2E2E2E2E2E2E2E2E2E2E2E2E2E2E2E2E2E2E2E2E2E2E2E2E2E2E2E2E2E2E2E2E2E2E2E2E2E2E2E2E2E2E2E2E2E2E2E2E2E2E2E2F5E2E2E2F5E2E2F5EF00E2F5E2E2E2E2E2F5EFEFE2E2E2F5F5F5F5E2E2EFEFEFE2E2E2EFEF28E2
310
28E2E2E2E2E2E2E2E2E2E2E2E2E2E2E2E2E2E2E2E2E2E2E2E2E2E2E2E2E2E2E2E2E2E2E2E2E2E2E2E2E2E2E2E2E2E2E2E2E2E2E2E2E2E2E2E2E2E2E2E2F5E2E2E2F5E2E2F5EFCCE2E2E2E2E2E2E2F5EFEFEFE2E2E2E2E2E2E2E2E2E2EFEFE2E2EF2828E2E2ECE2E2E2E2E2E2E2E2E2E2E2E2E2E2E2E2E2E2E2E2E2E2E2E2E2
310
E2E2E2E2E2E2E2E2E2E2E2E2E2E2E2E2E2E2E2E2E2E2E2E2E2E2E2E2E2E2E2E2E2E2F5E2E2E2E2E2E2F5EF40E2E2E2E2E2E2E2F5E2EFE2E2E2E2E2E2E2E2E2E2E2EFEFEFEF28E2ECECECE228E2E2E2E2E2E2E2E2E2E2E2E2E2E2E2E2E2E2E2E2E2E2E2E2E2E2E2E2E2E2E2E2E2E2E2E2E2E2E2E2E2E2E2E2E2E2E2E2E2E2E2
310
E2E2E2E2E2E2E2F5E2E2E2E2E2E2F5EF0FE2E2E2E2E2E2E2F5E2E2E2E2E2E2E2E2E2E2E2E2E2E2EFEFEFEF28ECECE2E2E228E2E2E2E2E2E2E2E2E2E2E2E2E2E2E2E2E2E2E2E2E2E2E2E2E2E2E2E2E2E2E2E2E2E2E2E2E2E2E2E2E2E2E2E2E2E2E2E2E2E2E2E2E2E2E2E2E2F5E2E2E2E2E2E2F5EF40E2E2E2E2E2E2E2F5E2E2
310
E2E2E2E2E2E2E2E2E2E2E2E2EFEFE2E2EF28ECE2E2E2E228E2E2E2E2E2E2E2E2E2E2E2E2E2E2E2E2E2E2E2E2E2E2E2E2E2E2E2E2E2E2E2E2E2E2E2E2E2E2E2E2E2E2E2E2E2E2E2E2E2E2E2E2E2E2E2E2F5E2E2E2E2E2E2F5EF00E2E2E2E2E2E2E2F5E2E2E2E2E2E2E2E2E2E2E2E2E2EFEFE2E2E2E2E2ECE2E2E2E2EC28E2E2
310
E2E2E2E2E2E2E2E2E2E2E2E2E2E2E2E2E2E2E2E2E2E2E2E2E2E2E2E2E2E2E2E2E2E2E2E2E2E2E2E2E2E2E2E2E2E2E2E2E2E2E2E2E2F5E2E2E2E2E2E2F5EF00E2E2E2E2E2E2E2F5E2E2E2E2E2E2E2E2E2E2E2E2E2EFE2E2E2E2E2E2E228ECECECECEC28E2E2E2E2E2E2E2E2E2E2E2E2E2E2E2E2E2E2E2E2E2E2E2E2E2E2E2E2
310
E2E2E2E2E2E2E2E2E2E2E2E2E2E2E2E2E2E2E2E2E2E2E2E2E2E2F5E2E2E2E2E2E2F5EF38E2E2E2E2E2E2E2F5E2E2E2E2E2E2E2E2E2E2E2E2E2E2E2E2E2E2E2E228E2E2E2E2ECE2E228E2E2E2E2E2E2E2E2E2E2E2E2E2E2E2E2E2E2E2E2E2E2E2E2E2E2E2E2E2E2E2E2E2E2E2E2E2E2E2E2E2E2E2E2E2E2E2E2E2E2E2E2E2F5
310
E2E2E2E2E2E2F5EF40E2E2E2E2E2E2E2F5E2E2E2E2E2E2E2E2E2E2E2E2E2E2E2E2E2E2E228E2E2E2E2E2ECE2E2E228E2E2E2E2E2E2E2E2E2E2E2E2E2E2E2E2E2E2E2E2E2E2E2E2E2E2E2E2E2E2E2E2E2E2E2E2E2E2E2E2E2E2E2E2E2E2E2E2E2E2E2E2F5E2E2E2E2E2E2F5EFFFE2E2E2E2E2E2E2F5E2E2E2E2E2E2E2E2E2E2
310
E2E2E2E2E2E2E2E2E2E228ECE2E2ECECE2E2E2EC28E2E2E2E2E2E2E2E2E2E2E2E2E2E2E2E2E2E2E2E2E2E2E2E2E2E2E2E2E2E2E2E2E2E2E2E2E2E2E2E2E2E2E2E2E2E2E2E2E2E2E2F5E2E2E2E2E2E2F5EF40E2E2E2E2E2E2E2F5E2E2E2E2E2E2E2E2E2E2E2E2E2E2E2E2E2E2E2E2E228ECECECE2E2E2E2ECE228E2E2E2E2E2
310
E2E2E2E2E2E2E2E2E2E2E2E2E2E2E2E2E2E2E2E2E2E2E2E2E2E2E2E2E2E2E2E2E2E2E2E2E2E2E2E2E2E2E2E2E2F5E2E2E2E2E2E2F5EF00E2F5E2E2E2E2E2F5E2E2E2E2E2E2E2E2E2E2E2E2E2E2E2E2E2E2E2E2E2E228ECECECE2E2E2ECE2E228E2E2E2E2E2E2E2E2E2E2E2E2E2E2E2E2E2E2E2E2E2E2E2E2E2E2E2E2E2E2E2
310
E2E2E2E2E2E2E2E2E2E2E2E2E2E2E2E2E2E2F5E2E2E2F5E2E2F5EF00E2F5E2E2E2E2E2F5E2E2E2E2E2E2E2E2E2E2E2E2E2E2E2E2E2E2E2E2E2E2E228E2E2ECECECE2E2E2E228E2E2E2E2E2E2E2E2E2E2E2E2E2E2E2E2E2E2E2E2E2E2E2E2E2E2E2E2E2E2E2E2E2E2E2E2E2E2E2E2E2E2E2E2E2E2E2E2F5E2E2E2F5E2E2F5EF
310
01E2F5E2E2E2E2E2F5E2E2E2E2E2E2E2E2E2E2E2E2E2E2E2E2E2E2E2E2E2E2E2E228E2E228ECECE2E2E2EC28E2E2E2E2E2E2E2E2E2E2E2E2E2E2E2E2E2E2E2E2E2E2E2E2E2E2E2E2E2E2E2E2E2E2E2E2E2E2E2E2E2E2E2E2E2E2E2F5E2E2E2F5E2E2F5EF40E2F5E2E2E2E2E2F5E2E2E2E2E2E2E2E2E2E2E2E2E2E2E2E2E2E2
310
E2E2E2E2E2E2E228E22828E2ECECECEC28E2E2E2E2E2E2E2E2E2E2E2E2E2E2E2E2E2E2E2E2E2E2E2E2E2E2E2E2E2E2E2E2E2E2E2E2E2E2E2E2E2E2E2E2E2E2E2F5E2E2E2F5E2E2F5EFD9E2F5E2E2E2E2E2F5E2E2E2E2E2E2E2E2E2E2E2E2E2E2E2E2E2E2E2E2E2E2E2E2E2E228E2E228E2E2EC28E2E2E2E2E2E2E2E2E2E2E2
310
E2E2E2E2E2E2E2E2E2E2E2E2E2E2E2E2E2E2E2E2E2E2E2E2E2E2E2E2E2E2E2E2E2E2E2E2E2F5E2E2E2F5E2E2F5EF40E2F5E2E2E2E2E2F5E2E2E2E2E2E2E2E2E2E2E2E2E2E2E2E2E2E2E2E2E2E2E2E2E2E2E2E228E2E2ECECE2E2E2E2E2E2E2E2E2E2E2E2E2E2E2E2E2E2E2E2E2E2E2E2E2E2E2E2E2E2E2E2E2E2E2E2E2E2E2
310
E2E2E2E2E2E2E2E2E2E2F5E2E2E2F5E2E2F5EF00E2F5E2E2E2E2E2F5E2E2E2E2E2E2E2E2E2E2E2E2E2E2E2E2E2E2E2E2E2E2E2E2E2E2E2E2E228E228E2E2E2E2E2E2E2E2E2E2E2E2E2E2E2E2E2E2E2E2E2E2E2E2E2E2E2E2E2E2E2E2E2E2E2E2E2E2E2E2E2E2E2E2E2E2E2E2E2E2F5E2E2E2F5E2E2F5EF00E2F5E2E2E2E2E2
310
F5E2E2E2E2E2E2E2E2E2E2E2E2E2E2E2E2E2E2E2E2E2E2E2E2E2E2E2E2E22828E2E2E2E2E2E2E2E2E2E2E2E2E2E2E2E2E2E2E2E2E2E2E2E2E2E2E2E2E2E2E2E2E2E2E2E2E2E2E2E2E2E2E2E2E2E2E2E2E2E2E2F5E2E2E2F5E2E2F5EF54E2F5E2E2E2E2E2F5E2E2E2E2E2E2E2E2E2E2E2E2E2E2E2E2E2E2E2E2E2E2E2E2E2E2
310
E2E2E2E2E2E2E2E2E2E2E2E2E2E2E2E2E2E2E2E2E2E2E2E2E2E2E2E2E2E2E2E2E2E2E2E2E2E2E2E2E2E2E2E2E2E2E2E2E2E2E2E2E2E2E2E2F5E2E2E2F5E2E2F5EF40E2F5E2E2E2E2E2F5E2E2E2E2E2E2E2E2E2E2E2E2E2E2E2E2E2E2E2E2E2E2E2E2E2E2E2E2E2E2E2E2E2E2E2E2E2E2E2E2E2E2E2E2E2E2E2E2E2E2E2E2E2
310
E2E2E2E2E2E2E2E2E2E2E2E2E2E2E2E2E2E2E2E2E2E2E2E2E2E2E2E2E2F5E2E2E2F5E2E2F5EFD4E2F5E2E2E2E2E2F5E2E2E2E2E2E2E2E2E2E2E2E2E2E2E2E2E2E2E2E2E2E2E2E2E2E2E2E2E2E2E2E2E2E2E2E2E2E2E2E2E2E2E2E2E2E2E2E2E2E2E2E2E2E2E2E2E2E2E2E2E2E2E2E2E2E2E2E2E2E2E2E2E2E2E2E2E2E2E2E2
310
E2E2F5E2E2E2F5E2E2F5EF40E2F5E2E2E2E2E2F5E2E2E2E2E2E2E2E2E2E2E2E2E2E2E2E2E2E2E2E2E2E2E2E2E2E2E2E2E2E2E2E2E2E2E2E2E2E2E2E2E2E2E2E2E2E2E2E2E2E2E2E2E2E2E2E2E2E2E2E2E2E2E2E2E2E2E2E2E2E2E2E2E2E2E2E2E2E2E2E2E2E2F5E2E2E2F5E2E2F5EF00E2F5E2E2E2E2E2F5E2E2E2E2E2E2E2
310
E2E2E2E2E2E2E2E2E2E2E2E2E2E2E2E2E2E2E2E2E2E2E2E2DCDCDCDCDCDCDCDCDCDCDCDCDCDCDCDCDCDCDCDCE2E2E2E2E2E2E2E2E2E2E2E2E2E2E2E2E2E2E2E2E2E2E2E2E2E2E2E2E2E2E2F5E2E2E2F5E2E2F5EF00E2F5E2E2E2E2E2F5E2E2E2E2E2E2E2E2E2E2E2E2E2E2E2E2E2E2E2E2E2E2E2E2E2E2E2E2E2DCDCDCDCDC
310
DCDCDCDCDCDCDCDCDCDCDCDCDCDCDCDCDCDCDCE2E2E2E2E2E2E2E2E2E2E2E2E2E2E2E2E2E2E2E2E2E2E2E2E2E2E2E2E2F5E2E2E2F5E2E2F5EFABE2F5E2E2E2E2E2F5E2E2E2E2E2E2E2E2E2E2E2E2E2E2E2E2E2E2E2E2E2E2E2E2E2E2E2DCDCDCDCDCDCDCDCDCDCDCDCDCDCDCDCDCDCDCDCDCDCDCDCDCDCDCDCE2E2E2E2E2E2
310
E2E2E2E2E2E2E2E2E2E2E2E2E2E2E2E2E2E2E2E2E2F5E2E2E2F5E2E2F5EF40E2F5E2E2E2E2E2F5E2E2E2E2E2E2E2E2E2E2E2E2E2E2E2E2E2E2E2E2E2E2E2E2E2DCDCDCDCDCDCDCDCDCF5F5E2E2E2E2E2E2E2E2E2E2E2E2DCDCDCDCDCDCDCDCDCE2E2E2E2E2E2E2E2E2E2E2E2E2E2E2E2E2E2E2E2E2E2E2E2E2F5E2E2E2F5E2
310
E2F5EFDEE2F5E2E2E2E2E2F5E2E2E2E2E2E2E2E2E2E2E2E2E2E2E2E2E2E2E2E2E2E2E2DCDCDCDCDCDCF5DCDCDCDCF5F5E2E2E2E2E2E2E2E2E2E2E2E2DCDCDCDCE2E2DCDCDCDCDCE2E2E2E2E2E2E2E2E2E2E2E2E2E2E2E2E2E2E2E2E2E2E2F5E2E2E2F5E2E2F5EF40E2E2E2E2E2E2E2F5E2E2E2E2E2E2E2E2E2E2E2E2E2E2E2
310
E2E2E2E2E2E2E2DCDCDCDCDCE2E2F5DCDCDCDCECE2E2E2E2E2E2E2E2E2E2E2E2E2DCDCDCDCE2E2E2E2DCDCDCDCE2E2E2E2E2E2E2E2E2E2E2E2E2E2E2E2E2E2E2E2E2E2F5E2E2E2E2E2E2F5EF00E2E2E2E2E2E2E2F5E2E2E2E2E2E2E2E2E2E2E2E2E2E2E2E2E2E2E2E2E2E2DCDCDCE2E2E2E2F5DCDCDCDCECECE2E2E2E2E2E2
310
E2E2E2E2E2E2DCDCDCDCE2E2E2E2E2E2DCDCE2E2E2E2E2E2E2E2E2E2E2E2E2E2E2E2E2E2E2E2E2E2F5E2E2E2E2E2E2F5EF00E2E2E2E2E2E2E2F5E2E2E2E2E2E2E2E2E2E2E2E2E2E2E2E2E2E2E2E2E2E2DCDCE2E2E2E2E2F5DCDCDCDCECE2E2E2E2E2E2E2E2E2E2E2E2E2DCDCDCDCE2E2E2E2E2E2DCDCE2E2E2E2E2E2E2E2E2
310
E2E2E2E2E2E2E2E2E2E2E2E2E2F5E2E2E2E2E2E2F5EFAAE2E2E2E2E2E2E2F5E2E2E2E2E2E2E2E2E2E2E2E2E2E2E2E2E2E2E2E2E2E2DCDCE2E2E2E2E2F5DCDCDCDCECE2E2E2E2E2E2E2E2E2E2E2E2E2DCDCDCDCE2E2E2E2E2E2DCDCE2E2E2E2E2E2E2E2E2E2E2E2E2E2E2E2E2E2E2E2E2E2F5E2E2E2E2E2E2F5EF40E2E2E2E2
310
E2E2E2F5E2E2E2E2E2E2E2E2E2E2E2E2E2E2E2E2E2E2E2F5F5E2DCDCF5E2E2E2F5E2DCDCDCDCECE2E2E2E2E2E2E2E2E2E2E2E2E2DCDCDCDCE2E2E2E2E2E2DCDCE2E2E2E2E2E2E2E2E2E2E2E2E2E2E2E2E2E2E2E2E2E2F5E2E2E2E2E2E2F5EFBEE2E2E2E2E2E2E2F5E2E2E2E2E2E2E2E2E2E2E2E2E2E2E2E2E2E2E2F5F5E2DC
310
DCF5E2E2E2F5E2DCDCECDCE2E2E2E2E2E2E2E2E2E2E2E2E2E2DCDCDCDCE2E2E2E2E2E2DCDCE2E2E2E2E2E2E2E2E2E2E2E2E2E2E2E2E2E2E2E2E2E2F5E2E2E2E2E2E2F5EF40E2E2E2E2E2E2E2F5E2E2E2E2E2E2E2E2E2E2E2E2E2E2E2E2E2E2E2F5F5E2DCDCF5E2E2E2F5E2DCECDCDCE2E2E2E2E2E2E2E2E2E2E2E2E2E2DCDC
310
DCDCE2E2E2E2E2E2DCDCE2E2E2E2E2E2E2E2E2E2E2E2E2E2E2E2E2E2E2E2E2E2F5E2E2E2E2E2E2F5EF00E2E2E2E2E2E2E2F5E2E2E2E2E2E2E2E2E2E2E2E2E2E2E2E2E2E2E2E2ECE2DCDCE2F5E2E2ECECDCDCDCDCE2E2E2E2E2E2E2E2E2E2E2E2E2E2DCDCDCDCE2E2E2E2E2E2DCDCE2E2E2E2E2E2E2E2E2E2E2E2E2E2E2E2E2
310
E2E2E2E2E2F5E2E2E2E2E2E2F5EF00E2E2E2E2E2E2E2F5E2E2E2E2E2E2E2E2E2E2E2E2E2E2E2E2E2E2E2ECECE2DCDCECF5E2F5E2E2DCDCDCDCE2E2E2E2E2E2E2E2E2E2E2E2E2E2DCDCDCDCE2E2E2E2E2E2DCDCE2E2E2E2E2E2E2E2E2E2E2E2E2E2E2E2E2E2E2E2E2E2F5E2E2E2E2E2E2F5EF2AE2F5E2E2E2E2E2F5E2E2E2E2
310
E2E2E2E2E2E2E2E2E2E2E2E2E2E2E2E2ECE2DCDCE2F5E2F5E2E2DCDCDCDCE2E2E2E2E2E2E2E2E2E2E2E2E2E2DCDCDCDCE2E2E2E2E2E2DCDCE2E2E2E2E2E2E2E2E2E2E2E2E2E2E2E2E2E2E2E2E2E2F5E2E2E2F5E2E2F5EF40E2F5E2E2E2E2E2F5E2E2E2E2E2E2E2E2E2E2E2E2E2E2E2E2E2E2E2E2ECECECDCE2E2F5F5E2E2DC
310
DCDCDCE2E2E2E2E2E2E2E2E2E2E2E2E2E2DCDCDCDCE2E2E2E2E2E2DCDCE2E2E2E2E2E2E2E2E2E2E2E2E2E2E2E2E2E2E2E2E2E2F5E2E2E2F5E2E2F5EFCDE2F5E2E2E2E2E2F5E2E2E2E2E2E2E2E2E2E2E2E2E2E2E2E2E2E2E2E2ECE2DCDCE2E2F5F5E2E2DCDCDCDCE2E2E2E2E2E2E2E2E2E2E2E2E2E2DCDCDCDCE2E2E2E2E2E2
310
DCDCE2E2E2E2E2E2E2E2E2E2E2E2E2E2E2E2E2E2E2E2E2E2F5E2E2E2F5E2E2F5EF40E2F5E2E2E2E2E2F5E2E2E2E2E2E2E2E2E2E2E2E2E2E2E2E2E2E2E2E2E2E2DCDCE2E2F5F5F5E2DCDCDCDCE2E2E2E2E2E2E2E2E2E2E2E2E2E2DCDCDCDCE2E2E2E2E2E2DCDCE2E2E2E2E2E2E2E2E2E2E2E2E2E2E2E2E2E2E2E2E2E2F5E2E2
310
E2F5E2E2F5EF00E2F5E2E2E2E2E2F5E2E2E2E2E2E2E2E2E2E2E2E2E2E2E2E2E2E2E2E2E2E2DCDCE2F5F5E2E2E2DCDCDCDCDCDCDCDCDCDCDCDCDCDCDCDCDCDCDCDCDCDCE2E2E2E2E2E2DCDCE2E2E2E2E2E2E2E2E2E2E2E2E2E2E2E2E2E2E2E2E2E2F5E2E2E2F5E2E2F5EF00E2F5E2E2E2E2E2F5E2E2E2E2E2E2E2E2E2E2E2E2
310
E2E2E2E2E2E2E2E2E2E2DCDCE2E2E2E2DCDCDCDCDCDCDCDCDCDCDCDCDCDCDCDCDCDCDCDCDCDCDCDCDCDCE2E2E2E2DCDCE2E2E2E2E2E2E2E2E2E2E2E2E2E2E2E2E2E2E2E2E2E2F5E2E2E2F5E2E2F5EF4DE2F5E2E2E2E2E2F5E2E2E2E2E2E2E2E2E2E2E2E2E2E2E2E2E2E2E2E2E2E2DCDCE2E2DCDCDCDCDCE2E2E2E2E2E2E2E2
310
E2E2E2E2E2E2E2E2E2E2E2E2DCDCDCDCDCE2E2DCDCE2E2E2E2E2E2E2E2E2E2E2E2E2E2E2E2E2E2E2E2E2E2F5E2E2E2F5E2E2F5EF40E2F5E2E2E2E2E2F5E2E2E2E2E2E2E2E2E2E2E2E2E2E2E2E2E2E2E2E2E2E2DCDCDCDCDCDCDCE2E2E2E2E2E2E2E2E2E2E2E2E2E2E2E2E2E2E2E2E2E2E2E2DCDCDCDCDCDCDCE2E2E2E2E2E2
310
E2E2E2E2E2E2E2E2E2E2E2E2E2E2E2E2F5E2E2E2F5E2E2F5EF7BE2F5E2E2E2E2E2F5E2E2E2E2E2E2E2E2E2E2E2E2E2E2E2E2E2E2E2E2E2E2DCDCDCDCDCE2E2E2E2E2E2E2E2E2E2E2E2E2E2E2E2E2E2E2E2E2E2E2E2E2E2E2E2DCDCDCDCDCE2E2E2E2E2E2E2E2E2E2E2E2E2E2E2E2E2E2E2E2E2E2F5E2E2E2F5E2E2F5EF40E2
310
F5E2E2E2E2E2F5E2E2E2E2E2E2E2E2E2E2E2E2E2E2E2E2E2E2E2E2E2E2DCDCDCE2E2E2E2E2E2E2E2E2E2E2E2E2E2E2E2E2E2E2E2E2E2E2E2E2E2E2E2E2E2E2E2DCDCDCE2E2E2E2E2E2E2E2E2E2E2E2E2E2E2E2E2E2E2E2E2E2F5E2E2E2F5E2E2F5EF00E2F5E2E2E2E2E2F5E2E2E2E2E2E2E2E2E2E2E2E2E2E2E2E2E2E2E2E2
310
E2E2DCE2E2E2E2E2E2E2E2E2E2E2E2E2E2E2E2E2E2E2E2E2E2E2E2E2E2E2E2E2E2E2E2E2E2E2E2DCE2E2E2E2E2E2E2E2E2E2E2E2E2E2E2E2E2E2E2E2E2E2F5E2E2E2F5E2E2F5EF00E2F5E2E2E2E2E2F5E2E2E2E2E2E2E2E2E2E2E2E2E2E2E2E2E2E2E2E2E2E2E2E2E2E2E2E2E2E2E2E2E2E2E2E2E2E2E2E2E2E2E2E2E2E2E2
310
E2E2E2E2E2E2E2E2E2E2E2E2E2E2E2E2E2E2E2E2E2E2E2E2E2E2E2E2E2E2E2E2E2E2E2F5E2E2E2F5E2E2F5EF86E2F5E2E2E2E2E2F5E2E2E2E2E2E2E2E2E2E2E2E2E2E2E2E2E2E2E2E2E2E2E2E2E2E2E2E2E2E2E2E2E2E2E2E2E2E2E2E2E2E2E2E2E2E2E2E2E2E2E2E2E2E2E2E2E2E2E2E2E2E2E2E2E2E2E2E2E2E2E2E2E2E2
310
E2E2E2E2E2E2E2E2F5E2E2E2F5E2E2F5EF40E2F5E2E2E2E2E2F5E2E2E2E2E2E2E2E2E2E2E2E2E2E2E2E2E2E2E2E2E2E2E2E2E2E2E2E2E2E2E2E2E2E2E2E2E2E2E2E2E2E2E2E2E2E2E2E2E2E2E2E2E2E2E2E2E2E2E2E2E2E2E2E2E2E2E2E2E2E2E2E2E2E2E2E2E2E2E2E2E2E2F5E2E2E2F5E2E2F5EFE6E2F5E2E2E2E2E2F5E2
310
E2E2E2E2E2E2E2E2E2E2E2E2E2E2E2E2E2E2E2E2E2E2E2E2E2E2E2E2E2E2E2E2E2E2E2E2E2E2E2E2E2E2E2E2E2E2E2E2E2E2E2E2E2E2E2E2E2E2E2E2E2E2E2E2E2E2E2E2E2E2E2E2E2E2E2E2E2E2E2E2E2F5E2E2E2F5E2E2F5EF40E2F5E2E2E2E2E2F5E2E2E2E2E2E2E2E2E2E2E2E2E2E2E2E2E2E2E2E2E2E2E2E2E2E2E2E2
310
E2E2E2E2E2E2E2E2E2E2E2E2E2E2E2E2E2E2E2E2E2E2E2E2E2E2E2E2E2E2E2E2E2E2E2E2E2E2E2E2E2E2E2E2E2E2E2E2E2E2E2E2E2E2F5E2E2E2F5E2E2F5EF00E2F5E2E2E2E2E2F5E2E2E2E2E2E2E2E2E2E2E2E2E2E2E2E2E2E2E2E2E2E2E2E2E2E2E2E2E2E2E2E2E2E2E2E2E2E2E2E2E2E2E2E2E2E2E2E2E2E2E2E2E2E2E2
310
E2E2E2E2E2E2E2E2E2E2E2E2E2E2E2E2E2E2E2E2E2E2E2E2E2E2E2F5E2E2E2F5E2E2F5EF00E2E2E2E2E2E2E2F5E2E2E2E2E2E2E2E2E2E2E2E2E2E2E2E2E2E2E2E2E2E2E2E2E2E2E2E2E2E2E2E2E2E2E2E2E2E2E2E2E2E2E2E2E2E2E2E2E2E2E2E2E2E2E2E2E2E2E2E2E2E2E2E2E2E2E2E2E2E2E2E2E2E2E2E2E2E2E2E2E2E2
310
F5E2E2E2E2E2E2F5EF2CE2E2E2E2E2E2E2F5E2E2E2E2E2E2E2E2E2E2E2E2E2E2E2E2E2E2E2E2E2E2E2E2E2E2E2E2E2E2E2E2E2E2E2E2E2E2E2E2E2E2E2E2E2E2E2E2E2E2E2E2E2E2E2E2E2E2E2E2E2E2E2E2E2E2E2E2E2E2E2E2E2E2E2E2E2E2E2E2E2E2F5E2E2E2E2E2E2F5EF40E2E2E2E2E2E2E2F5F5F5F5F5F5F5F5F5F5
310
F5F5F5F5F5F5F5F5F5F5F5F5F5F5F5F5F5F5F5F5F5F5F5F5F5F5F5F5F5F5F5F5F5F5F5F5F5F5F5F5F5F5F5F5F5F5F5F5F5F5F5F5F5F5F5F5F5F5F5F5F5F5F5F5F5F5F5F5F5F5F5F5F5F5E2E2E2E2E2E2F5EF09E2E2E2E2E2E2E2E2E2E2E2E2E2E2E2E2E2E2E2E2E2E2E2E2E2E2E2E2E2E2E2E2E2E2E2E2E2E2E2E2E2E2E2E2
310
E2E2E2E2E2E2E2E2E2E2E2E2E2E2E2E2E2E2E2E2E2E2E2E2E2E2E2E2E2E2E2E2E2E2E2E2E2E2E2E2E2E2E2E2E2E2E2E2E2E2E2E2E2F5EF40E2E2E2E2E2E2E2E2E2E2E2E2E2E2E2E2E2E2E2E2E2E2E2E2E2E2E2E2E2E2E2E2E2E2E2E2E2E2E2E2E2E2E2E2E2E2E2E2E2E2E2E2E2E2E2E2E2E2E2E2E2E2E2E2E2E2E2E2E2E2E2
310
E2E2E2E2E2E2E2E2E2E2E2E2E2E2E2E2E2E2E2E2E2E2E2E2E2E2F5EF00E2E2E2E2E2E2E2E2E2E2E2E2E2E2E2E2E2E2E2E2E2E2E2E2E2E2E2E2E2E2E2E2E2E2E2E2E2E2E2E2E2E2E2E2E2E2E2E2E2E2E2E2E2E2E2E2E2E2E2E2E2E2E2E2E2E2E2E2E2E2E2E2E2E2E2E2E2E2E2E2E2E2E2E2E2E2E2E2E2E2E2E2E2E2E2E2E2F5
310
EF00E2E2E2E2E2E2E2E2E2E2E2E2E2E2E2E2E2E2E2E2E2E2E2E2E2F5F5F5F5F5F5F5F5F5F5F5F5F5F5E2E2E2F5F5F5F5F5F5F5E2E2F5F5F5F5F5F5F5F5F5F5F5E2E2E2E2E2E2E2E2E2E2E2E2E2E2E2E2E2E2E2E2E2E2E2E2E2E2E2E2E2E2E2E2E2E2E2F5EF89E2E2E2E2E2E2E2E2E2F5F5F5F5F5F5F5F5F5F5F5F5E2E2E2E2
310
F5F5F5F5F5F5F5F5F5F5F5F5F5F5E2E2E2F5F5F5F5F5F5F5E2E2F5F5F5F5F5F5F5F5F5F5F5E2E2E2E2E2E2E2E2E2E2E2E2E2E2E2E2E2E2E2E2E2E2E2E2E2E2E2E2E2E2E2E2E2E2E2F5EF40E2E2E2E2E2E2E2E2F5F5F5F5F5F5F5F5F5F5F5F5F5F5F5E2E2F5F5F5F5F5F5F5F5F5F5F5F5F5F5F5F5F5F5F5F5F5F5F5F5F5F5F5
310
F5F5F5F5F5F5F5F5F5F5F5F5F5F5F5F5F5F5F5F5F5F5F5F5F5F5F5F5F5F5F5F5F5F5F5F5F5F5F5E2E2E2E2E2E2F5EF4BE2E2E2E2E2E2E2F5F5F5F5F5F5F5F5F5F5F5F5F5F5F5F5F5E2F5F5F5F5F5F5F5F5F5F5F5F5F5F5F5F5F5F5F5F5F5F5F5F5F5F5F5F5F5F5F5F5F5F5F5F5F5F5F5F5F5F5F5F5F5F5F5F5F5F5F5F5F5F5
310
F5F5F5F5F5F5F5F5F5F5F5F5E2E2E2E2E2E2F5EF40E2F5E2E2E2E2E2F5F5F5F5F5F5F5F5F5F5F5F5F5F5E2E2F5E2F5F5F5F5F5F5F5F5F5F5F5F5F5F5F5F5F5F5F5E2E2E2E2E2E2E2E2E2E2E2E2E2E2E2E2E2E2E2E2E2E2E2E2E2E2E2E2E2E2E2E2E2E2E2E2E2E2E2E2E2E2E2E2E2E2E2E2E2E2F5E2E2F5EF00E2F5E2E2E2E2
310
E2F5F5E2F5F5F5F5F5F5F5F5F5F5F5E2E2F5E2E2E2E2E2E2E2E2E2E2E2E2E2E2E2E2E2E2E2E2E2E2E2E2E2E2E2E2E2E2E2E2E2E2E2E2E2E2E2E2E2E2E2E2E2E2E2E2E2E2E2E2E2E2E2E2E2E2E2E2E2E2E2E2E2E2E2E2E2E2F5E2E2F5EF00E2F5E2E2E2E2E2E2F5F5F5F5F5F5F5F5F5F5F5E2E2F5F5F5E2F5F5F5F5F5F5F5F5
310
F5F5F5F5F5F5F5F5F5F5F5F5F5F5F5F5F5E2E2E2E2E2E2E2E2E2E2E2E2E2E2E2E2E2E2E2E2E2E2E2E2E2E2E2E2E2E2E2E2E2E2E2E2E2E2E2E2E2E2E2E2F5E2E2F5EF9FE2F5E2E2E2E2E2E2E2F5F5F5F5F5F5E2E2F5F5F5F5F5F5E2E2F5F5F5F5F5F5F5F5F5F5F5F5F5F5F5F5F5F5F5F5F5F5F5F5F5E2E2E2E2E2E2E2E2E2E2
310
E2E2E2E2E2E2E2E2E2E2E2E2E2E2E2E2E2E2E2E2E2E2E2E2E2E2E2E2E2E2E2E2E2E2F5E2E2F5EF40E2F5E2E2E2E2E2E2E2E2E2E2F5F5F5F5F5F5F5F5E2E2E2E2E2E2E2E2E2E2E2E2E2E2E2E2E2E2E2E2E2E2E2E2E2E2E2E2E2E2E2E2E2E2E2E2E2E2E2E2E2E2E2E2E2E2E2E2E2E2E2E2E2E2E2E2E2E2E2E2E2E2E2E2E2E2E2
310
E2E2E2E2E2E2E2F5E2E2F5EF77E2F5E2E2E2E2E2E2E2E2E2E2E2E2E2E2E2E2E2E2E2E2E2E2E2E2E2E2E2E2E2E2E2E2E2E2E2E2E2E2E2E2E2E2E2E2E2E2E2E2E2E2E2E2E2E2E2E2E2E2E2E2E2E2E2E2E2E2E2E2E2E2E2E2E2E2E2E2E2E2E2E2E2E2E2E2E2E2E2E2E2E2E2E2F5E2E2F5EF40E2F5E2E2E2E2E2E2E2E2E2E2E2E2
310
E2E2E2E2E2E2E2E2E2E2E2E2E2E2E2E2E2E2E2E2E2E2E2E2E2E2E2E2E2E2E2E2E2E2E2E2E2E2E2E2E2E2E2E2E2E2E2E2E2E2E2E2E2E2E2E2E2E2E2E2E2E2E2E2E2E2E2E2E2E2E2E2E2E2E2E2E2E2E2E2F5E2E2F5EF00E2F5E2E2E2E2E2E2E2E2E2E2E2E2E2E2E2E2E2E2E2E2E2E2E2E2E2E2E2E2E2E2E2E2E2E2E2E2E2E2E2
310
E2E2E2E2E2E2E2E2E2E2E2E2E2E2E2E2E2E2E2E2E2E2E2E2E2E2E2E2E2E2E2E2E2E2E2E2E2E2E2E2E2E2E2E2E2E2E2E2E2E2E2E2E2F5E2E2F5EF00E2F5F5F5F5F5F5F5F5E2E2E2E2E2E2E2E2F5F5F5F5F5F5F5F5F5F5F5F5F5F5F5E2E2E2E2E2E2E2E2E2F5F5F5F5F5F5F5F5F5F5F5F5F5F5E2E2E2E2E2E2E2E2E2F5F5F5F5
310
F5F5F5F5F5F5F5F5F5F5F5E2E2E2E2E2E2E2E2F5F5F5F5F5F5F5F5E2E2F5EF2CE2E2E2E2E2E2E2E2E2E2E2E2E2E2E2E2E2E2E2E2E2E2E2E2E2E2E2E2E2E2E2E2E2E2E2E2E2E2E2E2E2E2E2E2E2E2E2E2E2E2E2E2E2E2E2E2E2E2E2E2E2E2E2E2E2E2E2E2E2E2E2E2E2E2E2E2E2E2E2E2E2E2E2E2E2E2E2E2E2E2E2E2E2E2E2
310
E2E2F5EF40E2E2E2E2E2E2E2E2E2E2E2E2E2E2E2E2E2E2E2E2E2E2E2E2E2E2E2E2E2E2E2E2E2E2E2E2E2E2E2E2E2E2E2E2E2E2E2E2E2E2E2E2E2E2E2E2E2E2E2E2E2E2E2E2E2E2E2E2E2E2E2E2E2E2E2E2E2E2E2E2E2E2E2E2E2E2E2E2E2E2E2E2E2E2E2E2E2F5EF57F5F5F5F5F5F5F5F5F5F5F5F5F5F5F5F5F5F5F5F5F5F5
310
F5F5F5F5F5F5F5F5F5F5F5F5F5F5F5F5F5F5F5F5F5F5F5F5F5F5F5F5F5F5F5F5F5F5F5F5F5F5F5F5F5F5F5F5F5F5F5F5F5F5F5F5F5F5F5F5F5F5F5F5F5F5F5F5F5F5F5F5F5F5F5F5F5F5F5F5EF00
  0
XRECORD
  5
3876
102
{ACAD_REACTORS
330
356C
102
}
330
356C
100
AcDbXrecord
280
     1
102
MATERIAL
148
0.0
149
0.0
149
0.0
 93
        0
 94
      127
282
     0
 72
     0
 77
     0
171
     0
175
     0
179
     0
273
     0
  0
XRECORD
  5
356E
102
{ACAD_REACTORS
330
356C
102
}
330
356C
100
AcDbXrecord
280
     1
270
     1
271
     1
  0
XRECORD
  5
356D
102
{ACAD_REACTORS
330
356C
102
}
330
356C
100
AcDbXrecord
280
     1
270
     1
271
     1
  0
XRECORD
  5
3571
102
{ACAD_REACTORS
330
356C
102
}
330
356C
100
AcDbXrecord
280
     1
270
     1
271
     1
  0
XRECORD
  5
3570
102
{ACAD_REACTORS
330
356C
102
}
330
356C
100
AcDbXrecord
280
     1
270
     1
271
     1
  0
XRECORD
  5
3572
102
{ACAD_REACTORS
330
356C
102
}
330
356C
100
AcDbXrecord
280
     1
270
     1
271
     1
  0
XRECORD
  5
356F
102
{ACAD_REACTORS
330
356C
102
}
330
356C
100
AcDbXrecord
280
     1
270
     1
271
     1
  0
XRECORD
  5
3875
102
{ACAD_REACTORS
330
3564
102
}
330
3564
100
AcDbXrecord
280
     1
102
MATERIAL
148
0.0
149
0.0
149
0.0
 93
        0
 94
      127
282
     0
 72
     0
 77
     0
171
     0
175
     0
179
     0
273
     0
  0
XRECORD
  5
3566
102
{ACAD_REACTORS
330
3564
102
}
330
3564
100
AcDbXrecord
280
     1
270
     1
271
     1
  0
XRECORD
  5
3565
102
{ACAD_REACTORS
330
3564
102
}
330
3564
100
AcDbXrecord
280
     1
270
     1
271
     1
  0
XRECORD
  5
3569
102
{ACAD_REACTORS
330
3564
102
}
330
3564
100
AcDbXrecord
280
     1
270
     1
271
     1
  0
XRECORD
  5
3568
102
{ACAD_REACTORS
330
3564
102
}
330
3564
100
AcDbXrecord
280
     1
270
     1
271
     1
  0
XRECORD
  5
356A
102
{ACAD_REACTORS
330
3564
102
}
330
3564
100
AcDbXrecord
280
     1
270
     1
271
     1
  0
XRECORD
  5
3567
102
{ACAD_REACTORS
330
3564
102
}
330
3564
100
AcDbXrecord
280
     1
270
     1
271
     1
  0
XRECORD
  5
3877
102
{ACAD_REACTORS
330
3574
102
}
330
3574
100
AcDbXrecord
280
     1
102
MATERIAL
148
0.0
149
0.0
149
0.0
 93
        0
 94
      127
282
     0
 72
     0
 77
     0
171
     0
175
     0
179
     0
273
     0
  0
XRECORD
  5
3576
102
{ACAD_REACTORS
330
3574
102
}
330
3574
100
AcDbXrecord
280
     1
270
     1
271
     1
  0
XRECORD
  5
3575
102
{ACAD_REACTORS
330
3574
102
}
330
3574
100
AcDbXrecord
280
     1
270
     1
271
     1
  0
XRECORD
  5
3579
102
{ACAD_REACTORS
330
3574
102
}
330
3574
100
AcDbXrecord
280
     1
270
     1
271
     1
  0
XRECORD
  5
3578
102
{ACAD_REACTORS
330
3574
102
}
330
3574
100
AcDbXrecord
280
     1
270
     1
271
     1
  0
XRECORD
  5
357A
102
{ACAD_REACTORS
330
3574
102
}
330
3574
100
AcDbXrecord
280
     1
270
     1
271
     1
  0
XRECORD
  5
3577
102
{ACAD_REACTORS
330
3574
102
}
330
3574
100
AcDbXrecord
280
     1
270
     1
271
     1
  0
XRECORD
  5
3975
102
{ACAD_REACTORS
330
3974
102
}
330
3974
100
AcDbXrecord
280
     1
102
SHADEPLOT
 70
     0
102
SHADEPLOTRESLEVEL
 70
     2
102
SHADEPLOTCUSTOMDPI
 70
   300
  0
XRECORD
  5
3977
102
{ACAD_REACTORS
330
3976
102
}
330
3976
100
AcDbXrecord
280
     1
102
SHADEPLOT
 70
     0
102
SHADEPLOTRESLEVEL
 70
     2
102
SHADEPLOTCUSTOMDPI
 70
   300
  0
ACAD_PROXY_OBJECT
  5
3863
102
{ACAD_REACTORS
330
3633
102
}
330
3633
100
AcDbProxyObject
 90
      499
 91
      514
 95
   983063
 70
     0
 93
     5304
310
40D054060020000020000003200101A000080002A5058000000C10000000000000006101010000000000003E0FC000000000000F83F0000000000003E0FC000000000000F83F02B5E8DC0F42B1CFC0AD7A3703D0AC73F419019018000000C1003FBFFFFFE0000000000003C8FD029018000000C1003FBFFFFFE00000000000
310
03C8FD049018000000C1003FBFFFFFE0000000000003C8FD089018000000C1003FBFFFFFE0000000000003C8FD109018000000C1003FBFFFFFE0000000000003C8FD209018000000C1003FBFFFFFE0000000000003C8FD01405075F5449544C450041501A8000000C800406800020000A94160000003040000000000000012
310
40404000000000000F83F0000000000003E0FC000000000000F83F0000000000003E0FC0AD7A3703D0AC73F02B5E8DC0F42B1CFD0640640600000030400FEFFFFFF8000000000000F23F40A40600000030400FEFFFFFF8000000000000F23F41240600000030400FEFFFFFF8000000000000F23F42240600000030400FEFFF
310
FFF8000000000000F23F44240600000030400FEFFFFFF8000000000000F23F48240600000030400FEFFFFFF8000000000000F23F409014217D2115051115480105406A0000003200101A000080002A5028000000C10000000000000004901010000000000003E0FC000000000000F83F0000000000003E0FC000000000000F
310
83F02B5E8DC0F42B1CFC0AD7A3703D0AC73F419019018000000C1003FBFFFFFE0000000000003C8FD029018000000C1003FBFFFFFE0000000000003C8FD049018000000C1003FBFFFFFE0000000000003C8FD089018000000C1003FBFFFFFE0000000000003C8FD109018000000C1003FBFFFFFE0000000000003C8FD20901
310
8000000C1003FBFFFFFE0000000000003C8FD03409065F444154410000
340
11
340
0
340
0
340
0
340
0
340
0
340
0
340
11
340
0
340
0
340
0
340
0
340
0
340
0
340
11
340
0
340
0
340
0
340
0
340
0
340
0
 94
        0
1001
ACAD
1000
AcRTDxfName
1000
CELLSTYLEMAP
1000
AcRTDxfName
1000
CELLSTYLEMAP
1000
AcRTDxfName
1000
CELLSTYLEMAP
1000
AcRTDxfName
1000
CELLSTYLEMAP
  0
XRECORD
  5
3878
102
{ACAD_REACTORS
330
3633
102
}
330
3633
100
AcDbXrecord
280
     1
102
ACAD_ROUNDTRIP_PRE2007_TABLESTYLE
 90
      512
 91
        0
  1

 92
      512
 93
        0
  2

 94
      512
 95
        0
  3

  0
ENDSEC
  0
EOF
