  0
SECTION
  2
HEADER
  9
$ACADVER
  1
AC1015
  9
$ACADMAINTVER
 70
    20
  9
$DWGCODEPAGE
  3
ANSI_1252
  9
$INSBASE
 10
0.0
 20
0.0
 30
0.0
  9
$EXTMIN
 10
-0.0000008078504834
 20
0.0000001108869583
 30
0.0
  9
$EXTMAX
 10
353.9999991921495
 20
482.0000001108869
 30
0.0
  9
$LIMMIN
 10
-0.0000008078504834
 20
0.0000001108869583
  9
$LIMMAX
 10
353.9999991921495
 20
482.0000001108869
  9
$ORTHOMODE
 70
     0
  9
$REGENMODE
 70
     1
  9
$FILLMODE
 70
     1
  9
$QTEXTMODE
 70
     0
  9
$MIRRTEXT
 70
     1
  9
$LTSCALE
 40
1.0
  9
$ATTMODE
 70
     1
  9
$TEXTSIZE
 40
5.0
  9
$TRACEWID
 40
1.0
  9
$TEXTSTYLE
  7
Arial-Bold
  9
$CLAYER
  8
APL Joinery
  9
$CELTYPE
  6
ByLayer
  9
$CECOLOR
 62
   256
  9
$CELTSCALE
 40
1.0
  9
$DISPSILH
 70
     0
  9
$DIMSCALE
 40
1.0
  9
$DIMASZ
 40
4.0
  9
$DIMEXO
 40
0.625
  9
$DIMDLI
 40
3.75
  9
$DIMRND
 40
0.0
  9
$DIMDLE
 40
0.0
  9
$DIMEXE
 40
1.25
  9
$DIMTP
 40
0.0
  9
$DIMTM
 40
0.0
  9
$DIMTXT
 40
2.5
  9
$DIMCEN
 40
2.5
  9
$DIMTSZ
 40
0.0
  9
$DIMTOL
 70
     0
  9
$DIMLIM
 70
     0
  9
$DIMTIH
 70
     0
  9
$DIMTOH
 70
     0
  9
$DIMSE1
 70
     0
  9
$DIMSE2
 70
     0
  9
$DIMTAD
 70
     1
  9
$DIMZIN
 70
     8
  9
$DIMBLK
  1

  9
$DIMASO
 70
     1
  9
$DIMSHO
 70
     1
  9
$DIMPOST
  1

  9
$DIMAPOST
  1

  9
$DIMALT
 70
     0
  9
$DIMALTD
 70
     3
  9
$DIMALTF
 40
0.03937007874016
  9
$DIMLFAC
 40
1.0
  9
$DIMTOFL
 70
     1
  9
$DIMTVP
 40
0.0
  9
$DIMTIX
 70
     0
  9
$DIMSOXD
 70
     0
  9
$DIMSAH
 70
     0
  9
$DIMBLK1
  1

  9
$DIMBLK2
  1

  9
$DIMSTYLE
  2
ISO-25
  9
$DIMCLRD
 70
     0
  9
$DIMCLRE
 70
     0
  9
$DIMCLRT
 70
     0
  9
$DIMTFAC
 40
1.0
  9
$DIMGAP
 40
0.625
  9
$DIMJUST
 70
     0
  9
$DIMSD1
 70
     0
  9
$DIMSD2
 70
     0
  9
$DIMTOLJ
 70
     0
  9
$DIMTZIN
 70
     8
  9
$DIMALTZ
 70
     0
  9
$DIMALTTZ
 70
     0
  9
$DIMUPT
 70
     0
  9
$DIMDEC
 70
     2
  9
$DIMTDEC
 70
     2
  9
$DIMALTU
 70
     2
  9
$DIMALTTD
 70
     3
  9
$DIMTXSTY
  7
Standard
  9
$DIMAUNIT
 70
     0
  9
$DIMADEC
 70
     0
  9
$DIMALTRND
 40
0.0
  9
$DIMAZIN
 70
     0
  9
$DIMDSEP
 70
    44
  9
$DIMATFIT
 70
     3
  9
$DIMFRAC
 70
     0
  9
$DIMLDRBLK
  1

  9
$DIMLUNIT
 70
     2
  9
$DIMLWD
 70
    -2
  9
$DIMLWE
 70
    -2
  9
$DIMTMOVE
 70
     0
  9
$LUNITS
 70
     2
  9
$LUPREC
 70
     4
  9
$SKETCHINC
 40
1.0
  9
$FILLETRAD
 40
0.0
  9
$AUNITS
 70
     0
  9
$AUPREC
 70
     0
  9
$MENU
  1
.
  9
$ELEVATION
 40
0.0
  9
$PELEVATION
 40
0.0
  9
$THICKNESS
 40
0.0
  9
$LIMCHECK
 70
     0
  9
$CHAMFERA
 40
0.0
  9
$CHAMFERB
 40
0.0
  9
$CHAMFERC
 40
20.0
  9
$CHAMFERD
 40
0.0
  9
$SKPOLY
 70
     0
  9
$TDCREATE
 40
2452241.456213345
  9
$TDUCREATE
 40
2452240.956213345
  9
$TDUPDATE
 40
2455812.453657940
  9
$TDUUPDATE
 40
2455811.953657940
  9
$TDINDWG
 40
1.3375114815
  9
$TDUSRTIMER
 40
1.3375113657
  9
$USRTIMER
 70
     1
  9
$ANGBASE
 50
0.0
  9
$ANGDIR
 70
     0
  9
$PDMODE
 70
     3
  9
$PDSIZE
 40
3.0
  9
$PLINEWID
 40
0.0
  9
$SPLFRAME
 70
     0
  9
$SPLINETYPE
 70
     6
  9
$SPLINESEGS
 70
     8
  9
$HANDSEED
  5
586B
  9
$SURFTAB1
 70
     6
  9
$SURFTAB2
 70
     6
  9
$SURFTYPE
 70
     6
  9
$SURFU
 70
     6
  9
$SURFV
 70
     6
  9
$UCSBASE
  2

  9
$UCSNAME
  2

  9
$UCSORG
 10
0.0
 20
0.0
 30
0.0
  9
$UCSXDIR
 10
1.0
 20
0.0
 30
0.0
  9
$UCSYDIR
 10
0.0
 20
1.0
 30
0.0
  9
$UCSORTHOREF
  2

  9
$UCSORTHOVIEW
 70
     0
  9
$UCSORGTOP
 10
0.0
 20
0.0
 30
0.0
  9
$UCSORGBOTTOM
 10
0.0
 20
0.0
 30
0.0
  9
$UCSORGLEFT
 10
0.0
 20
0.0
 30
0.0
  9
$UCSORGRIGHT
 10
0.0
 20
0.0
 30
0.0
  9
$UCSORGFRONT
 10
0.0
 20
0.0
 30
0.0
  9
$UCSORGBACK
 10
0.0
 20
0.0
 30
0.0
  9
$PUCSBASE
  2

  9
$PUCSNAME
  2

  9
$PUCSORG
 10
0.0
 20
0.0
 30
0.0
  9
$PUCSXDIR
 10
1.0
 20
0.0
 30
0.0
  9
$PUCSYDIR
 10
0.0
 20
1.0
 30
0.0
  9
$PUCSORTHOREF
  2

  9
$PUCSORTHOVIEW
 70
     0
  9
$PUCSORGTOP
 10
0.0
 20
0.0
 30
0.0
  9
$PUCSORGBOTTOM
 10
0.0
 20
0.0
 30
0.0
  9
$PUCSORGLEFT
 10
0.0
 20
0.0
 30
0.0
  9
$PUCSORGRIGHT
 10
0.0
 20
0.0
 30
0.0
  9
$PUCSORGFRONT
 10
0.0
 20
0.0
 30
0.0
  9
$PUCSORGBACK
 10
0.0
 20
0.0
 30
0.0
  9
$USERI1
 70
     0
  9
$USERI2
 70
     0
  9
$USERI3
 70
     0
  9
$USERI4
 70
     0
  9
$USERI5
 70
     0
  9
$USERR1
 40
0.0
  9
$USERR2
 40
0.0
  9
$USERR3
 40
0.0
  9
$USERR4
 40
0.0
  9
$USERR5
 40
0.0
  9
$WORLDVIEW
 70
     1
  9
$SHADEDGE
 70
     3
  9
$SHADEDIF
 70
    70
  9
$TILEMODE
 70
     0
  9
$MAXACTVP
 70
    48
  9
$PINSBASE
 10
0.0
 20
0.0
 30
0.0
  9
$PLIMCHECK
 70
     0
  9
$PEXTMIN
 10
23.17482469882509
 20
4.583370505175025
 30
-0.0015258207003583
  9
$PEXTMAX
 10
201.1939435889104
 20
279.5577478140557
 30
0.0000000349246037
  9
$PLIMMIN
 10
6.559492914477232
 20
-3.52104273482098
  9
$PLIMMAX
 10
216.4481495306882
 20
293.5319662983821
  9
$UNITMODE
 70
     0
  9
$VISRETAIN
 70
     1
  9
$PLINEGEN
 70
     0
  9
$PSLTSCALE
 70
     1
  9
$TREEDEPTH
 70
  3020
  9
$CMLSTYLE
  2
Standard
  9
$CMLJUST
 70
     0
  9
$CMLSCALE
 40
20.0
  9
$PROXYGRAPHICS
 70
     1
  9
$MEASUREMENT
 70
     1
  9
$CELWEIGHT
370
    -1
  9
$ENDCAPS
280
     0
  9
$JOINSTYLE
280
     0
  9
$LWDISPLAY
290
     0
  9
$INSUNITS
 70
     4
  9
$HYPERLINKBASE
  1

  9
$STYLESHEET
  1
A4 Specifier Manual.ctb
  9
$XEDIT
290
     1
  9
$CEPSNTYPE
380
     0
  9
$PSTYLEMODE
290
     1
  9
$FINGERPRINTGUID
  2
{D079D194-C9C2-11D5-B123-005004D48FB5}
  9
$VERSIONGUID
  2
{C10EB721-22A1-4083-82DD-2965E1F6773E}
  9
$EXTNAMES
290
     1
  9
$PSVPSCALE
 40
0.0
  9
$OLESTARTUP
290
     0
  0
ENDSEC
  0
SECTION
  2
CLASSES
  0
CLASS
  1
ACDBDICTIONARYWDFLT
  2
AcDbDictionaryWithDefault
  3
ObjectDBX Classes
 90
        0
280
     0
281
     0
  0
CLASS
  1
ACDBPLACEHOLDER
  2
AcDbPlaceHolder
  3
ObjectDBX Classes
 90
        0
280
     0
281
     0
  0
CLASS
  1
LAYOUT
  2
AcDbLayout
  3
ObjectDBX Classes
 90
        0
280
     0
281
     0
  0
CLASS
  1
DICTIONARYVAR
  2
AcDbDictionaryVar
  3
ObjectDBX Classes
 90
        0
280
     0
281
     0
  0
CLASS
  1
IDBUFFER
  2
AcDbIdBuffer
  3
ObjectDBX Classes
 90
    32768
280
     0
281
     0
  0
CLASS
  1
LONG_TRANSACTION
  2
AcDbLongTransaction
  3
ObjectDBX Classes
 90
    32768
280
     0
281
     0
  0
CLASS
  1
LWPOLYLINE
  2
AcDbPolyline
  3
ObjectDBX Classes
 90
        0
280
     0
281
     1
  0
CLASS
  1
HATCH
  2
AcDbHatch
  3
ObjectDBX Classes
 90
        0
280
     0
281
     1
  0
CLASS
  1
XRECORD
  2
AcDbXrecord
  3
ObjectDBX Classes
 90
        0
280
     0
281
     0
  0
CLASS
  1
LONG_TRANSACTION
  2
AcDbLongTransaction
  3
ObjectDBX Classes
 90
    32768
280
     0
281
     0
  0
CLASS
  1
LWPOLYLINE
  2
AcDbPolyline
  3
ObjectDBX Classes
 90
        0
280
     0
281
     1
  0
CLASS
  1
HATCH
  2
AcDbHatch
  3
ObjectDBX Classes
 90
        0
280
     0
281
     1
  0
CLASS
  1
XRECORD
  2
AcDbXrecord
  3
ObjectDBX Classes
 90
        0
280
     0
281
     0
  0
CLASS
  1
LONG_TRANSACTION
  2
AcDbLongTransaction
  3
ObjectDBX Classes
 90
    32768
280
     0
281
     0
  0
CLASS
  1
LWPOLYLINE
  2
AcDbPolyline
  3
ObjectDBX Classes
 90
        0
280
     0
281
     1
  0
CLASS
  1
HATCH
  2
AcDbHatch
  3
ObjectDBX Classes
 90
        0
280
     0
281
     1
  0
CLASS
  1
XRECORD
  2
AcDbXrecord
  3
ObjectDBX Classes
 90
        0
280
     0
281
     0
  0
CLASS
  1
LONG_TRANSACTION
  2
AcDbLongTransaction
  3
ObjectDBX Classes
 90
    32768
280
     0
281
     0
  0
CLASS
  1
LWPOLYLINE
  2
AcDbPolyline
  3
ObjectDBX Classes
 90
        0
280
     0
281
     1
  0
CLASS
  1
HATCH
  2
AcDbHatch
  3
ObjectDBX Classes
 90
        0
280
     0
281
     1
  0
CLASS
  1
XRECORD
  2
AcDbXrecord
  3
ObjectDBX Classes
 90
        0
280
     0
281
     0
  0
CLASS
  1
PLOTSETTINGS
  2
AcDbPlotSettings
  3
ObjectDBX Classes
 90
        0
280
     0
281
     0
  0
CLASS
  1
DIMASSOC
  2
AcDbDimAssoc
  3
"AcDbDimAssoc|Product Desc:     AcDim ARX App For Dimension|Company:          Autodesk, Inc.|WEB Address:      www.autodesk.com"
 90
    32768
280
     0
281
     0
  0
CLASS
  1
TABLESTYLE
  2
AcDbTableStyle
  3
ObjectDBX Classes
 90
     2047
280
     0
281
     0
  0
CLASS
  1
SORTENTSTABLE
  2
AcDbSortentsTable
  3
ObjectDBX Classes
 90
        0
280
     0
281
     0
  0
CLASS
  1
MATERIAL
  2
AcDbMaterial
  3
ObjectDBX Classes
 90
        0
280
     0
281
     0
  0
CLASS
  1
VISUALSTYLE
  2
AcDbVisualStyle
  3
ObjectDBX Classes
 90
     4095
280
     0
281
     0
  0
CLASS
  1
SCALE
  2
AcDbScale
  3
ObjectDBX Classes
 90
     1153
280
     0
281
     0
  0
CLASS
  1
MLEADERSTYLE
  2
AcDbMLeaderStyle
  3
ACDB_MLEADERSTYLE_CLASS
 90
     4095
280
     0
281
     0
  0
CLASS
  1
EXACTERMXREFMAP
  2
ExAcTermXrefMap
  3
EXAC_SERVICE
 90
    33793
280
     0
281
     0
  0
CLASS
  1
NPOCOLLECTION
  2
AcDbImpNonPersistentObjectsCollection
  3
ObjectDBX Classes
 90
    33921
280
     0
281
     0
  0
CLASS
  1
EXACXREFPANELOBJECT
  2
ExAcXREFPanelObject
  3
EXAC_ESW
 90
    33793
280
     0
281
     0
  0
CLASS
  1
CELLSTYLEMAP
  2
AcDbCellStyleMap
  3
ObjectDBX Classes
 90
     1152
280
     0
281
     0
  0
ENDSEC
  0
SECTION
  2
TABLES
  0
TABLE
  2
VPORT
  5
8
102
{ACAD_XDICTIONARY
360
51EC
102
}
330
0
100
AcDbSymbolTable
 70
     1
  0
VPORT
  5
544C
330
8
100
AcDbSymbolTableRecord
100
AcDbViewportTableRecord
  2
*Active
 70
     0
 10
0.0
 20
0.0
 11
1.0
 21
1.0
 12
177.00000001637
 22
241.0000012331306
 13
0.0
 23
0.0
 14
10.0
 24
10.0
 15
10.0
 25
10.0
 16
0.0
 26
0.0
 36
1.0
 17
0.0
 27
0.0
 37
0.0
 40
486.0631379323371
 41
2.243016759776536
 42
50.0
 43
0.0
 44
0.0
 50
0.0
 51
0.0
 71
     0
 72
 20000
 73
     1
 74
     3
 75
     0
 76
     0
 77
     0
 78
     0
281
     0
 65
     1
110
0.0
120
0.0
130
0.0
111
1.0
121
0.0
131
0.0
112
0.0
122
1.0
132
0.0
 79
     0
146
0.0
  0
ENDTAB
  0
TABLE
  2
LTYPE
  5
5
330
0
100
AcDbSymbolTable
 70
     2
  0
LTYPE
  5
14
330
5
100
AcDbSymbolTableRecord
100
AcDbLinetypeTableRecord
  2
ByBlock
 70
     0
  3

 72
    65
 73
     0
 40
0.0
  0
LTYPE
  5
15
330
5
100
AcDbSymbolTableRecord
100
AcDbLinetypeTableRecord
  2
ByLayer
 70
     0
  3

 72
    65
 73
     0
 40
0.0
  0
LTYPE
  5
16
330
5
100
AcDbSymbolTableRecord
100
AcDbLinetypeTableRecord
  2
Continuous
 70
     0
  3
Solid line
 72
    65
 73
     0
 40
0.0
  0
LTYPE
  5
1123
330
5
100
AcDbSymbolTableRecord
100
AcDbLinetypeTableRecord
  2
DASHED
 70
     0
  3
_ _ _ _ _ _ _ _ _ _ _ _ _ _ _ _
 72
    65
 73
     2
 40
0.2
 49
0.1
 74
     0
 49
-0.1
 74
     0
  0
ENDTAB
  0
TABLE
  2
LAYER
  5
2
102
{ACAD_XDICTIONARY
360
3D3F
102
}
330
0
100
AcDbSymbolTable
 70
     5
  0
LAYER
  5
10
102
{ACAD_XDICTIONARY
360
506B
102
}
330
2
100
AcDbSymbolTableRecord
100
AcDbLayerTableRecord
  2
0
 70
     4
 62
     7
  6
Continuous
290
     0
370
    -3
390
F
  0
LAYER
  5
2B
102
{ACAD_XDICTIONARY
360
506D
102
}
330
2
100
AcDbSymbolTableRecord
100
AcDbLayerTableRecord
  2
APL Joinery
 70
     0
 62
     2
  6
Continuous
370
    -3
390
F
  0
LAYER
  5
75
102
{ACAD_XDICTIONARY
360
506F
102
}
330
2
100
AcDbSymbolTableRecord
100
AcDbLayerTableRecord
  2
APL Notes
 70
     0
 62
     7
  6
Continuous
370
    -3
390
F
  0
LAYER
  5
3590
102
{ACAD_XDICTIONARY
360
5071
102
}
330
2
100
AcDbSymbolTableRecord
100
AcDbLayerTableRecord
  2
APL Border
 70
     0
 62
     7
  6
Continuous
370
    -3
390
F
  0
LAYER
  5
3D1D
102
{ACAD_XDICTIONARY
360
5075
102
}
330
2
100
AcDbSymbolTableRecord
100
AcDbLayerTableRecord
  2
APL Hatch
 70
     0
 62
   253
  6
Continuous
370
    -3
390
F
  0
ENDTAB
  0
TABLE
  2
STYLE
  5
3
330
0
100
AcDbSymbolTable
 70
     6
  0
STYLE
  5
11
330
3
100
AcDbSymbolTableRecord
100
AcDbTextStyleTableRecord
  2
Standard
 70
     0
 40
0.0
 41
1.0
 50
0.0
 71
     0
 42
3.0
  3
txt
  4

  0
STYLE
  5
56
330
3
100
AcDbSymbolTableRecord
100
AcDbTextStyleTableRecord
  2
Arial-Regular
 70
     0
 40
0.0
 41
1.0
 50
0.0
 71
     0
 42
2.5
  3
ARIAL.TTF
  4

1001
ACAD
1000
Arial
1071
       34
  0
STYLE
  5
58
330
3
100
AcDbSymbolTableRecord
100
AcDbTextStyleTableRecord
  2
Arial-Bold
 70
     0
 40
0.0
 41
1.0
 50
0.0
 71
     0
 42
5.0
  3
ARIALBD.TTF
  4

1001
ACAD
1000
Arial
1071
 33554466
  0
STYLE
  5
581F
330
3
100
AcDbSymbolTableRecord
100
AcDbTextStyleTableRecord
  2
Times New Roman - Regular
 70
     0
 40
0.0
 41
1.0
 50
0.0
 71
     0
 42
2.5
  3
TIMES.TTF
  4

1001
ACAD
1000
Times New Roman
1071
       18
  0
ENDTAB
  0
TABLE
  2
VIEW
  5
6
330
0
100
AcDbSymbolTable
 70
     0
  0
ENDTAB
  0
TABLE
  2
UCS
  5
7
330
0
100
AcDbSymbolTable
 70
     0
  0
ENDTAB
  0
TABLE
  2
APPID
  5
9
330
0
100
AcDbSymbolTable
 70
     6
  0
APPID
  5
12
330
9
100
AcDbSymbolTableRecord
100
AcDbRegAppTableRecord
  2
ACAD
 70
     0
  0
APPID
  5
2850
330
9
100
AcDbSymbolTableRecord
100
AcDbRegAppTableRecord
  2
CONTENTBLOCKICON
 70
     0
  0
APPID
  5
3D2A
330
9
100
AcDbSymbolTableRecord
100
AcDbRegAppTableRecord
  2
DCO15
 70
     0
  0
APPID
  5
4FEA
330
9
100
AcDbSymbolTableRecord
100
AcDbRegAppTableRecord
  2
ACAD_MLEADERVER
 70
     0
  0
APPID
  5
5057
330
9
100
AcDbSymbolTableRecord
100
AcDbRegAppTableRecord
  2
ACAD_PSEXT
 70
     0
  0
APPID
  5
5058
330
9
100
AcDbSymbolTableRecord
100
AcDbRegAppTableRecord
  2
ACAD_EXEMPT_FROM_CAD_STANDARDS
 70
     0
  0
ENDTAB
  0
TABLE
  2
DIMSTYLE
  5
A
330
0
100
AcDbSymbolTable
 70
     2
100
AcDbDimStyleTable
 71
     1
340
27
  0
DIMSTYLE
105
27
330
A
100
AcDbSymbolTableRecord
100
AcDbDimStyleTableRecord
  2
ISO-25
 70
     0
 41
4.0
 42
0.625
 43
3.75
 44
1.25
 73
     0
 74
     0
 77
     1
 78
     8
140
2.5
141
2.5
143
0.03937007874016
147
0.625
171
     3
172
     1
271
     2
272
     2
274
     3
278
    44
283
     0
284
     8
340
11
  0
ENDTAB
  0
TABLE
  2
BLOCK_RECORD
  5
1
330
0
100
AcDbSymbolTable
 70
    27
  0
BLOCK_RECORD
  5
1F
102
{ACAD_XDICTIONARY
360
27CE
102
}
330
1
100
AcDbSymbolTableRecord
100
AcDbBlockTableRecord
  2
*Model_Space
340
22
  0
BLOCK_RECORD
  5
39C2
330
1
100
AcDbSymbolTableRecord
100
AcDbBlockTableRecord
  2
*Paper_Space
340
39D2
  0
BLOCK_RECORD
  5
26C9
102
{ACAD_XDICTIONARY
360
2842
102
}
330
1
100
AcDbSymbolTableRecord
100
AcDbBlockTableRecord
  2
07100
340
0
102
{BLKREFS
331
26CD
331
299C
331
2A3D
331
2A45
102
}
1001
ACAD
1000
DesignCenter Data
1002
{
1070
     1
1070
     4
1002
}
  0
BLOCK_RECORD
  5
26CE
102
{ACAD_XDICTIONARY
360
2844
102
}
330
1
100
AcDbSymbolTableRecord
100
AcDbBlockTableRecord
  2
07438
340
0
102
{BLKREFS
331
37DD
331
37E2
102
}
1001
ACAD
1000
DesignCenter Data
1002
{
1070
     1
1070
     4
1002
}
  0
BLOCK_RECORD
  5
26D3
102
{ACAD_XDICTIONARY
360
2846
102
}
330
1
100
AcDbSymbolTableRecord
100
AcDbBlockTableRecord
  2
07124
340
0
102
{BLKREFS
331
5052
102
}
1001
ACAD
1000
DesignCenter Data
1002
{
1070
     1
1070
     4
1002
}
  0
BLOCK_RECORD
  5
26DE
102
{ACAD_XDICTIONARY
360
284A
102
}
330
1
100
AcDbSymbolTableRecord
100
AcDbBlockTableRecord
  2
9700520
340
0
102
{BLKREFS
331
37DF
331
37E4
102
}
1001
ACAD
1000
DesignCenter Data
1002
{
1070
     1
1070
     4
1002
}
  0
BLOCK_RECORD
  5
26E8
102
{ACAD_XDICTIONARY
360
27D6
102
}
330
1
100
AcDbSymbolTableRecord
100
AcDbBlockTableRecord
  2
6glass
340
0
102
{BLKREFS
331
53A6
331
53AB
102
}
  0
BLOCK_RECORD
  5
26F6
102
{ACAD_XDICTIONARY
360
284E
102
}
330
1
100
AcDbSymbolTableRecord
100
AcDbBlockTableRecord
  2
9010604
340
0
102
{BLKREFS
331
503E
331
5047
331
5050
331
53A8
102
}
1001
ACAD
1000
DesignCenter Data
1002
{
1070
     1
1070
     4
1002
}
  0
BLOCK_RECORD
  5
2709
102
{ACAD_XDICTIONARY
360
2851
102
}
330
1
100
AcDbSymbolTableRecord
100
AcDbBlockTableRecord
  2
07103
340
0
102
{BLKREFS
331
3559
331
356E
102
}
1001
ACAD
1000
DesignCenter Data
1002
{
1070
     1
1070
     4
1002
}
  0
BLOCK_RECORD
  5
270F
102
{ACAD_XDICTIONARY
360
2853
102
}
330
1
100
AcDbSymbolTableRecord
100
AcDbBlockTableRecord
  2
07110
340
0
102
{BLKREFS
331
2713
102
}
1001
ACAD
1000
DesignCenter Data
1002
{
1070
     1
1070
     4
1002
}
  0
BLOCK_RECORD
  5
2714
102
{ACAD_XDICTIONARY
360
2855
102
}
330
1
100
AcDbSymbolTableRecord
100
AcDbBlockTableRecord
  2
9700530
340
0
102
{BLKREFS
331
2718
102
}
1001
ACAD
1000
DesignCenter Data
1002
{
1070
     1
1070
     4
1002
}
  0
BLOCK_RECORD
  5
271A
102
{ACAD_XDICTIONARY
360
27DA
102
}
330
1
100
AcDbSymbolTableRecord
100
AcDbBlockTableRecord
  2
Timber Profile 5
340
0
102
{BLKREFS
331
271E
102
}
1001
ACAD
1000
DesignCenter Data
1002
{
1070
     1
1070
     4
1002
}
  0
BLOCK_RECORD
  5
28E9
102
{ACAD_XDICTIONARY
360
2AEB
102
}
330
1
100
AcDbSymbolTableRecord
100
AcDbBlockTableRecord
  2
sw30mmliner
340
0
310
2800000020000000200000000100080000000000000400000000000000000000000000000000000000000000000080000080000000808000800000008000800080800000C0C0C000C0DCC000F0CAA6000020400000206000002080000020A0000020C0000020E00000400000004020000040400000406000004080000040A0
310
000040C0000040E00000600000006020000060400000606000006080000060A0000060C0000060E00000800000008020000080400000806000008080000080A0000080C0000080E00000A0000000A0200000A0400000A0600000A0800000A0A00000A0C00000A0E00000C0000000C0200000C0400000C0600000C0800000C0
310
A00000C0C00000C0E00000E0000000E0200000E0400000E0600000E0800000E0A00000E0C00000E0E00040000000400020004000400040006000400080004000A0004000C0004000E00040200000402020004020400040206000402080004020A0004020C0004020E000404000004040200040404000404060004040800040
310
40A0004040C0004040E00040600000406020004060400040606000406080004060A0004060C0004060E00040800000408020004080400040806000408080004080A0004080C0004080E00040A0000040A0200040A0400040A0600040A0800040A0A00040A0C00040A0E00040C0000040C0200040C0400040C0600040C08000
310
40C0A00040C0C00040C0E00040E0000040E0200040E0400040E0600040E0800040E0A00040E0C00040E0E00080000000800020008000400080006000800080008000A0008000C0008000E00080200000802020008020400080206000802080008020A0008020C0008020E00080400000804020008040400080406000804080
310
008040A0008040C0008040E00080600000806020008060400080606000806080008060A0008060C0008060E00080800000808020008080400080806000808080008080A0008080C0008080E00080A0000080A0200080A0400080A0600080A0800080A0A00080A0C00080A0E00080C0000080C0200080C0400080C0600080C0
310
800080C0A00080C0C00080C0E00080E0000080E0200080E0400080E0600080E0800080E0A00080E0C00080E0E000C0000000C0002000C0004000C0006000C0008000C000A000C000C000C000E000C0200000C0202000C0204000C0206000C0208000C020A000C020C000C020E000C0400000C0402000C0404000C0406000C0
310
408000C040A000C040C000C040E000C0600000C0602000C0604000C0606000C0608000C060A000C060C000C060E000C0800000C0802000C0804000C0806000C0808000C080A000C080C000C080E000C0A00000C0A02000C0A04000C0A06000C0A08000C0A0A000C0A0C000C0A0E000C0C00000C0C02000C0C04000C0C06000
310
C0C08000C0C0A000F0FBFF00A4A0A000808080000000FF0000FF000000FFFF00FF000000FF00FF00FFFF0000FFFFFF0000000000000000000000000000000000000000000000000000000000000000000000000000000000000000000000000000000000000000000000000000000000000000000000000000000000000000
310
00000000000000000000000000000000000000000000000000000000000000000000000000000000000000000000000000000000000000000000000000000000000000000000000000000000000000000000000000000000000000000000000000000000000000000000000000000000000000000000000000000000000000
310
00000000000000000000000000000000000000000000000000000000000000000000000000000000000000000000000000000000000000000000000000000000000000000000000000000000000000000000000000000000000000000000000000000000000000000000000000000000000000000000000000000000000000
310
0000000000000000000000000000000000000000FAFAFAFAFAFAFAFAFAFAFAFAFAFAFAFAFAFAFAFAFAFAFAFAFAFAFAFAFA000000FA000000A4000000000000A400A40000000000A4000000000000A40000FA0000FAFAFA00A400000000000000A4000000000000A400000000000000A400FA0000FAFAFA00A4000000000000
310
A4A400000000000000A4000000000000A4A4FA0000FA0000A4A40000000000A40000A4000000000000A40000A4A4A4A400A4FA0000FA000000A4A4A40000A4000000A4000000000000A4A4A40000000000A4FA0000FAFAFAFAFAFAFAFAFA0000000000A40000A4A4A400A400000000000000FA00000000000000000000FA00
310
000000A4A4A4A40000000000FAFAFAFA000000FA00000000000000000000FA0000A4A40000A4000000000000FA0000FA000000FA00000000000000000000FAFAFAFAFAFAFAFAFAFAFAFAFAFAFA0000FAFAFAFA0000000000000000000000000000000000000000000000000000000000000000000000000000000000000000
310
00000000000000000000000000000000000000000000000000000000000000000000000000000000000000000000000000000000000000000000000000000000000000000000000000000000000000000000000000000000000000000000000000000000000000000000000000000000000000000000000000000000000000
310
00000000000000000000000000000000000000000000000000000000000000000000000000000000000000000000000000000000000000000000000000000000000000000000000000000000000000000000000000000000000000000000000000000000000000000000000000000000000000000000000000000000000000
310
0000000000000000000000000000000000000000000000000000000000000000000000000000000000000000000000000000000000000000
102
{BLKREFS
331
28ED
331
2A40
331
2A46
331
3B11
102
}
  0
BLOCK_RECORD
  5
298A
102
{ACAD_XDICTIONARY
360
2B6C
102
}
330
1
100
AcDbSymbolTableRecord
100
AcDbBlockTableRecord
  2
9700529
340
0
102
{BLKREFS
331
355B
331
3571
102
}
1001
ACAD
1000
DesignCenter Data
1002
{
1070
     1
1070
     4
1002
}
  0
BLOCK_RECORD
  5
298F
102
{ACAD_XDICTIONARY
360
2AEF
102
}
330
1
100
AcDbSymbolTableRecord
100
AcDbBlockTableRecord
  2
Timber Profile 14
340
0
102
{BLKREFS
331
355A
331
3570
102
}
1001
ACAD
1000
DesignCenter Data
1002
{
1070
     1
1070
     4
1002
}
  0
BLOCK_RECORD
  5
29A3
102
{ACAD_XDICTIONARY
360
2B6F
102
}
330
1
100
AcDbSymbolTableRecord
100
AcDbBlockTableRecord
  2
9010100
340
0
102
{BLKREFS
331
356F
102
}
1001
ACAD
1000
DesignCenter Data
1002
{
1070
     1
1070
     4
1002
}
  0
BLOCK_RECORD
  5
2C4C
330
1
100
AcDbSymbolTableRecord
100
AcDbBlockTableRecord
  2
07103Sash
340
0
310
2800000020000000200000000100080000000000000400000000000000000000000000000000000000000000000080000080000000808000800000008000800080800000C0C0C000C0DCC000F0CAA6000020400000206000002080000020A0000020C0000020E00000400000004020000040400000406000004080000040A0
310
000040C0000040E00000600000006020000060400000606000006080000060A0000060C0000060E00000800000008020000080400000806000008080000080A0000080C0000080E00000A0000000A0200000A0400000A0600000A0800000A0A00000A0C00000A0E00000C0000000C0200000C0400000C0600000C0800000C0
310
A00000C0C00000C0E00000E0000000E0200000E0400000E0600000E0800000E0A00000E0C00000E0E00040000000400020004000400040006000400080004000A0004000C0004000E00040200000402020004020400040206000402080004020A0004020C0004020E000404000004040200040404000404060004040800040
310
40A0004040C0004040E00040600000406020004060400040606000406080004060A0004060C0004060E00040800000408020004080400040806000408080004080A0004080C0004080E00040A0000040A0200040A0400040A0600040A0800040A0A00040A0C00040A0E00040C0000040C0200040C0400040C0600040C08000
310
40C0A00040C0C00040C0E00040E0000040E0200040E0400040E0600040E0800040E0A00040E0C00040E0E00080000000800020008000400080006000800080008000A0008000C0008000E00080200000802020008020400080206000802080008020A0008020C0008020E00080400000804020008040400080406000804080
310
008040A0008040C0008040E00080600000806020008060400080606000806080008060A0008060C0008060E00080800000808020008080400080806000808080008080A0008080C0008080E00080A0000080A0200080A0400080A0600080A0800080A0A00080A0C00080A0E00080C0000080C0200080C0400080C0600080C0
310
800080C0A00080C0C00080C0E00080E0000080E0200080E0400080E0600080E0800080E0A00080E0C00080E0E000C0000000C0002000C0004000C0006000C0008000C000A000C000C000C000E000C0200000C0202000C0204000C0206000C0208000C020A000C020C000C020E000C0400000C0402000C0404000C0406000C0
310
408000C040A000C040C000C040E000C0600000C0602000C0604000C0606000C0608000C060A000C060C000C060E000C0800000C0802000C0804000C0806000C0808000C080A000C080C000C080E000C0A00000C0A02000C0A04000C0A06000C0A08000C0A0A000C0A0C000C0A0E000C0C00000C0C02000C0C04000C0C06000
310
C0C08000C0C0A000F0FBFF00A4A0A000808080000000FF0000FF000000FFFF00FF000000FF00FF00FFFF0000FFFFFF0000000000000000000000000000000000000000000000000000000000000000000000000000000000000000000000000000000000FAFAFAFAFA00000000000000000000000000000000000000000000
310
0000000000FA000000FA00000000000000000000000000000000000000000000000000FBA4A4000000FA0000000000000000000000000000000000000000000000000000A4A4000000FA00000000000000000000000000000000000000000000000000FBA4A4000000FA000000000000000000000000000000000000000000
310
00000000FBA4A4000000FA0000000000000000000000000000000000000000000000000000A4A4000000FA0000000000000000000000000000000000000000000000000000A4A4000000FA0000000000000000000000000000000000000000000000000000A4A4000000FA0000000000000000000000000000000000000000
310
000000000000A4A4000000FA0000000000000000000000FBFB000000FBFBFBFBFBFBFBFBFBFBA4A4000000FA0000000000000000000000FBFB00000000FBFBFBFBFBFBFBFBFBA4A4000000FA0000000000000000000000FBFBFBFBFBFBFBFB00000000000000A4A4000000FA0000000000000000000000FBFBFBFBFBFBFB00
310
00000000000000A4A4000000FA0000000000000000000000FBFB00000000000000000000000000A4A400FA00FA0000000000000000000000FBFB00000000000000000000000000A4A400A400A4A4A4A40000000000000000FBFB00000000000000000000000000A4A4A4A400A4A4A4A40000000000000000FBFB0000000000
310
FBFBFB0000FBFBFBFBFBA4A400A4A4A4000000000000000000FBFB0000000000FBFB00FB00FBFB000000FBA400A4A4A4000000000000000000FBFB00000000FBFBFBFBFBFBFBFBFB0000FBA4FAA4A400000000000000000000FBFB000000FBFBFB000000000000000000FBFBFBFB0000000000000000000000FBFB0000FBFB
310
000000000000000000000000000000000000000000000000000000FB00FB0000000000000000000000000000000000000000000000000000000000FBFB00000000000000000000000000000000000000000000000000000000000000FB00000000A40000000000000000000000000000000000000000000000000000FBFB00
310
FBFBA4000000000000000000000000000000000000000000000000000000FB00FBA4A4000000000000000000000000000000000000000000000000000000FBFBFBA4A400000000000000000000000000000000000000000000000000000000FBFBFBA400000000000000000000000000000000000000000000000000000000
310
000000A400000000000000000000000000000000000000000000000000000000000000000000000000000000000000000000000000000000
102
{BLKREFS
331
3573
102
}
1001
ACAD
1000
DesignCenter Data
1002
{
1070
     1
1070
     4
1002
}
  0
BLOCK_RECORD
  5
2C7B
330
1
100
AcDbSymbolTableRecord
100
AcDbBlockTableRecord
  2
9700158
340
0
102
{BLKREFS
331
3554
331
3572
331
503C
331
5045
331
504E
331
53A7
102
}
1001
ACAD
1000
DesignCenter Data
1002
{
1070
     1
1070
     4
1002
}
  0
BLOCK_RECORD
  5
2CA0
330
1
100
AcDbSymbolTableRecord
100
AcDbBlockTableRecord
  2
07103SashS
340
0
310
2800000020000000200000000100080000000000000400000000000000000000000000000000000000000000000080000080000000808000800000008000800080800000C0C0C000C0DCC000F0CAA6000020400000206000002080000020A0000020C0000020E00000400000004020000040400000406000004080000040A0
310
000040C0000040E00000600000006020000060400000606000006080000060A0000060C0000060E00000800000008020000080400000806000008080000080A0000080C0000080E00000A0000000A0200000A0400000A0600000A0800000A0A00000A0C00000A0E00000C0000000C0200000C0400000C0600000C0800000C0
310
A00000C0C00000C0E00000E0000000E0200000E0400000E0600000E0800000E0A00000E0C00000E0E00040000000400020004000400040006000400080004000A0004000C0004000E00040200000402020004020400040206000402080004020A0004020C0004020E000404000004040200040404000404060004040800040
310
40A0004040C0004040E00040600000406020004060400040606000406080004060A0004060C0004060E00040800000408020004080400040806000408080004080A0004080C0004080E00040A0000040A0200040A0400040A0600040A0800040A0A00040A0C00040A0E00040C0000040C0200040C0400040C0600040C08000
310
40C0A00040C0C00040C0E00040E0000040E0200040E0400040E0600040E0800040E0A00040E0C00040E0E00080000000800020008000400080006000800080008000A0008000C0008000E00080200000802020008020400080206000802080008020A0008020C0008020E00080400000804020008040400080406000804080
310
008040A0008040C0008040E00080600000806020008060400080606000806080008060A0008060C0008060E00080800000808020008080400080806000808080008080A0008080C0008080E00080A0000080A0200080A0400080A0600080A0800080A0A00080A0C00080A0E00080C0000080C0200080C0400080C0600080C0
310
800080C0A00080C0C00080C0E00080E0000080E0200080E0400080E0600080E0800080E0A00080E0C00080E0E000C0000000C0002000C0004000C0006000C0008000C000A000C000C000C000E000C0200000C0202000C0204000C0206000C0208000C020A000C020C000C020E000C0400000C0402000C0404000C0406000C0
310
408000C040A000C040C000C040E000C0600000C0602000C0604000C0606000C0608000C060A000C060C000C060E000C0800000C0802000C0804000C0806000C0808000C080A000C080C000C080E000C0A00000C0A02000C0A04000C0A06000C0A08000C0A0A000C0A0C000C0A0E000C0C00000C0C02000C0C04000C0C06000
310
C0C08000C0C0A000F0FBFF00A4A0A000808080000000FF0000FF000000FFFF00FF000000FF00FF00FFFF0000FFFFFF00000000000000000000000000000000000000000000000000000000000000000000000000000000000000FBFB0000000000000000000000000000000000000000000000000000000000FBFBFBFB0000
310
00000000000000000000000000000000000000000000000000FBFBFBFB00000000000000000000000000000000000000000000000000000000FBFBFBFBFB0000000000000000000000000000000000000000000000000000FBFB0000FB000000000000000000000000000000000000000000000000000000FB000000000000
310
000000000000000000000000000000000000000000000000FBFBFB0000000000000000000000000000000000000000000000000000000000FB00FBFB000000000000000000000000000000000000000000000000000000FBFB0000FBFB0000000000000000000000000000000000000000000000000000FBFB000000FBFBFB
310
FBFBFBFBFBFBFBFB0000FBFBFBFB00000000000000000000FBFB00000000FBFBFBFBFBFBFBFBFBFB0000A4A4FAFA00000000000000000000FBFB000000000000FBFBFB00FBFBFBFBFBFBA4A400FA00000000000000000000FBFB000000000000FB00FB0000FBFBFBFBA4A4A400FA00000000000000000000FBFB0000000000
310
0000000000000000A4A4A4A4A400FA00000000000000000000FBFB00000000000000000000000000A4A400A4A400FA00000000000000000000FBFB00000000000000000000000000A4A400FAFA00FA00000000000000000000FBFBFBFBFBFBFB0000000000000000A4A400000000FA00000000000000000000FBFBFBFBFBFB
310
FBFB00000000000000A4A400000000FA00000000000000000000FBFB00000000FBFBFBFBFBFBFBFBFBA4A400000000FA00000000000000000000FBFB000000FBFBFBFBFBFBFBFBFBFBA4A400000000FA00000000000000000000000000000000000000000000000000A4A400000000FA000000000000000000000000000000
310
00000000000000000000A4A400000000FA00000000000000000000000000000000000000000000000000A4A400000000FA00000000000000000000000000000000000000000000000000A4A400000000FA000000000000000000000000000000000000000000000000FBA4A400000000FA0000000000000000000000000000
310
00000000000000000000FBA4A400000000FA00000000000000000000000000000000000000000000000000A4A400000000FA000000000000000000000000000000000000000000000000FBA4A400000000FA0000000000000000000000000000000000000000000000000000FA00000000FA00000000000000000000000000
310
00000000000000000000000000FAFAFAFAFAFA00000000000000000000000000000000000000000000000000000000000000000000000000
102
{BLKREFS
331
355C
102
}
1001
ACAD
1000
DesignCenter Data
1002
{
1070
     1
1070
     4
1002
}
  0
BLOCK_RECORD
  5
352A
330
1
100
AcDbSymbolTableRecord
100
AcDbBlockTableRecord
  2
Miro Window Fastner
340
0
102
{BLKREFS
331
352E
102
}
  0
BLOCK_RECORD
  5
353C
330
1
100
AcDbSymbolTableRecord
100
AcDbBlockTableRecord
  2
9700183
340
0
102
{BLKREFS
331
5043
331
504C
102
}
1001
ACAD
1000
DesignCenter Data
1002
{
1070
     1
1070
     4
1002
}
  0
BLOCK_RECORD
  5
37E9
330
1
100
AcDbSymbolTableRecord
100
AcDbBlockTableRecord
  2
Timber Profile 24 - modified
340
0
310
2800000020000000200000000100080000000000000400000000000000000000000000000000000000000000000080000080000000808000800000008000800080800000C0C0C000C0DCC000F0CAA6000020400000206000002080000020A0000020C0000020E00000400000004020000040400000406000004080000040A0
310
000040C0000040E00000600000006020000060400000606000006080000060A0000060C0000060E00000800000008020000080400000806000008080000080A0000080C0000080E00000A0000000A0200000A0400000A0600000A0800000A0A00000A0C00000A0E00000C0000000C0200000C0400000C0600000C0800000C0
310
A00000C0C00000C0E00000E0000000E0200000E0400000E0600000E0800000E0A00000E0C00000E0E00040000000400020004000400040006000400080004000A0004000C0004000E00040200000402020004020400040206000402080004020A0004020C0004020E000404000004040200040404000404060004040800040
310
40A0004040C0004040E00040600000406020004060400040606000406080004060A0004060C0004060E00040800000408020004080400040806000408080004080A0004080C0004080E00040A0000040A0200040A0400040A0600040A0800040A0A00040A0C00040A0E00040C0000040C0200040C0400040C0600040C08000
310
40C0A00040C0C00040C0E00040E0000040E0200040E0400040E0600040E0800040E0A00040E0C00040E0E00080000000800020008000400080006000800080008000A0008000C0008000E00080200000802020008020400080206000802080008020A0008020C0008020E00080400000804020008040400080406000804080
310
008040A0008040C0008040E00080600000806020008060400080606000806080008060A0008060C0008060E00080800000808020008080400080806000808080008080A0008080C0008080E00080A0000080A0200080A0400080A0600080A0800080A0A00080A0C00080A0E00080C0000080C0200080C0400080C0600080C0
310
800080C0A00080C0C00080C0E00080E0000080E0200080E0400080E0600080E0800080E0A00080E0C00080E0E000C0000000C0002000C0004000C0006000C0008000C000A000C000C000C000E000C0200000C0202000C0204000C0206000C0208000C020A000C020C000C020E000C0400000C0402000C0404000C0406000C0
310
408000C040A000C040C000C040E000C0600000C0602000C0604000C0606000C0608000C060A000C060C000C060E000C0800000C0802000C0804000C0806000C0808000C080A000C080C000C080E000C0A00000C0A02000C0A04000C0A06000C0A08000C0A0A000C0A0C000C0A0E000C0C00000C0C02000C0C04000C0C06000
310
C0C08000C0C0A000F0FBFF00A4A0A000808080000000FF0000FF000000FFFF00FF000000FF00FF00FFFF0000FFFFFF0000000000000000000000000000000000000000000000000000000000000000000000000000000000000000000000000000FAFAFAFAFAFAFA0000000000000000000000000000000000000000000000
310
0000FA0000000000FA00000000000000000000000000000000000000000000000000FA0000000000FA00000000000000000000000000000000000000000000000000FA0000000000FA00000000000000000000000000000000000000000000000000FA0000000000FA00000000000000000000000000000000000000000000
310
000000FA0000000000FA00000000000000000000000000000000000000000000000000FA0000000000FA00000000000000000000000000000000000000000000000000FA0000000000FA00000000000000000000000000000000FAFAFAFAFAFAFAFA00FA0000000000FA00000000000000000000000000000000FA00070000
310
0000FA00FA0000000000FA00000000000000000000000000000000FA000007070000FA00FA0000000000FA00000000000000000000000000000000FA000000000707FAFAFA0000000000FA00000000000000000000000000000000FA0000000000000700000000000000FA00000000000000000000000000000000FA000000
310
0000000007000000000000FA00000000000000000000000000000000FA0000000000000000070000000000FA00000000000000000000000000000000FA0000000000000000070000000000FA00000000000000000000000000000000FA0700000000000000000700000000FA00000000000000000000000000000000FA0007
310
070000000000000007000000FA00000000000000000000000000000000FA0000000700000000000007070000FA00000000000000000000000000000000FA0000000007000000000000070000FA00000000000000000000000000000000FA0000000000070000000000070700FA00000000000000000000000000000000FA00
310
00000000070700000000000700FA00000000000000000000000000000000FA0000000000000700000000000700FA00000000000000000000000000000000FA0000000000000700000000000700FA00000000000000000000000000000000FA0000000000000700000000000700FA00000000000000000000000000000000FA
310
0000000000000007000000000700FA00000000000000000000000000000000FA0000000000000007000000000700FA00000000000000000000000000000000FA0000000000000007000000000700FA00000000000000000000000000000000FA0000000000000000000000000000FA00000000000000000000000000000000
310
FAFAFAFAFAFAFAFAFAFAFAFAFAFAFAFA00000000000000000000000000000000000000000000000000000000000000000000000000000000
102
{BLKREFS
331
38BC
331
38BD
102
}
1001
ACAD
1000
DesignCenter Data
1002
{
1070
     1
1070
     4
1002
}
  0
BLOCK_RECORD
  5
39D7
330
1
100
AcDbSymbolTableRecord
100
AcDbBlockTableRecord
  2
smartwood a4 SM border
340
0
102
{BLKREFS
331
3A23
331
5494
331
54AA
102
}
1001
ACAD
1000
DesignCenter Data
1002
{
1070
     1
1070
     4
1002
}
  0
BLOCK_RECORD
  5
3BAE
330
1
100
AcDbSymbolTableRecord
100
AcDbBlockTableRecord
  2
smartwood a4 SM attributes (2)
340
0
102
{BLKREFS
331
3BB9
331
5495
331
54AB
331
5508
102
}
1001
ACAD
1000
DesignCenter Data
1002
{
1070
     1
1070
     4
1002
}
  0
BLOCK_RECORD
  5
5059
330
1
100
AcDbSymbolTableRecord
100
AcDbBlockTableRecord
  2
24mm IGU
340
0
102
{BLKREFS
331
5068
331
5069
331
506A
102
}
  0
BLOCK_RECORD
  5
53A0
102
{ACAD_XDICTIONARY
360
5836
102
}
330
1
100
AcDbSymbolTableRecord
100
AcDbBlockTableRecord
  2
07123
340
0
102
{BLKREFS
331
53A5
331
5440
331
5441
102
}
1001
ACAD
1000
DesignCenter Data
1002
{
1070
     1
1070
     4
1002
}
  0
BLOCK_RECORD
  5
53A3
330
1
100
AcDbSymbolTableRecord
100
AcDbBlockTableRecord
  2
07123Glaze
340
0
310
2800000020000000200000000100080000000000000400000000000000000000000000000000000000000000000080000080000000808000800000008000800080800000C0C0C000C0DCC000F0CAA6000020400000206000002080000020A0000020C0000020E00000400000004020000040400000406000004080000040A0
310
000040C0000040E00000600000006020000060400000606000006080000060A0000060C0000060E00000800000008020000080400000806000008080000080A0000080C0000080E00000A0000000A0200000A0400000A0600000A0800000A0A00000A0C00000A0E00000C0000000C0200000C0400000C0600000C0800000C0
310
A00000C0C00000C0E00000E0000000E0200000E0400000E0600000E0800000E0A00000E0C00000E0E00040000000400020004000400040006000400080004000A0004000C0004000E00040200000402020004020400040206000402080004020A0004020C0004020E000404000004040200040404000404060004040800040
310
40A0004040C0004040E00040600000406020004060400040606000406080004060A0004060C0004060E00040800000408020004080400040806000408080004080A0004080C0004080E00040A0000040A0200040A0400040A0600040A0800040A0A00040A0C00040A0E00040C0000040C0200040C0400040C0600040C08000
310
40C0A00040C0C00040C0E00040E0000040E0200040E0400040E0600040E0800040E0A00040E0C00040E0E00080000000800020008000400080006000800080008000A0008000C0008000E00080200000802020008020400080206000802080008020A0008020C0008020E00080400000804020008040400080406000804080
310
008040A0008040C0008040E00080600000806020008060400080606000806080008060A0008060C0008060E00080800000808020008080400080806000808080008080A0008080C0008080E00080A0000080A0200080A0400080A0600080A0800080A0A00080A0C00080A0E00080C0000080C0200080C0400080C0600080C0
310
800080C0A00080C0C00080C0E00080E0000080E0200080E0400080E0600080E0800080E0A00080E0C00080E0E000C0000000C0002000C0004000C0006000C0008000C000A000C000C000C000E000C0200000C0202000C0204000C0206000C0208000C020A000C020C000C020E000C0400000C0402000C0404000C0406000C0
310
408000C040A000C040C000C040E000C0600000C0602000C0604000C0606000C0608000C060A000C060C000C060E000C0800000C0802000C0804000C0806000C0808000C080A000C080C000C080E000C0A00000C0A02000C0A04000C0A06000C0A08000C0A0A000C0A0C000C0A0E000C0C00000C0C02000C0C04000C0C06000
310
C0C08000C0C0A000F0FBFF00A4A0A000808080000000FF0000FF000000FFFF00FF000000FF00FF00FFFF0000FFFFFF0000000000000000000000000000000000000000000000000000000000000000000000000000000000000000000000000000000000000000000000000000000000000000000000000000000000000000
310
00000000000000000000000000000000000000000000000000FFA4A400FF0000000000000000FFA4A400FF0000000000000000000000000000FFA4A400FF0000000000000000FFA4A400FF0000000000000000000000000000FFA4A400FF0000000000000000FFA4A400FF0000000000000000000000000000FFA4A400FF00
310
00000000000000FFA4A400FF00000000000000000000000000A4FFA4A400FF0000000000000000FFA4A400FF0000A4A4A4000000000000A4A400A4A4A400FF0000000000000000FFA4A400A4A4A40000A40000000000A4000000A4A4A400FF0000000000000000FFA4A400A4A4A4A4A40000000000FBFBFBA4A4FFA4A400FF
310
0000000000000000FFA4A400A4A400000000000000FBFBFBFBA4A4A4A4A400FF0000000000000000FFA4A400A4A4A4A400000000FBFBFBFBFBA4A4A4A4A400FF0000000000000000FFA4A400A4A4A4A400000000FBFB00A400A4A4FFA4A400FFFFFFFFFFFFFFFFFFFFA4A400A4A4A4A400000000FBFBFBFBFBA4A4A4A4A400
310
FF0000000000000000FFA4A400A4A4A4A400000000FB00FBFBFBA4A4FFA4A400FF0000000000000000FFA4A400A4A4000000000000FBFBFBFBA4A4A4A4A4A400FF0000000000000000FFA4A400FF00000000000000FBFB0000A4A4A4A4A4A4FFFFFFFFFFFFFFFFFFFFFFFFFFFFFF00000000000000FBFB000000A4A4000000
310
00000000000000000000000000000000000000000000FB00FB0000A40000000000000000000000000000000000000000000000000000FB0000FB00000000000000000000000000000000000000000000000000000000FBFBFB00FB000000000000000000000000000000000000000000000000000000FBFB00FB00FB000000
310
0000000000000000000000000000000000000000000000FBFBFB00FBFB0000000000000000000000000000000000000000000000000000FBFBFBFB0000FB000000000000000000000000000000000000000000000000000000FBFB000000FBFB0000FB0000000000000000000000000000000000000000000000FB000000FB
310
00FBFBFB000000000000000000000000000000000000000000000000000000FBFBFBFB00000000000000000000000000000000000000000000000000000000FB000000000000000000000000000000000000000000000000000000000000000000000000000000000000000000000000000000000000000000000000000000
310
0000000000000000000000000000000000000000000000000000000000000000000000000000000000000000000000000000000000000000
102
{BLKREFS
331
53B6
331
53B8
331
53B9
102
}
1001
ACAD
1000
DesignCenter Data
1002
{
1070
     1
1070
     4
1002
}
  0
ENDTAB
  0
ENDSEC
  0
SECTION
  2
BLOCKS
  0
BLOCK
  5
20
330
1F
100
AcDbEntity
  8
0
100
AcDbBlockBegin
  2
*Model_Space
 70
     0
 10
0.0
 20
0.0
 30
0.0
  3
*Model_Space
  1

  0
ENDBLK
  5
21
330
1F
100
AcDbEntity
  8
0
100
AcDbBlockEnd
  0
BLOCK
  5
39D0
330
39C2
100
AcDbEntity
 67
     1
  8
0
100
AcDbBlockBegin
  2
*Paper_Space
 70
     0
 10
0.0
 20
0.0
 30
0.0
  3
*Paper_Space
  1

  0
ENDBLK
  5
39D1
330
39C2
100
AcDbEntity
 67
     1
  8
0
100
AcDbBlockEnd
  0
BLOCK
  5
26CA
330
26C9
100
AcDbEntity
  8
0
100
AcDbBlockBegin
  2
07100
 70
     0
 10
412.3820800908974
 20
422.2176400418753
 30
0.0
  3
07100
  1
07100.dwg
  0
LWPOLYLINE
  5
57B7
102
{ACAD_REACTORS
330
57B8
102
}
330
26C9
100
AcDbEntity
  8
APL Joinery
  6
Continuous
100
AcDbPolyline
 90
      100
 70
     1
 43
0.0
 10
407.1258300908974
 20
407.8904305773189
 42
-0.406909285354144
 10
406.8820800908975
 20
408.1403524401081
 10
406.8820800908975
 20
424.7412301935552
 42
-0.3571470433414134
 10
408.0860084823975
 20
426.2117204528363
 10
413.0820800908972
 20
427.2176400418754
 10
421.8825800908957
 20
427.2176400418754
 10
421.8825800908957
 20
437.7176400418762
 10
437.5325800908972
 20
437.7176400418762
 10
437.5325800908972
 20
442.7176400418753
 10
450.7556760195601
 20
442.7176400418755
 42
0.2544747761516115
 10
450.696505755367
 20
439.8263709579055
 42
-0.5622195450562853
 10
450.4745161408605
 20
439.4613900418749
 10
450.1325800908957
 20
439.4613900418749
 42
0.4142135623730951
 10
449.8825800908957
 20
439.211390041875
 10
449.8825800908957
 20
437.9676400418771
 42
0.4142135623730951
 10
450.1325800908957
 20
437.7176400418762
 10
456.9825800908961
 20
437.7176400418772
 10
456.9825800908961
 20
427.2176400418754
 10
459.9825800908961
 20
427.2176400418754
 10
459.9825800908961
 20
428.7176400418736
 10
458.3825800908957
 20
428.7176400418736
 10
458.3825800908961
 20
437.7176400418772
 42
0.4142135623730951
 10
456.9825800908961
 20
439.1176400418768
 10
455.6830800908969
 20
439.1176400418768
 10
455.6830800908959
 20
439.3480285867577
 42
0.6243132269123214
 10
454.3195396190705
 20
440.0144227537007
 42
-2.046147069503621
 10
454.319539619071
 20
442.4208573300497
 42
0.4767438882633759
 10
455.5979130921818
 20
442.7176400418753
 10
456.9825800908961
 20
442.7176400418741
 42
0.4142135623730951
 10
458.3825800908957
 20
444.1176400418741
 10
458.3825800908957
 20
447.7176400418754
 10
461.709555143821
 20
447.7176400418754
 10
462.209555143821
 20
448.2176400418735
 10
477.209555143821
 20
448.2176400418735
 10
477.709555143821
 20
447.7176400418735
 10
478.959555143821
 20
447.7176400418735
 42
0.9999999999999998
 10
478.959555143821
 20
449.2176400418735
 10
458.3825800908957
 20
449.2176400418735
 10
458.3825800908957
 20
450.4176400418745
 10
458.8825800908957
 20
450.4176400418746
 42
0.9999999999999998
 10
458.8825800908957
 20
451.6176400418745
 10
458.3825800908957
 20
451.6176400418745
 10
458.3825800908966
 20
457.9676400418735
 10
462.732580090897
 20
457.9676400418735
 42
0.9999999999999145
 10
462.732580090897
 20
459.4676400418745
 10
458.3825800908957
 20
459.4676400418745
 10
458.3825800908957
 20
462.8176400418753
 10
458.8825800908957
 20
462.8176400418753
 42
0.9999999999999998
 10
458.8825800908957
 20
464.0176400418753
 10
458.3825800908957
 20
464.0176400418753
 10
458.3825800908957
 20
465.2176400418754
 10
454.8825800908957
 20
465.2176400418754
 10
454.8825800908957
 20
463.1676400418752
 42
0.9999999999999998
 10
455.8825800908957
 20
463.1676400418752
 10
455.8825800908957
 20
463.9176400418752
 10
457.3825800908958
 20
463.9176400418752
 10
457.3825800908958
 20
458.4176400418751
 10
455.8825800908957
 20
458.4176400418751
 10
455.8825800908957
 20
459.1676400418752
 42
0.9999999999999998
 10
454.8825800908957
 20
459.1676400418752
 10
454.8825800908957
 20
457.117640041875
 10
456.8825800908958
 20
457.117640041875
 10
456.8825800908958
 20
455.617640041875
 10
457.1325800908957
 20
455.617640041875
 10
457.1325800908957
 20
453.9176400418751
 10
457.4325800908968
 20
453.6176400418749
 10
457.1325800908957
 20
453.3176400418757
 10
457.1325800908957
 20
451.617640041875
 10
456.8825800908958
 20
451.617640041875
 10
456.8825800908958
 20
444.2176400418754
 10
446.5325800908954
 20
444.2176400418754
 10
446.1325800908958
 20
443.8176400418757
 10
445.7325800908961
 20
444.2176400418754
 10
433.5325800908972
 20
444.2176400418754
 42
0.9999999999999998
 10
433.5325800908972
 20
443.2176400418753
 10
436.0325800908972
 20
443.2176400418753
 10
436.0325800908972
 20
439.2176400418763
 10
427.2825800908972
 20
439.2176400418763
 10
426.8825800908957
 20
438.8176400418766
 10
426.4825800908961
 20
439.2176400418763
 10
421.8825800908957
 20
439.2176400418763
 10
421.8825800908957
 20
441.3150485456059
 10
422.8490864418419
 20
442.989086651282
 42
0.3394542588633784
 10
422.8093567861938
 20
443.2908633465792
 10
421.8825800908957
 20
444.2176400418754
 10
420.3825800908957
 20
444.2176400418754
 10
420.3825800908957
 20
430.2176400418753
 10
407.7899368739002
 20
427.6822107121177
 42
0.3571470433414134
 10
405.3820800908974
 20
424.7412301935552
 10
405.3820800908974
 20
403.2176400418753
 42
0.4142135623730951
 10
406.3820800908975
 20
402.2176400418754
 10
412.1320800908974
 20
402.2176400418754
 42
0.4142135623730951
 10
412.3820800908974
 20
402.4676400418753
 10
412.3820800908974
 20
403.4676400418753
 42
0.4142135623730951
 10
412.1320800908974
 20
403.7176400418753
 10
411.6503150881467
 20
403.7176400418753
 42
-0.5908090823378033
 10
411.4389994395025
 20
404.1012278281349
 42
0.3201949615811702
 10
411.2422449260619
 20
407.6097940923825
 42
0.9999999999999998
 10
410.0719152557326
 20
406.6715358855195
 42
-2.083394336380681
 10
407.6922449260608
 20
406.6715358855194
 42
0.6205504467590894
  0
HATCH
  5
57B8
330
26C9
100
AcDbEntity
  8
APL Hatch
100
AcDbHatch
 10
0.0
 20
0.0
 30
0.0
210
0.0
220
0.0
230
1.0
  2
SOLID
 70
     1
 71
     1
 91
        1
 92
        1
 93
      100
 72
     2
 10
407.1320800908974
 20
408.1403524401081
 40
0.2500000000000131
 50
91.43254373757162
 51
180.0
 73
     0
 72
     1
 10
406.8820800908975
 20
408.1403524401081
 11
406.8820800908975
 21
424.7412301935552
 72
     2
 10
408.3820800908967
 20
424.7412301935559
 40
1.499999999999317
 50
179.9999999999696
 51
258.6161471069981
 73
     0
 72
     1
 10
408.0860084823975
 20
426.2117204528363
 11
413.0820800908972
 21
427.2176400418754
 72
     1
 10
413.0820800908972
 20
427.2176400418754
 11
421.8825800908957
 21
427.2176400418754
 72
     1
 10
421.8825800908957
 20
427.2176400418754
 11
421.8825800908957
 21
437.7176400418762
 72
     1
 10
421.8825800908957
 20
437.7176400418762
 11
437.5325800908972
 21
437.7176400418762
 72
     1
 10
437.5325800908972
 20
437.7176400418762
 11
437.5325800908972
 21
442.7176400418753
 72
     1
 10
437.5325800908972
 20
442.7176400418753
 11
450.7556760195601
 21
442.7176400418755
 72
     2
 10
453.3825800908967
 20
441.217640041876
 40
3.025000000000496
 50
150.2730117288945
 51
207.3821817981256
 73
     1
 72
     2
 10
450.4745161408605
 20
439.711390041875
 40
0.2500000000000165
 50
332.6178182018861
 51
450.0
 73
     0
 72
     1
 10
450.4745161408605
 20
439.4613900418749
 11
450.1325800908957
 21
439.4613900418749
 72
     2
 10
450.1325800908957
 20
439.211390041875
 40
0.25
 50
90.0
 51
180.0
 73
     1
 72
     1
 10
449.8825800908957
 20
439.211390041875
 11
449.8825800908957
 21
437.9676400418771
 72
     2
 10
450.1325800908962
 20
437.9676400418767
 40
0.2500000000004547
 50
179.9999999998957
 51
269.9999999998958
 73
     1
 72
     1
 10
450.1325800908957
 20
437.7176400418762
 11
456.9825800908961
 21
437.7176400418772
 72
     1
 10
456.9825800908961
 20
437.7176400418772
 11
456.9825800908961
 21
427.2176400418754
 72
     1
 10
456.9825800908961
 20
427.2176400418754
 11
459.9825800908961
 21
427.2176400418754
 72
     1
 10
459.9825800908961
 20
427.2176400418754
 11
459.9825800908961
 21
428.7176400418736
 72
     1
 10
459.9825800908961
 20
428.7176400418736
 11
458.3825800908957
 21
428.7176400418736
 72
     1
 10
458.3825800908957
 20
428.7176400418736
 11
458.3825800908961
 21
437.7176400418772
 72
     2
 10
456.9825800908962
 20
437.717640041877
 40
1.399999999999806
 50
0.000000000006979
 51
90.00000000000698
 73
     1
 72
     1
 10
456.9825800908961
 20
439.1176400418768
 11
455.6830800908969
 21
439.1176400418768
 72
     1
 10
455.6830800908969
 20
439.1176400418768
 11
455.6830800908959
 21
439.3480285867577
 72
     2
 10
454.8384686357779
 20
439.3480285867576
 40
0.844611455118013
 50
0.0000000000115682
 51
127.908313681073
 73
     1
 72
     2
 10
453.3825800908961
 20
441.2176400418753
 40
1.524999999999786
 50
52.0916863189523
 51
307.9083136810661
 73
     0
 72
     2
 10
454.838468635778
 20
443.0872514969932
 40
0.8446114551181407
 50
232.0916863189533
 51
334.0484329360907
 73
     1
 72
     1
 10
455.5979130921818
 20
442.7176400418753
 11
456.9825800908961
 21
442.7176400418741
 72
     2
 10
456.9825800908959
 20
444.1176400418739
 40
1.399999999999806
 50
270.000000000007
 51
360.000000000007
 73
     1
 72
     1
 10
458.3825800908957
 20
444.1176400418741
 11
458.3825800908957
 21
447.7176400418754
 72
     1
 10
458.3825800908957
 20
447.7176400418754
 11
461.709555143821
 21
447.7176400418754
 72
     1
 10
461.709555143821
 20
447.7176400418754
 11
462.209555143821
 21
448.2176400418735
 72
     1
 10
462.209555143821
 20
448.2176400418735
 11
477.209555143821
 21
448.2176400418735
 72
     1
 10
477.209555143821
 20
448.2176400418735
 11
477.709555143821
 21
447.7176400418735
 72
     1
 10
477.709555143821
 20
447.7176400418735
 11
478.959555143821
 21
447.7176400418735
 72
     2
 10
478.959555143821
 20
448.4676400418735
 40
0.75
 50
270.0
 51
450.0
 73
     1
 72
     1
 10
478.959555143821
 20
449.2176400418735
 11
458.3825800908957
 21
449.2176400418735
 72
     1
 10
458.3825800908957
 20
449.2176400418735
 11
458.3825800908957
 21
450.4176400418745
 72
     1
 10
458.3825800908957
 20
450.4176400418745
 11
458.8825800908957
 21
450.4176400418746
 72
     2
 10
458.8825800908957
 20
451.0176400418745
 40
0.5999999999999659
 50
270.0
 51
450.0
 73
     1
 72
     1
 10
458.8825800908957
 20
451.6176400418745
 11
458.3825800908957
 21
451.6176400418745
 72
     1
 10
458.3825800908957
 20
451.6176400418745
 11
458.3825800908966
 21
457.9676400418735
 72
     1
 10
458.3825800908966
 20
457.9676400418735
 11
462.732580090897
 21
457.9676400418735
 72
     2
 10
462.732580090897
 20
458.717640041874
 40
0.7500000000004548
 50
270.0000000000043
 51
449.9999999999956
 73
     1
 72
     1
 10
462.732580090897
 20
459.4676400418745
 11
458.3825800908957
 21
459.4676400418745
 72
     1
 10
458.3825800908957
 20
459.4676400418745
 11
458.3825800908957
 21
462.8176400418753
 72
     1
 10
458.3825800908957
 20
462.8176400418753
 11
458.8825800908957
 21
462.8176400418753
 72
     2
 10
458.8825800908957
 20
463.4176400418753
 40
0.5999999999999659
 50
270.0
 51
450.0
 73
     1
 72
     1
 10
458.8825800908957
 20
464.0176400418753
 11
458.3825800908957
 21
464.0176400418753
 72
     1
 10
458.3825800908957
 20
464.0176400418753
 11
458.3825800908957
 21
465.2176400418754
 72
     1
 10
458.3825800908957
 20
465.2176400418754
 11
454.8825800908957
 21
465.2176400418754
 72
     1
 10
454.8825800908957
 20
465.2176400418754
 11
454.8825800908957
 21
463.1676400418752
 72
     2
 10
455.3825800908957
 20
463.1676400418752
 40
0.5
 50
180.0
 51
360.0
 73
     1
 72
     1
 10
455.8825800908957
 20
463.1676400418752
 11
455.8825800908957
 21
463.9176400418752
 72
     1
 10
455.8825800908957
 20
463.9176400418752
 11
457.3825800908958
 21
463.9176400418752
 72
     1
 10
457.3825800908958
 20
463.9176400418752
 11
457.3825800908958
 21
458.4176400418751
 72
     1
 10
457.3825800908958
 20
458.4176400418751
 11
455.8825800908957
 21
458.4176400418751
 72
     1
 10
455.8825800908957
 20
458.4176400418751
 11
455.8825800908957
 21
459.1676400418752
 72
     2
 10
455.3825800908957
 20
459.1676400418752
 40
0.5
 50
0.0
 51
180.0
 73
     1
 72
     1
 10
454.8825800908957
 20
459.1676400418752
 11
454.8825800908957
 21
457.117640041875
 72
     1
 10
454.8825800908957
 20
457.117640041875
 11
456.8825800908958
 21
457.117640041875
 72
     1
 10
456.8825800908958
 20
457.117640041875
 11
456.8825800908958
 21
455.617640041875
 72
     1
 10
456.8825800908958
 20
455.617640041875
 11
457.1325800908957
 21
455.617640041875
 72
     1
 10
457.1325800908957
 20
455.617640041875
 11
457.1325800908957
 21
453.9176400418751
 72
     1
 10
457.1325800908957
 20
453.9176400418751
 11
457.4325800908968
 21
453.6176400418749
 72
     1
 10
457.4325800908968
 20
453.6176400418749
 11
457.1325800908957
 21
453.3176400418757
 72
     1
 10
457.1325800908957
 20
453.3176400418757
 11
457.1325800908957
 21
451.617640041875
 72
     1
 10
457.1325800908957
 20
451.617640041875
 11
456.8825800908958
 21
451.617640041875
 72
     1
 10
456.8825800908958
 20
451.617640041875
 11
456.8825800908958
 21
444.2176400418754
 72
     1
 10
456.8825800908958
 20
444.2176400418754
 11
446.5325800908954
 21
444.2176400418754
 72
     1
 10
446.5325800908954
 20
444.2176400418754
 11
446.1325800908958
 21
443.8176400418757
 72
     1
 10
446.1325800908958
 20
443.8176400418757
 11
445.7325800908961
 21
444.2176400418754
 72
     1
 10
445.7325800908961
 20
444.2176400418754
 11
433.5325800908972
 21
444.2176400418754
 72
     2
 10
433.5325800908972
 20
443.7176400418754
 40
0.5
 50
90.0
 51
270.0
 73
     1
 72
     1
 10
433.5325800908972
 20
443.2176400418753
 11
436.0325800908972
 21
443.2176400418753
 72
     1
 10
436.0325800908972
 20
443.2176400418753
 11
436.0325800908972
 21
439.2176400418763
 72
     1
 10
436.0325800908972
 20
439.2176400418763
 11
427.2825800908972
 21
439.2176400418763
 72
     1
 10
427.2825800908972
 20
439.2176400418763
 11
426.8825800908957
 21
438.8176400418766
 72
     1
 10
426.8825800908957
 20
438.8176400418766
 11
426.4825800908961
 21
439.2176400418763
 72
     1
 10
426.4825800908961
 20
439.2176400418763
 11
421.8825800908957
 21
439.2176400418763
 72
     1
 10
421.8825800908957
 20
439.2176400418763
 11
421.8825800908957
 21
441.3150485456059
 72
     1
 10
421.8825800908957
 20
441.3150485456059
 11
422.8490864418419
 21
442.989086651282
 72
     2
 10
422.6325800908961
 20
443.1140866512832
 40
0.2500000000002443
 50
329.9999999997315
 51
404.9999999997329
 73
     1
 72
     1
 10
422.8093567861938
 20
443.2908633465792
 11
421.8825800908957
 21
444.2176400418754
 72
     1
 10
421.8825800908957
 20
444.2176400418754
 11
420.3825800908957
 21
444.2176400418754
 72
     1
 10
420.3825800908957
 20
444.2176400418754
 11
420.3825800908957
 21
430.2176400418753
 72
     1
 10
420.3825800908957
 20
430.2176400418753
 11
407.7899368739002
 21
427.6822107121177
 72
     2
 10
408.3820800908974
 20
424.7412301935552
 40
3.000000000000019
 50
101.3838528929718
 51
180.0
 73
     1
 72
     1
 10
405.3820800908974
 20
424.7412301935552
 11
405.3820800908974
 21
403.2176400418753
 72
     2
 10
406.3820800908975
 20
403.2176400418753
 40
1.0
 50
180.0
 51
270.0
 73
     1
 72
     1
 10
406.3820800908975
 20
402.2176400418754
 11
412.1320800908974
 21
402.2176400418754
 72
     2
 10
412.1320800908974
 20
402.4676400418753
 40
0.25
 50
270.0
 51
360.0
 73
     1
 72
     1
 10
412.3820800908974
 20
402.4676400418753
 11
412.3820800908974
 21
403.4676400418753
 72
     2
 10
412.1320800908974
 20
403.4676400418753
 40
0.25
 50
0.0
 51
90.0
 73
     1
 72
     1
 10
412.1320800908974
 20
403.7176400418753
 11
411.6503150881467
 21
403.7176400418753
 72
     2
 10
411.6503150881471
 20
403.9676400418751
 40
0.2499999999997726
 50
90.00000000009119
 51
212.2999183635763
 73
     0
 72
     2
 10
408.8820800908973
 20
405.717640041875
 40
3.024999999999915
 50
327.7000816365276
 51
398.7192973222455
 73
     1
 72
     2
 10
410.6570800908973
 20
407.140664988951
 40
0.749999999999785
 50
38.71929732224645
 51
218.7192973222437
 73
     1
 72
     2
 10
408.8820800908968
 20
405.7176400418747
 40
1.5250000000009
 50
321.2807026777562
 51
578.7192973222365
 73
     0
 72
     2
 10
407.1070800908966
 20
407.1406649889516
 40
0.7499999999998657
 50
321.2807026776973
 51
448.5674562623716
 73
     1
 97
        1
330
57B7
 75
     0
 76
     1
 98
        1
 10
0.0
 20
0.0
  0
ENDBLK
  5
26CB
330
26C9
100
AcDbEntity
  8
0
100
AcDbBlockEnd
  0
BLOCK
  5
26CF
330
26CE
100
AcDbEntity
  8
0
100
AcDbBlockBegin
  2
07438
 70
     0
 10
436.325250536159
 20
36.66410654514334
 30
0.0
  3
07438
  1
07438.dwg
  0
LWPOLYLINE
  5
57BA
102
{ACAD_REACTORS
330
57BC
102
}
330
26CE
100
AcDbEntity
  8
APL Joinery
  6
Continuous
100
AcDbPolyline
 90
       29
 70
     1
 43
0.0
 10
420.796679107587
 20
63.08270271029969
 42
-0.0604498752216261
 10
420.298064992431
 20
63.73258719137683
 42
0.6669066090348409
 10
418.9266583780278
 20
63.54040445040501
 42
-0.3412868470081918
 10
417.4752505361586
 20
62.41910654514526
 10
404.7252505361586
 20
62.41910654514526
 42
0.4142135623730951
 10
403.7252505361595
 20
61.41910654514527
 10
403.7252505361595
 20
39.16410654514334
 42
0.4142135623730951
 10
404.7252505361595
 20
38.16410654514334
 10
419.6075933096946
 20
38.16410654514334
 42
0.5313489649886676
 10
420.0713955182157
 20
38.85088853402529
 42
-0.2978796563631881
 10
420.796679107588
 20
42.50051037998724
 42
-1.000000000000019
 10
421.9038219647309
 20
41.41573635104039
 42
2.379795897113228
 10
424.546679107588
 20
41.41573635104029
 42
-0.9999999999999998
 10
425.6538219647309
 20
42.50051037998729
 42
-0.2978796563631958
 10
426.3791055541032
 20
38.85088853402587
 42
0.5313489649887251
 10
426.8429077626244
 20
38.16410654514334
 10
433.4252505361593
 20
38.16410654514334
 42
0.4142135623730951
 10
434.4252505361593
 20
39.16410654514334
 10
434.4252505361593
 20
58.66410654514334
 42
-0.4142135623730951
 10
435.9252505361594
 20
60.16410654514334
 10
437.4252505361593
 20
60.16410654514334
 42
0.4142135623730951
 10
437.9252505361593
 20
60.66410654514334
 10
437.9252505361593
 20
66.41910654514345
 42
0.4142135623730951
 10
436.9252505361593
 20
67.41910654514345
 10
426.8429077626235
 20
67.41910654514345
 42
0.5313489649887251
 10
426.3791055541024
 20
66.73232455626133
 42
-0.2978796563631958
 10
425.6538219647301
 20
63.08270271029866
 42
-0.9999999999999996
 10
424.5466791075871
 20
64.16747673924634
 42
2.379795897113631
 10
421.90382196473
 20
64.16747673924577
 42
-1.00000000000014
  0
LWPOLYLINE
  5
57BB
102
{ACAD_REACTORS
330
57BC
102
}
330
26CE
100
AcDbEntity
  8
APL Joinery
  6
Continuous
100
AcDbPolyline
 90
       60
 70
     1
 43
0.0
 10
404.2520272314551
 20
67.99232984984723
 10
403.3252505361589
 20
68.91910654514345
 10
401.825250536159
 20
68.91910654514345
 10
401.825250536159
 20
37.16410654514334
 42
0.4142135623730951
 10
402.325250536159
 20
36.66410654514334
 10
404.575250536159
 20
36.66410654514334
 10
404.575250536159
 20
34.66410654514334
 10
405.5752505361589
 20
34.66410654514334
 10
405.5752505361589
 20
36.66410654514334
 10
434.3252505361589
 20
36.66410654514334
 42
0.4142135623730951
 10
436.325250536159
 20
38.66410654514334
 10
436.325250536159
 20
58.66410654514334
 10
439.825250536159
 20
58.66410654514334
 10
439.825250536159
 20
65.36410654514179
 10
440.1252505361582
 20
65.06410654514161
 10
450.4752505361604
 20
65.06410654514161
 10
450.4752505361604
 20
68.06410654514161
 10
449.2752505361606
 20
68.06410654514161
 10
449.2752505361606
 20
66.46410654514125
 10
440.1252505361582
 20
66.46410654514125
 10
439.825250536159
 20
66.16410654514197
 10
439.825250536159
 20
89.91910654514345
 10
436.325250536159
 20
89.91910654514345
 10
436.325250536159
 20
87.86910654514235
 42
0.9999999999999998
 10
437.3252505361589
 20
87.86910654514235
 10
437.3252505361589
 20
88.61910654514236
 10
438.825250536159
 20
88.61910654514236
 10
438.825250536159
 20
83.11910654514235
 10
437.3252505361589
 20
83.11910654514235
 10
437.3252505361589
 20
83.86910654514236
 42
0.9999999999999998
 10
436.325250536159
 20
83.86910654514236
 10
436.325250536159
 20
81.81910654514309
 10
438.3252505361589
 20
81.81910654514309
 10
438.3252505361589
 20
80.31910654514309
 10
438.575250536159
 20
80.31910654514309
 10
438.575250536159
 20
78.61910654514417
 10
438.87525053616
 20
78.31910654514309
 10
438.575250536159
 20
78.01910654514381
 10
438.575250536159
 20
76.31910654514308
 10
438.3252505361589
 20
76.31910654514308
 10
438.3252505361589
 20
68.91910654514345
 10
427.9752505361586
 20
68.91910654514345
 10
427.5752505361589
 20
68.51910654514381
 10
427.1752505361593
 20
68.91910654514345
 10
414.9752505361586
 20
68.91910654514345
 42
0.9999999999999998
 10
414.9752505361586
 20
67.91910654514345
 10
417.4752505361586
 20
67.91910654514345
 10
417.4752505361586
 20
67.41910654514345
 10
420.0556300460122
 20
67.41910654514345
 42
-0.5675210391690518
 10
420.2757425800504
 20
67.05057185672088
 42
0.096741013795249
 10
419.8948489890304
 20
65.82404336900829
 42
-0.3821661969546914
 10
419.646916634022
 20
65.60104681296603
 42
0.3406114348430476
 10
417.4752505361586
 20
63.91910654514527
 10
408.7252505361586
 20
63.91910654514527
 10
408.3252505361589
 20
63.51910654514381
 10
407.9252505361593
 20
63.91910654514527
 10
403.8252505361589
 20
63.91910654514527
 42
-0.4142135623730951
 10
403.3252505361589
 20
64.41910654514527
 10
403.3252505361589
 20
66.01651504887399
 10
404.2917568871051
 20
67.6905531545492
 42
0.3394542588633784
  0
HATCH
  5
57BC
330
26CE
100
AcDbEntity
  8
APL Hatch
100
AcDbHatch
 10
0.0
 20
0.0
 30
0.0
210
0.0
220
0.0
230
1.0
  2
SOLID
 70
     1
 71
     1
 91
        2
 92
        1
 93
       60
 72
     1
 10
404.2520272314551
 20
67.99232984984723
 11
403.3252505361589
 21
68.91910654514345
 72
     1
 10
403.3252505361589
 20
68.91910654514345
 11
401.825250536159
 21
68.91910654514345
 72
     1
 10
401.825250536159
 20
68.91910654514345
 11
401.825250536159
 21
37.16410654514334
 72
     2
 10
402.325250536159
 20
37.16410654514334
 40
0.5
 50
180.0
 51
270.0
 73
     1
 72
     1
 10
402.325250536159
 20
36.66410654514334
 11
404.575250536159
 21
36.66410654514334
 72
     1
 10
404.575250536159
 20
36.66410654514334
 11
404.575250536159
 21
34.66410654514334
 72
     1
 10
404.575250536159
 20
34.66410654514334
 11
405.5752505361589
 21
34.66410654514334
 72
     1
 10
405.5752505361589
 20
34.66410654514334
 11
405.5752505361589
 21
36.66410654514334
 72
     1
 10
405.5752505361589
 20
36.66410654514334
 11
434.3252505361589
 21
36.66410654514334
 72
     2
 10
434.3252505361589
 20
38.66410654514334
 40
2.0
 50
270.0
 51
360.0
 73
     1
 72
     1
 10
436.325250536159
 20
38.66410654514334
 11
436.325250536159
 21
58.66410654514334
 72
     1
 10
436.325250536159
 20
58.66410654514334
 11
439.825250536159
 21
58.66410654514334
 72
     1
 10
439.825250536159
 20
58.66410654514334
 11
439.825250536159
 21
65.36410654514179
 72
     1
 10
439.825250536159
 20
65.36410654514179
 11
440.1252505361582
 21
65.06410654514161
 72
     1
 10
440.1252505361582
 20
65.06410654514161
 11
450.4752505361604
 21
65.06410654514161
 72
     1
 10
450.4752505361604
 20
65.06410654514161
 11
450.4752505361604
 21
68.06410654514161
 72
     1
 10
450.4752505361604
 20
68.06410654514161
 11
449.2752505361606
 21
68.06410654514161
 72
     1
 10
449.2752505361606
 20
68.06410654514161
 11
449.2752505361606
 21
66.46410654514125
 72
     1
 10
449.2752505361606
 20
66.46410654514125
 11
440.1252505361582
 21
66.46410654514125
 72
     1
 10
440.1252505361582
 20
66.46410654514125
 11
439.825250536159
 21
66.16410654514197
 72
     1
 10
439.825250536159
 20
66.16410654514197
 11
439.825250536159
 21
89.91910654514345
 72
     1
 10
439.825250536159
 20
89.91910654514345
 11
436.325250536159
 21
89.91910654514345
 72
     1
 10
436.325250536159
 20
89.91910654514345
 11
436.325250536159
 21
87.86910654514235
 72
     2
 10
436.8252505361589
 20
87.86910654514235
 40
0.5
 50
180.0
 51
360.0
 73
     1
 72
     1
 10
437.3252505361589
 20
87.86910654514235
 11
437.3252505361589
 21
88.61910654514236
 72
     1
 10
437.3252505361589
 20
88.61910654514236
 11
438.825250536159
 21
88.61910654514236
 72
     1
 10
438.825250536159
 20
88.61910654514236
 11
438.825250536159
 21
83.11910654514235
 72
     1
 10
438.825250536159
 20
83.11910654514235
 11
437.3252505361589
 21
83.11910654514235
 72
     1
 10
437.3252505361589
 20
83.11910654514235
 11
437.3252505361589
 21
83.86910654514236
 72
     2
 10
436.8252505361589
 20
83.86910654514236
 40
0.5
 50
0.0
 51
180.0
 73
     1
 72
     1
 10
436.325250536159
 20
83.86910654514236
 11
436.325250536159
 21
81.81910654514309
 72
     1
 10
436.325250536159
 20
81.81910654514309
 11
438.3252505361589
 21
81.81910654514309
 72
     1
 10
438.3252505361589
 20
81.81910654514309
 11
438.3252505361589
 21
80.31910654514309
 72
     1
 10
438.3252505361589
 20
80.31910654514309
 11
438.575250536159
 21
80.31910654514309
 72
     1
 10
438.575250536159
 20
80.31910654514309
 11
438.575250536159
 21
78.61910654514417
 72
     1
 10
438.575250536159
 20
78.61910654514417
 11
438.87525053616
 21
78.31910654514309
 72
     1
 10
438.87525053616
 20
78.31910654514309
 11
438.575250536159
 21
78.01910654514381
 72
     1
 10
438.575250536159
 20
78.01910654514381
 11
438.575250536159
 21
76.31910654514308
 72
     1
 10
438.575250536159
 20
76.31910654514308
 11
438.3252505361589
 21
76.31910654514308
 72
     1
 10
438.3252505361589
 20
76.31910654514308
 11
438.3252505361589
 21
68.91910654514345
 72
     1
 10
438.3252505361589
 20
68.91910654514345
 11
427.9752505361586
 21
68.91910654514345
 72
     1
 10
427.9752505361586
 20
68.91910654514345
 11
427.5752505361589
 21
68.51910654514381
 72
     1
 10
427.5752505361589
 20
68.51910654514381
 11
427.1752505361593
 21
68.91910654514345
 72
     1
 10
427.1752505361593
 20
68.91910654514345
 11
414.9752505361586
 21
68.91910654514345
 72
     2
 10
414.9752505361586
 20
68.41910654514345
 40
0.5
 50
90.0
 51
270.0
 73
     1
 72
     1
 10
414.9752505361586
 20
67.91910654514345
 11
417.4752505361586
 21
67.91910654514345
 72
     1
 10
417.4752505361586
 20
67.91910654514345
 11
417.4752505361586
 21
67.41910654514345
 72
     1
 10
417.4752505361586
 20
67.41910654514345
 11
420.0556300460122
 21
67.41910654514345
 72
     2
 10
420.0556300460122
 20
67.16910654514326
 40
0.2500000000001847
 50
270.000000000013
 51
388.3032891696901
 73
     0
 72
     2
 10
423.2252505361599
 20
65.46220703186198
 40
3.350000000000415
 50
151.6967108303066
 51
173.7993377284854
 73
     1
 72
     2
 10
419.64631156014
 20
65.85104608073635
 40
0.2500000000001974
 50
6.200662271676968
 51
89.86132714568098
 73
     0
 72
     2
 10
419.652362298962
 20
63.35105340303538
 40
2.249999999999556
 50
90.13867285436694
 51
165.3763923539196
 73
     1
 72
     1
 10
417.4752505361586
 20
63.91910654514527
 11
408.7252505361586
 21
63.91910654514527
 72
     1
 10
408.7252505361586
 20
63.91910654514527
 11
408.3252505361589
 21
63.51910654514381
 72
     1
 10
408.3252505361589
 20
63.51910654514381
 11
407.9252505361593
 21
63.91910654514527
 72
     1
 10
407.9252505361593
 20
63.91910654514527
 11
403.8252505361589
 21
63.91910654514527
 72
     2
 10
403.8252505361589
 20
64.41910654514527
 40
0.5
 50
90.0
 51
180.0
 73
     0
 72
     1
 10
403.3252505361589
 20
64.41910654514527
 11
403.3252505361589
 21
66.01651504887399
 72
     1
 10
403.3252505361589
 20
66.01651504887399
 11
404.2917568871051
 21
67.6905531545492
 72
     2
 10
404.0752505361579
 20
67.8155531545496
 40
0.2500000000011548
 50
330.0000000000475
 51
405.0000000000552
 73
     1
 97
        1
330
57BB
 92
       16
 93
       29
 72
     2
 10
423.2252505361584
 20
65.4622070318614
 40
3.400000000000602
 50
135.5846914027957
 51
149.4219440464481
 73
     0
 72
     2
 10
419.652362298962
 20
63.35105340303504
 40
0.7499999999996986
 50
30.57805595353652
 51
165.3763923539151
 73
     1
 72
     2
 10
417.4752505361586
 20
63.91910654514527
 40
1.500000000000006
 50
14.62360764609013
 51
90.0
 73
     0
 72
     1
 10
417.4752505361586
 20
62.41910654514526
 11
404.7252505361586
 21
62.41910654514526
 72
     2
 10
404.7252505361591
 20
61.41910654514572
 40
0.9999999999995452
 50
90.00000000002605
 51
180.000000000026
 73
     1
 72
     1
 10
403.7252505361595
 20
61.41910654514527
 11
403.7252505361595
 21
39.16410654514334
 72
     2
 10
404.7252505361595
 20
39.16410654514334
 40
1.0
 50
180.0
 51
270.0
 73
     1
 72
     1
 10
404.7252505361595
 20
38.16410654514334
 11
419.6075933096946
 21
38.16410654514334
 72
     2
 10
419.6075933096947
 20
38.66410654514309
 40
0.4999999999997442
 50
269.999999999987
 51
381.9355856718543
 73
     1
 72
     2
 10
423.2252505361596
 20
40.12100605842653
 40
3.4000000000001
 50
158.0644143281155
 51
224.415308597189
 73
     0
 72
     2
 10
421.3502505361594
 20
41.95812336551383
 40
0.7750000000000483
 50
224.4153085971889
 51
404.4153085971929
 73
     0
 72
     2
 10
423.2252505361594
 20
40.1210060584264
 40
1.849999999999965
 50
135.5846914028049
 51
404.4153085971892
 73
     1
 72
     2
 10
425.1002505361594
 20
41.95812336551379
 40
0.7750000000000317
 50
135.5846914028003
 51
315.5846914028037
 73
     0
 72
     2
 10
423.2252505361598
 20
40.12100605842674
 40
3.399999999999594
 50
315.5846914028062
 51
381.9355856718812
 73
     0
 72
     2
 10
426.8429077626244
 20
38.66410654514334
 40
0.5000000000000047
 50
158.0644143281158
 51
270.0
 73
     1
 72
     1
 10
426.8429077626244
 20
38.16410654514334
 11
433.4252505361593
 21
38.16410654514334
 72
     2
 10
433.4252505361593
 20
39.16410654514334
 40
1.0
 50
270.0
 51
360.0
 73
     1
 72
     1
 10
434.4252505361593
 20
39.16410654514334
 11
434.4252505361593
 21
58.66410654514334
 72
     2
 10
435.9252505361594
 20
58.66410654514334
 40
1.5
 50
180.0
 51
270.0
 73
     0
 72
     1
 10
435.9252505361594
 20
60.16410654514334
 11
437.4252505361593
 21
60.16410654514334
 72
     2
 10
437.4252505361593
 20
60.66410654514334
 40
0.5
 50
270.0
 51
360.0
 73
     1
 72
     1
 10
437.9252505361593
 20
60.66410654514334
 11
437.9252505361593
 21
66.41910654514345
 72
     2
 10
436.9252505361593
 20
66.41910654514345
 40
1.0
 50
0.0
 51
90.0
 73
     1
 72
     1
 10
436.9252505361593
 20
67.41910654514345
 11
426.8429077626235
 21
67.41910654514345
 72
     2
 10
426.8429077626233
 20
66.91910654514369
 40
0.4999999999997585
 50
89.99999999998697
 51
201.9355856718758
 73
     1
 72
     2
 10
423.225250536158
 20
65.46220703185989
 40
3.400000000000702
 50
338.064414328116
 51
404.4153085971912
 73
     0
 72
     2
 10
425.1002505361586
 20
63.6250897247725
 40
0.775000000000306
 50
44.41530859721433
 51
224.4153085972143
 73
     0
 72
     2
 10
423.2252505361583
 20
65.46220703186029
 40
1.850000000000179
 50
315.5846914028132
 51
584.4153085972116
 73
     1
 72
     2
 10
421.3502505361586
 20
63.62508972477264
 40
0.7749999999998038
 50
315.5846914028235
 51
495.5846914028409
 73
     0
 97
        1
330
57BA
 75
     0
 76
     1
 98
        1
 10
0.0
 20
0.0
  0
ENDBLK
  5
26D0
330
26CE
100
AcDbEntity
  8
0
100
AcDbBlockEnd
  0
BLOCK
  5
26D4
330
26D3
100
AcDbEntity
  8
0
100
AcDbBlockBegin
  2
07124
 70
     0
 10
564.7106799216365
 20
311.1446334313843
 30
0.0
  3
07124
  1
07124.dwg
  0
LWPOLYLINE
  5
57BE
102
{ACAD_REACTORS
330
57BF
102
}
330
26D3
100
AcDbEntity
  8
APL Joinery
  6
Continuous
100
AcDbPolyline
 90
       66
 70
     1
 43
0.0
 10
566.0106799216375
 20
323.0802334336424
 10
566.0106799216378
 20
320.6062167402481
 42
0.2105751711947827
 10
567.6369359093846
 20
316.9159794389643
 10
573.9496959286502
 20
311.1446334313807
 10
574.7106799216367
 20
311.1446334313807
 10
574.7106799216367
 20
310.4489152484687
 10
576.3542922106356
 20
308.9462674061335
 42
0.4011595793581361
 10
577.7361477942725
 20
308.9772080852039
 10
578.7571265310439
 20
309.998186821975
 42
-1.00000000000008
 10
579.4642333122312
 20
309.2910800407884
 10
577.9106799216374
 20
307.7375266501942
 42
-0.1989123673796649
 10
577.2035731404507
 20
307.4446334313809
 10
576.4583749163616
 20
307.4446334313809
 42
-0.1873013852563481
 10
575.7836261139109
 20
307.7065859711241
 10
575.2980543228627
 20
308.1505126860814
 42
0.6521072359563812
 10
574.4606799216366
 20
307.7814889559534
 10
574.4606799216366
 20
306.7446334313811
 42
-0.9999999999999998
 10
573.4606799216367
 20
306.7446334313811
 10
573.4606799216367
 20
309.6099589088646
 42
0.2105751711947827
 10
573.2980543228618
 20
309.9789826389931
 10
566.848054322862
 20
315.8757982371319
 42
0.6521072359563868
 10
566.0106799216378
 20
315.506774507003
 10
566.0106799216378
 20
313.4559032686023
 42
0.198912367379658
 10
566.3035731404511
 20
312.7487964874157
 10
568.0837365453085
 20
310.9686330825582
 42
-0.3394542588634269
 10
568.2426551679061
 20
309.7615263013714
 10
568.0308294706549
 20
309.3946334313844
 42
-1.163404169897061
 10
567.2585935154936
 20
310.0119583344889
 42
0.4259052264678535
 10
567.2657585841559
 20
310.372397481339
 10
566.3092080590618
 20
311.3289480064316
 42
0.4142135623730951
 10
565.6021012778742
 20
311.3289480064315
 10
565.5642333122308
 20
311.2910800407883
 42
-0.6681786379192828
 10
564.7106799216365
 20
311.6446334313807
 10
564.7106799216365
 20
320.0991099590613
 42
0.6681786379193471
 10
563.8571265310441
 20
320.4526633496546
 10
562.294384831248
 20
318.8899216498589
 42
0.1989123673797451
 10
561.2106799216365
 20
316.2736265594678
 10
561.2106799216365
 20
305.1446334313816
 10
559.9106799216372
 20
305.1446334313816
 10
559.9106799216372
 20
316.2736265594679
 42
-0.1989123673796493
 10
561.3751460157049
 20
319.8091604654003
 10
563.2462138275693
 20
321.6802282772659
 42
0.198912367379658
 10
564.7106799216365
 20
325.2157621831987
 10
564.7106799216365
 20
328.9375270959674
 42
-0.1989123673797415
 10
564.8571265310435
 20
329.2910804865608
 10
567.5339032263403
 20
331.9678571818579
 42
-0.668178637919367
 10
567.9606799216367
 20
331.7910804865617
 10
567.9606799216367
 20
331.1802334336419
 10
569.2106799216367
 20
331.1802334336419
 10
569.2106799216367
 20
329.1302334336426
 42
-0.9999999999999998
 10
568.2106799216366
 20
329.1302334336426
 10
568.2106799216366
 20
329.8802334336426
 10
567.2847571092102
 20
329.8802334336426
 10
566.7106799216367
 20
329.3061562460691
 10
566.7106799216367
 20
328.6302334336426
 10
566.2606799216377
 20
328.6302334336426
 42
0.4142135623730951
 10
566.0106799216378
 20
328.3802334336426
 10
566.0106799216378
 20
325.8802334336426
 42
0.4142135623730951
 10
566.2606799216377
 20
325.6302334336426
 10
566.7106799216367
 20
325.6302334336426
 10
566.7106799216367
 20
324.3802334336426
 10
568.2106799216366
 20
324.3802334336426
 10
568.2106799216366
 20
325.1302334336426
 42
-0.9999999999999998
 10
569.2106799216367
 20
325.1302334336426
 10
569.2106799216367
 20
324.0802334336424
 42
-0.4142135623730951
 10
568.2106799216366
 20
323.0802334336424
  0
HATCH
  5
57BF
330
26D3
100
AcDbEntity
  8
APL Hatch
100
AcDbHatch
 10
0.0
 20
0.0
 30
0.0
210
0.0
220
0.0
230
1.0
  2
SOLID
 70
     1
 71
     1
 91
        1
 92
        1
 93
       66
 72
     1
 10
566.0106799216375
 20
323.0802334336424
 11
566.0106799216378
 21
320.6062167402481
 72
     2
 10
571.0106799216377
 20
320.606216740248
 40
4.999999999999886
 50
179.9999999999987
 51
227.5653536898265
 73
     1
 72
     1
 10
567.6369359093846
 20
316.9159794389643
 11
573.9496959286502
 21
311.1446334313807
 72
     1
 10
573.9496959286502
 20
311.1446334313807
 11
574.7106799216367
 21
311.1446334313807
 72
     1
 10
574.7106799216367
 20
311.1446334313807
 11
574.7106799216367
 21
310.4489152484687
 72
     1
 10
574.7106799216367
 20
310.4489152484687
 11
576.3542922106356
 21
308.9462674061335
 72
     2
 10
577.0290410130859
 20
309.6843148663902
 40
0.9999999999996926
 50
227.5653536898378
 51
315.0000000000092
 73
     1
 72
     1
 10
577.7361477942725
 20
308.9772080852039
 11
578.7571265310439
 21
309.998186821975
 72
     2
 10
579.1106799216375
 20
309.6446334313817
 40
0.5000000000002855
 50
224.9999999999678
 51
404.9999999999723
 73
     0
 72
     1
 10
579.4642333122312
 20
309.2910800407884
 11
577.9106799216374
 21
307.7375266501942
 72
     2
 10
577.203573140451
 20
308.444633431381
 40
1.000000000000048
 50
45.0000000000115
 51
90.00000000001303
 73
     0
 72
     1
 10
577.2035731404507
 20
307.4446334313809
 11
576.4583749163616
 21
307.4446334313809
 72
     2
 10
576.4583749163615
 20
308.444633431381
 40
1.000000000000113
 50
89.99999999999349
 51
132.4346463101678
 73
     0
 72
     1
 10
575.7836261139109
 20
307.7065859711241
 11
575.2980543228627
 21
308.1505126860814
 72
     2
 10
574.9606799216369
 20
307.781488955953
 40
0.5000000000003066
 50
47.56535368978012
 51
179.9999999999609
 73
     1
 72
     1
 10
574.4606799216366
 20
307.7814889559534
 11
574.4606799216366
 21
306.7446334313811
 72
     2
 10
573.9606799216367
 20
306.7446334313811
 40
0.5
 50
360.0
 51
540.0
 73
     0
 72
     1
 10
573.4606799216367
 20
306.7446334313811
 11
573.4606799216367
 21
309.6099589088646
 72
     2
 10
572.9606799216366
 20
309.6099589088644
 40
0.5000000000001137
 50
0.0000000000260551
 51
47.56535368985018
 73
     1
 72
     1
 10
573.2980543228618
 20
309.9789826389931
 11
566.848054322862
 21
315.8757982371319
 72
     2
 10
566.5106799216373
 20
315.5067745070035
 40
0.4999999999995815
 50
47.56535368988067
 51
180.0000000000586
 73
     1
 72
     1
 10
566.0106799216378
 20
315.506774507003
 11
566.0106799216378
 21
313.4559032686023
 72
     2
 10
567.0106799216378
 20
313.4559032686021
 40
1.0
 50
179.9999999999935
 51
224.9999999999908
 73
     1
 72
     1
 10
566.3035731404511
 20
312.7487964874157
 11
568.0837365453085
 21
310.9686330825582
 72
     2
 10
567.3766297641218
 20
310.2615263013718
 40
1.000000000000007
 50
315.0000000000092
 51
390.0000000000208
 73
     0
 72
     1
 10
568.2426551679061
 20
309.7615263013714
 11
568.0308294706549
 21
309.3946334313844
 72
     2
 10
567.5978167687628
 20
309.6446334313839
 40
0.4999999999996168
 50
29.99999999996521
 51
227.2776334668625
 73
     0
 72
     2
 10
567.0889818888588
 20
310.1956207860421
 40
0.2500000000005144
 50
312.7223665330609
 51
404.9999999999632
 73
     1
 72
     1
 10
567.2657585841559
 20
310.372397481339
 11
566.3092080590618
 21
311.3289480064316
 72
     2
 10
565.955654668468
 20
310.9753946158378
 40
0.5000000000007275
 50
45.0
 51
135.0000000000046
 73
     1
 72
     1
 10
565.6021012778742
 20
311.3289480064315
 11
565.5642333122308
 21
311.2910800407883
 72
     2
 10
565.2106799216369
 20
311.6446334313814
 40
0.5000000000002853
 50
44.99999999993089
 51
179.9999999999283
 73
     0
 72
     1
 10
564.7106799216365
 20
311.6446334313807
 11
564.7106799216365
 21
320.0991099590613
 72
     2
 10
564.210679921637
 20
320.0991099590615
 40
0.4999999999995453
 50
359.999999999974
 51
494.9999999999816
 73
     1
 72
     1
 10
563.8571265310441
 20
320.4526633496546
 11
562.294384831248
 21
318.8899216498589
 72
     2
 10
564.910679921637
 20
316.273626559467
 40
3.700000000000359
 50
134.9999999999682
 51
179.9999999999868
 73
     1
 72
     1
 10
561.2106799216365
 20
316.2736265594678
 11
561.2106799216365
 21
305.1446334313816
 72
     1
 10
561.2106799216365
 20
305.1446334313816
 11
559.9106799216372
 21
305.1446334313816
 72
     1
 10
559.9106799216372
 20
305.1446334313816
 11
559.9106799216372
 21
316.2736265594679
 72
     2
 10
564.9106799216371
 20
316.2736265594673
 40
4.999999999999886
 50
180.0000000000071
 51
225.0000000000055
 73
     0
 72
     1
 10
561.3751460157049
 20
319.8091604654003
 11
563.2462138275693
 21
321.6802282772659
 72
     2
 10
559.7106799216365
 20
325.2157621831986
 40
5.000000000000079
 50
315.0000000000014
 51
360.0000000000007
 73
     1
 72
     1
 10
564.7106799216365
 20
325.2157621831987
 11
564.7106799216365
 21
328.9375270959674
 72
     2
 10
565.2106799216365
 20
328.9375270959674
 40
0.5
 50
180.0000000000065
 51
225.0000000000276
 73
     0
 72
     1
 10
564.8571265310435
 20
329.2910804865608
 11
567.5339032263403
 21
331.9678571818579
 72
     2
 10
567.710679921637
 20
331.7910804865615
 40
0.249999999999801
 50
224.9999999999447
 51
359.999999999974
 73
     0
 72
     1
 10
567.9606799216367
 20
331.7910804865617
 11
567.9606799216367
 21
331.1802334336419
 72
     1
 10
567.9606799216367
 20
331.1802334336419
 11
569.2106799216367
 21
331.1802334336419
 72
     1
 10
569.2106799216367
 20
331.1802334336419
 11
569.2106799216367
 21
329.1302334336426
 72
     2
 10
568.7106799216366
 20
329.1302334336426
 40
0.5
 50
360.0
 51
540.0
 73
     0
 72
     1
 10
568.2106799216366
 20
329.1302334336426
 11
568.2106799216366
 21
329.8802334336426
 72
     1
 10
568.2106799216366
 20
329.8802334336426
 11
567.2847571092102
 21
329.8802334336426
 72
     1
 10
567.2847571092102
 20
329.8802334336426
 11
566.7106799216367
 21
329.3061562460691
 72
     1
 10
566.7106799216367
 20
329.3061562460691
 11
566.7106799216367
 21
328.6302334336426
 72
     1
 10
566.7106799216367
 20
328.6302334336426
 11
566.2606799216377
 21
328.6302334336426
 72
     2
 10
566.2606799216377
 20
328.3802334336426
 40
0.25
 50
90.0
 51
180.0
 73
     1
 72
     1
 10
566.0106799216378
 20
328.3802334336426
 11
566.0106799216378
 21
325.8802334336426
 72
     2
 10
566.2606799216377
 20
325.8802334336426
 40
0.25
 50
180.0
 51
270.0
 73
     1
 72
     1
 10
566.2606799216377
 20
325.6302334336426
 11
566.7106799216367
 21
325.6302334336426
 72
     1
 10
566.7106799216367
 20
325.6302334336426
 11
566.7106799216367
 21
324.3802334336426
 72
     1
 10
566.7106799216367
 20
324.3802334336426
 11
568.2106799216366
 21
324.3802334336426
 72
     1
 10
568.2106799216366
 20
324.3802334336426
 11
568.2106799216366
 21
325.1302334336426
 72
     2
 10
568.7106799216366
 20
325.1302334336426
 40
0.5
 50
180.0
 51
360.0
 73
     0
 72
     1
 10
569.2106799216367
 20
325.1302334336426
 11
569.2106799216367
 21
324.0802334336424
 72
     2
 10
568.2106799216366
 20
324.0802334336424
 40
1.0
 50
360.0
 51
450.0
 73
     0
 72
     1
 10
568.2106799216366
 20
323.0802334336424
 11
566.0106799216375
 21
323.0802334336424
 97
        1
330
57BE
 75
     0
 76
     1
 98
        1
 10
0.0
 20
0.0
  0
ENDBLK
  5
26D5
330
26D3
100
AcDbEntity
  8
0
100
AcDbBlockEnd
  0
BLOCK
  5
26DF
330
26DE
100
AcDbEntity
  8
0
100
AcDbBlockBegin
  2
9700520
 70
     0
 10
430.5991069265696
 20
234.3886777084823
 30
0.0
  3
9700520
  1
9700520.dwg
  0
LWPOLYLINE
  5
57C1
330
26DE
100
AcDbEntity
  8
APL Joinery
  6
Continuous
 62
     8
100
AcDbPolyline
 90
       12
 70
     1
 43
0.0
 10
419.9991069265686
 20
255.4386777084819
 10
420.9991069265678
 20
255.4386777084819
 10
420.9991069265678
 20
235.8386777084819
 10
428.6491069265691
 20
235.8386777084819
 10
428.6491069265691
 20
238.4386777084814
 10
430.6491069265692
 20
238.4386777084814
 10
430.6491069265692
 20
234.5386777084818
 10
429.3491069265699
 20
234.5386777084818
 10
429.3491069265699
 20
232.9386777084814
 10
428.0491069265687
 20
232.9386777084814
 10
428.0491069265687
 20
234.5386777084818
 10
419.9991069265686
 20
234.5386777084818
  0
ENDBLK
  5
26E0
330
26DE
100
AcDbEntity
  8
0
100
AcDbBlockEnd
  0
BLOCK
  5
26E9
330
26E8
100
AcDbEntity
  8
0
100
AcDbBlockBegin
  2
6glass
 70
     0
 10
101.8368839708302
 20
399.4111348733001
 30
0.0
  3
6glass
  1
6glass.dwg
  0
LINE
  5
375B
330
26E8
100
AcDbEntity
  8
APL Joinery
 62
     7
100
AcDbLine
 10
95.33688397083029
 20
412.4111348732999
 30
0.0
 11
95.33688397083029
 21
392.4111348733
 31
0.0
  0
LINE
  5
375C
330
26E8
100
AcDbEntity
  8
APL Joinery
 62
     7
100
AcDbLine
 10
89.33688397083029
 20
412.4111348732999
 30
0.0
 11
95.33688397083029
 21
412.4111348732999
 31
0.0
  0
LINE
  5
375D
330
26E8
100
AcDbEntity
  8
APL Joinery
 62
     8
100
AcDbLine
 10
93.33688397083028
 20
412.4111348732999
 30
0.0
 11
93.33688397083028
 21
392.4111348733
 31
0.0
  0
LINE
  5
375E
330
26E8
100
AcDbEntity
  8
APL Joinery
 62
     7
100
AcDbLine
 10
89.33688397083029
 20
412.4111348732999
 30
0.0
 11
89.33688397083029
 21
392.4111348733
 31
0.0
  0
LINE
  5
375F
330
26E8
100
AcDbEntity
  8
APL Joinery
 62
     8
100
AcDbLine
 10
91.33688397083028
 20
412.4111348732999
 30
0.0
 11
91.33688397083028
 21
392.4111348733
 31
0.0
  0
ENDBLK
  5
26EA
330
26E8
100
AcDbEntity
  8
0
100
AcDbBlockEnd
  0
BLOCK
  5
26F7
330
26F6
100
AcDbEntity
  8
0
100
AcDbBlockBegin
  2
9010604
 70
     0
 10
-20.17351297792279
 20
130.681482016425
 30
0.0
  3
9010604
  1
9010604.dwg
  0
LWPOLYLINE
  5
57C3
330
26F6
100
AcDbEntity
  8
APL Joinery
 62
   252
100
AcDbPolyline
 90
        2
 70
     0
 43
0.0
 10
16.60163658520415
 20
134.3235541766534
 42
0.6709480368361744
 10
16.17351297792268
 20
134.1481347349457
210
0.0
220
0.0
230
-1.0
  0
LWPOLYLINE
  5
57C4
330
26F6
100
AcDbEntity
  8
APL Joinery
 62
   252
100
AcDbPolyline
 90
        2
 70
     0
 43
0.0
 10
16.67351297792268
 20
128.8441344391318
 42
0.9999999999999998
 10
16.17351297792268
 20
128.8441344391318
210
0.0
220
0.0
230
-1.0
  0
LWPOLYLINE
  5
57C5
330
26F6
100
AcDbEntity
  8
APL Joinery
 62
   252
100
AcDbPolyline
 90
        2
 70
     0
 43
0.0
 10
16.67351297792269
 20
125.4689079447544
 42
0.9999999999999998
 10
16.17351297792269
 20
125.4689079447544
210
0.0
220
0.0
230
-1.0
  0
LWPOLYLINE
  5
57C6
330
26F6
100
AcDbEntity
  8
APL Joinery
 62
   252
100
AcDbPolyline
 90
        2
 70
     0
 43
0.0
 10
-16.17351297792268
 20
128.8441344391318
 10
-16.1735129779228
 20
127.9621344391317
  0
LWPOLYLINE
  5
57C7
330
26F6
100
AcDbEntity
  8
APL Joinery
 62
   252
100
AcDbPolyline
 90
        2
 70
     0
 43
0.0
 10
-16.17351297792268
 20
134.1481347349457
 10
-16.1735129779228
 20
132.4795000512589
  0
LWPOLYLINE
  5
57C8
330
26F6
100
AcDbEntity
  8
APL Joinery
 62
   252
100
AcDbPolyline
 90
        2
 70
     0
 43
0.0
 10
16.17351297792542
 20
132.4795000512256
 42
0.2679491924311239
 10
17.67351297795256
 20
130.3216344391175
210
0.0
220
0.0
230
-1.0
  0
LWPOLYLINE
  5
57C9
330
26F6
100
AcDbEntity
  8
APL Joinery
 62
   252
100
AcDbPolyline
 90
        6
 70
     0
 43
0.0
 10
-17.67351297792268
 20
130.3216344391317
 10
-17.67351297792259
 20
127.9076182450579
 42
0.493145426031304
 10
-17.48469012115723
 20
127.7627293711144
 10
-17.41469393282016
 20
127.7814847932528
 42
0.3394542588633749
 10
-16.67351297792268
 20
128.7474106195419
 10
-16.67351297792279
 20
128.8441344391318
  0
LWPOLYLINE
  5
57CA
330
26F6
100
AcDbEntity
  8
APL Joinery
 62
   252
100
AcDbPolyline
 90
        2
 70
     0
 43
0.0
 10
16.17351297792268
 20
127.9621344391317
 42
0.4142135623730951
 10
17.67351297792268
 20
126.4621344391317
210
0.0
220
0.0
230
-1.0
  0
LWPOLYLINE
  5
57CB
330
26F6
100
AcDbEntity
  8
APL Joinery
 62
   252
100
AcDbPolyline
 90
        2
 70
     0
 43
0.0
 10
16.67351297792269
 20
122.0936814503771
 42
0.9999999999999998
 10
16.17351297792269
 20
122.0936814503771
210
0.0
220
0.0
230
-1.0
  0
LWPOLYLINE
  5
57CC
330
26F6
100
AcDbEntity
  8
APL Joinery
 62
   252
100
AcDbPolyline
 90
        2
 70
     0
 43
0.0
 10
-16.17351297792269
 20
122.0936814503771
 10
-16.1735129779228
 20
121.2116814503773
  0
LWPOLYLINE
  5
57CD
330
26F6
100
AcDbEntity
  8
APL Joinery
 62
   252
100
AcDbPolyline
 90
        2
 70
     0
 43
0.0
 10
16.17351297792269
 20
121.2116814503773
 42
0.2513102605358356
 10
16.84402567435407
 20
119.9619011443961
210
0.0
220
0.0
230
-1.0
  0
LWPOLYLINE
  5
57CE
330
26F6
100
AcDbEntity
  8
APL Joinery
 62
   252
100
AcDbPolyline
 90
        2
 70
     0
 43
0.0
 10
16.17351297792269
 20
124.5869079447544
 42
0.4142135623730951
 10
17.67351297792269
 20
123.0869079447544
210
0.0
220
0.0
230
-1.0
  0
LWPOLYLINE
  5
57CF
330
26F6
100
AcDbEntity
  8
APL Joinery
 62
   252
100
AcDbPolyline
 90
        6
 70
     0
 43
0.0
 10
-17.67351297792269
 20
123.0869079447544
 10
-17.6735129779226
 20
121.1571652563034
 42
0.493145426031304
 10
-17.48469012115723
 20
121.01227638236
 10
-17.41469393282017
 20
121.0310318044981
 42
0.3394542588633749
 10
-16.67351297792269
 20
121.9969576307872
 10
-16.6735129779228
 20
122.0936814503773
  0
LWPOLYLINE
  5
57D0
330
26F6
100
AcDbEntity
  8
APL Joinery
 62
   252
100
AcDbPolyline
 90
        6
 70
     0
 43
0.0
 10
-17.67351297792268
 20
126.4621344391317
 10
-17.6735129779226
 20
124.5323917506806
 42
0.493145426031304
 10
-17.48469012115701
 20
124.3875028767373
 10
-17.41469393282017
 20
124.4062582988755
 42
0.3394542588633749
 10
-16.67351297792269
 20
125.3721841251645
 10
-16.6735129779228
 20
125.4689079447544
  0
LWPOLYLINE
  5
57D1
330
26F6
100
AcDbEntity
  8
APL Joinery
 62
   252
100
AcDbPolyline
 90
        2
 70
     0
 43
0.0
 10
-16.17351297792268
 20
125.4689079447544
 10
-16.1735129779228
 20
124.5869079447544
  0
LWPOLYLINE
  5
57D2
330
26F6
100
AcDbEntity
  8
APL Joinery
 62
   252
100
AcDbPolyline
 90
        5
 70
     0
 43
0.0
 10
-16.84402567440342
 20
119.9619011443633
 10
-18.92388950453384
 20
118.5814820164251
 10
-20.17351297792281
 20
120.4886926987968
 10
-20.17351297792281
 20
125.131482016425
 10
-21.10930520105367
 20
127.2276565962382
  0
LWPOLYLINE
  5
57D3
330
26F6
100
AcDbEntity
  8
APL Joinery
 62
   252
100
AcDbPolyline
 90
        2
 70
     0
 43
0.0
 10
21.10930520105035
 20
127.2276565962311
 42
0.543279747118861
 10
20.65273625983471
 20
127.931482016425
210
0.0
220
0.0
230
-1.0
  0
LWPOLYLINE
  5
57D4
330
26F6
100
AcDbEntity
  8
APL Joinery
 62
   252
100
AcDbPolyline
 90
        5
 70
     0
 43
0.0
 10
-20.65273625983471
 20
127.931482016425
 10
-20.1735129779228
 20
127.931482016425
 10
-20.1735129779228
 20
130.7814820164249
 10
-21.1735129779228
 20
130.681482016425
 10
-21.1735129779228
 20
131.6862565916781
  0
LWPOLYLINE
  5
57D5
330
26F6
100
AcDbEntity
  8
APL Joinery
 62
   252
100
AcDbPolyline
 90
        2
 70
     0
 43
0.0
 10
-21.17351297755487
 20
131.6862565917625
 42
0.149906020253322
 10
-16.6016365851351
 20
134.3235541767276
  0
ENDBLK
  5
26F8
330
26F6
100
AcDbEntity
  8
0
100
AcDbBlockEnd
  0
BLOCK
  5
270A
330
2709
100
AcDbEntity
  8
0
100
AcDbBlockBegin
  2
07103
 70
     0
 10
494.0467264791148
 20
408.3095849969407
 30
0.0
  3
07103
  1
07103.dwg
  0
LWPOLYLINE
  5
57D8
102
{ACAD_REACTORS
330
57DA
102
}
330
2709
100
AcDbEntity
  8
APL Joinery
  6
Continuous
100
AcDbPolyline
 90
       74
 70
     1
 43
0.0
 10
486.4049948130859
 20
401.4784354062674
 10
480.9372350254932
 20
409.692910204529
 42
-0.3573073485341374
 10
481.0625785385654
 20
410.9541167128311
 10
490.1680468226747
 20
420.0595849969407
 10
492.2962983302766
 20
420.0595849969407
 10
492.2962983302766
 20
421.3095849969407
 10
511.0967264791149
 20
421.3095849969407
 42
0.9999999999999998
 10
511.0967264791149
 20
422.8095849969407
 10
507.2967264791157
 20
422.8095849969407
 42
-0.4142135623730951
 10
507.0467264791156
 20
423.0595849969407
 10
507.0467264791156
 20
426.3614675875855
 42
-0.4142135623730951
 10
507.2967264791157
 20
426.6114675875854
 10
519.0467264791156
 20
426.6114675875854
 10
519.0467264791156
 20
420.9095849969411
 10
525.1467264791151
 20
420.9095849969411
 42
-0.4142135623730951
 10
525.3967264791151
 20
420.6595849969411
 10
525.3967264791151
 20
419.7595849969415
 42
0.4142135623730951
 10
525.6467264791151
 20
419.5095849969415
 10
526.5467264791157
 20
419.5095849969415
 42
0.4142135623730951
 10
526.7967264791157
 20
419.7595849969415
 10
526.7967264791157
 20
422.3095849969407
 10
520.4467264791153
 20
422.3095849969407
 10
520.4467264791153
 20
429.4114675875857
 10
519.2467264791154
 20
429.4114675875857
 10
519.2467264791154
 20
428.0114675875851
 10
513.3967264791151
 20
428.0114675875851
 10
513.3967264791151
 20
466.0595849969407
 10
509.8967264791151
 20
466.0595849969407
 10
509.8967264791151
 20
464.0095849969405
 42
0.9999999999999998
 10
510.8967264791151
 20
464.0095849969405
 10
510.8967264791151
 20
464.7595849969405
 10
512.3967264791152
 20
464.7595849969405
 10
512.3967264791152
 20
459.2595849969406
 10
510.8967264791151
 20
459.2595849969406
 10
510.8967264791151
 20
460.0095849969405
 42
0.9999999999999998
 10
509.8967264791151
 20
460.0095849969405
 10
509.8967264791151
 20
457.9595849969413
 10
511.8967264791151
 20
457.9595849969413
 10
511.8967264791151
 20
456.4595849969413
 10
512.1467264791151
 20
456.4595849969413
 10
512.1467264791151
 20
452.4595849969413
 10
511.8967264791151
 20
452.4595849969413
 10
511.8967264791151
 20
447.0595849969408
 42
-0.4142135623730951
 10
509.8967264791151
 20
445.0595849969407
 10
488.5467264791157
 20
445.0595849969407
 42
0.9999999999999998
 10
488.5467264791157
 20
444.0595849969407
 10
491.0467264791157
 20
444.0595849969407
 10
491.0467264791157
 20
440.0595849969407
 10
476.8967264791151
 20
440.0595849969407
 10
476.8967264791151
 20
442.1569935006713
 10
477.8632328300616
 20
443.8310316063473
 42
0.3394542588633301
 10
477.8235031744117
 20
444.132808301644
 10
476.8967264791151
 20
445.0595849969407
 10
475.3967264791151
 20
445.0595849969407
 10
475.3967264791151
 20
418.3334035902848
 42
0.1478844142756872
 10
477.072223536533
 20
412.7924063191301
 10
485.156319371699
 20
400.6472858155943
 42
0.2509566172926127
 10
487.6536702544733
 20
399.3095849969408
 10
491.0467264791147
 20
399.3095849969408
 42
0.4142135623730951
 10
492.0467264791148
 20
400.3095849969407
 10
492.0467264791148
 20
401.3595849969409
 42
0.9999999999999998
 10
491.0467264791147
 20
401.3595849969409
 10
491.0467264791147
 20
400.6095849969409
 10
489.5467264791148
 20
400.6095849969409
 10
489.5467264791148
 20
406.1095849969409
 10
491.0467264791147
 20
406.1095849969409
 10
491.0467264791147
 20
405.359584996941
 42
0.9999999999999998
 10
492.0467264791148
 20
405.359584996941
 10
492.0467264791148
 20
406.4095849969411
 42
0.4142135623730951
 10
491.0467264791147
 20
407.4095849969411
 10
489.5467264791148
 20
407.4095849969411
 42
0.4142135623730951
 10
488.0467264791148
 20
405.9095849969411
 10
488.0467264791148
 20
401.3153199271977
 42
-0.4459564851225481
 10
487.4932545914353
 20
400.818187392326
 42
-0.2226658265771438
  0
LWPOLYLINE
  5
57D9
102
{ACAD_REACTORS
330
57DA
102
}
330
2709
100
AcDbEntity
  8
APL Joinery
  6
Continuous
100
AcDbPolyline
 90
       27
 70
     1
 43
0.0
 10
497.8626446329609
 20
426.7344822248993
 42
-0.9999999999999998
 10
498.9299523252697
 20
427.7884529502705
 42
-0.3548088091890836
 10
499.3397914444508
 20
423.5855590229147
 42
0.5978996910514593
 10
499.7567306930084
 20
422.8095849969407
 10
505.5467264791157
 20
422.8095849969407
 10
505.5467264791157
 20
426.2614675875851
 42
-0.4142135623730951
 10
507.2967264791157
 20
428.0114675875851
 10
511.3967264791151
 20
428.0114675875851
 42
0.4142135623730951
 10
511.8967264791151
 20
428.5114675875851
 10
511.8967264791151
 20
443.0595849969408
 42
0.4142135623730951
 10
511.3967264791151
 20
443.5595849969407
 10
493.0467264791157
 20
443.5595849969407
 42
0.4142135623730951
 10
492.5467264791157
 20
443.0595849969408
 10
492.5467264791157
 20
440.0595849969407
 42
-0.4142135623730951
 10
491.0467264791157
 20
438.5595849969408
 10
477.3967264791151
 20
438.5595849969408
 42
0.4142135623730951
 10
476.8967264791151
 20
438.0595849969408
 10
476.896726479115
 20
418.3334035902847
 42
0.1478844142756755
 10
478.3208989779203
 20
413.6235559098032
 10
478.9591933542949
 20
412.6646160016355
 42
0.4735056154819743
 10
480.4987504297392
 20
412.5116089475654
 10
489.9912701273786
 20
422.0041286452035
 42
-0.1989123673796641
 10
491.9358137756415
 20
422.8095849969407
 10
493.3358662652215
 20
422.8095849969407
 42
0.5978996910514752
 10
493.752805513779
 20
423.5855590229146
 42
-0.354808809189094
 10
494.162644632961
 20
427.7884529502705
 42
-1.00000000000004
 10
495.229952325269
 20
426.7344822248991
 42
2.392909508455622
  0
HATCH
  5
57DA
330
2709
100
AcDbEntity
  8
APL Hatch
100
AcDbHatch
 10
0.0
 20
0.0
 30
0.0
210
0.0
220
0.0
230
1.0
  2
SOLID
 70
     1
 71
     1
 91
        2
 92
       16
 93
       27
 72
     2
 10
498.3962984791153
 20
427.261467587585
 40
0.7500000000002328
 50
135.360227041443
 51
315.3602270414491
 73
     0
 72
     2
 10
496.5462984791149
 20
425.4345849969405
 40
3.350000000000496
 50
315.3602270414142
 51
393.5007603850511
 73
     0
 72
     2
 10
499.7567306930084
 20
423.3095849969407
 40
0.5000000000000253
 50
146.4992396149542
 51
270.0
 73
     1
 72
     1
 10
499.7567306930084
 20
422.8095849969407
 11
505.5467264791157
 21
422.8095849969407
 72
     1
 10
505.5467264791157
 20
422.8095849969407
 11
505.5467264791157
 21
426.2614675875851
 72
     2
 10
507.2967264791157
 20
426.2614675875851
 40
1.75
 50
180.0
 51
270.0
 73
     0
 72
     1
 10
507.2967264791157
 20
428.0114675875851
 11
511.3967264791151
 21
428.0114675875851
 72
     2
 10
511.3967264791151
 20
428.5114675875851
 40
0.5
 50
270.0
 51
360.0
 73
     1
 72
     1
 10
511.8967264791151
 20
428.5114675875851
 11
511.8967264791151
 21
443.0595849969408
 72
     2
 10
511.3967264791151
 20
443.0595849969408
 40
0.5
 50
0.0
 51
90.0
 73
     1
 72
     1
 10
511.3967264791151
 20
443.5595849969407
 11
493.0467264791157
 21
443.5595849969407
 72
     2
 10
493.0467264791157
 20
443.0595849969408
 40
0.5
 50
90.0
 51
180.0
 73
     1
 72
     1
 10
492.5467264791157
 20
443.0595849969408
 11
492.5467264791157
 21
440.0595849969407
 72
     2
 10
491.0467264791157
 20
440.0595849969407
 40
1.5
 50
360.0
 51
450.0
 73
     0
 72
     1
 10
491.0467264791157
 20
438.5595849969408
 11
477.3967264791151
 21
438.5595849969408
 72
     2
 10
477.3967264791151
 20
438.0595849969408
 40
0.5
 50
90.0
 51
180.0
 73
     1
 72
     1
 10
476.8967264791151
 20
438.0595849969408
 11
476.896726479115
 21
418.3334035902847
 72
     2
 10
485.3967264791152
 20
418.3334035902848
 40
8.50000000000017
 50
180.0000000000004
 51
213.6487285868878
 73
     1
 72
     1
 10
478.3208989779203
 20
413.6235559098032
 11
478.9591933542949
 21
412.6646160016355
 72
     2
 10
479.7916436485524
 20
413.2187157287514
 40
0.9999999999996809
 50
213.6487285869261
 51
315.0000000000368
 73
     1
 72
     1
 10
480.4987504297392
 20
412.5116089475654
 11
489.9912701273786
 21
422.0041286452035
 72
     2
 10
491.9358137756416
 20
420.0595849969408
 40
2.749999999999861
 50
224.9999999999941
 51
269.9999999999953
 73
     0
 72
     1
 10
491.9358137756415
 20
422.8095849969407
 11
493.3358662652215
 21
422.8095849969407
 72
     2
 10
493.3358662652215
 20
423.3095849969407
 40
0.5
 50
269.9999999999935
 51
393.500760385044
 73
     1
 72
     2
 10
496.5462984791153
 20
425.4345849969399
 40
3.350000000000573
 50
146.4992396149599
 51
224.6397729585988
 73
     0
 72
     2
 10
494.696298479115
 20
427.2614675875849
 40
0.7499999999999897
 50
224.6397729585814
 51
404.6397729585875
 73
     0
 72
     2
 10
496.5462984791151
 20
425.4345849969415
 40
1.849999999999111
 50
135.3602270414172
 51
404.6397729585926
 73
     1
 97
        1
330
57D9
 92
        1
 93
       74
 72
     1
 10
486.4049948130859
 20
401.4784354062674
 11
480.9372350254932
 21
409.692910204529
 72
     2
 10
481.7696853197516
 20
410.2470099316442
 40
1.000000000000091
 50
146.3512714131326
 51
225.000000000023
 73
     0
 72
     1
 10
481.0625785385654
 20
410.9541167128311
 11
490.1680468226747
 21
420.0595849969407
 72
     1
 10
490.1680468226747
 20
420.0595849969407
 11
492.2962983302766
 21
420.0595849969407
 72
     1
 10
492.2962983302766
 20
420.0595849969407
 11
492.2962983302766
 21
421.3095849969407
 72
     1
 10
492.2962983302766
 20
421.3095849969407
 11
511.0967264791149
 21
421.3095849969407
 72
     2
 10
511.0967264791149
 20
422.0595849969408
 40
0.75
 50
270.0
 51
450.0
 73
     1
 72
     1
 10
511.0967264791149
 20
422.8095849969407
 11
507.2967264791157
 21
422.8095849969407
 72
     2
 10
507.2967264791157
 20
423.0595849969407
 40
0.25
 50
90.0
 51
180.0
 73
     0
 72
     1
 10
507.0467264791156
 20
423.0595849969407
 11
507.0467264791156
 21
426.3614675875855
 72
     2
 10
507.2967264791157
 20
426.3614675875855
 40
0.25
 50
180.0
 51
270.0
 73
     0
 72
     1
 10
507.2967264791157
 20
426.6114675875854
 11
519.0467264791156
 21
426.6114675875854
 72
     1
 10
519.0467264791156
 20
426.6114675875854
 11
519.0467264791156
 21
420.9095849969411
 72
     1
 10
519.0467264791156
 20
420.9095849969411
 11
525.1467264791151
 21
420.9095849969411
 72
     2
 10
525.1467264791151
 20
420.6595849969411
 40
0.25
 50
270.0
 51
360.0
 73
     0
 72
     1
 10
525.3967264791151
 20
420.6595849969411
 11
525.3967264791151
 21
419.7595849969415
 72
     2
 10
525.6467264791151
 20
419.7595849969415
 40
0.25
 50
180.0
 51
270.0
 73
     1
 72
     1
 10
525.6467264791151
 20
419.5095849969415
 11
526.5467264791157
 21
419.5095849969415
 72
     2
 10
526.5467264791157
 20
419.7595849969415
 40
0.25
 50
270.0
 51
360.0
 73
     1
 72
     1
 10
526.7967264791157
 20
419.7595849969415
 11
526.7967264791157
 21
422.3095849969407
 72
     1
 10
526.7967264791157
 20
422.3095849969407
 11
520.4467264791153
 21
422.3095849969407
 72
     1
 10
520.4467264791153
 20
422.3095849969407
 11
520.4467264791153
 21
429.4114675875857
 72
     1
 10
520.4467264791153
 20
429.4114675875857
 11
519.2467264791154
 21
429.4114675875857
 72
     1
 10
519.2467264791154
 20
429.4114675875857
 11
519.2467264791154
 21
428.0114675875851
 72
     1
 10
519.2467264791154
 20
428.0114675875851
 11
513.3967264791151
 21
428.0114675875851
 72
     1
 10
513.3967264791151
 20
428.0114675875851
 11
513.3967264791151
 21
466.0595849969407
 72
     1
 10
513.3967264791151
 20
466.0595849969407
 11
509.8967264791151
 21
466.0595849969407
 72
     1
 10
509.8967264791151
 20
466.0595849969407
 11
509.8967264791151
 21
464.0095849969405
 72
     2
 10
510.3967264791151
 20
464.0095849969405
 40
0.5
 50
180.0
 51
360.0
 73
     1
 72
     1
 10
510.8967264791151
 20
464.0095849969405
 11
510.8967264791151
 21
464.7595849969405
 72
     1
 10
510.8967264791151
 20
464.7595849969405
 11
512.3967264791152
 21
464.7595849969405
 72
     1
 10
512.3967264791152
 20
464.7595849969405
 11
512.3967264791152
 21
459.2595849969406
 72
     1
 10
512.3967264791152
 20
459.2595849969406
 11
510.8967264791151
 21
459.2595849969406
 72
     1
 10
510.8967264791151
 20
459.2595849969406
 11
510.8967264791151
 21
460.0095849969405
 72
     2
 10
510.3967264791151
 20
460.0095849969405
 40
0.5
 50
0.0
 51
180.0
 73
     1
 72
     1
 10
509.8967264791151
 20
460.0095849969405
 11
509.8967264791151
 21
457.9595849969413
 72
     1
 10
509.8967264791151
 20
457.9595849969413
 11
511.8967264791151
 21
457.9595849969413
 72
     1
 10
511.8967264791151
 20
457.9595849969413
 11
511.8967264791151
 21
456.4595849969413
 72
     1
 10
511.8967264791151
 20
456.4595849969413
 11
512.1467264791151
 21
456.4595849969413
 72
     1
 10
512.1467264791151
 20
456.4595849969413
 11
512.1467264791151
 21
452.4595849969413
 72
     1
 10
512.1467264791151
 20
452.4595849969413
 11
511.8967264791151
 21
452.4595849969413
 72
     1
 10
511.8967264791151
 20
452.4595849969413
 11
511.8967264791151
 21
447.0595849969408
 72
     2
 10
509.8967264791151
 20
447.0595849969408
 40
2.0
 50
360.0
 51
450.0
 73
     0
 72
     1
 10
509.8967264791151
 20
445.0595849969407
 11
488.5467264791157
 21
445.0595849969407
 72
     2
 10
488.5467264791157
 20
444.5595849969407
 40
0.5
 50
90.0
 51
270.0
 73
     1
 72
     1
 10
488.5467264791157
 20
444.0595849969407
 11
491.0467264791157
 21
444.0595849969407
 72
     1
 10
491.0467264791157
 20
444.0595849969407
 11
491.0467264791157
 21
440.0595849969407
 72
     1
 10
491.0467264791157
 20
440.0595849969407
 11
476.8967264791151
 21
440.0595849969407
 72
     1
 10
476.8967264791151
 20
440.0595849969407
 11
476.8967264791151
 21
442.1569935006713
 72
     1
 10
476.8967264791151
 20
442.1569935006713
 11
477.8632328300616
 21
443.8310316063473
 72
     2
 10
477.6467264791151
 20
443.956031606347
 40
0.2500000000000753
 50
330.0000000000852
 51
405.0000000000737
 73
     1
 72
     1
 10
477.8235031744117
 20
444.132808301644
 11
476.8967264791151
 21
445.0595849969407
 72
     1
 10
476.8967264791151
 20
445.0595849969407
 11
475.3967264791151
 21
445.0595849969407
 72
     1
 10
475.3967264791151
 20
445.0595849969407
 11
475.3967264791151
 21
418.3334035902848
 72
     2
 10
485.3967264791146
 20
418.3334035902846
 40
9.999999999999545
 50
179.9999999999993
 51
213.6487285868891
 73
     1
 72
     1
 10
477.072223536533
 20
412.7924063191301
 11
485.156319371699
 21
400.6472858155943
 72
     2
 10
487.6536702544735
 20
402.3095849969406
 40
2.999999999999848
 50
213.6487285868885
 51
269.9999999999978
 73
     1
 72
     1
 10
487.6536702544733
 20
399.3095849969408
 11
491.0467264791147
 21
399.3095849969408
 72
     2
 10
491.0467264791147
 20
400.3095849969407
 40
1.0
 50
270.0
 51
360.0
 73
     1
 72
     1
 10
492.0467264791148
 20
400.3095849969407
 11
492.0467264791148
 21
401.3595849969409
 72
     2
 10
491.5467264791147
 20
401.3595849969409
 40
0.5
 50
0.0
 51
180.0
 73
     1
 72
     1
 10
491.0467264791147
 20
401.3595849969409
 11
491.0467264791147
 21
400.6095849969409
 72
     1
 10
491.0467264791147
 20
400.6095849969409
 11
489.5467264791148
 21
400.6095849969409
 72
     1
 10
489.5467264791148
 20
400.6095849969409
 11
489.5467264791148
 21
406.1095849969409
 72
     1
 10
489.5467264791148
 20
406.1095849969409
 11
491.0467264791147
 21
406.1095849969409
 72
     1
 10
491.0467264791147
 20
406.1095849969409
 11
491.0467264791147
 21
405.359584996941
 72
     2
 10
491.5467264791147
 20
405.359584996941
 40
0.5
 50
180.0
 51
360.0
 73
     1
 72
     1
 10
492.0467264791148
 20
405.359584996941
 11
492.0467264791148
 21
406.4095849969411
 72
     2
 10
491.0467264791147
 20
406.4095849969411
 40
1.0
 50
0.0
 51
90.0
 73
     1
 72
     1
 10
491.0467264791147
 20
407.4095849969411
 11
489.5467264791148
 21
407.4095849969411
 72
     2
 10
489.5467264791148
 20
405.9095849969411
 40
1.5
 50
90.0
 51
180.0
 73
     1
 72
     1
 10
488.0467264791148
 20
405.9095849969411
 11
488.0467264791148
 21
401.3153199271977
 72
     2
 10
487.5467264791147
 20
401.3153199271977
 40
0.5
 50
360.0
 51
456.1391673652599
 73
     0
 72
     2
 10
487.6536702544726
 20
402.309584996941
 40
1.499999999999656
 50
96.1391673652194
 51
146.3512714130889
 73
     0
 97
        1
330
57D8
 75
     0
 76
     1
 98
        1
 10
0.0
 20
0.0
  0
ENDBLK
  5
270B
330
2709
100
AcDbEntity
  8
0
100
AcDbBlockEnd
  0
BLOCK
  5
2710
330
270F
100
AcDbEntity
  8
0
100
AcDbBlockBegin
  2
07110
 70
     0
 10
402.4316715941655
 20
365.0275869373002
 30
0.0
  3
07110
  1
07110.dwg
  0
LWPOLYLINE
  5
57DC
102
{ACAD_REACTORS
330
57DE
102
}
330
270F
100
AcDbEntity
  8
APL Joinery
  6
Continuous
100
AcDbPolyline
 90
       64
 70
     1
 43
0.0
 10
404.8584482894621
 20
376.1008102420022
 10
403.9316715941654
 20
377.0275869372998
 10
402.4316715941655
 20
377.0275869372998
 10
402.4316715941655
 20
353.0275869373007
 10
403.9316715941654
 20
353.0275869373007
 10
404.8584482894616
 20
353.9543636325969
 42
0.3394542588633509
 10
404.8981779451116
 20
354.2561403278931
 10
403.9316715941654
 20
355.9301784335701
 10
403.9316715941654
 20
358.0275869373007
 10
418.081671594165
 20
358.0275869373007
 10
418.081671594165
 20
354.0275869373007
 10
415.5816715941651
 20
354.0275869373007
 42
0.9999999999999998
 10
415.5816715941651
 20
353.0275869373007
 10
438.9316715941655
 20
353.0275869373007
 10
438.9316715941655
 20
345.6275869373001
 10
439.1816715941654
 20
345.6275869373001
 10
439.1816715941654
 20
343.9275869373003
 10
439.4816715941665
 20
343.6275869373001
 10
439.1816715941654
 20
343.3275869372999
 10
439.1816715941654
 20
341.6275869373001
 10
438.9316715941655
 20
341.6275869373001
 10
438.9316715941655
 20
340.1275869373001
 10
436.9316715941654
 20
340.1275869373001
 10
436.9316715941654
 20
338.0775869373
 42
0.9999999999999998
 10
437.9316715941654
 20
338.0775869373
 10
437.9316715941654
 20
338.8275869372999
 10
439.4316715941655
 20
338.8275869372999
 10
439.4316715941654
 20
333.3275869372999
 10
437.9316715941654
 20
333.3275869372999
 10
437.9316715941654
 20
334.0775869373
 42
0.9999999999999998
 10
436.9316715941654
 20
334.0775869373
 10
436.9316715941654
 20
332.0275869373007
 10
440.4316715941654
 20
332.0275869373007
 10
440.4316715941654
 20
364.2775869372979
 10
446.1816715941655
 20
364.2775869372997
 42
0.9999999999999998
 10
446.1816715941655
 20
365.7775869372998
 10
440.4316715941654
 20
365.7775869372998
 10
440.4316715941654
 20
398.0275869372998
 10
436.9316715941654
 20
398.0275869372998
 10
436.9316715941654
 20
395.9775869372987
 42
0.9999999999999998
 10
437.9316715941654
 20
395.9775869372987
 10
437.9316715941654
 20
396.7275869372987
 10
439.4316715941655
 20
396.7275869372987
 10
439.4316715941655
 20
391.2275869372987
 10
437.9316715941654
 20
391.2275869372987
 10
437.9316715941654
 20
391.9775869372987
 42
0.9999999999999998
 10
436.9316715941654
 20
391.9775869372987
 10
436.9316715941654
 20
389.9275869372994
 10
438.9316715941655
 20
389.9275869372994
 10
438.9316715941655
 20
388.4275869372994
 10
439.1816715941654
 20
388.4275869372994
 10
439.1816715941654
 20
386.7275869372987
 10
439.4816715941665
 20
386.4275869372994
 10
439.1816715941654
 20
386.1275869372983
 10
439.1816715941654
 20
384.4275869372994
 10
438.9316715941655
 20
384.4275869372994
 10
438.9316715941655
 20
377.0275869372998
 10
415.5816715941651
 20
377.0275869372998
 42
0.9999999999999998
 10
415.5816715941651
 20
376.0275869372998
 10
418.081671594165
 20
376.0275869372998
 10
418.081671594165
 20
372.0275869372998
 10
403.9316715941654
 20
372.0275869372998
 10
403.9316715941654
 20
374.1249954410285
 10
404.898177945111
 20
375.7990335467055
 42
0.3394542588633833
  0
LWPOLYLINE
  5
57DD
102
{ACAD_REACTORS
330
57DE
102
}
330
270F
100
AcDbEntity
  8
APL Joinery
  6
Continuous
100
AcDbPolyline
 90
       38
 70
     1
 43
0.0
 10
425.8215067590009
 20
357.9447409878065
 42
-1.000000000000022
 10
426.9918364293302
 20
357.0064827809443
 42
2.083394336380303
 10
429.3715067590002
 20
357.0064827809436
 42
-0.9999999999999998
 10
430.5418364293306
 20
357.9447409878073
 42
-0.2475859549385178
 10
431.0759610359227
 20
355.1729770082227
 42
0.5035199589280133
 10
431.5543559849735
 20
354.5275869373007
 10
438.4316715941655
 20
354.5275869373007
 42
0.4142135623730951
 10
438.9316715941655
 20
355.0275869373006
 10
438.9316715941655
 20
375.0275869372998
 42
0.4142135623730951
 10
438.4316715941655
 20
375.5275869372998
 10
431.5543559849735
 20
375.5275869372998
 42
0.5035199589280026
 10
431.0759610359226
 20
374.8821968663767
 42
-0.2475859549385176
 10
430.54183642933
 20
372.1104328867921
 42
-0.9999999999999998
 10
429.3715067590007
 20
373.0486910936543
 42
2.083394336380362
 10
426.9918364293308
 20
373.048691093655
 42
-0.9999999999999998
 10
425.8215067590003
 20
372.1104328867913
 42
-0.2475859549385162
 10
425.2873821524082
 20
374.8821968663778
 42
0.5035199589278685
 10
424.8089872033575
 20
375.5275869372998
 10
419.5816715941651
 20
375.5275869372998
 10
419.5816715941651
 20
372.0275869372979
 42
-0.4142135623730951
 10
418.081671594165
 20
370.5275869372979
 10
404.4316715941654
 20
370.5275869372979
 42
0.4142135623730951
 10
403.9316715941654
 20
370.0275869372979
 10
403.9316715941654
 20
367.895621978926
 42
0.7045568313917638
 10
406.5918925886409
 20
366.9448921308732
 42
-0.4110822946495551
 10
410.8238256446731
 20
367.3877517724644
 42
-0.9999999999999998
 10
409.8855674378103
 20
366.2174221021346
 42
2.08339433638105
 10
409.8855674378099
 20
363.8377517724647
 42
-1.000000000000057
 10
410.8238256446737
 20
362.6674221021336
 42
-0.4110822946494463
 10
406.5918925886407
 20
363.1102817437254
 42
0.7045568313917339
 10
403.9316715941654
 20
362.1595518956724
 10
403.9316715941654
 20
360.0275869373007
 42
0.4142135623730951
 10
404.4316715941654
 20
359.5275869373007
 10
418.081671594165
 20
359.5275869373007
 42
-0.4142135623730951
 10
419.5816715941651
 20
358.0275869373007
 10
419.5816715941651
 20
354.5275869373007
 10
424.8089872033575
 20
354.5275869373007
 42
0.5035199589280069
 10
425.2873821524083
 20
355.1729770082219
 42
-0.2475859549385176
  0
HATCH
  5
57DE
330
270F
100
AcDbEntity
  8
APL Hatch
100
AcDbHatch
 10
0.0
 20
0.0
 30
0.0
210
0.0
220
0.0
230
1.0
  2
SOLID
 70
     1
 71
     1
 91
        2
 92
       16
 93
       38
 72
     2
 10
426.4066715941655
 20
357.4756118843755
 40
0.7499999999995361
 50
218.7192973222227
 51
398.7192973222234
 73
     0
 72
     2
 10
428.181671594165
 20
356.0525869373001
 40
1.524999999999631
 50
141.2807026777508
 51
398.7192973222159
 73
     1
 72
     2
 10
429.9566715941653
 20
357.4756118843755
 40
0.7500000000003975
 50
141.2807026777576
 51
321.2807026777604
 73
     0
 72
     2
 10
428.1816715941661
 20
356.0525869373006
 40
3.024999999999271
 50
321.2807026777642
 51
376.9046677439093
 73
     0
 72
     2
 10
431.5543559849735
 20
355.0275869373006
 40
0.4999999999999954
 50
163.0953322560882
 51
270.0
 73
     1
 72
     1
 10
431.5543559849735
 20
354.5275869373007
 11
438.4316715941655
 21
354.5275869373007
 72
     2
 10
438.4316715941655
 20
355.0275869373006
 40
0.5
 50
270.0
 51
360.0
 73
     1
 72
     1
 10
438.9316715941655
 20
355.0275869373006
 11
438.9316715941655
 21
375.0275869372998
 72
     2
 10
438.4316715941655
 20
375.0275869372998
 40
0.5
 50
0.0
 51
90.0
 73
     1
 72
     1
 10
438.4316715941655
 20
375.5275869372998
 11
431.5543559849735
 21
375.5275869372998
 72
     2
 10
431.5543559849738
 20
375.0275869372992
 40
0.5000000000005116
 50
90.00000000003907
 51
196.9046677439527
 73
     1
 72
     2
 10
428.1816715941658
 20
374.0025869372993
 40
3.024999999999449
 50
343.0953322561005
 51
398.7192973222453
 73
     0
 72
     2
 10
429.9566715941653
 20
372.5795619902232
 40
0.7499999999995361
 50
38.71929732222274
 51
218.71929732222
 73
     0
 72
     2
 10
428.181671594166
 20
374.0025869372985
 40
1.524999999999622
 50
321.2807026777478
 51
578.7192973222158
 73
     1
 72
     2
 10
426.4066715941655
 20
372.5795619902232
 40
0.7500000000004419
 50
321.2807026777604
 51
501.2807026777569
 73
     0
 72
     2
 10
428.1816715941666
 20
374.0025869372989
 40
3.02500000000125
 50
141.2807026777708
 51
196.9046677439161
 73
     0
 72
     2
 10
424.8089872033573
 20
375.0275869372997
 40
0.5000000000000876
 50
343.0953322560982
 51
449.999999999987
 73
     1
 72
     1
 10
424.8089872033575
 20
375.5275869372998
 11
419.5816715941651
 21
375.5275869372998
 72
     1
 10
419.5816715941651
 20
375.5275869372998
 11
419.5816715941651
 21
372.0275869372979
 72
     2
 10
418.081671594165
 20
372.0275869372979
 40
1.5
 50
360.0
 51
450.0
 73
     0
 72
     1
 10
418.081671594165
 20
370.5275869372979
 11
404.4316715941654
 21
370.5275869372979
 72
     2
 10
404.4316715941654
 20
370.0275869372979
 40
0.5
 50
90.0
 51
180.0
 73
     1
 72
     1
 10
403.9316715941654
 20
370.0275869372979
 11
403.9316715941654
 21
367.895621978926
 72
     2
 10
405.4316715941655
 20
367.8956219789261
 40
1.500000000000056
 50
180.0000000000021
 51
320.667486588044
 73
     1
 72
     2
 10
408.9316715941657
 20
365.0275869373004
 40
3.024999999999363
 50
219.3325134119569
 51
308.719297322252
 73
     0
 72
     2
 10
410.3546965412418
 20
366.8025869372995
 40
0.7499999999999356
 50
308.7192973222261
 51
488.7192973222288
 73
     0
 72
     2
 10
408.9316715941659
 20
365.0275869372998
 40
1.524999999999889
 50
51.28070267774212
 51
308.7192973222365
 73
     1
 72
     2
 10
410.3546965412419
 20
363.2525869372992
 40
0.7500000000008146
 50
231.2807026777665
 51
411.2807026777767
 73
     0
 72
     2
 10
408.9316715941663
 20
365.0275869372992
 40
3.02500000000062
 50
51.28070267776683
 51
140.6674865880393
 73
     0
 72
     2
 10
405.4316715941655
 20
362.1595518956724
 40
1.499999999999982
 50
39.33251341196213
 51
180.0
 73
     1
 72
     1
 10
403.9316715941654
 20
362.1595518956724
 11
403.9316715941654
 21
360.0275869373007
 72
     2
 10
404.4316715941654
 20
360.0275869373007
 40
0.5
 50
180.0
 51
270.0
 73
     1
 72
     1
 10
404.4316715941654
 20
359.5275869373007
 11
418.081671594165
 21
359.5275869373007
 72
     2
 10
418.081671594165
 20
358.0275869373007
 40
1.5
 50
270.0
 51
360.0
 73
     0
 72
     1
 10
419.5816715941651
 20
358.0275869373007
 11
419.5816715941651
 21
354.5275869373007
 72
     1
 10
419.5816715941651
 20
354.5275869373007
 11
424.8089872033575
 21
354.5275869373007
 72
     2
 10
424.8089872033578
 20
355.0275869373003
 40
0.4999999999996021
 50
269.9999999999609
 51
376.9046677438757
 73
     1
 72
     2
 10
428.1816715941651
 20
356.0525869372993
 40
3.024999999999449
 50
163.0953322561005
 51
218.7192973222453
 73
     0
 97
        1
330
57DD
 92
        1
 93
       64
 72
     1
 10
404.8584482894621
 20
376.1008102420022
 11
403.9316715941654
 21
377.0275869372998
 72
     1
 10
403.9316715941654
 20
377.0275869372998
 11
402.4316715941655
 21
377.0275869372998
 72
     1
 10
402.4316715941655
 20
377.0275869372998
 11
402.4316715941655
 21
353.0275869373007
 72
     1
 10
402.4316715941655
 20
353.0275869373007
 11
403.9316715941654
 21
353.0275869373007
 72
     1
 10
403.9316715941654
 20
353.0275869373007
 11
404.8584482894616
 21
353.9543636325969
 72
     2
 10
404.6816715941655
 20
354.1311403278936
 40
0.2499999999997206
 50
314.9999999999079
 51
389.9999999999023
 73
     1
 72
     1
 10
404.8981779451116
 20
354.2561403278931
 11
403.9316715941654
 21
355.9301784335701
 72
     1
 10
403.9316715941654
 20
355.9301784335701
 11
403.9316715941654
 21
358.0275869373007
 72
     1
 10
403.9316715941654
 20
358.0275869373007
 11
418.081671594165
 21
358.0275869373007
 72
     1
 10
418.081671594165
 20
358.0275869373007
 11
418.081671594165
 21
354.0275869373007
 72
     1
 10
418.081671594165
 20
354.0275869373007
 11
415.5816715941651
 21
354.0275869373007
 72
     2
 10
415.5816715941651
 20
353.5275869373007
 40
0.5
 50
90.0
 51
270.0
 73
     1
 72
     1
 10
415.5816715941651
 20
353.0275869373007
 11
438.9316715941655
 21
353.0275869373007
 72
     1
 10
438.9316715941655
 20
353.0275869373007
 11
438.9316715941655
 21
345.6275869373001
 72
     1
 10
438.9316715941655
 20
345.6275869373001
 11
439.1816715941654
 21
345.6275869373001
 72
     1
 10
439.1816715941654
 20
345.6275869373001
 11
439.1816715941654
 21
343.9275869373003
 72
     1
 10
439.1816715941654
 20
343.9275869373003
 11
439.4816715941665
 21
343.6275869373001
 72
     1
 10
439.4816715941665
 20
343.6275869373001
 11
439.1816715941654
 21
343.3275869372999
 72
     1
 10
439.1816715941654
 20
343.3275869372999
 11
439.1816715941654
 21
341.6275869373001
 72
     1
 10
439.1816715941654
 20
341.6275869373001
 11
438.9316715941655
 21
341.6275869373001
 72
     1
 10
438.9316715941655
 20
341.6275869373001
 11
438.9316715941655
 21
340.1275869373001
 72
     1
 10
438.9316715941655
 20
340.1275869373001
 11
436.9316715941654
 21
340.1275869373001
 72
     1
 10
436.9316715941654
 20
340.1275869373001
 11
436.9316715941654
 21
338.0775869373
 72
     2
 10
437.4316715941654
 20
338.0775869373
 40
0.5
 50
180.0
 51
360.0
 73
     1
 72
     1
 10
437.9316715941654
 20
338.0775869373
 11
437.9316715941654
 21
338.8275869372999
 72
     1
 10
437.9316715941654
 20
338.8275869372999
 11
439.4316715941655
 21
338.8275869372999
 72
     1
 10
439.4316715941655
 20
338.8275869372999
 11
439.4316715941654
 21
333.3275869372999
 72
     1
 10
439.4316715941654
 20
333.3275869372999
 11
437.9316715941654
 21
333.3275869372999
 72
     1
 10
437.9316715941654
 20
333.3275869372999
 11
437.9316715941654
 21
334.0775869373
 72
     2
 10
437.4316715941654
 20
334.0775869373
 40
0.5
 50
0.0
 51
180.0
 73
     1
 72
     1
 10
436.9316715941654
 20
334.0775869373
 11
436.9316715941654
 21
332.0275869373007
 72
     1
 10
436.9316715941654
 20
332.0275869373007
 11
440.4316715941654
 21
332.0275869373007
 72
     1
 10
440.4316715941654
 20
332.0275869373007
 11
440.4316715941654
 21
364.2775869372979
 72
     1
 10
440.4316715941654
 20
364.2775869372979
 11
446.1816715941655
 21
364.2775869372997
 72
     2
 10
446.1816715941655
 20
365.0275869372998
 40
0.75
 50
270.0
 51
450.0
 73
     1
 72
     1
 10
446.1816715941655
 20
365.7775869372998
 11
440.4316715941654
 21
365.7775869372998
 72
     1
 10
440.4316715941654
 20
365.7775869372998
 11
440.4316715941654
 21
398.0275869372998
 72
     1
 10
440.4316715941654
 20
398.0275869372998
 11
436.9316715941654
 21
398.0275869372998
 72
     1
 10
436.9316715941654
 20
398.0275869372998
 11
436.9316715941654
 21
395.9775869372987
 72
     2
 10
437.4316715941654
 20
395.9775869372987
 40
0.5
 50
180.0
 51
360.0
 73
     1
 72
     1
 10
437.9316715941654
 20
395.9775869372987
 11
437.9316715941654
 21
396.7275869372987
 72
     1
 10
437.9316715941654
 20
396.7275869372987
 11
439.4316715941655
 21
396.7275869372987
 72
     1
 10
439.4316715941655
 20
396.7275869372987
 11
439.4316715941655
 21
391.2275869372987
 72
     1
 10
439.4316715941655
 20
391.2275869372987
 11
437.9316715941654
 21
391.2275869372987
 72
     1
 10
437.9316715941654
 20
391.2275869372987
 11
437.9316715941654
 21
391.9775869372987
 72
     2
 10
437.4316715941654
 20
391.9775869372987
 40
0.5
 50
0.0
 51
180.0
 73
     1
 72
     1
 10
436.9316715941654
 20
391.9775869372987
 11
436.9316715941654
 21
389.9275869372994
 72
     1
 10
436.9316715941654
 20
389.9275869372994
 11
438.9316715941655
 21
389.9275869372994
 72
     1
 10
438.9316715941655
 20
389.9275869372994
 11
438.9316715941655
 21
388.4275869372994
 72
     1
 10
438.9316715941655
 20
388.4275869372994
 11
439.1816715941654
 21
388.4275869372994
 72
     1
 10
439.1816715941654
 20
388.4275869372994
 11
439.1816715941654
 21
386.7275869372987
 72
     1
 10
439.1816715941654
 20
386.7275869372987
 11
439.4816715941665
 21
386.4275869372994
 72
     1
 10
439.4816715941665
 20
386.4275869372994
 11
439.1816715941654
 21
386.1275869372983
 72
     1
 10
439.1816715941654
 20
386.1275869372983
 11
439.1816715941654
 21
384.4275869372994
 72
     1
 10
439.1816715941654
 20
384.4275869372994
 11
438.9316715941655
 21
384.4275869372994
 72
     1
 10
438.9316715941655
 20
384.4275869372994
 11
438.9316715941655
 21
377.0275869372998
 72
     1
 10
438.9316715941655
 20
377.0275869372998
 11
415.5816715941651
 21
377.0275869372998
 72
     2
 10
415.5816715941651
 20
376.5275869372997
 40
0.5
 50
90.0
 51
270.0
 73
     1
 72
     1
 10
415.5816715941651
 20
376.0275869372998
 11
418.081671594165
 21
376.0275869372998
 72
     1
 10
418.081671594165
 20
376.0275869372998
 11
418.081671594165
 21
372.0275869372998
 72
     1
 10
418.081671594165
 20
372.0275869372998
 11
403.9316715941654
 21
372.0275869372998
 72
     1
 10
403.9316715941654
 20
372.0275869372998
 11
403.9316715941654
 21
374.1249954410285
 72
     1
 10
403.9316715941654
 20
374.1249954410285
 11
404.898177945111
 21
375.7990335467055
 72
     2
 10
404.6816715941651
 20
375.9240335467059
 40
0.2499999999999941
 50
329.9999999999089
 51
404.9999999998987
 73
     1
 97
        1
330
57DC
 75
     0
 76
     1
 98
        1
 10
0.0
 20
0.0
  0
ENDBLK
  5
2711
330
270F
100
AcDbEntity
  8
0
100
AcDbBlockEnd
  0
BLOCK
  5
2715
330
2714
100
AcDbEntity
  8
0
100
AcDbBlockBegin
  2
9700530
 70
     0
 10
559.2908553915317
 20
166.067763171617
 30
0.0
  3
9700530
  1
9700530.dwg
  0
LWPOLYLINE
  5
57E0
330
2714
100
AcDbEntity
  8
APL Joinery
  6
Continuous
 62
     8
100
AcDbPolyline
 90
       24
 70
     1
 43
0.0
 10
561.2908553915333
 20
168.4177631716161
 42
0.9999999999999998
 10
560.2908553915333
 20
168.4177631716161
 10
560.2908553915333
 20
168.3677631716172
 10
553.8408553915316
 20
168.3677631716172
 10
553.8408553915316
 20
198.817763171617
 10
552.8408553915316
 20
198.817763171617
 10
552.8408553915316
 20
167.3677631716172
 10
556.6712401492615
 20
167.3677631716172
 10
557.190855391532
 20
167.0677631716179
 10
557.6908553915321
 20
167.0677631716179
 10
557.6908553915321
 20
167.3677631716172
 10
560.2908553915324
 20
167.3677631716172
 10
560.2908553915324
 20
164.7677631716168
 10
557.6908553915321
 20
164.7677631716177
 10
557.6908553915321
 20
165.0677631716179
 10
557.190855391532
 20
165.0677631716179
 10
556.6712401492615
 20
164.7677631716168
 10
552.8408553915316
 20
164.7677631716168
 10
552.8408553915316
 20
133.317763171617
 10
553.8408553915316
 20
133.317763171617
 10
553.8408553915316
 20
163.7677631716168
 10
560.2908553915324
 20
163.7677631716174
 10
560.2908553915333
 20
163.7177631716185
 42
0.9999999999999998
 10
561.2908553915333
 20
163.7177631716187
  0
ENDBLK
  5
2716
330
2714
100
AcDbEntity
  8
0
100
AcDbBlockEnd
  0
BLOCK
  5
271B
330
271A
100
AcDbEntity
  8
0
100
AcDbBlockBegin
  2
Timber Profile 5
 70
     0
 10
453.3641191346937
 20
1105.130055158593
 30
0.0
  3
Timber Profile 5
  1
Timber Profile 5.dwg
  0
LINE
  5
57E2
330
271A
100
AcDbEntity
  8
APL Joinery
  6
Continuous
 62
     3
100
AcDbLine
 10
422.3641191346923
 20
1129.730055158591
 30
0.0
 11
484.3641191346932
 21
1129.730055158591
 31
0.0
  0
LINE
  5
57E3
330
271A
100
AcDbEntity
  8
APL Joinery
  6
Continuous
 62
     3
100
AcDbLine
 10
489.3641191346932
 20
1097.730055158591
 30
0.0
 11
456.4641191346918
 21
1097.730055158591
 31
0.0
  0
SPLINE
  5
57E4
330
271A
100
AcDbEntity
  8
APL Joinery
 62
     8
100
AcDbSpline
210
0.0
220
0.0
230
1.0
 70
     8
 71
     3
 72
    10
 73
     6
 74
     4
 42
0.0000000001
 43
0.0000000001
 44
0.0000000001
 40
0.0
 40
0.0
 40
0.0
 40
0.0
 40
9.911908116756421
 40
18.72333204569151
 40
24.45540376577131
 40
24.45540376577131
 40
24.45540376577131
 40
24.45540376577131
 10
418.9273580474901
 20
1121.541427449017
 30
0.0
 10
422.2432806847166
 20
1121.30453541498
 30
0.0
 10
428.5069707677251
 20
1120.857052633663
 30
0.0
 10
436.5211352354377
 20
1123.584764152606
 30
0.0
 10
440.2344295525356
 20
1126.728605676344
 30
0.0
 10
441.6979614197734
 20
1127.967697399925
 30
0.0
 11
418.9273580474901
 21
1121.541427449017
 31
0.0
 11
428.8392661642465
 21
1121.541427449017
 31
0.0
 11
437.143840745317
 21
1124.486802243988
 31
0.0
 11
441.6979614197734
 21
1127.967697399925
 31
0.0
  0
SPLINE
  5
57E5
330
271A
100
AcDbEntity
  8
APL Joinery
 62
     8
100
AcDbSpline
210
0.0
220
0.0
230
1.0
 70
     8
 71
     3
 72
    11
 73
     7
 74
     5
 42
0.0000000001
 43
0.0000000001
 44
0.0000000001
 40
0.0
 40
0.0
 40
0.0
 40
0.0
 40
11.54722017285554
 40
27.46345027272591
 40
37.76828271794729
 40
44.59633610021312
 40
44.59633610021312
 40
44.59633610021312
 40
44.59633610021312
 10
419.4631358927181
 20
1117.257247481745
 30
0.0
 10
423.2942846665483
 20
1116.899017700236
 30
0.0
 10
432.4061368926654
 20
1116.047018202228
 30
0.0
 10
445.1376357368148
 20
1116.9866274103
 30
0.0
 10
455.4527291290711
 20
1121.920874006242
 30
0.0
 10
459.0261095549122
 20
1126.436016875326
 30
0.0
 10
460.4502264578359
 20
1128.235459003703
 30
0.0
 11
419.4631358927181
 21
1117.257247481745
 31
0.0
 11
430.982382040167
 21
1116.453965517
 31
0.0
 11
446.7878644344655
 21
1118.328293896858
 31
0.0
 11
455.8961057833794
 21
1123.147994225097
 31
0.0
 11
460.4502264578359
 21
1128.235459003703
 31
0.0
  0
LINE
  5
57E6
330
271A
100
AcDbEntity
  8
APL Joinery
  6
Continuous
 62
     3
100
AcDbLine
 10
450.2641191346937
 20
1097.73005515859
 30
0.0
 11
417.3641191346924
 21
1097.73005515859
 31
0.0
  0
LINE
  5
57E7
330
271A
100
AcDbEntity
  8
APL Joinery
  6
Continuous
 62
     3
100
AcDbLine
 10
417.3641191346924
 20
1097.73005515859
 30
0.0
 11
417.3641191346924
 21
1124.730055158591
 31
0.0
  0
ARC
  5
57E8
330
271A
100
AcDbEntity
  8
APL Joinery
  6
Continuous
 62
     3
100
AcDbCircle
 10
422.3641191346923
 20
1124.730055158591
 30
0.0
 40
5.0
100
AcDbArc
 50
90.0
 51
180.0
  0
LINE
  5
57E9
330
271A
100
AcDbEntity
  8
APL Joinery
  6
Continuous
 62
     3
100
AcDbLine
 10
456.4641191346927
 20
1106.480055158592
 30
0.0
 11
450.2641191346947
 21
1106.480055158592
 31
0.0
  0
LINE
  5
57EA
330
271A
100
AcDbEntity
  8
APL Joinery
  6
Continuous
 62
     3
100
AcDbLine
 10
450.2641191346947
 20
1106.480055158592
 30
0.0
 11
450.2641191346937
 21
1097.73005515859
 31
0.0
  0
LINE
  5
57EB
330
271A
100
AcDbEntity
  8
APL Joinery
  6
Continuous
 62
     3
100
AcDbLine
 10
456.4641191346918
 20
1097.730055158591
 30
0.0
 11
456.4641191346927
 21
1106.480055158592
 31
0.0
  0
ARC
  5
57EC
330
271A
100
AcDbEntity
  8
APL Joinery
  6
Continuous
 62
     3
100
AcDbCircle
 10
484.3641191346932
 20
1124.730055158591
 30
0.0
 40
5.0
100
AcDbArc
 50
0.0
 51
90.0
  0
LINE
  5
57ED
330
271A
100
AcDbEntity
  8
APL Joinery
  6
Continuous
 62
     3
100
AcDbLine
 10
489.3641191346932
 20
1124.730055158591
 30
0.0
 11
489.3641191346932
 21
1097.730055158591
 31
0.0
  0
ENDBLK
  5
271C
330
271A
100
AcDbEntity
  8
0
100
AcDbBlockEnd
  0
BLOCK
  5
28EA
330
28E9
100
AcDbEntity
  8
0
100
AcDbBlockBegin
  2
sw30mmliner
 70
     0
 10
0.0
 20
0.0
 30
0.0
  3
sw30mmliner
  1
sw30mmliner.dwg
  0
LWPOLYLINE
  5
3BF9
330
28E9
100
AcDbEntity
  8
APL Joinery
  6
Continuous
 62
     3
100
AcDbPolyline
 90
       16
 70
     1
 43
0.0
 10
0.0
 20
-19.0
 10
0.0
 20
-10.69999999999999
 10
4.399999999999977
 20
-10.69999999999999
 10
4.399999999999977
 20
-8.199999999999988
 10
0.0
 20
-8.199999999999988
 10
0.0
 20
0.0
 10
25.0
 20
0.0
 10
25.0
 20
11.0
 10
66.89999999999997
 20
11.0
 10
66.89999999999997
 20
3.0
 10
76.89999999999997
 20
3.0
 10
76.89999999999997
 20
11.0
 10
85.89999999999998
 20
11.0
 42
-0.4142135623730951
 10
88.89999999999998
 20
8.0
 10
88.89999999999998
 20
-16.0
 42
-0.4142135623730951
 10
85.89999999999998
 20
-19.0
  0
ARC
  5
3BFA
330
28E9
100
AcDbEntity
  8
APL Joinery
  6
Continuous
 62
     8
100
AcDbCircle
 10
6.255150418854498
 20
15.95576948981187
 30
0.0
 40
61.9195481519577
100
AcDbArc
 50
328.3882671496865
 51
345.5455351021157
  0
LINE
  5
3BFB
330
28E9
100
AcDbEntity
  8
APL Joinery
  6
Continuous
 62
     8
100
AcDbLine
 10
31.88674611381782
 20
8.5
 30
0.0
 11
86.39999999999998
 21
-7.356923616926167
 31
0.0
  0
ARC
  5
3BFC
330
28E9
100
AcDbEntity
  8
APL Joinery
  6
Continuous
 62
     8
100
AcDbCircle
 10
6.255150418854498
 20
15.95576948981187
 30
0.0
 40
21.9195481519577
100
AcDbArc
 50
271.6858235719073
 51
302.6504531573082
  0
LINE
  5
3BFD
330
28E9
100
AcDbEntity
  8
APL Joinery
  6
Continuous
 62
     8
100
AcDbLine
 10
9.759377641896264
 20
-2.5
 30
0.0
 11
12.41758060383
 21
-16.5
 31
0.0
  0
ARC
  5
3BFE
330
28E9
100
AcDbEntity
  8
APL Joinery
  6
Continuous
 62
     8
100
AcDbCircle
 10
6.255150418854498
 20
15.95576948981187
 30
0.0
 40
41.9195481519577
100
AcDbArc
 50
309.263867291686
 51
349.7549218241108
  0
LINE
  5
3BFF
330
28E9
100
AcDbEntity
  8
APL Joinery
  6
Continuous
 62
     8
100
AcDbLine
 10
27.5
 20
-1.213624173611037
 30
0.0
 11
39.52470338540127
 21
-16.5
 31
0.0
  0
ARC
  5
3C00
330
28E9
100
AcDbEntity
  8
APL Joinery
  6
Continuous
 62
     8
100
AcDbCircle
 10
6.255150418854498
 20
15.95576948981187
 30
0.0
 40
81.91954815195769
100
AcDbArc
 50
336.6597394688825
 51
348.0520517719821
  0
ENDBLK
  5
28EB
330
28E9
100
AcDbEntity
  8
0
100
AcDbBlockEnd
  0
BLOCK
  5
298B
330
298A
100
AcDbEntity
  8
0
100
AcDbBlockBegin
  2
9700529
 70
     0
 10
781.9306002937151
 20
277.8363373982324
 30
0.0
  3
9700529
  1
9700529.dwg
  0
LWPOLYLINE
  5
57EF
330
298A
100
AcDbEntity
  8
APL Joinery
  6
Continuous
 62
     8
100
AcDbPolyline
 90
       14
 70
     1
 43
0.0
 10
774.6306002937147
 20
314.2344548075874
 10
774.6306002937147
 20
279.2863373982321
 10
779.980600293715
 20
279.2863373982321
 10
779.980600293715
 20
281.8863373982316
 10
781.9806002937146
 20
281.8863373982316
 10
781.9806002937146
 20
270.7844548075875
 10
780.6806002937149
 20
270.7844548075875
 10
780.6806002937149
 20
277.9863373982319
 10
779.3806002937151
 20
277.9863373982319
 10
779.3806002937151
 20
276.4863373982319
 10
778.0806002937149
 20
276.4863373982319
 10
778.0806002937149
 20
277.9863373982319
 10
773.6306002937147
 20
277.9863373982319
 10
773.6306002937147
 20
314.2344548075874
  0
ENDBLK
  5
298C
330
298A
100
AcDbEntity
  8
0
100
AcDbBlockEnd
  0
BLOCK
  5
2990
330
298F
100
AcDbEntity
  8
0
100
AcDbBlockBegin
  2
Timber Profile 14
 70
     0
 10
393.7519846435696
 20
820.8839080702457
 30
0.0
  3
Timber Profile 14
  1
Timber Profile 14.dwg
  0
LWPOLYLINE
  5
57F1
330
298F
100
AcDbEntity
  8
APL Joinery
  6
Continuous
 62
     3
100
AcDbPolyline
 90
        8
 70
     1
 43
0.0
 10
391.7019846435692
 20
818.3339080702477
 10
386.7019846435687
 20
818.3339080702477
 10
386.7019846435687
 20
856.4320254796042
 10
398.5019846435694
 20
856.4320254796037
 10
398.5019846435698
 20
809.7320254796034
 10
393.8019846435695
 20
809.7320254796038
 10
393.8019846435695
 20
821.6339080702475
 10
391.7019846435687
 20
821.633908070248
  0
SPLINE
  5
57F2
330
298F
100
AcDbEntity
  8
APL Joinery
 62
     8
100
AcDbSpline
210
0.0
220
0.0
230
1.0
 70
     8
 71
     3
 72
    10
 73
     6
 74
     4
 42
0.0000000001
 43
0.0000000001
 44
0.0000000001
 40
0.0
 40
0.0
 40
0.0
 40
0.0
 40
5.263591546577339
 40
10.30985873790608
 40
15.81802698952888
 40
15.81802698952888
 40
15.81802698952888
 40
15.81802698952888
 10
395.0380500373597
 20
855.4752186760918
 30
0.0
 10
394.89416405571
 20
853.7003268954194
 30
0.0
 10
394.612332889282
 20
850.2238254663334
 30
0.0
 10
391.6248487596279
 20
845.6714687065561
 30
0.0
 10
389.0323190059914
 20
843.3002743516691
 30
0.0
 10
387.679324792558
 20
842.0627910647029
 30
0.0
 11
395.0380500373597
 21
855.4752186760918
 31
0.0
 11
394.1723178228613
 21
850.2833111555382
 31
0.0
 11
391.575120367043
 21
845.9567215122081
 31
0.0
 11
387.679324792558
 21
842.0627910647029
 31
0.0
  0
SPLINE
  5
57F3
330
298F
100
AcDbEntity
  8
APL Joinery
 62
     8
100
AcDbSpline
210
0.0
220
0.0
230
1.0
 70
     8
 71
     3
 72
    11
 73
     7
 74
     5
 42
0.0000000001
 43
0.0000000001
 44
0.0000000001
 40
0.0
 40
0.0
 40
0.0
 40
0.0
 40
5.642376584452415
 40
9.888772310793711
 40
15.5710224310065
 40
19.40985520851824
 40
19.40985520851824
 40
19.40985520851824
 40
19.40985520851824
 10
397.458452421487
 20
846.0232058202477
 30
0.0
 10
397.3042749500872
 20
844.0837523734545
 30
0.0
 10
397.034065068257
 20
840.6846858177821
 30
0.0
 10
393.4912435035322
 20
836.7140537572922
 30
0.0
 10
391.3805634006039
 20
832.4927010298289
 30
0.0
 10
388.6113428291015
 20
830.8322635653421
 30
0.0
 10
387.4948128280252
 20
830.1627870118714
 30
0.0
 11
397.458452421487
 21
846.0232058202477
 31
0.0
 11
396.3513806342912
 21
840.4905025407675
 31
0.0
 11
393.9527283410171
 21
836.9864557601635
 31
0.0
 11
390.6315162250799
 21
832.3758683236638
 31
0.0
 11
387.4948128280252
 21
830.1627870118714
 31
0.0
  0
ENDBLK
  5
2991
330
298F
100
AcDbEntity
  8
0
100
AcDbBlockEnd
  0
BLOCK
  5
29A4
330
29A3
100
AcDbEntity
  8
0
100
AcDbBlockBegin
  2
9010100
 70
     0
 10
-698.0412257018842
 20
103.9239421823788
 30
0.0
  3
9010100
  1
9010100.dwg
  0
LWPOLYLINE
  5
57F5
330
29A3
100
AcDbEntity
  8
APL Joinery
 62
   252
100
AcDbPolyline
 90
       16
 70
     1
 43
0.0
 10
-697.0412257018843
 20
102.9239421823788
 10
-695.7492784149856
 20
102.9239421823788
 10
-694.0229808775646
 20
98.81824357162003
 42
0.9293418001092543
 10
-693.550394430906
 20
98.97737999157357
 10
-694.5444653146969
 20
102.8447215218598
 10
-693.5412257018843
 20
103.4239421823788
 10
-693.5412257018843
 20
104.4239421823788
 10
-694.5663527677213
 20
105.0157995697934
 10
-693.5768325592873
 20
108.8654371152974
 42
0.9293418001092604
 10
-694.0494190059462
 20
109.024573535251
 10
-695.7735859449865
 20
104.9239421823788
 10
-697.0412257018843
 20
104.9239421823788
 10
-697.0412257018843
 20
106.1739421823788
 10
-698.0412257018842
 20
106.1739421823788
 10
-698.0412257018842
 20
101.6739421823788
 10
-697.0412257018843
 20
101.6739421823788
  0
ENDBLK
  5
29A5
330
29A3
100
AcDbEntity
  8
0
100
AcDbBlockEnd
  0
BLOCK
  5
2C4D
330
2C4C
100
AcDbEntity
  8
0
100
AcDbBlockBegin
  2
07103Sash
 70
     0
 10
0.0
 20
0.0
 30
0.0
  3
07103Sash
  1

  0
INSERT
  5
356E
330
2C4C
100
AcDbEntity
  8
APL Joinery
100
AcDbBlockReference
  2
07103
 10
-0.0062432278807592
 20
-0.0174737726919716
 30
0.0
 41
-1.0
 50
180.0
  0
INSERT
  5
356F
330
2C4C
100
AcDbEntity
  8
APL Joinery
100
AcDbBlockReference
  2
9010100
 10
-4.506243227880759
 20
4.93252622730796
 30
0.0
 50
0.1787694027607403
  0
INSERT
  5
3570
330
2C4C
100
AcDbEntity
  8
APL Joinery
100
AcDbBlockReference
  2
Timber Profile 14
 10
27.69375677211951
 20
-25.16935636333432
 30
0.0
 41
-1.0
 50
180.0
  0
INSERT
  5
3571
330
2C4C
100
AcDbEntity
  8
APL Joinery
100
AcDbBlockReference
  2
9700529
 10
27.64375677212007
 20
-21.06935636333679
 30
0.0
 41
-1.0
 50
180.0
  0
INSERT
  5
3572
330
2C4C
100
AcDbEntity
  8
APL Joinery
100
AcDbBlockReference
  2
9700158
 10
37.00655064800066
 20
-16.96747377269173
 30
0.0
 41
-1.0
 50
180.0
  0
ENDBLK
  5
2C4E
330
2C4C
100
AcDbEntity
  8
0
100
AcDbBlockEnd
  0
BLOCK
  5
2C7C
330
2C7B
100
AcDbEntity
  8
0
100
AcDbBlockBegin
  2
9700158
 70
     0
 10
174.0833845896645
 20
209.1838914698199
 30
0.0
  3
9700158
  1
9700158.dwg
  0
LWPOLYLINE
  5
57F8
330
2C7B
100
AcDbEntity
  8
APL Joinery
 62
     8
100
AcDbPolyline
 90
       16
 70
     0
 43
0.0
 10
170.0844615238645
 20
210.7276577404199
 10
170.5812307214826
 20
205.3929768350096
 42
-1.73205080756885
 10
169.7943127780645
 20
205.7545845650198
 10
169.5990464418646
 20
208.6720902866199
 10
169.5856905330645
 20
209.0611154212198
 10
169.5833845896645
 20
211.1173474922199
 10
169.6471993674645
 20
211.4735521188198
 10
169.6839086074645
 20
211.5745025288198
 10
169.7450906740645
 20
211.6876893520199
 10
169.8123909474645
 20
211.7702851420198
 10
169.9286368740645
 20
211.8651173452199
 10
170.0142917672645
 20
211.9171221018198
 10
170.1427741072645
 20
211.9630086518199
 10
170.2804337572645
 20
211.9905405818199
 10
170.3333845896645
 20
212.0043371268199
 10
169.5919031330645
 20
214.7715835956199
  0
LWPOLYLINE
  5
57F9
330
2C7B
100
AcDbEntity
  8
APL Joinery
 62
     8
100
AcDbPolyline
 90
       20
 70
     0
 43
0.0
 10
170.0844615237555
 20
210.7276577405251
 42
-1.047538523474869
 10
170.5833845896645
 20
210.7508376296199
 10
170.5833845896645
 20
205.6338914698199
 42
0.4142135623730951
 10
171.0833845896645
 20
205.1338914698199
 10
171.5833845896645
 20
205.1338914698199
 10
171.5833845896645
 20
207.9338914698198
 10
172.8333845896645
 20
207.9338914698198
 10
172.8333845896645
 20
207.4338914698198
 42
0.9999999999999998
 10
173.8333845896645
 20
207.4338914698198
 10
173.8333845896645
 20
210.9338914698199
 42
0.9999999999999998
 10
172.8333845896645
 20
210.9338914698199
 10
172.8333845896645
 20
210.4338914698199
 10
171.5833845896645
 20
210.4338914698199
 10
171.5833845896645
 20
213.2338914698199
 10
175.6833845896645
 20
213.2338914698199
 10
176.1792862290088
 20
215.9388095026067
 42
0.4683749459846007
 10
175.9333845896645
 20
216.2338914698199
 10
175.1833845896646
 20
216.2338914698199
 10
169.7838326132251
 20
215.081328357083
 42
0.4325719375873472
 10
169.5919031330922
 20
214.7715835957442
  0
LWPOLYLINE
  5
57FA
330
2C7B
100
AcDbEntity
  8
APL Joinery
 62
     8
100
AcDbPolyline
 90
        2
 70
     0
 43
0.0
 10
172.2085048132645
 20
207.9338914698198
 10
172.2085048132645
 20
210.4338914698199
  0
ENDBLK
  5
2C7D
330
2C7B
100
AcDbEntity
  8
0
100
AcDbBlockEnd
  0
BLOCK
  5
2CA1
330
2CA0
100
AcDbEntity
  8
0
100
AcDbBlockBegin
  2
07103SashS
 70
     0
 10
0.0
 20
0.0
 30
0.0
  3
07103SashS
  1

  0
INSERT
  5
3559
330
2CA0
100
AcDbEntity
  8
APL Joinery
100
AcDbBlockReference
  2
07103
 10
-0.0127938758814708
 20
0.3999999999996362
 30
0.0
  0
INSERT
  5
355A
330
2CA0
100
AcDbEntity
  8
APL Joinery
100
AcDbBlockReference
  2
Timber Profile 14
 10
27.6872061241188
 20
25.55188259064201
 30
0.0
  0
INSERT
  5
355B
330
2CA0
100
AcDbEntity
  8
APL Joinery
100
AcDbBlockReference
  2
9700529
 10
27.6372061241193
 20
21.45188259064449
 30
0.0
  0
ENDBLK
  5
2CA2
330
2CA0
100
AcDbEntity
  8
0
100
AcDbBlockEnd
  0
BLOCK
  5
352B
330
352A
100
AcDbEntity
  8
0
100
AcDbBlockBegin
  2
Miro Window Fastner
 70
     0
 10
233.6884208356266
 20
295.7275218553675
 30
0.0
  3
Miro Window Fastner
  1
Miro Window Fastner.dwg
  0
SPLINE
  5
3769
330
352A
100
AcDbEntity
  8
APL Joinery
  6
Continuous
 62
     8
100
AcDbSpline
210
0.0
220
0.0
230
1.0
 70
     8
 71
     3
 72
    22
 73
    18
 74
    16
 42
0.0000000001
 43
0.0000000001
 44
0.0000000001
 40
0.0
 40
0.0
 40
0.0
 40
0.0
 40
2.280918637697455
 40
4.574185296331126
 40
6.629084318183745
 40
7.711577592735448
 40
8.543390610754149
 40
9.573400203378939
 40
10.58143373323409
 40
11.97229000607045
 40
12.61298381603034
 40
14.19135489090385
 40
14.8602789935507
 40
16.58179630870545
 40
18.44058488213984
 40
19.99596427578158
 40
21.11040804179983
 40
21.11040804179983
 40
21.11040804179983
 40
21.11040804179983
 10
273.3388646016158
 20
292.4842963700776
 30
0.0
 10
274.0925681389942
 20
292.3958791394132
 30
0.0
 10
275.6040554763721
 20
292.2185660210216
 30
0.0
 10
277.7833742493569
 20
291.6770232596352
 30
0.0
 10
279.2721734732861
 20
290.5928340899166
 30
0.0
 10
280.2003303044115
 20
289.6396699823308
 30
0.0
 10
280.7285830148567
 20
288.8158561117636
 30
0.0
 10
281.4098849654233
 20
288.0973723520223
 30
0.0
 10
281.551169338833
 20
286.9229348615805
 30
0.0
 10
281.3465666638253
 20
285.8629929395704
 30
0.0
 10
280.4775217084493
 20
285.0066531294804
 30
0.0
 10
279.9589496458982
 20
284.1891471684291
 30
0.0
 10
278.9954040733623
 20
283.276224389243
 30
0.0
 10
277.7933457028018
 20
282.4910634617491
 30
0.0
 10
276.1371739103731
 20
281.9961055709701
 30
0.0
 10
274.6441997522404
 20
281.7696526322884
 30
0.0
 10
273.7582108282156
 20
281.6844420495345
 30
0.0
 10
273.3883792797972
 20
281.6488732507528
 30
0.0
 11
273.3388646016158
 21
292.4842963700776
 31
0.0
 11
275.598055897819
 21
292.170219120097
 31
0.0
 11
277.7956947247476
 21
291.5148905353575
 31
0.0
 11
279.4845057308539
 21
290.3441952822429
 31
0.0
 11
280.2256343955805
 21
289.5551959211721
 31
0.0
 11
280.7145727470777
 21
288.8822529924027
 31
0.0
 11
281.3129710048629
 21
288.0438978850773
 31
0.0
 11
281.4894295470537
 21
287.0514292557493
 31
0.0
 11
281.1309323582291
 21
285.7075687952502
 31
0.0
 11
280.7145727470777
 21
285.220605519096
 31
0.0
 11
279.7255674505223
 21
283.9905145576697
 31
0.0
 11
279.2434440111856
 21
283.5268159008417
 31
0.0
 11
277.7994034744438
 21
282.5896025875431
 31
0.0
 11
276.0320505637815
 21
282.0137912904122
 31
0.0
 11
274.4968611355525
 21
281.7639944176947
 31
0.0
 11
273.3883792797972
 21
281.6488732507528
 31
0.0
  0
SPLINE
  5
376A
330
352A
100
AcDbEntity
  8
APL Joinery
  6
Continuous
 62
     8
100
AcDbSpline
210
0.0
220
0.0
230
1.0
 70
     8
 71
     3
 72
    15
 73
    11
 74
     9
 42
0.0000000001
 43
0.0000000001
 44
0.0000000001
 40
0.0
 40
0.0
 40
0.0
 40
0.0
 40
0.7500864618767796
 40
1.446141570545985
 40
2.295143382831553
 40
2.869172353846977
 40
3.648790406842356
 40
4.138888611672507
 40
4.698177763922839
 40
5.152923271021454
 40
5.152923271021454
 40
5.152923271021454
 40
5.152923271021454
 10
273.3277660944718
 20
281.6176665425451
 30
0.0
 10
273.5457219478605
 20
281.7410242569203
 30
0.0
 10
273.9659335316566
 20
281.9788537977431
 30
0.0
 10
274.5611080415778
 20
282.4643214970517
 30
0.0
 10
275.049457130457
 20
282.9778230976964
 30
0.0
 10
275.4864793784279
 20
283.5690706590126
 30
0.0
 10
275.7951993431762
 20
284.1029579822281
 30
0.0
 10
276.0443067763797
 20
284.6591982864833
 30
0.0
 10
276.2169105660079
 20
285.1329048182105
 30
0.0
 10
276.2669429390082
 20
285.4678948300513
 30
0.0
 10
276.2893800387874
 20
285.6181216506072
 30
0.0
 11
273.3277660944718
 21
281.6176665425451
 31
0.0
 11
273.9694736356266
 21
282.0060492557493
 31
0.0
 11
274.5123942356265
 21
282.4416292557496
 31
0.0
 11
275.0965936356265
 21
283.0576772557495
 31
0.0
 11
275.4381511411486
 21
283.5190314905696
 31
0.0
 11
275.8287210294898
 21
284.1937606739295
 31
0.0
 11
276.0299744356266
 21
284.6406312557494
 31
0.0
 11
276.2087289530759
 21
285.1705851955559
 31
0.0
 11
276.2893800387874
 21
285.6181216506072
 31
0.0
  0
SPLINE
  5
376B
330
352A
100
AcDbEntity
  8
APL Joinery
  6
Continuous
 62
     8
100
AcDbSpline
210
0.0
220
0.0
230
1.0
 70
     8
 71
     3
 72
    13
 73
     9
 74
     7
 42
0.0000000001
 43
0.0000000001
 44
0.0000000001
 40
0.0
 40
0.0
 40
0.0
 40
0.0
 40
1.239933163628762
 40
2.70903977813937
 40
3.968245310378331
 40
4.969337174603119
 40
6.16425684586658
 40
7.106087323736986
 40
7.106087323736986
 40
7.106087323736986
 40
7.106087323736986
 10
271.4541844356265
 20
293.0411092557495
 30
0.0
 10
271.863488850784
 20
292.9709772431177
 30
0.0
 10
272.7577482952081
 20
292.8177509100271
 30
0.0
 10
273.9442536999252
 20
292.179133751546
 30
0.0
 10
274.8823644855738
 20
291.3501037385058
 30
0.0
 10
275.573661603149
 20
290.4251728945622
 30
0.0
 10
276.0753352305469
 20
289.4923397624529
 30
0.0
 10
276.2238972462386
 20
288.7929931834572
 30
0.0
 10
276.2893799767716
 20
288.4847372448957
 30
0.0
 11
271.4541844356265
 21
293.0411092557495
 31
0.0
 11
272.6644466831774
 21
292.7714807290325
 31
0.0
 11
273.9694736356266
 21
292.0968112557495
 31
0.0
 11
274.9111846356266
 21
291.2608812557494
 31
0.0
 11
275.5165382356265
 21
290.4635532557493
 31
0.0
 11
276.0554235253344
 21
289.3970469663591
 31
0.0
 11
276.2893799767716
 21
288.4847372448957
 31
0.0
  0
LWPOLYLINE
  5
376C
330
352A
100
AcDbEntity
  8
APL Joinery
  6
Continuous
 62
     8
100
AcDbPolyline
 90
        2
 70
     0
 43
0.0
 10
238.8634161012267
 20
271.1903670147497
 10
250.1910985614265
 20
274.2256103819493
  0
LWPOLYLINE
  5
376D
330
352A
100
AcDbEntity
  8
APL Joinery
  6
Continuous
 62
     8
100
AcDbPolyline
 90
        3
 70
     0
 43
0.0
 10
247.8458500506265
 20
275.9776326693493
 10
233.9334186102266
 20
272.119373963305
 10
233.9334186102267
 20
276.6898987739494
  0
LWPOLYLINE
  5
376E
330
352A
100
AcDbEntity
  8
APL Joinery
 62
     8
100
AcDbPolyline
 90
        7
 70
     0
 43
0.0
 10
247.5858285964266
 20
259.0014300915493
 10
251.1292853396297
 20
259.0014300915493
 10
251.1292853396297
 20
295.9596103495798
 42
0.3948841793433222
 10
250.660572490539
 20
296.4507031613679
 10
233.6884208356266
 20
295.7275218553675
 10
233.6884209232267
 20
276.6877607113495
 10
233.6884209232267
 20
276.7725576117493
  0
LWPOLYLINE
  5
376F
330
352A
100
AcDbEntity
  8
APL Joinery
 62
     8
100
AcDbPolyline
 90
        3
 70
     0
 43
0.0
 10
233.6884209232267
 20
276.6898987739494
 10
250.8307608356265
 20
276.6898987739494
 10
248.2869942990267
 20
276.0999727967494
  0
LWPOLYLINE
  5
3770
330
352A
100
AcDbEntity
  8
APL Joinery
  6
Continuous
 62
     8
100
AcDbPolyline
 90
        7
 70
     0
 43
0.0
 10
258.1389550733691
 20
280.0012167550499
 10
258.0173428128292
 20
279.9084325449728
 10
257.9115316750185
 20
279.7672384933542
 10
257.8395902018822
 20
279.4826772540224
 10
257.8384209232265
 20
263.7018412077495
 42
-0.3639702342662074
 10
257.3426098298266
 20
263.1109565559493
 10
252.5120691010266
 20
262.2592018939497
  0
LWPOLYLINE
  5
3771
330
352A
100
AcDbEntity
  8
APL Joinery
  6
Continuous
 62
     8
100
AcDbPolyline
 90
       42
 70
     0
 43
0.0
 10
252.3384210018837
 20
294.4736214082173
 10
252.2585866356267
 20
294.4704292557492
 10
252.2585865866381
 20
294.4704278668811
 10
252.1793276356266
 20
294.4608832557494
 10
252.179327678326
 20
294.4608833479667
 10
252.1010258356266
 20
294.4450332557492
 10
252.1010256769055
 20
294.4450338514686
 10
252.0240626356265
 20
294.4229252557495
 10
252.0240627361372
 20
294.4229245831293
 10
251.9773882356267
 20
294.4061732557496
 10
251.9773881249648
 20
294.4061751063225
 10
251.9316842356265
 20
294.3871672557495
 10
251.9316843284384
 20
294.3871665284996
 10
251.8870302356265
 20
294.3659472557495
 10
251.8870301465149
 20
294.3659468496824
 10
251.8435050356266
 20
294.3425612557496
 10
251.8435051792355
 20
294.3425620698493
 10
251.8011882356266
 20
294.3170552557492
 10
251.8011882265719
 20
294.3170541890121
 10
251.7601586356266
 20
294.2894712557493
 10
251.7601584885392
 20
294.2894712071573
 10
251.7204954356266
 20
294.2598572557492
 10
251.7204955651487
 20
294.259857124285
 10
251.6822782356267
 20
294.2282572557494
 10
251.6822782885413
 20
294.2282571845707
 10
251.6465936356267
 20
294.1956832557496
 10
251.6465935229417
 20
294.1956840404873
 10
251.6125816356266
 20
294.1614852557493
 10
251.612581722939
 20
294.1614844118591
 10
251.5802944356267
 20
294.1257272557493
 10
251.5802942885532
 20
294.1257282986927
 10
251.5497834356265
 20
294.0884792557493
 10
251.5497836197387
 20
294.0884797009962
 10
251.5211010356265
 20
294.0498052557493
 10
251.5211009165418
 20
294.0498046187506
 10
251.4942984356267
 20
294.0097712557492
 10
251.4942983789278
 20
294.0097710519624
 10
251.4694278356267
 20
293.9684452557492
 10
251.4694280069355
 20
293.9684450006274
 10
251.4465412356267
 20
293.9258932557493
 10
251.3384209232265
 20
263.2440096469493
 10
251.3384209232265
 20
264.1301118545495
  0
LWPOLYLINE
  5
3772
330
352A
100
AcDbEntity
  8
APL Joinery
  6
Continuous
 62
     8
100
AcDbPolyline
 90
        3
 70
     0
 43
0.0
 10
247.4005300356266
 20
272.8401792557495
 10
247.4005300356266
 20
272.8401792557495
 10
247.5858285560553
 20
259.0014308580034
  0
LWPOLYLINE
  5
3773
330
352A
100
AcDbEntity
  8
APL Joinery
  6
Continuous
 62
     8
100
AcDbPolyline
 90
        2
 70
     0
 43
0.0
 10
251.1350986165937
 20
273.5142553171773
 42
0.4877325885658572
 10
250.1910985613997
 20
274.2256103820662
  0
LWPOLYLINE
  5
3774
330
352A
100
AcDbEntity
  8
APL Joinery
  6
Continuous
 62
     8
100
AcDbPolyline
 90
        6
 70
     0
 43
0.0
 10
247.4008218620725
 20
272.8401893949404
 10
247.3834294017211
 20
272.955660003254
 10
247.2257980109016
 20
273.2099696591034
 10
247.1127645158324
 20
273.2843319824474
 10
246.937669452625
 20
273.3295828949408
 10
246.7903929222787
 20
273.31470905534
  0
LWPOLYLINE
  5
3775
330
352A
100
AcDbEntity
  8
APL Joinery
  6
Continuous
 62
     8
100
AcDbPolyline
 90
       47
 70
     0
 43
0.0
 10
247.8458501404662
 20
275.9776332458018
 10
247.8840076356267
 20
275.9882152557495
 10
247.8840075158976
 20
275.9882154346999
 10
247.9216162356265
 20
275.9986452557494
 10
247.9216163526323
 20
275.9986444203696
 10
247.9586806356265
 20
276.0089232557496
 10
247.9586805814843
 20
276.0089229911393
 10
247.9770066356266
 20
276.0140052557492
 10
247.9770065934669
 20
276.0140048729261
 10
247.9861164356266
 20
276.0165312557494
 10
247.9861164364336
 20
276.016531074069
 10
247.9951534356267
 20
276.0190372557492
 10
247.9951534881675
 20
276.0190381837324
 10
248.0303868356266
 20
276.0288092557496
 10
248.0303868033509
 20
276.0288086135852
 10
248.0641690356265
 20
276.0381772557496
 10
248.0641690552093
 20
276.0381779100584
 10
248.0964898356267
 20
276.0471412557492
 10
248.0964898593149
 20
276.0471409994323
 10
248.1120898356266
 20
276.0514672557495
 10
248.1120898537488
 20
276.0514679531361
 10
248.1197462356265
 20
276.0535912557496
 10
248.1197462115761
 20
276.0535913933083
 10
248.1272964356265
 20
276.0556852557495
 10
248.1272963867261
 20
276.0556844356095
 10
248.1560382356265
 20
276.0636552557496
 10
248.1560382727908
 20
276.0636554086953
 10
248.1824616356266
 20
276.0709832557493
 10
248.1824615660489
 20
276.0709835583389
 10
248.2065838356266
 20
276.0776732557495
 10
248.2065838233248
 20
276.0776721570842
 10
248.2177732356265
 20
276.0807752557496
 10
248.2177732488385
 20
276.0807771391734
 10
248.2231464356266
 20
276.0822672557495
 10
248.2231464569882
 20
276.0822657317283
 10
248.2257770356266
 20
276.0829952557494
 10
248.2257769490611
 20
276.0829966283846
 10
248.2283682356265
 20
276.0837152557495
 10
248.2283683633404
 20
276.0837147121124
 10
248.2474382356265
 20
276.0890032557493
 10
248.2474381996346
 20
276.0890027284427
 10
248.2635800356265
 20
276.0934792557494
 10
248.263579935865
 20
276.0934800481799
 10
248.2767890356265
 20
276.0971432557492
 10
248.2767890765347
 20
276.0971431146586
 10
248.2869942356265
 20
276.0999732557495
 10
248.2869942356265
 20
276.0999732557495
  0
LWPOLYLINE
  5
3776
330
352A
100
AcDbEntity
  8
APL Joinery
  6
Continuous
 62
     8
100
AcDbPolyline
 90
        2
 70
     0
 43
0.0
 10
258.1802095808266
 20
294.0380794835494
 10
271.3355348060265
 20
293.0514300915495
  0
LWPOLYLINE
  5
3777
330
352A
100
AcDbEntity
  8
APL Joinery
  6
Continuous
 62
     8
100
AcDbPolyline
 90
        3
 70
     0
 43
0.0
 10
258.2547654466266
 20
280.0703723897493
 10
271.3355348060265
 20
281.0514300915495
 10
273.3277660944718
 20
281.6176665425451
  0
SPLINE
  5
3778
330
352A
100
AcDbEntity
  8
APL Joinery
  6
Continuous
 62
     8
100
AcDbSpline
210
0.0
220
0.0
230
1.0
 70
     8
 71
     3
 72
    32
 73
    28
 74
    26
 42
0.0000000001
 43
0.0000000001
 44
0.0000000001
 40
0.0
 40
0.0
 40
0.0
 40
0.0
 40
0.1743108007276784
 40
0.4072944338297519
 40
0.5017184167781926
 40
0.7886311535114592
 40
1.037797382730729
 40
1.222962723975408
 40
1.556507025000327
 40
1.88956278239079
 40
2.473547957235623
 40
3.394091979805793
 40
3.728111984342855
 40
4.228765818813846
 40
4.896190384024234
 40
5.230035687273679
 40
6.065325516780547
 40
6.437253986245256
 40
6.829885340018167
 40
7.066345376328005
 40
7.413656216794938
 40
7.565270269551036
 40
7.84216094434767
 40
8.130367289265183
 40
8.431048613674754
 40
8.764769691953226
 40
10.24314110183865
 40
10.24314110183865
 40
10.24314110183865
 40
10.24314110183865
 10
251.3454684056457
 20
285.3965826202619
 30
0.0
 10
251.3907300923724
 20
285.3587333505839
 30
0.0
 10
251.4964885020208
 20
285.270294786823
 30
0.0
 10
251.6672366269075
 20
285.243242352003
 30
0.0
 10
251.8665793584504
 20
285.1994704557892
 30
0.0
 10
252.0737880426035
 20
285.1679078966536
 30
0.0
 10
252.3258144377575
 20
285.2074021815152
 30
0.0
 10
252.5417177846116
 20
285.0513278407284
 30
0.0
 10
252.7866214774355
 20
284.915011545455
 30
0.0
 10
253.1584083399302
 20
284.723224423287
 30
0.0
 10
253.7209287771842
 20
284.4810787450436
 30
0.0
 10
254.3001271076515
 20
284.2782749231079
 30
0.0
 10
254.8600404138817
 20
284.1085628724437
 30
0.0
 10
255.3431179723695
 20
283.9766507455805
 30
0.0
 10
255.8291700086669
 20
283.8562167549823
 30
0.0
 10
256.4270234991006
 20
283.7248044227033
 30
0.0
 10
256.9280994342214
 20
283.6094727323904
 30
0.0
 10
257.4584612768833
 20
283.5446729365563
 30
0.0
 10
257.7704183194453
 20
283.3969987180824
 30
0.0
 10
257.9984875181907
 20
283.1659295611924
 30
0.0
 10
258.1678172226128
 20
282.9767694045031
 30
0.0
 10
258.2301178518231
 20
282.7224275121202
 30
0.0
 10
258.2467058240027
 20
282.4837230188672
 30
0.0
 10
258.2360363373293
 20
282.1949509133164
 30
0.0
 10
258.260261088741
 20
281.8879285954815
 30
0.0
 10
258.2471220491372
 20
281.1833919114605
 30
0.0
 10
258.2513313411005
 20
280.579450382769
 30
0.0
 10
258.2547654356265
 20
280.0867327675856
 30
0.0
 11
251.3454684056457
 21
285.3965826202619
 31
0.0
 11
251.4872711506787
 21
285.2952108453369
 31
0.0
 11
251.7117671072856
 21
285.2328976143134
 31
0.0
 11
251.8042150447623
 21
285.2136812824012
 31
0.0
 11
252.0893859035266
 21
285.1821138971534
 31
0.0
 11
252.3384208354921
 21
285.1740261011448
 31
0.0
 11
252.5004182070168
 21
285.0843430190314
 31
0.0
 11
252.7883917500671
 21
284.9160485174896
 31
0.0
 11
253.0848774356266
 21
284.7643172557493
 31
0.0
 11
253.6199214034896
 21
284.5302945284513
 31
0.0
 11
254.4875808575719
 21
284.2227748230156
 31
0.0
 11
254.8072322046771
 21
284.1258605324041
 31
0.0
 11
255.2899172091283
 21
283.9929340547993
 31
0.0
 11
255.9379722753044
 21
283.8333089269222
 31
0.0
 11
256.2637525630184
 21
283.7603713464941
 31
0.0
 11
257.0824356356265
 21
283.5946392557496
 31
0.0
 11
257.4480034129451
 21
283.5261484783798
 31
0.0
 11
257.7999592418539
 21
283.352118381952
 31
0.0
 11
257.9722767485064
 21
283.1901923936958
 31
0.0
 11
258.1766234356266
 21
282.9093592557494
 31
0.0
 11
258.2169914696196
 21
282.7632180814532
 31
0.0
 11
258.2416318547775
 21
282.4874259546465
 31
0.0
 11
258.2416318547775
 21
282.199219609729
 31
0.0
 11
258.2547654356265
 21
281.8988252557494
 31
0.0
 11
258.2547654356265
 21
281.565104177471
 31
0.0
 11
258.2547654356265
 21
280.0867327675856
 31
0.0
  0
LWPOLYLINE
  5
3779
330
352A
100
AcDbEntity
  8
APL Joinery
  6
Continuous
 62
     8
100
AcDbPolyline
 90
        7
 70
     0
 43
0.0
 10
252.4132096356266
 20
294.4708212557496
 10
252.4132096356266
 20
294.4708212557496
 10
253.8637888747139
 20
294.362028972188
 10
253.8637888356266
 20
294.3620272557494
 10
255.3123369854509
 20
294.25338567052
 10
255.3123370356266
 20
294.2533872557494
 10
258.2085057124968
 20
294.0361683022529
  0
LWPOLYLINE
  5
377A
330
352A
100
AcDbEntity
  8
APL Joinery
  6
Continuous
 62
     8
100
AcDbPolyline
 90
        2
 70
     0
 43
0.0
 10
251.4453978554117
 20
293.6014300915497
 10
251.1292853396297
 20
293.6014300915497
  0
LWPOLYLINE
  5
377B
330
352A
100
AcDbEntity
  8
APL Joinery
  6
Continuous
 62
     8
100
AcDbPolyline
 90
        3
 70
     0
 43
0.0
 10
252.4132094650665
 20
294.4708207718413
 10
252.3384208356265
 20
294.4736212557493
 10
252.3384208356265
 20
294.4736212557493
  0
SPLINE
  5
377C
330
352A
100
AcDbEntity
  8
APL Joinery
  6
Continuous
 62
     8
100
AcDbSpline
210
0.0
220
0.0
230
1.0
 70
     8
 71
     3
 72
    52
 73
    48
 74
    46
 42
0.0000000001
 43
0.0000000001
 44
0.0000000001
 40
0.0
 40
0.0
 40
0.0
 40
0.0
 40
0.1803029781605876
 40
0.3249431488116186
 40
0.495241063173615
 40
1.007182240948566
 40
1.581931618671675
 40
2.107011457941045
 40
2.731848861462259
 40
3.098771381203684
 40
3.466963163993216
 40
3.823682667200823
 40
4.32089996066199
 40
4.892484584601083
 40
5.533187254346397
 40
6.260102974104663
 40
6.594463635864798
 40
7.537169280095583
 40
8.27259341402564
 40
8.695368679466486
 40
9.15188254351748
 40
9.557703447622319
 40
10.05493457344615
 40
10.63423216408316
 40
10.96331896337708
 40
11.36973071435262
 40
11.77092742773562
 40
12.12237079303622
 40
12.43787810461916
 40
12.72525306878572
 40
13.0341844713952
 40
13.19810539624528
 40
13.34964080937584
 40
13.55242217337556
 40
13.69705909685457
 40
13.78721226104162
 40
13.8773649999523
 40
13.94180462411624
 40
14.03717811107304
 40
14.37273578895524
 40
14.63128389988344
 40
14.81064440475562
 40
15.33111180689468
 40
16.03076911787451
 40
16.4975938339113
 40
16.69401758417537
 40
16.78448276892396
 40
16.78448276892396
 40
16.78448276892396
 40
16.78448276892396
 10
276.2893800356267
 20
288.4847372557494
 30
0.0
 10
276.3485842404469
 20
288.4943967391385
 30
0.0
 10
276.4552824266524
 20
288.5118051201889
 30
0.0
 10
276.6164169751437
 20
288.5567542388139
 30
0.0
 10
276.8381286167847
 20
288.7272532927177
 30
0.0
 10
277.1146455964794
 20
289.0438715814416
 30
0.0
 10
277.5889337014087
 20
289.3161664467208
 30
0.0
 10
278.1334261649889
 20
289.503260263532
 30
0.0
 10
278.6360765044451
 20
289.5864533070428
 30
0.0
 10
279.0912982507297
 20
289.5799671255119
 30
0.0
 10
279.4498293062271
 20
289.5126283950089
 30
0.0
 10
279.84641540044
 20
289.4175847027464
 30
0.0
 10
280.2852492532469
 20
289.2255281196058
 30
0.0
 10
280.7475412482559
 20
288.8828589486737
 30
0.0
 10
281.1692155252255
 20
288.390093798949
 30
0.0
 10
281.4285634290143
 20
287.8628134883958
 30
0.0
 10
281.4669486745152
 20
287.1936960154739
 30
0.0
 10
281.5015846411825
 20
286.5140330598741
 30
0.0
 10
281.2397878378874
 20
285.8445079172759
 30
0.0
 10
280.9233390382009
 20
285.4069526153013
 30
0.0
 10
280.6123177178374
 20
285.1084681531745
 30
0.0
 10
280.2336072356035
 20
284.8555380879714
 30
0.0
 10
279.7771591920313
 20
284.6608644127102
 30
0.0
 10
279.3193125583965
 20
284.5447853724047
 30
0.0
 10
278.8804100180144
 20
284.5231278896826
 30
0.0
 10
278.5014566927083
 20
284.5439149094831
 30
0.0
 10
278.1194514918632
 20
284.6101397991753
 30
0.0
 10
277.7805709790485
 20
284.7226114754753
 30
0.0
 10
277.4904377269652
 20
284.8541533690456
 30
0.0
 10
277.2289009989464
 20
285.0111370386947
 30
0.0
 10
277.0328863881831
 20
285.1719379657587
 30
0.0
 10
276.872400040237
 20
285.305444878014
 30
0.0
 10
276.759640501065
 20
285.4359869855841
 30
0.0
 10
276.6270901871992
 20
285.5432994920514
 30
0.0
 10
276.4835741143382
 20
285.5818154131687
 30
0.0
 10
276.3806156508366
 20
285.6060852371235
 30
0.0
 10
276.2890736610782
 20
285.600954131642
 30
0.0
 10
276.2427626452393
 20
285.6799007583188
 30
0.0
 10
276.2084644135711
 20
285.8387803012798
 30
0.0
 10
276.1720888207495
 20
286.0682143083595
 30
0.0
 10
276.1614408363524
 20
286.32546470033
 30
0.0
 10
276.1412383480459
 20
286.6445120717983
 30
0.0
 10
276.1540535182755
 20
287.110601227497
 30
0.0
 10
276.1432819264946
 20
287.6762733578341
 30
0.0
 10
276.1912159524952
 20
288.1224513979907
 30
0.0
 10
276.2161965703959
 20
288.3808358382939
 30
0.0
 10
276.2718353150013
 20
288.4598283878716
 30
0.0
 10
276.2893799767001
 20
288.4847372453394
 30
0.0
 11
276.2893800356267
 21
288.4847372557494
 31
0.0
 11
276.4666931470983
 21
288.5174362531929
 31
0.0
 11
276.6042667824761
 21
288.5620935461574
 31
0.0
 11
276.7444769175954
 21
288.6587501426517
 31
0.0
 11
277.1187437611059
 21
289.008046720577
 31
0.0
 11
277.6099903445575
 21
289.3063982606103
 31
0.0
 11
278.1056892046692
 21
289.4795787378328
 31
0.0
 11
278.7228646000192
 21
289.5771303252816
 31
0.0
 11
279.0897088356266
 21
289.5695512557493
 31
0.0
 11
279.452872655716
 21
289.5089110983297
 31
0.0
 11
279.7983401568568
 21
289.420023474758
 31
0.0
 11
280.2537011412903
 21
289.2203452066051
 31
0.0
 11
280.7145727470766
 21
288.8822529924037
 31
0.0
 11
281.1309384356266
 21
288.3952832557495
 31
0.0
 11
281.4220483469646
 21
287.7292040689013
 31
0.0
 11
281.4551259585219
 21
287.3964835799825
 31
0.0
 11
281.430046844693
 21
286.4541115888271
 31
0.0
 11
281.1675017542902
 21
285.767148174756
 31
0.0
 11
280.9205920356267
 21
285.4239652557492
 31
0.0
 11
280.5912198585288
 21
285.1078657824428
 31
0.0
 11
280.2537136356266
 21
284.8825212557492
 31
0.0
 11
279.7983401568568
 21
284.6828370367406
 31
0.0
 11
279.2348230758053
 21
284.5485455705894
 31
0.0
 11
278.9062867178229
 21
284.5295197209834
 31
0.0
 11
278.5004947334956
 21
284.5519557809462
 31
0.0
 11
278.1056892046692
 21
284.6232817736663
 31
0.0
 11
277.7716219900922
 21
284.7324217533187
 31
0.0
 11
277.4847229180509
 21
284.8636992690027
 31
0.0
 11
277.2390995983662
 21
285.0128755233356
 31
0.0
 11
276.9956602054572
 21
285.2030750856336
 31
0.0
 11
276.8725766498087
 21
285.3113363803452
 31
0.0
 11
276.7676751027129
 21
285.4206919785081
 31
0.0
 11
276.6042667824761
 21
285.5407669653412
 31
0.0
 11
276.4666962356266
 21
285.5854232557492
 31
0.0
 11
276.3780381097854
 21
285.6017734770095
 31
0.0
 11
276.2893800387883
 21
285.618121650613
 31
0.0
 11
276.2515086286658
 21
285.6702582160707
 31
0.0
 11
276.2254420129007
 21
285.7620004285841
 31
0.0
 11
276.1754158758404
 21
286.093808115048
 31
0.0
 11
276.159234306338
 21
286.3518493568544
 31
0.0
 11
276.149818808721
 21
286.5309625588039
 31
0.0
 11
276.1489620356267
 21
287.0514292557493
 31
0.0
 11
276.159234306338
 21
287.7510111546446
 31
0.0
 11
276.2000600356266
 21
288.2160472557496
 31
0.0
 11
276.2413329140977
 21
288.4080858955347
 31
0.0
 11
276.2893799767001
 21
288.4847372453394
 31
0.0
  0
LWPOLYLINE
  5
377D
330
352A
100
AcDbEntity
  8
APL Joinery
  6
Continuous
 62
     8
100
AcDbPolyline
 90
        3
 70
     0
 43
0.0
 10
238.3583477352265
 20
258.0014300915493
 10
238.2884209232265
 20
259.0014300915493
 10
238.4929017760267
 20
270.7161303047494
  0
LWPOLYLINE
  5
377E
330
352A
100
AcDbEntity
  8
APL Joinery
  6
Continuous
 62
     8
100
AcDbPolyline
 90
        2
 70
     0
 43
0.0
 10
-238.4929017760482
 20
270.7161303047683
 42
0.3345953195019602
 10
-238.8634161010752
 20
271.1903670146944
210
0.0
220
0.0
230
-1.0
  0
LWPOLYLINE
  5
377F
330
352A
100
AcDbEntity
  8
APL Joinery
  6
Continuous
 62
     8
100
AcDbPolyline
 90
        2
 70
     0
 43
0.0
 10
238.989111379605
 20
271.2240469631411
 10
238.9891110462061
 20
271.2240468738074
  0
LWPOLYLINE
  5
3780
330
352A
100
AcDbEntity
  8
APL Joinery
  6
Continuous
 62
     8
100
AcDbPolyline
 90
        3
 70
     0
 43
0.0
 10
238.8183398480267
 20
258.0014300915493
 10
240.2184941114265
 20
258.0014300915493
 10
240.2884209232265
 20
259.0014300915493
  0
LWPOLYLINE
  5
3781
330
352A
100
AcDbEntity
  8
APL Joinery
  6
Continuous
 62
     8
100
AcDbPolyline
 90
        3
 70
     0
 43
0.0
 10
247.1402937428266
 20
259.0014300915493
 10
240.2884209232265
 20
259.0014300915493
 10
238.8232176956267
 20
259.0014300915493
  0
LWPOLYLINE
  5
3782
330
352A
100
AcDbEntity
  8
APL Joinery
  6
Continuous
 62
     8
100
AcDbPolyline
 90
        9
 70
     0
 43
0.0
 10
238.3583477000771
 20
258.0014292557496
 10
238.3940090356266
 20
258.0014292557496
 10
238.3940090959886
 20
258.0014292557496
 10
238.4950762356266
 20
258.0014292557496
 10
238.4950761438165
 20
258.0014292557496
 10
238.6447922356265
 20
258.0014292557496
 10
238.6447922900566
 20
258.0014292557496
 10
238.8183398356266
 20
258.0014292557496
 10
238.8183398356266
 20
258.0014292557496
  0
LWPOLYLINE
  5
3783
330
352A
100
AcDbEntity
  8
APL Joinery
  6
Continuous
 62
     8
100
AcDbPolyline
 90
       21
 70
     0
 43
0.0
 10
238.3298808753011
 20
259.001430889832
 10
238.3407054356267
 20
259.0015052557494
 10
238.3407054394904
 20
259.0015052273325
 10
238.3527024356265
 20
259.0016492557495
 10
238.3527023824281
 20
259.0016490103735
 10
238.3591400356265
 20
259.0017172557493
 10
238.3591401348488
 20
259.001717055362
 10
238.3658572356267
 20
259.0017712557494
 10
238.3658572354334
 20
259.0017713332618
 10
238.3801078356266
 20
259.0018172557496
 10
238.3801077926396
 20
259.0018159019008
 10
238.3876410356265
 20
259.0018032557493
 10
238.3876411465696
 20
259.0018047827121
 10
238.3954436356266
 20
259.0017692557492
 10
238.3954435131395
 20
259.0017681982642
 10
238.4117864356265
 20
259.0016452557495
 10
238.4117863860724
 20
259.0016458413991
 10
238.4290996356267
 20
259.0015032557492
 10
238.429099732921
 20
259.0015023170566
 10
238.4473862356265
 20
259.0014292557496
 10
238.4473862356265
 20
259.0014292557496
  0
LWPOLYLINE
  5
3784
330
352A
100
AcDbEntity
  8
APL Joinery
  6
Continuous
 62
     8
100
AcDbPolyline
 90
       19
 70
     0
 43
0.0
 10
238.447386183625
 20
259.0014300422165
 10
238.4665950356266
 20
259.0015032557492
 10
238.4665951035217
 20
259.0015027600188
 10
238.4865782356267
 20
259.0016452557495
 10
238.4865781304506
 20
259.0016465898502
 10
238.5073290356265
 20
259.0017692557492
 10
238.5073291144172
 20
259.0017688756618
 10
238.5288478356265
 20
259.0018172557496
 10
238.5288477456254
 20
259.0018164865552
 10
238.5398968356267
 20
259.0018052557496
 10
238.5398969808662
 20
259.0018056874744
 10
238.5511342356265
 20
259.0017712557494
 10
238.551134238299
 20
259.0017716318227
 10
238.5740322356266
 20
259.0016492557495
 10
238.5740321008161
 20
259.0016493940429
 10
238.5974710356265
 20
259.0015052557494
 10
238.5974711976546
 20
259.0015038341026
 10
238.6214528356266
 20
259.0014292557496
 10
238.6214528356266
 20
259.0014292557496
  0
LWPOLYLINE
  5
3785
330
352A
100
AcDbEntity
  8
APL Joinery
  6
Continuous
 62
     8
100
AcDbPolyline
 90
       21
 70
     0
 43
0.0
 10
238.2884208229516
 20
259.0014297712053
 10
238.2890888356267
 20
259.0015072557492
 10
238.2890889109251
 20
259.0015083689891
 10
238.2894644356265
 20
259.0015432557495
 10
238.2894643741379
 20
259.0015418630352
 10
238.2899232356267
 20
259.0015792557494
 10
238.2899233460102
 20
259.001579319359
 10
238.2910870356266
 20
259.0016552557492
 10
238.2910869111497
 20
259.0016564826585
 10
238.2943832356266
 20
259.0017792557494
 10
238.294383371263
 20
259.0017776788889
 10
238.2989532356266
 20
259.0018212557495
 10
238.2989532433144
 20
259.0018220054504
 10
238.3047842356266
 20
259.0017712557494
 10
238.3047842220697
 20
259.0017717631847
 10
238.3118746356265
 20
259.0016472557493
 10
238.3118745848197
 20
259.0016466755267
 10
238.3202334356265
 20
259.0015032557492
 10
238.3202333709944
 20
259.0015026291967
 10
238.3298808356267
 20
259.0014292557496
 10
238.3298808356267
 20
259.0014292557496
  0
LWPOLYLINE
  5
3786
330
352A
100
AcDbEntity
  8
APL Joinery
  6
Continuous
 62
     8
100
AcDbPolyline
 90
       45
 70
     0
 43
0.0
 10
247.5858286356265
 20
259.0014292557496
 10
247.5858286356265
 20
259.0014292557496
 10
247.5738489624289
 20
259.0014292557496
 10
247.5738488356267
 20
259.0014292557496
 10
247.5592409040903
 20
259.0014292557496
 10
247.5592410356266
 20
259.0014292557496
 10
247.5420372212448
 20
259.0014292557496
 10
247.5420372356266
 20
259.0014292557496
 10
247.5222244639374
 20
259.0014292557496
 10
247.5222244356266
 20
259.0014292557496
 10
247.5168576807605
 20
259.0014292557496
 10
247.5168576356266
 20
259.0014292557496
 10
247.5113245116352
 20
259.0014292557496
 10
247.5113244356267
 20
259.0014292557496
 10
247.499844875849
 20
259.0014292557496
 10
247.4998450356265
 20
259.0014292557496
 10
247.4753315302339
 20
259.0014292557496
 10
247.4753314356267
 20
259.0014292557496
 10
247.4487757389165
 20
259.0014292557496
 10
247.4487758356265
 20
259.0014292557496
 10
247.4201828915777
 20
259.0014292557496
 10
247.4201828356265
 20
259.0014292557496
 10
247.4051142099629
 20
259.0014292557496
 10
247.4051142356266
 20
259.0014292557496
 10
247.3973840635724
 20
259.0014292557496
 10
247.3973840356266
 20
259.0014292557496
 10
247.389530721005
 20
259.0014292557496
 10
247.3895306356267
 20
259.0014292557496
 10
247.3572994520387
 20
259.0014292557496
 10
247.3572994356266
 20
259.0014292557496
 10
247.323810572248
 20
259.0014292557496
 10
247.3238106356266
 20
259.0014292557496
 10
247.2890764686301
 20
259.0014292557496
 10
247.2890764356266
 20
259.0014292557496
 10
247.2530875672519
 20
259.0014292557496
 10
247.2530876356266
 20
259.0014292557496
 10
247.2438911493109
 20
259.0014292557496
 10
247.2438910356266
 20
259.0014292557496
 10
247.2346326110273
 20
259.0014292557496
 10
247.2346326356267
 20
259.0014292557496
 10
247.2160190589589
 20
259.0014292557496
 10
247.2160190356267
 20
259.0014292557496
 10
247.1784105170727
 20
259.0014292557496
 10
247.1784106356265
 20
259.0014292557496
 10
247.1402937583084
 20
259.0014292557496
  0
LWPOLYLINE
  5
3787
330
352A
100
AcDbEntity
  8
APL Joinery
  6
Continuous
 62
     8
100
AcDbPolyline
 90
       21
 70
     0
 43
0.0
 10
238.6214527385564
 20
259.0014294464045
 10
238.6460076356266
 20
259.0015032557492
 10
238.6460077088677
 20
259.0015035858094
 10
238.6522088356267
 20
259.0015372557493
 10
238.6522088552776
 20
259.0015369045295
 10
238.6584338356265
 20
259.0015732557493
 10
238.6584338472326
 20
259.0015745530995
 10
238.6709154356265
 20
259.0016492557495
 10
238.6709153851214
 20
259.0016488558569
 10
238.6959770356266
 20
259.0017732557492
 10
238.6959769871169
 20
259.0017720771968
 10
238.7211680356265
 20
259.0018212557495
 10
238.7211680487815
 20
259.0018224547076
 10
238.7464872356265
 20
259.0017772557492
 10
238.7464872553887
 20
259.0017762221281
 10
238.7719344356267
 20
259.0016532557495
 10
238.7719345096107
 20
259.0016541710775
 10
238.7975106356266
 20
259.0015072557492
 10
238.7975104893937
 20
259.001506286684
 10
238.8232176356266
 20
259.0014292557496
 10
238.8232176356266
 20
259.0014292557496
  0
LWPOLYLINE
  5
3788
330
352A
100
AcDbEntity
  8
APL Joinery
  6
Continuous
 62
     8
100
AcDbPolyline
 90
        3
 70
     0
 43
0.0
 10
251.3384209232265
 20
263.2440096469493
 42
0.4142135623730951
 10
252.3384209232265
 20
262.2440096469493
 42
0.043660942908506
 10
252.5120691008936
 20
262.2592018939371
  0
ENDBLK
  5
352C
330
352A
100
AcDbEntity
  8
0
100
AcDbBlockEnd
  0
BLOCK
  5
353D
330
353C
100
AcDbEntity
  8
0
100
AcDbBlockBegin
  2
9700183
 70
     0
 10
164.2655056947639
 20
209.5498052339528
 30
0.0
  3
9700183
  1
9700183.dwg
  0
LINE
  5
57FC
330
353C
100
AcDbEntity
  8
APL Joinery
  6
Continuous
 62
     8
100
AcDbLine
 10
137.510013698268
 20
219.5498052339528
 30
0.0
 11
163.5155056947639
 21
219.5498052339528
 31
0.0
  0
ARC
  5
57FD
330
353C
100
AcDbEntity
  8
APL Joinery
  6
Continuous
 62
     8
100
AcDbCircle
 10
143.5100136982689
 20
210.5498052339528
 30
0.0
 40
1.0
100
AcDbArc
 50
270.0
 51
0.0
  0
LINE
  5
57FE
330
353C
100
AcDbEntity
  8
APL Joinery
  6
Continuous
 62
     8
100
AcDbLine
 10
136.510013698268
 20
210.5498052339528
 30
0.0
 11
136.510013698268
 21
218.5498052339528
 31
0.0
  0
LINE
  5
57FF
330
353C
100
AcDbEntity
  8
APL Joinery
  6
Continuous
 62
     8
100
AcDbLine
 10
137.510013698268
 20
209.5498052339528
 30
0.0
 11
143.5100136982689
 21
209.5498052339528
 31
0.0
  0
ARC
  5
5800
330
353C
100
AcDbEntity
  8
APL Joinery
  6
Continuous
 62
     8
100
AcDbCircle
 10
137.510013698268
 20
210.5498052339528
 30
0.0
 40
1.0
100
AcDbArc
 50
180.0
 51
270.0
  0
ARC
  5
5801
330
353C
100
AcDbEntity
  8
APL Joinery
  6
Continuous
 62
     8
100
AcDbCircle
 10
137.510013698268
 20
218.5498052339528
 30
0.0
 40
1.0
100
AcDbArc
 50
90.0
 51
180.0
  0
LINE
  5
5802
330
353C
100
AcDbEntity
  8
APL Joinery
  6
Continuous
 62
     8
100
AcDbLine
 10
163.5155056947639
 20
217.5498052339528
 30
0.0
 11
160.390505694763
 21
217.5498052339528
 31
0.0
  0
LINE
  5
5803
330
353C
100
AcDbEntity
  8
APL Joinery
  6
Continuous
 62
     8
100
AcDbLine
 10
154.390505694763
 20
217.5498052339528
 30
0.0
 11
144.5100136982689
 21
217.5498052339528
 31
0.0
  0
LINE
  5
5804
330
353C
100
AcDbEntity
  8
APL Joinery
  6
Continuous
 62
     8
100
AcDbLine
 10
144.5100136982689
 20
217.5498052339528
 30
0.0
 11
144.5100136982689
 21
210.5498052339528
 31
0.0
  0
LINE
  5
5805
330
353C
100
AcDbEntity
  8
APL Joinery
  6
Continuous
 62
     8
100
AcDbLine
 10
160.390505694763
 20
217.5498052339528
 30
0.0
 11
160.390505694763
 21
210.5498052339528
 31
0.0
  0
LINE
  5
5806
330
353C
100
AcDbEntity
  8
APL Joinery
  6
Continuous
 62
     8
100
AcDbLine
 10
154.390505694763
 20
210.5498269079292
 30
0.0
 11
154.390505694763
 21
217.5498052339528
 31
0.0
  0
LINE
  5
5807
330
353C
100
AcDbEntity
  8
APL Joinery
  6
Continuous
 62
     8
100
AcDbLine
 10
155.390505694763
 20
209.5498052339528
 30
0.0
 11
159.390505694763
 21
209.5498052339528
 31
0.0
  0
POLYLINE
  5
5808
330
353C
100
AcDbEntity
  8
APL Joinery
  6
Continuous
 62
     8
100
AcDb2dPolyline
 66
     1
 10
0.0
 20
0.0
 30
0.0
 70
     2
210
0.0
220
0.0
230
-1.0
  0
VERTEX
  5
5809
330
5808
100
AcDbEntity
  8
APL Joinery
  6
Continuous
 62
     8
100
AcDbVertex
100
AcDb2dVertex
 10
-155.390505694763
 20
209.5498052339528
 30
0.0
 70
     1
  0
VERTEX
  5
580A
330
5808
100
AcDbEntity
  8
APL Joinery
  6
Continuous
 62
     8
100
AcDbVertex
100
AcDb2dVertex
 10
-155.0643158023475
 20
209.6045008621683
 30
0.0
 70
     1
  0
VERTEX
  5
580B
330
5808
100
AcDbEntity
  8
APL Joinery
  6
Continuous
 62
     8
100
AcDbVertex
100
AcDb2dVertex
 10
-154.9182468886592
 20
209.6683450665494
 30
0.0
 70
     1
  0
VERTEX
  5
580C
330
5808
100
AcDbEntity
  8
APL Joinery
  6
Continuous
 62
     8
100
AcDbVertex
100
AcDb2dVertex
 10
-154.7655269284424
 20
209.7691630572139
 30
0.0
 70
     1
  0
VERTEX
  5
580D
330
5808
100
AcDbEntity
  8
APL Joinery
  6
Continuous
 62
     8
100
AcDbVertex
100
AcDb2dVertex
 10
-154.6559448734486
 20
209.871261758037
 30
0.0
 70
     1
  0
VERTEX
  5
580E
330
5808
100
AcDbEntity
  8
APL Joinery
  6
Continuous
 62
     8
100
AcDbVertex
100
AcDb2dVertex
 10
-154.5562854548812
 20
209.998372958818
 30
0.0
 70
     1
  0
VERTEX
  5
580F
330
5808
100
AcDbEntity
  8
APL Joinery
  6
Continuous
 62
     8
100
AcDbVertex
100
AcDb2dVertex
 10
-154.4781057732812
 20
210.1405042148394
 30
0.0
 70
     1
  0
VERTEX
  5
5810
330
5808
100
AcDbEntity
  8
APL Joinery
  6
Continuous
 62
     8
100
AcDbVertex
100
AcDb2dVertex
 10
-154.4273660507568
 20
210.2808019041324
 30
0.0
 70
     1
  0
VERTEX
  5
5811
330
5808
100
AcDbEntity
  8
APL Joinery
  6
Continuous
 62
     8
100
AcDbVertex
100
AcDb2dVertex
 10
-154.39668240654
 20
210.438829309706
 30
0.0
 70
     1
  0
VERTEX
  5
5812
330
5808
100
AcDbEntity
  8
APL Joinery
  6
Continuous
 62
     8
100
AcDbVertex
100
AcDb2dVertex
 10
-154.390505694763
 20
210.5498032879872
 30
0.0
 70
     1
  0
SEQEND
  5
5813
330
5808
100
AcDbEntity
  8
APL Joinery
  6
Continuous
 62
     8
  0
ARC
  5
5814
330
353C
100
AcDbEntity
  8
APL Joinery
  6
Continuous
 62
     8
100
AcDbCircle
 10
159.390505694763
 20
210.5498052339528
 30
0.0
 40
1.0
100
AcDbArc
 50
270.0
 51
0.0
  0
ARC
  5
5815
330
353C
100
AcDbEntity
  8
APL Joinery
  6
Continuous
 62
     8
100
AcDbCircle
 10
163.5155056947639
 20
218.5498052339528
 30
0.0
 40
1.0
100
AcDbArc
 50
270.0
 51
90.0
  0
ENDBLK
  5
353E
330
353C
100
AcDbEntity
  8
0
100
AcDbBlockEnd
  0
BLOCK
  5
37EA
330
37E9
100
AcDbEntity
  8
0
100
AcDbBlockBegin
  2
Timber Profile 24 - modified
 70
     0
 10
0.0
 20
0.0
 30
0.0
  3
Timber Profile 24 - modified
  1

  0
POLYLINE
  5
3ABE
330
37E9
100
AcDbEntity
  8
APL Joinery
 62
     9
100
AcDb2dPolyline
 66
     1
 10
0.0
 20
0.0
 30
0.0
 70
     4
 75
     6
  0
VERTEX
  5
3ABF
330
3ABE
100
AcDbEntity
  8
APL Joinery
 62
     9
100
AcDbVertex
100
AcDb2dVertex
 10
-4.981734675335189
 20
1.317036570409726
 30
0.0
 70
    16
  0
VERTEX
  5
3AC0
330
3ABE
100
AcDbEntity
  8
APL Joinery
 62
     9
100
AcDbVertex
100
AcDb2dVertex
 10
-4.981734675335189
 20
1.317036570409726
 30
0.0
 70
     8
  0
VERTEX
  5
3AC1
330
3ABE
100
AcDbEntity
  8
APL Joinery
 62
     9
100
AcDbVertex
100
AcDb2dVertex
 10
-2.94949464587313
 20
2.503893907670288
 30
0.0
 70
     8
  0
VERTEX
  5
3AC2
330
3ABE
100
AcDbEntity
  8
APL Joinery
 62
     9
100
AcDbVertex
100
AcDb2dVertex
 10
-1.270866413285091
 20
3.638317258042832
 30
0.0
 70
     8
  0
VERTEX
  5
3AC3
330
3ABE
100
AcDbEntity
  8
APL Joinery
 62
     9
100
AcDbVertex
100
AcDb2dVertex
 10
0.1016145723568229
 20
4.721858816063843
 30
0.0
 70
     8
  0
VERTEX
  5
3AC4
330
3ABE
100
AcDbEntity
  8
APL Joinery
 62
     9
100
AcDbVertex
100
AcDb2dVertex
 10
1.215412860980734
 20
5.756070776269751
 30
0.0
 70
     8
  0
VERTEX
  5
3AC5
330
3ABE
100
AcDbEntity
  8
APL Joinery
 62
     9
100
AcDbVertex
100
AcDb2dVertex
 10
2.117993002514651
 20
6.742505333197044
 30
0.0
 70
     8
  0
VERTEX
  5
3AC6
330
3ABE
100
AcDbEntity
  8
APL Joinery
 62
     9
100
AcDbVertex
100
AcDb2dVertex
 10
2.856819546886526
 20
7.682714681382265
 30
0.0
 70
     8
  0
VERTEX
  5
3AC7
330
3ABE
100
AcDbEntity
  8
APL Joinery
 62
     9
100
AcDbVertex
100
AcDb2dVertex
 10
3.479357044024425
 20
8.578251015361786
 30
0.0
 70
     8
  0
VERTEX
  5
3AC8
330
3ABE
100
AcDbEntity
  8
APL Joinery
 62
     9
100
AcDbVertex
100
AcDb2dVertex
 10
4.033070043856184
 20
9.430666529671952
 30
0.0
 70
     8
  0
VERTEX
  5
3AC9
330
3ABE
100
AcDbEntity
  8
APL Joinery
 62
     9
100
AcDbVertex
100
AcDb2dVertex
 10
4.556680893939073
 20
10.24242500794372
 30
0.0
 70
     8
  0
VERTEX
  5
3ACA
330
3ABE
100
AcDbEntity
  8
APL Joinery
 62
     9
100
AcDbVertex
100
AcDb2dVertex
 10
5.053943132345352
 20
11.01963659018434
 30
0.0
 70
     8
  0
VERTEX
  5
3ACB
330
3ABE
100
AcDbEntity
  8
APL Joinery
 62
     9
100
AcDbVertex
100
AcDb2dVertex
 10
5.519868094776427
 20
11.76932300549532
 30
0.0
 70
     8
  0
VERTEX
  5
3ACC
330
3ABE
100
AcDbEntity
  8
APL Joinery
 62
     9
100
AcDbVertex
100
AcDb2dVertex
 10
5.949467116933703
 20
12.49850598297826
 30
0.0
 70
     8
  0
VERTEX
  5
3ACD
330
3ABE
100
AcDbEntity
  8
APL Joinery
 62
     9
100
AcDbVertex
100
AcDb2dVertex
 10
6.337751534518417
 20
13.2142072517347
 30
0.0
 70
     8
  0
VERTEX
  5
3ACE
330
3ABE
100
AcDbEntity
  8
APL Joinery
 62
     9
100
AcDbVertex
100
AcDb2dVertex
 10
6.679732683232089
 20
13.92344854086625
 30
0.0
 70
     8
  0
VERTEX
  5
3ACF
330
3ABE
100
AcDbEntity
  8
APL Joinery
 62
     9
100
AcDbVertex
100
AcDb2dVertex
 10
6.970421898775953
 20
14.63325157947437
 30
0.0
 70
     8
  0
VERTEX
  5
3AD0
330
3ABE
100
AcDbEntity
  8
APL Joinery
 62
     9
100
AcDbVertex
100
AcDb2dVertex
 10
7.204830516851473
 20
15.3506380966607
 30
0.0
 70
     8
  0
VERTEX
  5
3AD1
330
3ABE
100
AcDbEntity
  8
APL Joinery
 62
     9
100
AcDbVertex
100
AcDb2dVertex
 10
7.37944539502763
 20
16.08270003772281
 30
0.0
 70
     8
  0
VERTEX
  5
3AD2
330
3ABE
100
AcDbEntity
  8
APL Joinery
 62
     9
100
AcDbVertex
100
AcDb2dVertex
 10
7.49665547834445
 20
16.8368102127427
 30
0.0
 70
     8
  0
VERTEX
  5
3AD3
330
3ABE
100
AcDbEntity
  8
APL Joinery
 62
     9
100
AcDbVertex
100
AcDb2dVertex
 10
7.560325233709534
 20
17.62041164799831
 30
0.0
 70
     8
  0
VERTEX
  5
3AD4
330
3ABE
100
AcDbEntity
  8
APL Joinery
 62
     9
100
AcDbVertex
100
AcDb2dVertex
 10
7.574319128030481
 20
18.44094736976768
 30
0.0
 70
     8
  0
VERTEX
  5
3AD5
330
3ABE
100
AcDbEntity
  8
APL Joinery
 62
     9
100
AcDbVertex
100
AcDb2dVertex
 10
7.542501628215006
 20
19.30586040432877
 30
0.0
 70
     8
  0
VERTEX
  5
3AD6
330
3ABE
100
AcDbEntity
  8
APL Joinery
 62
     9
100
AcDbVertex
100
AcDb2dVertex
 10
7.468737201170768
 20
20.22259377795962
 30
0.0
 70
     8
  0
VERTEX
  5
3AD7
330
3ABE
100
AcDbEntity
  8
APL Joinery
 62
     9
100
AcDbVertex
100
AcDb2dVertex
 10
7.356890313805308
 20
21.1985905169382
 30
0.0
 70
     8
  0
VERTEX
  5
3AD8
330
3ABE
100
AcDbEntity
  8
APL Joinery
 62
     9
100
AcDbVertex
100
AcDb2dVertex
 10
7.210825433026343
 20
22.24129364754251
 30
0.0
 70
     8
  0
VERTEX
  5
3AD9
330
3ABE
100
AcDbEntity
  8
APL Joinery
 62
     9
100
AcDbVertex
100
AcDb2dVertex
 10
0.9512451767762968
 20
4.553281180765424
 30
0.0
 70
    16
  0
VERTEX
  5
3ADA
330
3ABE
100
AcDbEntity
  8
APL Joinery
 62
     9
100
AcDbVertex
100
AcDb2dVertex
 10
4.260909482554211
 20
9.874065197754333
 30
0.0
 70
    16
  0
VERTEX
  5
3ADB
330
3ABE
100
AcDbEntity
  8
APL Joinery
 62
     9
100
AcDbVertex
100
AcDb2dVertex
 10
7.858369309033037
 20
15.19484921474347
 30
0.0
 70
    16
  0
VERTEX
  5
3ADC
330
3ABE
100
AcDbEntity
  8
APL Joinery
 62
     9
100
AcDbVertex
100
AcDb2dVertex
 10
7.642520691292588
 20
19.36519408707178
 30
0.0
 70
    16
  0
VERTEX
  5
3ADD
330
3ABE
100
AcDbEntity
  8
APL Joinery
 62
     9
100
AcDbVertex
100
AcDb2dVertex
 10
7.210825433026343
 20
22.24129364754251
 30
0.0
 70
    16
  0
SEQEND
  5
3ADE
330
3ABE
100
AcDbEntity
  8
APL Joinery
 62
     9
  0
LINE
  5
3ADF
330
37E9
100
AcDbEntity
  8
APL Joinery
 62
     3
100
AcDbLine
 10
-7.350000000002467
 20
0.0000000000000284
 30
0.0
 11
-7.350000000002467
 21
23.49500000000418
 31
0.0
  0
LINE
  5
3AE0
330
37E9
100
AcDbEntity
  8
APL Joinery
 62
     3
100
AcDbLine
 10
9.049999999998078
 20
23.49500000000418
 30
0.0
 11
9.049999999998078
 21
-8.849999999997663
 31
0.0
  0
LINE
  5
3AE1
330
37E9
100
AcDbEntity
  8
APL Joinery
 62
     3
100
AcDbLine
 10
9.049999999998078
 20
-8.849999999997663
 30
0.0
 11
2.049999999999897
 21
-8.849999999997606
 31
0.0
  0
LINE
  5
3AE2
330
37E9
100
AcDbEntity
  8
APL Joinery
 62
     3
100
AcDbLine
 10
0.0
 20
0.0
 30
0.0
 11
-7.350000000002467
 21
0.0000000000000284
 31
0.0
  0
LINE
  5
3AE3
330
37E9
100
AcDbEntity
  8
APL Joinery
 62
     3
100
AcDbLine
 10
2.049999999999897
 20
-8.849999999997606
 30
0.0
 11
2.049999999999897
 21
3.30000000000021
 31
0.0
  0
LINE
  5
3AE4
330
37E9
100
AcDbEntity
  8
APL Joinery
 62
     3
100
AcDbLine
 10
2.049999999999897
 20
3.30000000000021
 30
0.0
 11
-0.0000000000000568
 21
3.30000000000021
 31
0.0
  0
LINE
  5
3AE5
330
37E9
100
AcDbEntity
  8
APL Joinery
 62
     3
100
AcDbLine
 10
0.0
 20
0.0
 30
0.0
 11
-0.0000000000000568
 21
3.30000000000021
 31
0.0
  0
LINE
  5
3AE6
330
37E9
100
AcDbEntity
  8
APL Joinery
 62
     3
100
AcDbLine
 10
-7.350000000002467
 20
23.49500000000418
 30
0.0
 11
9.049999999998078
 21
23.49500000000418
 31
0.0
  0
POLYLINE
  5
3AE7
330
37E9
100
AcDbEntity
  8
APL Joinery
 62
     9
100
AcDb2dPolyline
 66
     1
 10
0.0
 20
0.0
 30
0.0
 70
     4
 75
     6
  0
VERTEX
  5
3AE8
330
3AE7
100
AcDbEntity
  8
APL Joinery
 62
     9
100
AcDbVertex
100
AcDb2dVertex
 10
-6.171725596005785
 20
8.867431087744506
 30
0.0
 70
    16
  0
VERTEX
  5
3AE9
330
3AE7
100
AcDbEntity
  8
APL Joinery
 62
     9
100
AcDbVertex
100
AcDb2dVertex
 10
-6.171725596005785
 20
8.867431087744506
 30
0.0
 70
     8
  0
VERTEX
  5
3AEA
330
3AE7
100
AcDbEntity
  8
APL Joinery
 62
     9
100
AcDbVertex
100
AcDb2dVertex
 10
-4.958847443297656
 20
9.646175489956476
 30
0.0
 70
     8
  0
VERTEX
  5
3AEB
330
3AE7
100
AcDbEntity
  8
APL Joinery
 62
     9
100
AcDbVertex
100
AcDb2dVertex
 10
-3.901952979032955
 20
10.41923238194548
 30
0.0
 70
     8
  0
VERTEX
  5
3AEC
330
3AE7
100
AcDbEntity
  8
APL Joinery
 62
     9
100
AcDbVertex
100
AcDb2dVertex
 10
-2.988394869606793
 20
11.18765500831162
 30
0.0
 70
     8
  0
VERTEX
  5
3AED
330
3AE7
100
AcDbEntity
  8
APL Joinery
 62
     9
100
AcDbVertex
100
AcDb2dVertex
 10
-2.205525781414564
 20
11.952496613655
 30
0.0
 70
     8
  0
VERTEX
  5
3AEE
330
3AE7
100
AcDbEntity
  8
APL Joinery
 62
     9
100
AcDbVertex
100
AcDb2dVertex
 10
-1.540698380851381
 20
12.71481044257575
 30
0.0
 70
     8
  0
VERTEX
  5
3AEF
330
3AE7
100
AcDbEntity
  8
APL Joinery
 62
     9
100
AcDbVertex
100
AcDb2dVertex
 10
-0.9812653343125816
 20
13.475649739674
 30
0.0
 70
     8
  0
VERTEX
  5
3AF0
330
3AE7
100
AcDbEntity
  8
APL Joinery
 62
     9
100
AcDbVertex
100
AcDb2dVertex
 10
-0.5145793081933335
 20
14.23606774954979
 30
0.0
 70
     8
  0
VERTEX
  5
3AF1
330
3AE7
100
AcDbEntity
  8
APL Joinery
 62
     9
100
AcDbVertex
100
AcDb2dVertex
 10
-0.1279929688889752
 20
14.99711771680327
 30
0.0
 70
     8
  0
VERTEX
  5
3AF2
330
3AE7
100
AcDbEntity
  8
APL Joinery
 62
     9
100
AcDbVertex
100
AcDb2dVertex
 10
0.1905789127172284
 20
15.76181897270467
 30
0.0
 70
     8
  0
VERTEX
  5
3AF3
330
3AE7
100
AcDbEntity
  8
APL Joinery
 62
     9
100
AcDbVertex
100
AcDb2dVertex
 10
0.4509731477893979
 20
16.54105519520468
 30
0.0
 70
     8
  0
VERTEX
  5
3AF4
330
3AE7
100
AcDbEntity
  8
APL Joinery
 62
     9
100
AcDbVertex
100
AcDb2dVertex
 10
0.6624644430036142
 20
17.34767614892414
 30
0.0
 70
     8
  0
VERTEX
  5
3AF5
330
3AE7
100
AcDbEntity
  8
APL Joinery
 62
     9
100
AcDbVertex
100
AcDb2dVertex
 10
0.8343275050359011
 20
18.1945315984839
 30
0.0
 70
     8
  0
VERTEX
  5
3AF6
330
3AE7
100
AcDbEntity
  8
APL Joinery
 62
     9
100
AcDbVertex
100
AcDb2dVertex
 10
0.9758370405623395
 20
19.09447130850478
 30
0.0
 70
     8
  0
VERTEX
  5
3AF7
330
3AE7
100
AcDbEntity
  8
APL Joinery
 62
     9
100
AcDbVertex
100
AcDb2dVertex
 10
1.09626775625901
 20
20.06034504360761
 30
0.0
 70
     8
  0
VERTEX
  5
3AF8
330
3AE7
100
AcDbEntity
  8
APL Joinery
 62
     9
100
AcDbVertex
100
AcDb2dVertex
 10
1.20489435880188
 20
21.10500256841326
 30
0.0
 70
     8
  0
VERTEX
  5
3AF9
330
3AE7
100
AcDbEntity
  8
APL Joinery
 62
     9
100
AcDbVertex
100
AcDb2dVertex
 10
1.310991554867086
 20
22.24129364754251
 30
0.0
 70
     8
  0
VERTEX
  5
3AFA
330
3AE7
100
AcDbEntity
  8
APL Joinery
 62
     9
100
AcDbVertex
100
AcDb2dVertex
 10
-2.718163529877642
 20
10.95260239136266
 30
0.0
 70
    16
  0
VERTEX
  5
3AFB
330
3AE7
100
AcDbEntity
  8
APL Joinery
 62
     9
100
AcDbVertex
100
AcDb2dVertex
 10
0.5914987986851657
 20
14.97914222904021
 30
0.0
 70
    16
  0
VERTEX
  5
3AFC
330
3AE7
100
AcDbEntity
  8
APL Joinery
 62
     9
100
AcDbVertex
100
AcDb2dVertex
 10
1.02319405695141
 20
19.07758401777002
 30
0.0
 70
    16
  0
VERTEX
  5
3AFD
330
3AE7
100
AcDbEntity
  8
APL Joinery
 62
     9
100
AcDbVertex
100
AcDb2dVertex
 10
1.310991554866973
 20
22.24129364754251
 30
0.0
 70
    16
  0
SEQEND
  5
3AFE
330
3AE7
100
AcDbEntity
  8
APL Joinery
 62
     9
  0
ENDBLK
  5
37EB
330
37E9
100
AcDbEntity
  8
0
100
AcDbBlockEnd
  0
BLOCK
  5
39D8
330
39D7
100
AcDbEntity
  8
0
100
AcDbBlockBegin
  2
smartwood a4 SM border
 70
     0
 10
0.0
 20
0.0
 30
0.0
  3
smartwood a4 SM border
  1
smartwood a4 SM border.dwg
  0
TEXT
  5
5817
330
39D7
100
AcDbEntity
  8
APL Border
100
AcDbText
 10
50.59500000000003
 20
260.4903256579735
 30
0.0
 40
2.5
  1
Cad Ref.
  7
Arial-Bold
100
AcDbText
  0
TEXT
  5
5818
330
39D7
100
AcDbEntity
  8
APL Border
100
AcDbText
 10
86.34500000000002
 20
260.4903256579735
 30
0.0
 40
2.5
  1
Scale
  7
Arial-Bold
100
AcDbText
  0
TEXT
  5
5819
330
39D7
100
AcDbEntity
  8
APL Border
100
AcDbText
 10
106.595
 20
260.4903256579735
 30
0.0
 40
2.5
  1
Date
  7
Arial-Bold
100
AcDbText
  0
TEXT
  5
581A
330
39D7
100
AcDbEntity
  8
APL Border
100
AcDbText
 10
38.28915075034109
 20
2.689999999999997
 30
0.0
 40
1.75
  1
Product Manual 2011:1       Architectural Profiles Ltd. NB. Technical specifications subject to change without notice.
  7
Arial-Regular
 72
     1
 11
100.595
 21
2.689999999999997
 31
0.0
100
AcDbText
  0
MTEXT
  5
581B
330
39D7
100
AcDbEntity
  8
APL Border
100
AcDbMText
 10
65.62154724931708
 20
2.589999999999999
 30
0.0
 40
1.75
 41
2.550279071751219
 71
     8
 72
     5
  1
{\fCommercialPi BT|b0|i0|c2|p18;a}
  7
Arial-Regular
 73
     1
 44
1.0
1001
ACAD
1000
MTEXTBEGIN
1070
    73
1070
     1
1070
    44
1040
1.0
1070
    74
1070
     0
1000
MTEXTEND
  0
LWPOLYLINE
  5
581C
330
39D7
100
AcDbEntity
  8
APL Border
100
AcDbPolyline
 90
        2
 70
     0
 43
0.1
 10
189.595
 20
264.94
 10
50.59500000000003
 20
264.94
  0
LWPOLYLINE
  5
581D
330
39D7
100
AcDbEntity
  8
APL Border
100
AcDbPolyline
 90
        2
 70
     0
 43
0.1
 10
11.59500000000003
 20
5.939999999999997
 10
189.595
 20
5.939999999999997
  0
MTEXT
  5
581E
330
39D7
100
AcDbEntity
  8
APL Border
100
AcDbMText
 10
23.67538783647292
 20
270.7761693860163
 30
0.0
 40
5.299999999999999
 41
19.73351692440951
 71
     1
 72
     5
  1
{\fBook Antiqua|b0|i0|c0|p18;w}ood
  7
Times New Roman - Regular
 73
     1
 44
1.0
1001
ACAD
1000
MTEXTBEGIN
1070
    73
1070
     1
1070
    44
1040
1.0
1070
    74
1070
     0
1000
MTEXTEND
  0
ELLIPSE
  5
5820
102
{ACAD_REACTORS
330
5825
102
}
330
39D7
100
AcDbEntity
  8
APL Border
100
AcDbEllipse
 10
29.84950874715276
 20
269.0814048081144
 30
0.0
 11
-16.84682124459841
 21
0.4533421263139781
 31
0.0
210
0.0
220
0.0
230
1.0
 40
0.4004023718890052
 41
3.319153797531644
 42
4.72316325263933
  0
ELLIPSE
  5
5821
102
{ACAD_REACTORS
330
5825
102
}
330
39D7
100
AcDbEntity
  8
APL Border
100
AcDbEllipse
 10
29.74950874715276
 20
269.5814048081144
 30
0.0
 11
18.29645482212482
 21
0.1554481253131277
 31
0.0
210
0.0
220
0.0
230
1.0
 40
0.4217850638291509
 41
4.55200959415153
 42
5.610358989911128
  0
ELLIPSE
  5
5822
102
{ACAD_REACTORS
330
5825
102
}
330
39D7
100
AcDbEntity
  8
APL Border
100
AcDbEllipse
 10
29.74950874715276
 20
268.5814048081144
 30
0.0
 11
17.46996531743542
 21
1.044704257257092
 31
0.0
210
0.0
220
0.0
230
0.9999999999999998
 40
0.4379375984541014
 41
4.521982387362084
 42
5.649576101878832
  0
ELLIPSE
  5
5823
102
{ACAD_REACTORS
330
5825
102
}
330
39D7
100
AcDbEntity
  8
APL Border
100
AcDbEllipse
 10
30.84950874715276
 20
269.8814048081144
 30
0.0
 11
-16.74489455126359
 21
0.1068617375822129
 31
0.0
210
0.0
220
0.0
230
1.0
 40
0.3957593505602212
 41
-0.0140565277795168
 42
2.526331138818026
  0
ELLIPSE
  5
5824
102
{ACAD_REACTORS
330
5825
102
}
330
39D7
100
AcDbEntity
  8
APL Border
100
AcDbEllipse
 10
30.34950874715276
 20
269.5814048081144
 30
0.0
 11
-16.75
 21
0.0
 31
0.0
210
0.0
220
0.0
230
1.0
 40
0.4029850746268657
 41
6.209043324945823
 42
12.10581662267785
  0
HATCH
  5
5825
330
39D7
100
AcDbEntity
  8
APL Border
100
AcDbHatch
 10
0.0
 20
0.0
 30
0.0
210
0.0
220
0.0
230
1.0
  2
SOLID
 70
     1
 71
     1
 91
        3
 92
        5
 93
        5
 72
     3
 10
29.84950874715276
 20
269.0814048081144
 11
-16.84682124459841
 21
0.4533421263139781
 40
0.4004023718890052
 50
88.45856240750569
 51
175.8902112425113
 73
     0
 72
     2
 10
44.67714020925939
 20
269.2071355523921
 40
1.890748898226122
 50
340.8735689376148
 51
382.2290912344739
 73
     0
 72
     2
 10
41.51959182547458
 20
270.2447528778072
 40
5.211423477554833
 50
19.65518680593698
 51
55.12585124074014
 73
     0
 72
     3
 10
30.34950874715276
 20
269.5814048081144
 11
-16.75
 21
0.0
 40
0.4029850746268657
 50
525.6794536794745
 51
348.6935611181874
 73
     1
 72
     2
 10
29.60957360403146
 20
242.9098529133927
 40
32.92242621724226
 50
244.3237283389977
 51
270.4175692479047
 73
     0
 97
        5
330
5824
330
5828
330
5820
330
5833
330
5832
 92
        5
 93
        4
 72
     3
 10
30.84950874715276
 20
269.8814048081144
 11
-16.74489455126359
 21
0.1068617375822129
 40
0.3957593505602212
 50
195.6270825703936
 51
360.318754259222
 73
     0
 72
     2
 10
17.870699176928
 20
269.9064821669413
 40
3.767898811686352
 50
182.6608816075128
 51
206.3929086446277
 73
     0
 72
     2
 10
16.28271146983885
 20
269.5778144790396
 40
2.684837801621857
 50
131.7324572923458
 51
169.189096032782
 73
     1
 72
     3
 10
30.34950874715276
 20
269.5814048081144
 11
-16.75
 21
0.0
 40
0.4029850746268657
 50
358.2854785228978
 51
525.6794536794776
 73
     1
 97
        4
330
5823
330
582C
330
582D
330
5824
 92
        5
 93
        9
 72
     2
 10
23.33536788863245
 20
278.6194209938267
 40
17.2590652710141
 50
239.5349412106921
 51
252.4590542466208
 73
     1
 72
     2
 10
26.60089549689329
 20
289.2363088326019
 40
28.36660625123186
 50
252.6329792468225
 51
270.588845138434
 73
     1
 72
     3
 10
29.74950874715276
 20
268.5814048081144
 11
17.46996531743545
 21
1.044704257257094
 40
0.4379375984541014
 50
246.2451393282852
 51
342.165250303591
 73
     1
 72
     3
 10
29.74950874715276
 20
269.5814048081144
 11
18.29645482212482
 21
0.1554481253131277
 40
0.4217850638291509
 50
18.57778891659629
 51
110.9834979725197
 73
     0
 72
     3
 10
29.74950874715276
 20
269.5814048081144
 11
17.34970603451196
 21
0.3014458951867201
 40
0.4441716687466341
 50
111.492116901814
 51
177.6950000689094
 73
     0
 72
     2
 10
15.8463477617491
 20
269.5207324823547
 40
3.491202579869705
 50
164.4648671532029
 51
195.6449073964833
 73
     0
 72
     2
 10
12.41226765070615
 20
270.4824469054599
 40
0.0750000000000129
 50
344.3550926036264
 51
501.1312117459546
 73
     1
 72
     2
 10
15.55515394903143
 20
268.1982842226753
 40
3.960153949031391
 50
143.9372392604366
 51
199.8052767528797
 73
     1
 72
     2
 10
18.12711839863348
 20
269.6545364822648
 40
6.891465295079229
 50
203.9548519902146
 51
239.068349295085
 73
     1
 97
        9
330
5829
330
5831
330
5830
330
582F
330
582E
330
582B
330
582A
330
5822
330
5821
 75
     0
 76
     1
 47
0.0305803701263538
 98
        3
 10
35.28102042538729
 20
275.5954279676816
 10
16.9851601393558
 20
265.9626110897854
 10
14.87409983201144
 20
264.188949598939
  0
MTEXT
  5
5826
330
39D7
100
AcDbEntity
  8
APL Border
100
AcDbMText
 10
18.74489831846832
 20
273.6217875585393
 30
0.0
 40
3.8
 41
22.4226
 71
     1
 72
     5
  1
{\fCalisto MT|b0|i0|c0|p18;S}MART
  7
Times New Roman - Regular
 73
     1
 44
1.0
1001
ACAD
1000
MTEXTBEGIN
1070
    73
1070
     1
1070
    44
1040
1.0
1070
    74
1070
     0
1000
MTEXTEND
  0
MTEXT
  5
5827
330
39D7
100
AcDbEntity
  8
APL Border
100
AcDbMText
 10
18.65989831846832
 20
273.6217875585393
 30
0.0
 40
3.8
 41
22.4226
 71
     1
 72
     5
  1
{\fCalisto MT|b0|i0|c0|p18;S}MART
  7
Times New Roman - Regular
 73
     1
 44
1.0
1001
ACAD
1000
MTEXTBEGIN
1070
    73
1070
     1
1070
    44
1040
1.0
1070
    74
1070
     0
1000
MTEXTEND
  0
ARC
  5
5828
102
{ACAD_REACTORS
330
5825
102
}
330
39D7
100
AcDbEntity
  8
APL Border
100
AcDbCircle
 10
29.60957360403142
 20
242.9098529133927
 30
0.0
 40
32.92242621724227
100
AcDbArc
 50
89.58243075209727
 51
115.6762716610028
  0
ELLIPSE
  5
5829
102
{ACAD_REACTORS
330
5825
102
}
330
39D7
100
AcDbEntity
  8
APL Border
100
AcDbEllipse
 10
29.74950874715276
 20
269.5814048081144
 30
0.0
 11
17.34970603451196
 21
0.3014458951867201
 31
0.0
210
0.0
220
0.0
230
1.0
 40
0.4441716687466341
 41
3.231967416867259
 42
4.539246861848816
  0
ARC
  5
582A
102
{ACAD_REACTORS
330
5825
102
}
330
39D7
100
AcDbEntity
  8
APL Border
100
AcDbCircle
 10
26.60089549689345
 20
289.2363088326019
 30
0.0
 40
28.36660625123188
100
AcDbArc
 50
252.6329792467665
 51
270.5888451384333
  0
ARC
  5
582B
102
{ACAD_REACTORS
330
5825
102
}
330
39D7
100
AcDbEntity
  8
APL Border
100
AcDbCircle
 10
23.33536788863257
 20
278.6194209938267
 30
0.0
 40
17.25906527101414
100
AcDbArc
 50
239.5349412106916
 51
252.4590542465295
  0
ARC
  5
582C
102
{ACAD_REACTORS
330
5825
102
}
330
39D7
100
AcDbEntity
  8
APL Border
100
AcDbCircle
 10
17.87069917692793
 20
269.9064821669413
 30
0.0
 40
3.767898811686282
100
AcDbArc
 50
153.6070913553711
 51
177.3391183924929
  0
ARC
  5
582D
102
{ACAD_REACTORS
330
5825
102
}
330
39D7
100
AcDbEntity
  8
APL Border
100
AcDbCircle
 10
16.28271146983881
 20
269.5778144790396
 30
0.0
 40
2.684837801621823
100
AcDbArc
 50
131.7324572923451
 51
169.1890960327197
  0
ARC
  5
582E
102
{ACAD_REACTORS
330
5825
102
}
330
39D7
100
AcDbEntity
  8
APL Border
100
AcDbCircle
 10
18.12711839863346
 20
269.6545364822648
 30
0.0
 40
6.891465295079221
100
AcDbArc
 50
203.9548519902172
 51
239.0683492950841
  0
ARC
  5
582F
102
{ACAD_REACTORS
330
5825
102
}
330
39D7
100
AcDbEntity
  8
APL Border
100
AcDbCircle
 10
15.55515394903143
 20
268.1982842226753
 30
0.0
 40
3.960153949031401
100
AcDbArc
 50
143.9372392604394
 51
199.8052767528839
  0
ARC
  5
5830
102
{ACAD_REACTORS
330
5825
102
}
330
39D7
100
AcDbEntity
  8
APL Border
100
AcDbCircle
 10
12.41226765070622
 20
270.48244690546
 30
0.0
 40
0.075
100
AcDbArc
 50
344.355092603511
 51
141.1312117461879
  0
ARC
  5
5831
102
{ACAD_REACTORS
330
5825
102
}
330
39D7
100
AcDbEntity
  8
APL Border
100
AcDbCircle
 10
15.8463477617491
 20
269.5207324823547
 30
0.0
 40
3.491202579869703
100
AcDbArc
 50
164.355092603516
 51
195.5351328468004
  0
ARC
  5
5832
102
{ACAD_REACTORS
330
5825
102
}
330
39D7
100
AcDbEntity
  8
APL Border
100
AcDbCircle
 10
41.51959182547463
 20
270.2447528778072
 30
0.0
 40
5.211423477554786
100
AcDbArc
 50
304.8741487592643
 51
340.3448131940653
  0
ARC
  5
5833
102
{ACAD_REACTORS
330
5825
102
}
330
39D7
100
AcDbEntity
  8
APL Border
100
AcDbCircle
 10
44.67714020925941
 20
269.2071355523921
 30
0.0
 40
1.890748898226107
100
AcDbArc
 50
337.7709087655318
 51
19.12643106237982
  0
ENDBLK
  5
39D9
330
39D7
100
AcDbEntity
  8
0
100
AcDbBlockEnd
  0
BLOCK
  5
3BB7
330
3BAE
100
AcDbEntity
  8
0
100
AcDbBlockBegin
  2
smartwood a4 SM attributes (2)
 70
     2
 10
0.0
 20
0.0
 30
0.0
  3
smartwood a4 SM attributes (2)
  1

  0
ATTDEF
  5
5501
330
3BAE
100
AcDbEntity
  8
APL Border
100
AcDbText
 10
50.59500000000003
 20
272.44
 30
0.0
 40
3.5
  1
DRAWING TITLE LINE 1
  7
Arial-Regular
100
AcDbAttributeDefinition
  3
Drawing Title Line 1
  2
DRAWINGTITLE_1
 70
     0
  0
ATTDEF
  5
5502
330
3BAE
100
AcDbEntity
  8
APL Border
100
AcDbText
 10
50.59500000000003
 20
266.94
 30
0.0
 40
3.5
  1
DRAWING TITLE LINE 2
  7
Arial-Regular
100
AcDbAttributeDefinition
  3
Drawing Title Line 2
  2
DRAWINGTITLE_2
 70
     0
  0
ATTDEF
  5
5503
330
3BAE
100
AcDbEntity
  8
APL Border
100
AcDbText
 10
65.59500000000003
 20
260.4903256579735
 30
0.0
 40
2.5
  1
VSAW01-0
  7
Arial-Regular
100
AcDbAttributeDefinition
  3
CAD Reference
  2
VSAW01-0
 70
     0
  0
ATTDEF
  5
5504
330
3BAE
100
AcDbEntity
  8
APL Border
100
AcDbText
 10
96.34500000000002
 20
260.4903256579735
 30
0.0
 40
2.5
  1
1:2
  7
Arial-Regular
100
AcDbAttributeDefinition
  3
Scale
  2
1:2
 70
     0
  0
ATTDEF
  5
5505
330
3BAE
100
AcDbEntity
  8
APL Border
100
AcDbText
 10
115.595
 20
260.4903256579735
 30
0.0
 40
2.5
  1
20.09.02
  7
Arial-Regular
100
AcDbAttributeDefinition
  3
Scale
  2
20.09.02
 70
     0
  0
ATTDEF
  5
5506
330
3BAE
100
AcDbEntity
  8
APL Border
100
AcDbText
 10
11.59500000000003
 20
2.689999999999997
 30
0.0
 40
4.5
  1
1.2.34
  7
Arial-Regular
100
AcDbAttributeDefinition
  3
Page Number (Left)
  2
1.2.34
 70
     0
  0
ATTDEF
  5
5507
330
3BAE
100
AcDbEntity
  8
APL Border
100
AcDbText
 10
172.1168281036835
 20
2.689999999999997
 30
0.0
 40
4.5
  1
1.2.34
  7
Arial-Regular
 72
     2
 11
189.595
 21
2.689999999999997
 31
0.0
100
AcDbAttributeDefinition
  3
Page Number (Right)
  2
1.2.34
 70
     0
  0
ENDBLK
  5
3BB8
330
3BAE
100
AcDbEntity
  8
0
100
AcDbBlockEnd
  0
BLOCK
  5
5066
330
5059
100
AcDbEntity
  8
0
100
AcDbBlockBegin
  2
24mm IGU
 70
     0
 10
0.0
 20
0.0
 30
0.0
  3
24mm IGU
  1

  0
LINE
  5
505A
330
5059
100
AcDbEntity
  8
APL Joinery
 62
     7
100
AcDbLine
 10
6.000017455505584
 20
6.000392998950459
 30
0.0
 11
18.00001745550558
 21
6.000392998950459
 31
0.0
  0
LINE
  5
505B
330
5059
100
AcDbEntity
  8
APL Joinery
 62
     7
100
AcDbLine
 10
6.000017455505584
 20
0.0003929989504599
 30
0.0
 11
18.00001745550558
 21
0.0003929989504599
 31
0.0
  0
LINE
  5
505C
330
5059
100
AcDbEntity
  8
APL Joinery
 62
     7
100
AcDbLine
 10
24.00001745550559
 20
0.0003929989504599
 30
0.0
 11
24.00001745550559
 21
20.00039299895046
 31
0.0
  0
LINE
  5
505D
330
5059
100
AcDbEntity
  8
APL Joinery
 62
     7
100
AcDbLine
 10
18.00001745550558
 20
0.0003929989504599
 30
0.0
 11
24.00001745550559
 21
0.0003929989504599
 31
0.0
  0
LINE
  5
505E
330
5059
100
AcDbEntity
  8
APL Joinery
 62
     8
100
AcDbLine
 10
22.00001745550558
 20
0.0003929989504599
 30
0.0
 11
22.00001745550558
 21
20.00039299895046
 31
0.0
  0
LINE
  5
505F
330
5059
100
AcDbEntity
  8
APL Joinery
 62
     7
100
AcDbLine
 10
18.00001745550558
 20
0.0003929989504599
 30
0.0
 11
18.00001745550558
 21
20.00039299895046
 31
0.0
  0
LINE
  5
5060
330
5059
100
AcDbEntity
  8
APL Joinery
 62
     8
100
AcDbLine
 10
20.00001745550559
 20
0.0003929989504599
 30
0.0
 11
20.00001745550559
 21
20.00039299895046
 31
0.0
  0
LINE
  5
5061
330
5059
100
AcDbEntity
  8
APL Joinery
 62
     7
100
AcDbLine
 10
6.000017455505584
 20
0.0003929989504599
 30
0.0
 11
6.000017455505584
 21
20.00039299895046
 31
0.0
  0
LINE
  5
5062
330
5059
100
AcDbEntity
  8
APL Joinery
 62
     7
100
AcDbLine
 10
0.000017455505585
 20
0.0003929989504599
 30
0.0
 11
6.000017455505584
 21
0.0003929989504599
 31
0.0
  0
LINE
  5
5063
330
5059
100
AcDbEntity
  8
APL Joinery
 62
     8
100
AcDbLine
 10
4.000017455505584
 20
0.0003929989504599
 30
0.0
 11
4.000017455505584
 21
20.00039299895046
 31
0.0
  0
LINE
  5
5064
330
5059
100
AcDbEntity
  8
APL Joinery
 62
     7
100
AcDbLine
 10
0.000017455505585
 20
0.0003929989504599
 30
0.0
 11
0.000017455505585
 21
20.00039299895046
 31
0.0
  0
LINE
  5
5065
330
5059
100
AcDbEntity
  8
APL Joinery
 62
     8
100
AcDbLine
 10
2.000017455505584
 20
0.0003929989504599
 30
0.0
 11
2.000017455505584
 21
20.00039299895046
 31
0.0
  0
ENDBLK
  5
5067
330
5059
100
AcDbEntity
  8
0
100
AcDbBlockEnd
  0
BLOCK
  5
53A1
330
53A0
100
AcDbEntity
  8
0
100
AcDbBlockBegin
  2
07123
 70
     0
 10
458.3656891128131
 20
292.4876175000117
 30
0.0
  3
07123
  1
I:\DWG Master Blocks\07123.dwg
  0
LWPOLYLINE
  5
5834
102
{ACAD_REACTORS
330
5835
102
}
330
53A0
100
AcDbEntity
  8
APL Joinery
  6
Continuous
100
AcDbPolyline
 90
       56
 70
     1
 43
0.0
 10
459.5121357222217
 20
306.5340641094199
 42
-0.9999999999999797
 10
460.2192425034092
 20
307.2411708906055
 10
461.7727958940023
 20
305.6876175000123
 42
-0.198912367379658
 10
462.0656891128158
 20
304.9805107188258
 10
462.0656891128158
 20
304.2353124947366
 42
-0.1873013852563519
 10
461.8037365730718
 20
303.5605636922864
 10
461.3598098581149
 20
303.074991901237
 42
0.6521072359563518
 10
461.7288335882434
 20
302.2376175000117
 10
462.7656891128165
 20
302.2376175000117
 42
-0.9999999999999998
 10
462.7656891128165
 20
301.2376175000117
 10
459.9003636353329
 20
301.2376175000117
 42
0.2105751711947796
 10
459.5313399052041
 20
301.0749919012377
 10
453.6345243070663
 20
294.6249919012381
 42
0.6521072359563482
 10
454.0035480371928
 20
293.7876175000128
 10
456.0544192755945
 20
293.7876175000128
 42
0.1989123673796545
 10
456.7615260567811
 20
294.0805107188261
 10
458.5416894616386
 20
295.8606741236834
 42
-0.3394542588634284
 10
459.7487962428252
 20
296.0195927462809
 10
460.1156891128133
 20
295.8077670490304
 42
-1.163404169897045
 10
459.4983642097079
 20
295.0355310938692
 42
0.4259052264678404
 10
459.137925062859
 20
295.0426961625298
 10
458.1813745377661
 20
294.0861456374358
 42
0.4142135623730951
 10
458.1813745377651
 20
293.3790388562501
 10
458.2192425034102
 20
293.341170890605
 42
-0.6681786379192989
 10
457.8656891128169
 20
292.4876175000117
 10
440.5727954482293
 20
292.4876175000117
 42
-0.1989123673797415
 10
440.2192420576359
 20
292.6340641094185
 10
437.5424653623388
 20
295.3108408047155
 42
-0.668178637919367
 10
437.719242057635
 20
295.7376175000117
 10
438.3300891105548
 20
295.7376175000117
 10
438.3300891105548
 20
296.9876175000117
 10
440.3800891105541
 20
296.9876175000117
 42
-0.9999999999999998
 10
440.3800891105541
 20
295.9876175000117
 10
439.6300891105541
 20
295.9876175000117
 10
439.6300891105541
 20
295.0616946875852
 10
440.2041662981276
 20
294.4876175000117
 10
440.8800891105541
 20
294.4876175000117
 10
440.8800891105541
 20
294.0376175000128
 42
0.4142135623730951
 10
441.1300891105541
 20
293.7876175000128
 10
443.6300891105541
 20
293.7876175000128
 42
0.4142135623730951
 10
443.8800891105541
 20
294.0376175000128
 10
443.8800891105541
 20
294.4876175000117
 10
445.1300891105541
 20
294.4876175000117
 10
445.1300891105541
 20
295.9876175000117
 10
444.3800891105541
 20
295.9876175000117
 42
-0.9999999999999998
 10
444.3800891105541
 20
296.9876175000117
 10
445.4300891105552
 20
296.9876175000117
 42
-0.4142135623730951
 10
446.4300891105552
 20
295.9876175000117
 10
446.4300891105552
 20
293.7876175000129
 10
448.9041058039487
 20
293.7876175000128
 42
0.2105751711947817
 10
452.5943431052322
 20
295.4138734877578
 10
458.3656891128169
 20
301.7266335070253
 10
458.3656891128169
 20
302.4876175000117
 10
459.061407295728
 20
302.4876175000117
 10
460.5640551380639
 20
304.1312297890105
 42
0.4011595793581357
 10
460.5331144589938
 20
305.5130853726477
  0
HATCH
  5
5835
330
53A0
100
AcDbEntity
  8
APL Hatch
100
AcDbHatch
 10
0.0
 20
0.0
 30
0.0
210
0.0
220
0.0
230
1.0
  2
SOLID
 70
     1
 71
     1
 91
        1
 92
        1
 93
       56
 72
     2
 10
459.8656891128155
 20
306.8876175000127
 40
0.5000000000000443
 50
135.0000000000783
 51
315.0000000000783
 73
     0
 72
     1
 10
460.2192425034092
 20
307.2411708906055
 11
461.7727958940023
 21
305.6876175000123
 72
     2
 10
461.0656891128158
 20
304.9805107188258
 40
1.000000000000007
 50
315.0
 51
360.0
 73
     0
 72
     1
 10
462.0656891128158
 20
304.9805107188258
 11
462.0656891128158
 21
304.2353124947366
 72
     2
 10
461.0656891128159
 20
304.2353124947378
 40
0.9999999999999431
 50
0.0000000000683946
 51
42.43464631024123
 73
     0
 72
     1
 10
461.8037365730718
 20
303.5605636922864
 11
461.3598098581149
 21
303.074991901237
 72
     2
 10
461.7288335882434
 20
302.7376175000117
 40
0.5000000000000034
 50
137.5653536898278
 51
270.0
 73
     1
 72
     1
 10
461.7288335882434
 20
302.2376175000117
 11
462.7656891128165
 21
302.2376175000117
 72
     2
 10
462.7656891128165
 20
301.7376175000117
 40
0.5
 50
270.0
 51
450.0
 73
     0
 72
     1
 10
462.7656891128165
 20
301.2376175000117
 11
459.9003636353329
 21
301.2376175000117
 72
     2
 10
459.9003636353319
 20
300.7376175000115
 40
0.5000000000002274
 50
89.99999999987624
 51
137.5653536897021
 73
     1
 72
     1
 10
459.5313399052041
 20
301.0749919012377
 11
453.6345243070663
 21
294.6249919012381
 72
     2
 10
454.0035480371938
 20
294.2876175000124
 40
0.4999999999996426
 50
137.5653536897282
 51
269.9999999998893
 73
     1
 72
     1
 10
454.0035480371928
 20
293.7876175000128
 11
456.0544192755945
 21
293.7876175000128
 72
     2
 10
456.0544192755947
 20
294.7876175000129
 40
1.000000000000113
 50
269.9999999999902
 51
314.9999999999885
 73
     1
 72
     1
 10
456.7615260567811
 20
294.0805107188261
 11
458.5416894616386
 21
295.8606741236834
 72
     2
 10
459.2487962428249
 20
295.1535673424968
 40
0.9999999999998474
 50
225.0000000000138
 51
300.0000000000227
 73
     0
 72
     1
 10
459.7487962428252
 20
296.0195927462809
 11
460.1156891128133
 21
295.8077670490304
 72
     2
 10
459.8656891128134
 20
295.3747543471383
 40
0.4999999999998649
 50
300.0000000000014
 51
497.2776334669029
 73
     0
 72
     2
 10
459.3147017581562
 20
294.8659194672341
 40
0.2499999999996247
 50
42.72236653332014
 51
135.0000000002211
 73
     1
 72
     1
 10
459.137925062859
 20
295.0426961625298
 11
458.1813745377661
 21
294.0861456374358
 72
     2
 10
458.5349279283585
 20
293.7325922468425
 40
0.4999999999994414
 50
134.9999999999263
 51
224.9999999999171
 73
     1
 72
     1
 10
458.1813745377651
 20
293.3790388562501
 11
458.2192425034102
 21
293.341170890605
 72
     2
 10
457.8656891128169
 20
292.9876175000117
 40
0.500000000000004
 50
315.0
 51
450.0
 73
     0
 72
     1
 10
457.8656891128169
 20
292.4876175000117
 11
440.5727954482293
 21
292.4876175000117
 72
     2
 10
440.5727954482292
 20
292.9876175000117
 40
0.5
 50
89.99999999999349
 51
135.0000000000138
 73
     0
 72
     1
 10
440.2192420576359
 20
292.6340641094185
 11
437.5424653623388
 21
295.3108408047155
 72
     2
 10
437.7192420576352
 20
295.4876175000121
 40
0.2499999999997207
 50
134.9999999999631
 51
269.9999999999739
 73
     0
 72
     1
 10
437.719242057635
 20
295.7376175000117
 11
438.3300891105548
 21
295.7376175000117
 72
     1
 10
438.3300891105548
 20
295.7376175000117
 11
438.3300891105548
 21
296.9876175000117
 72
     1
 10
438.3300891105548
 20
296.9876175000117
 11
440.3800891105541
 21
296.9876175000117
 72
     2
 10
440.3800891105541
 20
296.4876175000117
 40
0.5
 50
270.0
 51
450.0
 73
     0
 72
     1
 10
440.3800891105541
 20
295.9876175000117
 11
439.6300891105541
 21
295.9876175000117
 72
     1
 10
439.6300891105541
 20
295.9876175000117
 11
439.6300891105541
 21
295.0616946875852
 72
     1
 10
439.6300891105541
 20
295.0616946875852
 11
440.2041662981276
 21
294.4876175000117
 72
     1
 10
440.2041662981276
 20
294.4876175000117
 11
440.8800891105541
 21
294.4876175000117
 72
     1
 10
440.8800891105541
 20
294.4876175000117
 11
440.8800891105541
 21
294.0376175000128
 72
     2
 10
441.1300891105541
 20
294.0376175000128
 40
0.25
 50
180.0
 51
270.0
 73
     1
 72
     1
 10
441.1300891105541
 20
293.7876175000128
 11
443.6300891105541
 21
293.7876175000128
 72
     2
 10
443.6300891105541
 20
294.0376175000128
 40
0.25
 50
270.0
 51
360.0
 73
     1
 72
     1
 10
443.8800891105541
 20
294.0376175000128
 11
443.8800891105541
 21
294.4876175000117
 72
     1
 10
443.8800891105541
 20
294.4876175000117
 11
445.1300891105541
 21
294.4876175000117
 72
     1
 10
445.1300891105541
 20
294.4876175000117
 11
445.1300891105541
 21
295.9876175000117
 72
     1
 10
445.1300891105541
 20
295.9876175000117
 11
444.3800891105541
 21
295.9876175000117
 72
     2
 10
444.3800891105541
 20
296.4876175000117
 40
0.5
 50
90.0
 51
270.0
 73
     0
 72
     1
 10
444.3800891105541
 20
296.9876175000117
 11
445.4300891105552
 21
296.9876175000117
 72
     2
 10
445.4300891105552
 20
295.9876175000117
 40
1.0
 50
270.0
 51
360.0
 73
     0
 72
     1
 10
446.4300891105552
 20
295.9876175000117
 11
446.4300891105552
 21
293.7876175000129
 72
     1
 10
446.4300891105552
 20
293.7876175000129
 11
448.9041058039487
 21
293.7876175000128
 72
     2
 10
448.9041058039507
 20
298.7876175000114
 40
4.999999999998578
 50
269.9999999999765
 51
317.5653536898046
 73
     1
 72
     1
 10
452.5943431052322
 20
295.4138734877578
 11
458.3656891128169
 21
301.7266335070253
 72
     1
 10
458.3656891128169
 20
301.7266335070253
 11
458.3656891128169
 21
302.4876175000117
 72
     1
 10
458.3656891128169
 20
302.4876175000117
 11
459.061407295728
 21
302.4876175000117
 72
     1
 10
459.061407295728
 20
302.4876175000117
 11
460.5640551380639
 21
304.1312297890105
 72
     2
 10
459.8260076778072
 20
304.8059785914611
 40
1.000000000000083
 50
317.565353689823
 51
404.9999999999953
 73
     1
 72
     1
 10
460.5331144589938
 20
305.5130853726477
 11
459.5121357222217
 21
306.5340641094199
 97
        1
330
5834
 75
     0
 76
     1
 98
        1
 10
0.0
 20
0.0
  0
ENDBLK
  5
53A2
330
53A0
100
AcDbEntity
  8
0
100
AcDbBlockEnd
  0
BLOCK
  5
53A4
330
53A3
100
AcDbEntity
  8
0
100
AcDbBlockBegin
  2
07123Glaze
 70
     0
 10
0.0
 20
0.0
 30
0.0
  3
07123Glaze
  1

  0
INSERT
  5
53A5
330
53A3
100
AcDbEntity
  8
APL Joinery
100
AcDbBlockReference
  2
07123
 10
0.0
 20
0.0
 30
0.0
 41
-1.0
 50
270.0
  0
INSERT
  5
53A6
330
53A3
100
AcDbEntity
  8
APL Joinery
100
AcDbBlockReference
  2
6glass
 10
2.0
 20
-22.99999999999983
 30
0.0
 41
-1.0
  0
INSERT
  5
53A7
330
53A3
100
AcDbEntity
  8
APL Joinery
100
AcDbBlockReference
  2
9700158
 10
37.0
 20
-16.94999999999891
 30
0.0
 41
-1.0
 50
180.0
  0
INSERT
  5
53A8
330
53A3
100
AcDbEntity
  8
APL Joinery
100
AcDbBlockReference
  2
9010604
 10
4.5
 20
-20.03560000225826
 30
0.0
 41
-1.0
 50
180.0
  0
LINE
  5
53A9
330
53A3
100
AcDbEntity
  8
APL Joinery
 62
     7
100
AcDbLine
 10
14.49999999999994
 20
-10.0
 30
0.0
 11
26.49999999999995
 21
-10.0
 31
0.0
  0
LINE
  5
53AA
330
53A3
100
AcDbEntity
  8
APL Joinery
 62
     7
100
AcDbLine
 10
14.49999999999994
 20
-16.0
 30
0.0
 11
26.49999999999995
 21
-16.0
 31
0.0
  0
INSERT
  5
53AB
330
53A3
100
AcDbEntity
  8
APL Joinery
100
AcDbBlockReference
  2
6glass
 10
20.0
 20
-22.99999999999983
 30
0.0
 41
-1.0
  0
ENDBLK
  5
53AC
330
53A3
100
AcDbEntity
  8
0
100
AcDbBlockEnd
  0
ENDSEC
  0
SECTION
  2
ENTITIES
  0
INSERT
  5
26CD
330
1F
100
AcDbEntity
  8
APL Joinery
100
AcDbBlockReference
  2
07100
 10
49.13650449972767
 20
66.44003574037026
 30
0.0
  0
INSERT
  5
2713
330
1F
100
AcDbEntity
  8
APL Joinery
100
AcDbBlockReference
  2
07110
 10
57.137004499726
 20
235.950035740369
 30
0.0
  0
INSERT
  5
2718
330
1F
100
AcDbEntity
  8
APL Joinery
100
AcDbBlockReference
  2
9700530
 10
101.637004499726
 20
235.9500357403685
 30
0.0
  0
INSERT
  5
271E
330
1F
100
AcDbEntity
  8
APL Joinery
100
AcDbBlockReference
  2
Timber Profile 5
 10
103.6370044997276
 20
235.9500357403689
 30
0.0
 50
270.0
  0
INSERT
  5
28ED
330
1F
100
AcDbEntity
  8
APL Joinery
100
AcDbBlockReference
  2
sw30mmliner
 10
96.23700449972591
 20
93.44003574036845
 30
0.0
 41
-1.0
 50
180.0
  0
INSERT
  5
299C
330
1F
100
AcDbEntity
  8
APL Joinery
100
AcDbBlockReference
  2
07100
 10
49.13650449972767
 20
414.8500357403682
 30
0.0
 41
-1.0
 50
180.0
  0
INSERT
  5
2A3D
330
1F
100
AcDbEntity
  8
APL Joinery
100
AcDbBlockReference
  2
07100
 10
207.1370044997259
 20
66.44003574037026
 30
0.0
  0
INSERT
  5
2A40
330
1F
100
AcDbEntity
  8
APL Joinery
100
AcDbBlockReference
  2
sw30mmliner
 10
254.2375044997241
 20
93.44003574036845
 30
0.0
 41
-1.0
 50
180.0
  0
INSERT
  5
2A45
330
1F
100
AcDbEntity
  8
APL Joinery
100
AcDbBlockReference
  2
07100
 10
207.1370044997259
 20
216.4400357403704
 30
0.0
 41
-1.0
 50
180.0
  0
INSERT
  5
2A46
330
1F
100
AcDbEntity
  8
APL Joinery
100
AcDbBlockReference
  2
sw30mmliner
 10
254.2375044997241
 20
189.4400357403722
 30
0.0
  0
TEXT
  5
2A4C
330
1F
100
AcDbEntity
  8
APL Notes
100
AcDbText
 10
207.626590923697
 20
58.23680766730046
 30
0.0
 40
5.0
  1
07100
  7
Arial-Bold
100
AcDbText
  0
TEXT
  5
2A4F
330
1F
100
AcDbEntity
  8
APL Notes
100
AcDbText
 10
210.8317669015066
 20
231.458508745696
 30
0.0
 40
5.0
  1
07100
  7
Arial-Bold
100
AcDbText
  0
TEXT
  5
2B7B
330
1F
100
AcDbEntity
  8
APL Notes
100
AcDbText
 10
35.22990099516096
 20
178.0242303972152
 30
0.0
 40
5.0
  1
07123
  7
Arial-Bold
100
AcDbText
  0
TEXT
  5
2B7E
330
1F
100
AcDbEntity
  8
APL Notes
100
AcDbText
 10
17.05060898673712
 20
266.7369450370402
 30
0.0
 40
5.0
  1
07103
  7
Arial-Bold
 72
     2
 11
36.4742106238449
 21
266.7369450370402
 31
0.0
100
AcDbText
  0
TEXT
  5
2B7F
330
1F
100
AcDbEntity
  8
APL Notes
100
AcDbText
 10
17.05060898673712
 20
294.5825233542167
 30
0.0
 40
5.0
  1
07123
  7
Arial-Bold
 72
     2
 11
36.4742106238449
 21
294.5825233542167
 31
0.0
100
AcDbText
  0
MTEXT
  5
2B88
330
1F
100
AcDbEntity
  8
APL Notes
100
AcDbMText
 10
281.4583753866427
 20
150.3643226485362
 30
0.0
 40
2.5
 41
8.1887
 71
     1
 72
     1
  1

 73
     1
 44
1.0
1001
ACAD
1000
MTEXTBEGIN
1070
    73
1070
     1
1070
    44
1040
1.0
1070
    74
1070
     0
1000
MTEXTEND
  0
MTEXT
  5
2B8A
330
1F
100
AcDbEntity
  8
APL Notes
100
AcDbMText
 10
277.5747300400203
 20
150.3643226485362
 30
0.0
 40
2.5
 41
8.1887
 71
     1
 72
     1
  1

 73
     1
 44
1.0
1001
ACAD
1000
MTEXTBEGIN
1070
    73
1070
     1
1070
    44
1040
1.0
1070
    74
1070
     0
1000
MTEXTEND
  0
TEXT
  5
2FF9
330
1F
100
AcDbEntity
  8
APL Notes
  6
Continuous
 62
     7
100
AcDbText
 10
244.5118774699118
 20
311.0931690868735
 30
0.0
 40
5.0
  1
A
  7
Arial-Bold
100
AcDbText
  0
TEXT
  5
2FFB
330
1F
100
AcDbEntity
  8
APL Notes
  6
Continuous
 62
     7
100
AcDbText
 10
293.1699135922374
 20
312.0794806298936
 30
0.0
 40
5.0
  1
B
  7
Arial-Bold
100
AcDbText
  0
TEXT
  5
301E
330
1F
100
AcDbEntity
  8
APL Notes
  6
Continuous
 62
     7
100
AcDbText
 10
244.1831069555718
 20
432.4094888783474
 30
0.0
 40
5.0
  1
A
  7
Arial-Bold
100
AcDbText
  0
TEXT
  5
3020
330
1F
100
AcDbEntity
  8
APL Notes
  6
Continuous
 62
     7
100
AcDbText
 10
292.8411430778974
 20
433.7245709357075
 30
0.0
 40
5.0
  1
B
  7
Arial-Bold
100
AcDbText
  0
LEADER
  5
3021
330
1F
100
AcDbEntity
  8
APL Notes
 62
     8
100
AcDbLeader
  3
ISO-25
 76
     2
 10
249.9416224964225
 20
434.5599644814036
 30
0.0
 10
268.6375044997241
 20
434.5599644814036
 30
0.0
1001
ACAD
1000
DSTYLE
1002
{
1070
   147
1040
0.625
1070
    77
1070
     0
1002
}
  0
LEADER
  5
3022
330
1F
100
AcDbEntity
  8
APL Notes
 62
     8
100
AcDbLeader
  3
ISO-25
 76
     2
 10
298.9416224964225
 20
435.5599644814037
 30
0.0
 10
317.6375044997241
 20
435.5599644814037
 30
0.0
1001
ACAD
1000
DSTYLE
1002
{
1070
   147
1040
0.625
1070
    77
1070
     0
1002
}
  0
LEADER
  5
3023
330
1F
100
AcDbEntity
  8
APL Notes
 62
     8
100
AcDbLeader
  3
ISO-25
 76
     2
 10
298.9416224964225
 20
314.1401069993328
 30
0.0
 10
317.6375044997241
 20
314.1401069993328
 30
0.0
1001
ACAD
1000
DSTYLE
1002
{
1070
   147
1040
0.625
1070
    77
1070
     0
1002
}
  0
LEADER
  5
3024
330
1F
100
AcDbEntity
  8
APL Notes
 62
     8
100
AcDbLeader
  3
ISO-25
 76
     2
 10
249.9416224964225
 20
313.1401069993328
 30
0.0
 10
268.6375044997241
 20
313.1401069993328
 30
0.0
1001
ACAD
1000
DSTYLE
1002
{
1070
   147
1040
0.625
1070
    77
1070
     0
1002
}
  0
LWPOLYLINE
  5
343A
330
1F
100
AcDbEntity
  8
APL Joinery
  6
Continuous
 62
     8
100
AcDbPolyline
 90
        3
 70
     0
 43
0.0
 10
107.1345092115638
 20
280.3274336411666
 10
107.1343992238445
 20
280.3314371407505
 10
107.1343992238445
 20
280.3314371407505
  0
INSERT
  5
352E
330
1F
100
AcDbEntity
  8
APL Joinery
100
AcDbBlockReference
  2
Miro Window Fastner
 10
89.57421062384458
 20
309.0500357403684
 30
0.0
  0
TEXT
  5
352F
330
1F
100
AcDbEntity
  8
APL Notes
100
AcDbText
 10
108.5463622787571
 20
311.7732170463688
 30
0.0
 40
5.0
  1
Fastener
  7
Arial-Regular
100
AcDbText
  0
TEXT
  5
3530
330
1F
100
AcDbEntity
  8
APL Notes
100
AcDbText
 10
108.5463622787571
 20
318.7732170463688
 30
0.0
 40
5.0
  1
Miro Window
  7
Arial-Regular
100
AcDbText
  0
INSERT
  5
3554
330
1F
100
AcDbEntity
  8
APL Joinery
100
AcDbBlockReference
  2
9700158
 10
94.137004499726
 20
264.9000357403675
 30
0.0
  0
INSERT
  5
355C
330
1F
100
AcDbEntity
  8
APL Joinery
100
AcDbBlockReference
  2
07103SashS
 10
57.137004499726
 20
247.9500357403685
 30
0.0
  0
INSERT
  5
3573
330
1F
100
AcDbEntity
  8
APL Joinery
100
AcDbBlockReference
  2
07103Sash
 10
57.13045385172529
 20
392.8675095130602
 30
0.0
  0
LWPOLYLINE
  5
374D
330
1F
100
AcDbEntity
  8
APL Notes
100
AcDbPolyline
 90
        4
 70
     1
 43
0.3
 10
330.2375044997241
 20
51.44003574036844
 10
330.2375044997241
 20
62.44003574036844
 10
279.2375044997241
 20
62.44003574036844
 10
279.2375044997241
 20
51.44003574036844
  0
TEXT
  5
374E
330
1F
100
AcDbEntity
  8
APL Notes
100
AcDbText
 10
282.2375044997241
 20
54.44003574036845
 30
0.0
 40
5.0
  1
SECTION B-B
  7
Arial-Bold
100
AcDbText
  0
TEXT
  5
3757
330
1F
100
AcDbEntity
  8
APL Notes
100
AcDbText
 10
124.2370044997259
 20
54.44003574036845
 30
0.0
 40
5.0
  1
SECTION A-A
  7
Arial-Bold
100
AcDbText
  0
LWPOLYLINE
  5
3758
330
1F
100
AcDbEntity
  8
APL Notes
100
AcDbPolyline
 90
        4
 70
     1
 43
0.3
 10
172.2370044997259
 20
51.44003574036841
 10
172.2370044997259
 20
62.44003574036842
 10
121.2370044997259
 20
62.44003574036842
 10
121.2370044997259
 20
51.44003574036841
  0
TEXT
  5
3798
330
1F
100
AcDbEntity
  8
APL Notes
100
AcDbText
 10
51.62338657810647
 20
58.23680766730046
 30
0.0
 40
5.0
  1
07100
  7
Arial-Bold
100
AcDbText
  0
TEXT
  5
379A
330
1F
100
AcDbEntity
  8
APL Notes
100
AcDbText
 10
52.7968768097615
 20
422.5881347426899
 30
0.0
 40
5.0
  1
Window Frame
  7
Arial-Regular
100
AcDbText
  0
TEXT
  5
379D
330
1F
100
AcDbEntity
  8
APL Notes
100
AcDbText
 10
17.05060898673712
 20
349.9017819657182
 30
0.0
 40
5.0
  1
07123
  7
Arial-Bold
 72
     2
 11
36.4742106238449
 21
349.9017819657182
 31
0.0
100
AcDbText
  0
TEXT
  5
37A0
330
1F
100
AcDbEntity
  8
APL Notes
100
AcDbText
 10
193.7139028626164
 20
181.672870155618
 30
0.0
 40
5.0
  1
07123
  7
Arial-Bold
 72
     2
 11
213.1375044997242
 21
181.672870155618
 31
0.0
100
AcDbText
  0
TEXT
  5
37A2
330
1F
100
AcDbEntity
  8
APL Notes
100
AcDbText
 10
193.7139028626164
 20
102.5973367951132
 30
0.0
 40
5.0
  1
07124
  7
Arial-Bold
 72
     2
 11
213.1375044997242
 21
102.5973367951132
 31
0.0
100
AcDbText
  0
TEXT
  5
37A6
330
1F
100
AcDbEntity
  8
APL Notes
100
AcDbText
 10
35.71340286261822
 20
230.950035740369
 30
0.0
 40
5.0
  1
07110
  7
Arial-Bold
 72
     2
 11
55.137004499726
 21
230.950035740369
 31
0.0
100
AcDbText
  0
TEXT
  5
37A7
330
1F
100
AcDbEntity
  8
APL Notes
100
AcDbText
 10
35.71340286261817
 20
215.5725357403694
 30
0.0
 40
5.0
  1
07438
  7
Arial-Bold
 72
     2
 11
55.13700449972595
 21
215.5725357403694
 31
0.0
100
AcDbText
  0
TEXT
  5
37AC
330
1F
100
AcDbEntity
  8
APL Notes
100
AcDbText
 10
35.71340286261817
 20
134.8523367951134
 30
0.0
 40
5.0
  1
07123
  7
Arial-Bold
 72
     2
 11
55.13700449972595
 21
134.8523367951134
 31
0.0
100
AcDbText
  0
TEXT
  5
37AD
330
1F
100
AcDbEntity
  8
APL Notes
100
AcDbText
 10
35.71340286261817
 20
99.81753574037032
 30
0.0
 40
5.0
  1
07438
  7
Arial-Bold
 72
     2
 11
55.13700449972595
 21
99.81753574037032
 31
0.0
100
AcDbText
  0
INSERT
  5
37DD
330
1F
100
AcDbEntity
  8
APL Joinery
100
AcDbBlockReference
  2
07438
 10
91.63700449972594
 20
223.9500357403695
 30
0.0
 41
-1.0
 50
180.0
  0
INSERT
  5
37DF
330
1F
100
AcDbEntity
  8
APL Joinery
100
AcDbBlockReference
  2
9700520
 10
105.7870044997274
 20
192.5500357403712
 30
0.0
 41
-1.0
 50
180.0
  0
INSERT
  5
37E2
330
1F
100
AcDbEntity
  8
APL Joinery
100
AcDbBlockReference
  2
07438
 10
91.63700449972594
 20
88.44003574037026
 30
0.0
  0
INSERT
  5
37E4
330
1F
100
AcDbEntity
  8
APL Joinery
100
AcDbBlockReference
  2
9700520
 10
105.7870044997274
 20
119.8400357403685
 30
0.0
  0
TEXT
  5
3804
330
1F
100
AcDbEntity
  8
APL Notes
100
AcDbText
 10
12.02332385713275
 20
259.7369450370402
 30
0.0
 40
5.0
  1
Beaded
  7
Arial-Regular
 72
     2
 11
36.4742106238449
 21
259.7369450370402
 31
0.0
100
AcDbText
  0
TEXT
  5
3805
330
1F
100
AcDbEntity
  8
APL Notes
100
AcDbText
 10
20.15429247923371
 20
252.7369450370402
 30
0.0
 40
5.0
  1
Sash
  7
Arial-Regular
 72
     2
 11
36.4742106238449
 21
252.7369450370402
 31
0.0
100
AcDbText
  0
TEXT
  5
381A
330
1F
100
AcDbEntity
  8
APL Notes
100
AcDbText
 10
6.995803954023351
 20
208.5725357403694
 30
0.0
 40
5.0
  1
56mm Sightline
  7
Arial-Regular
 72
     2
 11
55.13700449972595
 21
208.5725357403694
 31
0.0
100
AcDbText
  0
TEXT
  5
381B
330
1F
100
AcDbEntity
  8
APL Notes
100
AcDbText
 10
30.57697721459634
 20
201.5725357403694
 30
0.0
 40
5.0
  1
Adaptor
  7
Arial-Regular
 72
     2
 11
55.13700449972595
 21
201.5725357403694
 31
0.0
100
AcDbText
  0
TEXT
  5
381D
330
1F
100
AcDbEntity
  8
APL Notes
100
AcDbText
 10
24.46851882441899
 20
194.5725357403694
 30
0.0
 40
5.0
  1
(Optional)
  7
Arial-Regular
 72
     2
 11
55.13700449972595
 21
194.5725357403694
 31
0.0
100
AcDbText
  0
INSERT
  5
38BC
330
1F
100
AcDbEntity
  8
APL Joinery
100
AcDbBlockReference
  2
Timber Profile 24 - modified
 10
103.8370044997269
 20
191.1000357403715
 30
0.0
 41
-1.0
 50
180.0
  0
INSERT
  5
38BD
330
1F
100
AcDbEntity
  8
APL Joinery
100
AcDbBlockReference
  2
Timber Profile 24 - modified
 10
103.8370044997269
 20
121.2900357403682
 30
0.0
  0
TEXT
  5
39AD
330
1F
100
AcDbEntity
  8
APL Notes
100
AcDbText
 10
52.7968768097615
 20
429.5881347426899
 30
0.0
 40
5.0
  1
07100
  7
Arial-Bold
100
AcDbText
  0
TEXT
  5
39AF
330
1F
100
AcDbEntity
  8
APL Notes
100
AcDbText
 10
17.05060898673712
 20
378.4631264436963
 30
0.0
 40
5.0
  1
07103
  7
Arial-Bold
 72
     2
 11
36.4742106238449
 21
378.4631264436963
 31
0.0
100
AcDbText
  0
TEXT
  5
39B0
330
1F
100
AcDbEntity
  8
APL Notes
100
AcDbText
 10
19.79276451197586
 20
342.9017819657182
 30
0.0
 40
5.0
  1
Bead
  7
Arial-Regular
 72
     2
 11
36.4742106238449
 21
342.9017819657182
 31
0.0
100
AcDbText
  0
INSERT
  5
3B11
330
1F
100
AcDbEntity
  8
APL Joinery
100
AcDbBlockReference
  2
sw30mmliner
 10
96.23700449972591
 20
387.8500357403702
 30
0.0
  0
LWPOLYLINE
  5
500E
330
1F
100
AcDbEntity
  8
APL Notes
  6
Continuous
 62
     2
100
AcDbPolyline
 90
        2
 70
     0
 43
0.0
 10
291.1375044997241
 20
330.8500357403682
 10
246.137504499724
 20
330.8500357403682
  0
LWPOLYLINE
  5
500F
330
1F
100
AcDbEntity
  8
APL Notes
  6
Continuous
 62
     2
100
AcDbPolyline
 90
        2
 70
     0
 43
0.0
 10
246.137504499724
 20
369.8500357403682
 10
291.1375044997241
 20
369.8500357403682
  0
LWPOLYLINE
  5
5010
330
1F
100
AcDbEntity
  8
APL Notes
100
AcDbPolyline
 90
        2
 70
     0
 43
0.0
 10
249.1375044997241
 20
369.8500357403682
 10
249.1375044997241
 20
330.8500357403682
  0
LWPOLYLINE
  5
5011
330
1F
100
AcDbEntity
  8
APL Notes
100
AcDbPolyline
 90
        2
 70
     0
 43
0.0
 10
288.1375044997241
 20
369.8500357403683
 10
288.1375044997241
 20
330.8500357403683
  0
LWPOLYLINE
  5
5012
330
1F
100
AcDbEntity
  8
APL Notes
  6
Continuous
 62
     2
100
AcDbPolyline
 90
       10
 70
     0
 43
0.0
 10
245.1375044997241
 20
375.8500357403682
 10
292.137504499724
 20
375.8500357403682
 10
288.1375044997241
 20
379.8500357403682
 10
288.1375044997241
 20
418.8500357403682
 10
249.1375044997241
 20
418.8500357403682
 10
249.1375044997241
 20
379.8500357403682
 10
245.1375044997241
 20
375.8500357403682
 10
245.1375044997241
 20
422.8500357403682
 10
292.137504499724
 20
422.8500357403682
 10
292.137504499724
 20
375.8500357403682
  0
LWPOLYLINE
  5
5013
330
1F
100
AcDbEntity
  8
APL Notes
  6
Continuous
 62
     2
100
AcDbPolyline
 90
       12
 70
     0
 43
0.0
 10
297.1375044997241
 20
419.8500357403682
 10
297.1375044997241
 20
329.8500357403682
 10
295.1375044997241
 20
327.8500357403682
 10
295.1375044997241
 20
421.8500357403682
 10
297.1375044997241
 20
419.8500357403682
 10
338.1375044997241
 20
419.8500357403682
 10
338.1375044997241
 20
329.8500357403682
 10
343.1375044997241
 20
324.8500357403683
 10
243.1375044997241
 20
324.8500357403683
 10
243.1375044997241
 20
424.8500357403682
 10
343.1375044997241
 20
424.8500357403682
 10
343.1375044997241
 20
324.8500357403683
  0
LWPOLYLINE
  5
5015
330
1F
100
AcDbEntity
  8
APL Notes
  6
Continuous
 62
     2
100
AcDbPolyline
 90
        5
 70
     0
 43
0.0
 10
292.137504499724
 20
421.8500357403682
 10
340.1375044997241
 20
421.8500357403682
 10
340.1375044997241
 20
327.8500357403682
 10
246.137504499724
 20
327.8500357403682
 10
246.137504499724
 20
375.8500357403682
  0
LWPOLYLINE
  5
501B
330
1F
100
AcDbEntity
  8
APL Notes
  6
DASHED
 62
     7
 48
20.0
100
AcDbPolyline
 90
        2
 70
     0
 43
0.0
 10
262.637504499724
 20
412.8500357403682
 10
274.6375044997241
 20
412.8500357403682
  0
LWPOLYLINE
  5
501F
330
1F
100
AcDbEntity
  8
APL Notes
  6
Continuous
 62
     2
100
AcDbPolyline
 90
        2
 70
     0
 43
0.0
 10
246.137504499724
 20
372.8500357403683
 10
291.1375044997241
 20
372.8500357403683
  0
LWPOLYLINE
  5
5025
330
1F
100
AcDbEntity
  8
APL Notes
  6
Continuous
 62
     2
100
AcDbPolyline
 90
        2
 70
     0
 43
0.0
 10
291.1375044997241
 20
327.8500357403682
 10
291.1375044997241
 20
375.8500357403682
  0
LWPOLYLINE
  5
5028
330
1F
100
AcDbEntity
  8
APL Notes
  6
Continuous
 62
     8
100
AcDbPolyline
 90
        2
 70
     0
 43
0.0
 10
317.6375044997241
 20
346.9980518761104
 10
317.6375044997241
 20
314.1401069993328
  0
LWPOLYLINE
  5
5029
330
1F
100
AcDbEntity
  8
APL Notes
  6
Continuous
 62
     8
100
AcDbPolyline
 90
        2
 70
     0
 43
0.0
 10
268.6375044997241
 20
345.9980518761104
 10
268.6375044997241
 20
313.1401069993328
  0
LWPOLYLINE
  5
502E
330
1F
100
AcDbEntity
  8
APL Notes
  6
Continuous
 62
     2
100
AcDbPolyline
 90
        2
 70
     0
 43
0.0
 10
338.1375044997241
 20
329.8500357403682
 10
297.1375044997241
 20
329.8500357403682
  0
LWPOLYLINE
  5
5033
330
1F
100
AcDbEntity
  8
APL Notes
  6
Continuous
 62
     2
100
AcDbPolyline
 90
        2
 70
     0
 43
0.0
 10
338.1375044997241
 20
419.8500357403682
 10
343.1375044997241
 20
424.8500357403682
  0
LWPOLYLINE
  5
5034
330
1F
100
AcDbEntity
  8
APL Notes
  6
Continuous
 62
     2
100
AcDbPolyline
 90
        2
 70
     0
 43
0.0
 10
288.1375044997241
 20
418.8500357403682
 10
292.137504499724
 20
422.8500357403682
  0
LWPOLYLINE
  5
5035
330
1F
100
AcDbEntity
  8
APL Notes
  6
Continuous
 62
     2
100
AcDbPolyline
 90
        2
 70
     0
 43
0.0
 10
249.1375044997241
 20
418.8500357403682
 10
245.1375044997241
 20
422.8500357403682
  0
LWPOLYLINE
  5
5036
330
1F
100
AcDbEntity
  8
APL Notes
  6
Continuous
 62
     8
100
AcDbPolyline
 90
        2
 70
     0
 43
0.0
 10
317.6375044997241
 20
402.702019604626
 10
317.6375044997241
 20
435.5599644814037
  0
LWPOLYLINE
  5
5037
330
1F
100
AcDbEntity
  8
APL Notes
  6
Continuous
 62
     8
100
AcDbPolyline
 90
        2
 70
     0
 43
0.0
 10
268.6375044997241
 20
401.702019604626
 10
268.6375044997241
 20
434.5599644814036
  0
LWPOLYLINE
  5
5038
330
1F
100
AcDbEntity
  8
0
100
AcDbPolyline
 90
        4
 70
     1
 43
0.0
 10
-0.0000008078504834
 20
482.0000001108869
 10
-0.0000008078504834
 20
0.0000001108869583
 10
353.9999991921495
 20
0.0000001108869583
 10
353.9999991921495
 20
482.0000001108869
  0
INSERT
  5
503C
330
1F
100
AcDbEntity
  8
APL Joinery
100
AcDbBlockReference
  2
9700158
 10
75.4742106238449
 20
302.050035740368
 30
0.0
  0
INSERT
  5
503E
330
1F
100
AcDbEntity
  8
APL Joinery
100
AcDbBlockReference
  2
9010604
 10
42.97421062384501
 20
305.1356357426258
 30
0.0
  0
INSERT
  5
5043
330
1F
100
AcDbEntity
  8
APL Joinery
100
AcDbBlockReference
  2
9700183
 10
93.63700449972595
 20
120.6950357403703
 30
0.0
  0
INSERT
  5
5045
330
1F
100
AcDbEntity
  8
APL Joinery
100
AcDbBlockReference
  2
9700158
 10
94.13700449972594
 20
137.6450357403702
 30
0.0
  0
INSERT
  5
5047
330
1F
100
AcDbEntity
  8
APL Joinery
100
AcDbBlockReference
  2
9010604
 10
61.63700449972606
 20
140.730635742628
 30
0.0
  0
INSERT
  5
504C
330
1F
100
AcDbEntity
  8
APL Joinery
100
AcDbBlockReference
  2
9700183
 10
251.6375044997242
 20
88.44003574037026
 30
0.0
  0
INSERT
  5
504E
330
1F
100
AcDbEntity
  8
APL Joinery
100
AcDbBlockReference
  2
9700158
 10
252.1375044997242
 20
105.3900357403701
 30
0.0
  0
INSERT
  5
5050
330
1F
100
AcDbEntity
  8
APL Joinery
100
AcDbBlockReference
  2
9010604
 10
219.6375044997243
 20
108.4756357426279
 30
0.0
  0
INSERT
  5
5052
330
1F
100
AcDbEntity
  8
APL Joinery
100
AcDbBlockReference
  2
07124
 10
215.1375044997242
 20
88.44003574037026
 30
0.0
  0
INSERT
  5
5068
330
1F
100
AcDbEntity
  8
APL Joinery
100
AcDbBlockReference
  2
24mm IGU
 10
46.97419316833948
 20
291.0996427414177
 30
0.0
  0
INSERT
  5
5069
330
1F
100
AcDbEntity
  8
APL Joinery
100
AcDbBlockReference
  2
24mm IGU
 10
65.63698704422056
 20
130.6946427414199
 30
0.0
  0
INSERT
  5
506A
330
1F
100
AcDbEntity
  8
APL Joinery
100
AcDbBlockReference
  2
24mm IGU
 10
223.6374870442188
 20
98.43964274141981
 30
0.0
  0
LINE
  5
5319
330
1F
100
AcDbEntity
  8
APL Notes
 62
     2
 48
20.0
100
AcDbLine
 10
288.1375044997241
 20
379.8500357403682
 30
0.0
 11
249.1375044997241
 21
379.8500357403682
 31
0.0
  0
LINE
  5
531A
330
1F
100
AcDbEntity
  8
APL Notes
  6
DASHED
 62
     7
 48
20.0
100
AcDbLine
 10
249.1375044997241
 20
379.8500357403682
 30
0.0
 11
268.6375044997241
 21
412.8500357403682
 31
0.0
  0
LINE
  5
531B
330
1F
100
AcDbEntity
  8
APL Notes
  6
DASHED
 62
     7
 48
20.0
100
AcDbLine
 10
268.6375044997241
 20
412.8500357403682
 30
0.0
 11
288.1375044997241
 21
379.8500357403682
 31
0.0
  0
INSERT
  5
53B6
330
1F
100
AcDbEntity
  8
APL Joinery
100
AcDbBlockReference
  2
07123Glaze
 10
38.4742106238449
 20
356.1000357403672
 30
0.0
  0
INSERT
  5
53B8
330
1F
100
AcDbEntity
  8
APL Joinery
100
AcDbBlockReference
  2
07123Glaze
 10
57.13700449972589
 20
191.6950357403692
 30
0.0
  0
INSERT
  5
53B9
330
1F
100
AcDbEntity
  8
APL Joinery
100
AcDbBlockReference
  2
07123Glaze
 10
215.1375044997241
 20
194.4400357403694
 30
0.0
  0
INSERT
  5
5440
330
1F
100
AcDbEntity
  8
APL Joinery
100
AcDbBlockReference
  2
07123
 10
57.137004499726
 20
120.6950357403702
 30
0.0
 50
270.0
  0
INSERT
  5
5441
330
1F
100
AcDbEntity
  8
APL Joinery
100
AcDbBlockReference
  2
07123
 10
38.47421062384496
 20
285.1000357403681
 30
0.0
 50
270.0
  0
VIEWPORT
  5
39C3
102
{ACAD_XDICTIONARY
360
570B
102
}
330
39C2
100
AcDbEntity
 67
     1
  8
0
100
AcDbViewport
 10
111.5038212225827
 20
145.0054617817805
 30
0.0
 40
508.1620776548639
 41
299.2186445790102
 68
     1
 69
     1
 12
111.5038212225827
 22
145.0054617817805
 13
0.0
 23
0.0
 14
10.0
 24
10.0
 15
10.0
 25
10.0
 16
0.0
 26
0.0
 36
1.0
 17
0.0
 27
0.0
 37
0.0
 42
50.0
 43
0.0
 44
0.0
 45
299.2186445790102
 50
0.0
 51
0.0
 72
 20000
 90
    32800
  1

281
     0
 71
     1
 74
     0
110
0.0
120
0.0
130
0.0
111
1.0
121
0.0
131
0.0
112
0.0
122
1.0
132
0.0
 79
     0
146
0.0
  0
VIEWPORT
  5
39C4
102
{ACAD_XDICTIONARY
360
570D
102
}
330
39C2
100
AcDbEntity
 67
     1
  8
0
100
AcDbViewport
 10
112.19
 20
133.6299999999999
 30
0.0
 40
178.0
 41
241.9999999999999
 68
     2
 69
     2
 12
177.0000000163699
 22
241.0000012331306
 13
0.0
 23
0.0
 14
10.0
 24
10.0
 15
10.0
 25
10.0
 16
0.0
 26
0.0
 36
1.0
 17
0.0
 27
0.0
 37
0.0
 42
50.0
 43
0.0
 44
0.0
 45
483.9999999999998
 50
0.0
 51
0.0
 72
 20000
 90
    32864
  1

281
     0
 71
     1
 74
     0
110
0.0
120
0.0
130
0.0
111
1.0
121
0.0
131
0.0
112
0.0
122
1.0
132
0.0
 79
     0
146
0.0
  0
INSERT
  5
3A23
330
39C2
100
AcDbEntity
 67
     1
  8
APL Border
100
AcDbBlockReference
  2
smartwood a4 SM border
 10
11.59500000000003
 20
2.689999999999997
 30
0.0
  0
INSERT
  5
3BB9
330
39C2
100
AcDbEntity
 67
     1
  8
APL Border
100
AcDbBlockReference
 66
     1
  2
smartwood a4 SM attributes (2)
 10
11.59500000000003
 20
2.689999999999997
 30
0.0
  0
ATTRIB
  5
3BBB
330
3BB9
100
AcDbEntity
 67
     1
  8
APL Border
100
AcDbText
 10
62.19000000000005
 20
275.13
 30
0.0
 40
3.5
  1
AWNING WINDOW AND FIXED LIGHT
  7
Arial-Regular
100
AcDbAttribute
  2
DRAWINGTITLE_1
 70
     0
  0
ATTRIB
  5
3BBC
330
3BB9
100
AcDbEntity
 67
     1
  8
APL Border
100
AcDbText
 10
62.19000000000005
 20
269.63
 30
0.0
 40
3.5
  1
CROSS SECTION
  7
Arial-Regular
100
AcDbAttribute
  2
DRAWINGTITLE_2
 70
     0
  0
ATTRIB
  5
3BBD
330
3BB9
100
AcDbEntity
 67
     1
  8
APL Border
100
AcDbText
 10
77.19000000000005
 20
263.1803256579735
 30
0.0
 40
2.5
  1
SAW01-0
  7
Arial-Regular
100
AcDbAttribute
  2
VSAW01-0
 70
     0
  0
ATTRIB
  5
3BBE
330
3BB9
100
AcDbEntity
 67
     1
  8
APL Border
100
AcDbText
 10
107.94
 20
263.1803256579735
 30
0.0
 40
2.5
  1
1:2
  7
Arial-Regular
100
AcDbAttribute
  2
1:2
 70
     0
  0
ATTRIB
  5
3BBF
330
3BB9
100
AcDbEntity
 67
     1
  8
APL Border
100
AcDbText
 10
127.19
 20
263.1803256579735
 30
0.0
 40
2.5
  1
01.06.11
  7
Arial-Regular
100
AcDbAttribute
  2
20.09.02
 70
     0
  0
ATTRIB
  5
3BC0
330
3BB9
100
AcDbEntity
 67
     1
  8
APL Border
100
AcDbText
 10
23.19000000000006
 20
5.379999999999995
 30
0.0
 40
4.5
  1

  7
Arial-Regular
100
AcDbAttribute
  2
1.2.34
 70
     0
  0
ATTRIB
  5
3BC1
330
3BB9
100
AcDbEntity
 67
     1
  8
APL Border
100
AcDbText
 10
201.1900000000001
 20
5.379999999999995
 30
0.0
 40
4.5
  1

  7
Arial-Regular
 72
     2
 11
201.1900000000001
 21
5.379999999999995
 31
0.0
100
AcDbAttribute
  2
1.2.34
 70
     0
  0
SEQEND
  5
3BBA
330
3BB9
100
AcDbEntity
 67
     1
  8
APL Joinery
  0
ENDSEC
  0
SECTION
  2
OBJECTS
  0
DICTIONARY
  5
C
330
0
100
AcDbDictionary
281
     1
  3
ACAD_COLOR
350
3D13
  3
ACAD_GROUP
350
D
  3
ACAD_LAYOUT
350
1A
  3
ACAD_MATERIAL
350
3D12
  3
ACAD_MLEADERSTYLE
350
4FE8
  3
ACAD_MLINESTYLE
350
17
  3
ACAD_PLOTSETTINGS
350
19
  3
ACAD_PLOTSTYLENAME
350
E
  3
ACAD_SCALELIST
350
4FC6
  3
ACAD_TABLESTYLE
350
3D14
  3
ACAD_VISUALSTYLE
350
4FB5
  3
AcadDim
350
86
  3
ACDB_RECOMPOSE_DATA
350
51EA
  3
ACDBHEADERROUNDTRIPXREC
350
5863
  3
AcDbVariableDictionary
350
3B
  3
DWGPROPS
350
5862
  0
DICTIONARY
  5
51EC
330
8
100
AcDbDictionary
280
     1
281
     1
  3
ACAD_XREC_ROUNDTRIP
360
5700
  0
DICTIONARY
  5
3D3F
330
2
100
AcDbDictionary
280
     1
281
     1
  3
ACAD_LAYERFILTERS
360
53F4
  3
ACAD_LAYERSTATES
360
3D40
  3
ACLYDICTIONARY
360
53F3
  0
DICTIONARY
  5
506B
330
10
100
AcDbDictionary
280
     1
281
     1
  3
ACAD_XREC_ROUNDTRIP
360
5701
  3
ADSK_XREC_LAYER_RECONCILED
360
506C
  0
DICTIONARY
  5
506D
330
2B
100
AcDbDictionary
280
     1
281
     1
  3
ACAD_XREC_ROUNDTRIP
360
5704
  3
ADSK_XREC_LAYER_RECONCILED
360
506E
  0
DICTIONARY
  5
506F
330
75
100
AcDbDictionary
280
     1
281
     1
  3
ACAD_XREC_ROUNDTRIP
360
5705
  3
ADSK_XREC_LAYER_RECONCILED
360
5070
  0
DICTIONARY
  5
5071
330
3590
100
AcDbDictionary
280
     1
281
     1
  3
ACAD_XREC_ROUNDTRIP
360
5706
  3
ADSK_XREC_LAYER_RECONCILED
360
5072
  0
DICTIONARY
  5
5075
330
3D1D
100
AcDbDictionary
280
     1
281
     1
  3
ACAD_XREC_ROUNDTRIP
360
5712
  3
ADSK_XREC_LAYER_RECONCILED
360
5076
  0
DICTIONARY
  5
27CE
330
1F
100
AcDbDictionary
280
     1
281
     1
  3
ACAD_LAYOUTSELFREF
360
2BFE
  3
ACAD_SORTENTS
360
4E06
  0
DICTIONARY
  5
2842
330
26C9
100
AcDbDictionary
280
     1
281
     1
  0
DICTIONARY
  5
2844
330
26CE
100
AcDbDictionary
280
     1
281
     1
  0
DICTIONARY
  5
2846
330
26D3
100
AcDbDictionary
280
     1
281
     1
  0
DICTIONARY
  5
284A
330
26DE
100
AcDbDictionary
280
     1
281
     1
  0
DICTIONARY
  5
27D6
330
26E8
100
AcDbDictionary
280
     1
281
     1
  0
DICTIONARY
  5
284E
330
26F6
100
AcDbDictionary
280
     1
281
     1
  0
DICTIONARY
  5
2851
330
2709
100
AcDbDictionary
280
     1
281
     1
  0
DICTIONARY
  5
2853
330
270F
100
AcDbDictionary
280
     1
281
     1
  0
DICTIONARY
  5
2855
330
2714
100
AcDbDictionary
280
     1
281
     1
  0
DICTIONARY
  5
27DA
330
271A
100
AcDbDictionary
280
     1
281
     1
  0
DICTIONARY
  5
2AEB
330
28E9
100
AcDbDictionary
280
     1
281
     1
  0
DICTIONARY
  5
2B6C
330
298A
100
AcDbDictionary
280
     1
281
     1
  0
DICTIONARY
  5
2AEF
330
298F
100
AcDbDictionary
280
     1
281
     1
  0
DICTIONARY
  5
2B6F
330
29A3
100
AcDbDictionary
280
     1
281
     1
  0
DICTIONARY
  5
5836
330
53A0
100
AcDbDictionary
280
     1
281
     1
  0
DICTIONARY
  5
570B
330
39C3
100
AcDbDictionary
280
     1
281
     1
  3
ACAD_XREC_ROUNDTRIP
360
570C
  0
DICTIONARY
  5
570D
330
39C4
100
AcDbDictionary
280
     1
281
     1
  3
ACAD_XREC_ROUNDTRIP
360
570E
  0
DICTIONARY
  5
3D13
102
{ACAD_REACTORS
330
C
102
}
330
C
100
AcDbDictionary
281
     1
  0
DICTIONARY
  5
D
102
{ACAD_REACTORS
330
C
102
}
330
C
100
AcDbDictionary
281
     1
  0
DICTIONARY
  5
1A
102
{ACAD_REACTORS
330
C
102
}
330
C
100
AcDbDictionary
281
     1
  3
Model
350
22
  3
Vantage A4
350
39D2
  0
DICTIONARY
  5
3D12
102
{ACAD_REACTORS
330
C
102
}
330
C
100
AcDbDictionary
281
     1
  3
ByBlock
350
4FA5
  3
ByLayer
350
4F9D
  3
Global
350
4FAD
  0
DICTIONARY
  5
4FE8
102
{ACAD_REACTORS
330
C
102
}
330
C
100
AcDbDictionary
281
     1
  3
Standard
350
56BB
  0
DICTIONARY
  5
17
102
{ACAD_REACTORS
330
C
102
}
330
C
100
AcDbDictionary
281
     1
  3
Standard
350
18
  0
DICTIONARY
  5
19
102
{ACAD_REACTORS
330
C
102
}
330
C
100
AcDbDictionary
281
     1
  3
A4 Specifier Manual Hardcopy
350
36DE
  3
A4 Specifier Manual PDF
350
36DF
  0
ACDBDICTIONARYWDFLT
  5
E
102
{ACAD_REACTORS
330
C
102
}
330
C
100
AcDbDictionary
281
     1
  3
Normal
350
F
100
AcDbDictionaryWithDefault
340
F
  0
DICTIONARY
  5
4FC6
102
{ACAD_REACTORS
330
C
102
}
330
C
100
AcDbDictionary
281
     1
  3
A0
350
4FC7
  3
A1
350
4FC8
  3
A2
350
4FC9
  3
A3
350
4FCA
  3
A4
350
4FCB
  3
A5
350
4FCC
  3
A6
350
4FCD
  3
A7
350
4FCE
  3
A8
350
4FCF
  3
A9
350
4FD0
  3
B0
350
4FD1
  3
B1
350
4FD2
  3
B2
350
4FD3
  3
B3
350
4FD4
  3
B4
350
4FD5
  3
B5
350
4FD6
  3
B6
350
4FD7
  3
B7
350
4FD8
  3
B8
350
4FD9
  3
B9
350
4FDA
  3
C0
350
4FDB
  3
C1
350
4FDC
  3
C2
350
4FDD
  3
C3
350
4FDE
  3
C4
350
4FDF
  3
C5
350
4FE0
  3
C6
350
4FE1
  3
C7
350
4FE2
  3
C8
350
4FE3
  3
C9
350
4FE4
  3
D0
350
4FE5
  3
D1
350
4FE6
  3
D2
350
4FE7
  0
DICTIONARY
  5
3D14
102
{ACAD_REACTORS
330
C
102
}
330
C
100
AcDbDictionary
281
     1
  3
Standard
350
3D15
  0
DICTIONARY
  5
4FB5
102
{ACAD_REACTORS
330
C
102
}
330
C
100
AcDbDictionary
281
     1
  3
2dWireframe
350
4FBB
  3
3D Hidden
350
4FBD
  3
3dWireframe
350
4FBC
  3
Basic
350
4FBA
  3
Brighten
350
4FC1
  3
ColorChange
350
4FC5
  3
Conceptual
350
4FBE
  3
Dim
350
4FC0
  3
Facepattern
350
4FC4
  3
Flat
350
4FB6
  3
FlatWithEdges
350
4FB7
  3
Gouraud
350
4FB8
  3
GouraudWithEdges
350
4FB9
  3
Linepattern
350
4FC3
  3
Realistic
350
4FBF
  3
Thicken
350
4FC2
  0
XRECORD
  5
86
102
{ACAD_REACTORS
330
C
102
}
330
C
100
AcDbXrecord
280
     1
 90
   990106
  3

 60
     0
 61
     0
 62
     1
 63
     3
 64
     0
 65
     0
 66
     0
 67
     3
 68
     1
 69
     0
 70
     0
 71
     0
 72
     0
 40
8.188652110585962
170
     0
340
2B8A
  0
XRECORD
  5
51EA
102
{ACAD_REACTORS
330
C
102
}
330
C
100
AcDbXrecord
280
     1
 90
        1
330
3D15
  0
DICTIONARY
  5
5863
102
{ACAD_REACTORS
330
C
102
}
330
C
100
AcDbDictionary
281
     1
  0
DICTIONARY
  5
3B
102
{ACAD_REACTORS
330
C
102
}
330
C
100
AcDbDictionary
281
     1
  3
CANNOSCALE
350
522D
  3
CMLEADERSTYLE
350
522C
  3
CTABLESTYLE
350
4F6C
  3
DIMASSOC
350
3D
  3
HIDETEXT
350
3C
  3
INDEXCTL
350
522F
  3
PROJECTNAME
350
4F9B
  3
SORTENTS
350
522E
  0
XRECORD
  5
5862
102
{ACAD_REACTORS
330
C
102
}
330
C
100
AcDbXrecord
280
     1
  1
DWGPROPS COOKIE
  2

  3

  4

  6

  7

  8
homer
  9

300
=
301
=
302
=
303
=
304
=
305
=
306
=
307
=
308
=
309
=
 40
1.337511296296296
 41
2452241.456213345
 42
2455812.45365794
  1

 90
        0
  0
XRECORD
  5
5700
102
{ACAD_REACTORS
330
51EC
102
}
330
51EC
100
AcDbXrecord
280
     1
102
VTR_0.000_0.000_1.000_1.000_VISUALSTYLE
340
4FBB
102
VTR_0.000_0.000_1.000_1.000_GRIDDISPLAY
 70
     3
102
VTR_0.000_0.000_1.000_1.000_GRIDMAJOR
 70
     5
102
VTR_0.000_0.000_1.000_1.000_DEFAULTLIGHTING
280
     1
102
VTR_0.000_0.000_1.000_1.000_DEFAULTLIGHTINGTYPE
 70
     1
102
VTR_0.000_0.000_1.000_1.000_BRIGHTNESS
141
0.0
102
VTR_0.000_0.000_1.000_1.000_CONTRAST
142
0.0
  0
DICTIONARY
  5
53F4
102
{ACAD_REACTORS
330
3D3F
102
}
330
3D3F
100
AcDbDictionary
281
     1
  0
DICTIONARY
  5
3D40
102
{ACAD_REACTORS
330
3D3F
102
}
330
3D3F
100
AcDbDictionary
281
     1
  0
DICTIONARY
  5
53F3
102
{ACAD_REACTORS
330
3D3F
102
}
330
3D3F
100
AcDbDictionary
281
     1
1001
ACAD
1000
<All
  0
XRECORD
  5
5701
102
{ACAD_REACTORS
330
506B
102
}
330
506B
100
AcDbXrecord
280
     1
102
MATERIAL
340
4FAD
  0
XRECORD
  5
506C
102
{ACAD_REACTORS
330
506B
102
}
330
506B
100
AcDbXrecord
280
     1
290
     1
  0
XRECORD
  5
5704
102
{ACAD_REACTORS
330
506D
102
}
330
506D
100
AcDbXrecord
280
     1
102
MATERIAL
340
4FAD
  0
XRECORD
  5
506E
102
{ACAD_REACTORS
330
506D
102
}
330
506D
100
AcDbXrecord
280
     1
290
     1
  0
XRECORD
  5
5705
102
{ACAD_REACTORS
330
506F
102
}
330
506F
100
AcDbXrecord
280
     1
102
MATERIAL
340
4FAD
  0
XRECORD
  5
5070
102
{ACAD_REACTORS
330
506F
102
}
330
506F
100
AcDbXrecord
280
     1
290
     1
  0
XRECORD
  5
5706
102
{ACAD_REACTORS
330
5071
102
}
330
5071
100
AcDbXrecord
280
     1
102
MATERIAL
340
4FAD
  0
XRECORD
  5
5072
102
{ACAD_REACTORS
330
5071
102
}
330
5071
100
AcDbXrecord
280
     1
290
     1
  0
XRECORD
  5
5712
102
{ACAD_REACTORS
330
5075
102
}
330
5075
100
AcDbXrecord
280
     1
102
MATERIAL
340
4FAD
  0
XRECORD
  5
5076
102
{ACAD_REACTORS
330
5075
102
}
330
5075
100
AcDbXrecord
280
     1
290
     1
  0
XRECORD
  5
2BFE
102
{ACAD_REACTORS
330
27CE
102
}
330
27CE
100
AcDbXrecord
280
     1
340
1F
  0
SORTENTSTABLE
  5
4E06
102
{ACAD_REACTORS
330
27CE
102
}
330
27CE
100
AcDbSortentsTable
330
1F
331
271E
  5
2A40
331
2A40
  5
2A4F
331
374D
  5
3D73
331
2A46
  5
2A51
331
531B
  5
38BC
331
2A4C
  5
2B7B
331
5025
  5
3757
331
503C
  5
3D6D
331
5012
  5
39B0
331
3021
  5
3B11
331
2713
  5
299C
331
39B0
  5
502E
331
38BD
  5
502B
331
5037
  5
3021
331
504E
  5
3D61
331
374E
  5
4F6A
331
3554
  5
3D6C
331
2B7E
  5
2C29
331
379A
  5
5011
331
5013
  5
39AF
331
37A0
  5
5013
331
381A
  5
5027
331
5043
  5
3D64
331
3022
  5
3D45
331
37A6
  5
5015
331
2FF9
  5
3798
331
501F
  5
37A7
331
37AC
  5
5017
331
5068
  5
5319
331
2B7F
  5
2FF9
331
500E
  5
5024
331
5038
  5
271E
331
503E
  5
3D6E
331
381B
  5
5028
331
37E2
  5
501F
331
5033
  5
343A
331
3023
  5
3D46
331
37A7
  5
5016
331
37AD
  5
501B
331
5069
  5
531A
331
5050
  5
3D62
331
39AD
  5
502C
331
3804
  5
5025
331
355C
  5
3D70
331
2B88
  5
2FFB
331
2A4F
  5
2B7E
331
5028
  5
3573
331
500F
  5
5023
331
37DD
  5
501C
331
3B11
  5
506A
331
502E
  5
3547
331
301E
  5
39B3
331
5015
  5
39AD
331
37A2
  5
5014
331
5045
  5
3D65
331
5034
  5
3024
331
501B
  5
38BD
331
2FFB
  5
379A
331
3024
  5
3D47
331
343A
  5
3D48
331
506A
  5
531B
331
3805
  5
5026
331
26CD
  5
28ED
331
352E
  5
3D4B
331
5319
  5
37DF
331
3757
  5
500E
331
2B7B
  5
2B8A
331
5010
  5
5022
331
2A3D
  5
2A4C
331
379D
  5
5012
331
5029
  5
3562
331
381D
  5
5029
331
37E4
  5
5020
331
3530
  5
3D58
331
5035
  5
3023
331
504C
  5
3D5A
331
5052
  5
3D63
331
39AF
  5
502D
331
28ED
  5
2A45
331
3573
  5
3D72
331
2A45
  5
2A50
331
299C
  5
2A46
331
352F
  5
3D53
331
531A
  5
381B
331
3758
  5
500F
331
2B8A
  5
301E
331
3798
  5
5010
331
5011
  5
5021
331
37DF
  5
501E
331
3020
  5
39B4
331
38BC
  5
502A
331
2718
  5
2A3D
331
5036
  5
3022
331
5047
  5
3D67
  0
XRECORD
  5
570C
102
{ACAD_REACTORS
330
570B
102
}
330
570B
100
AcDbXrecord
280
     1
102
VISUALSTYLE
340
4FBB
102
GRIDDISPLAY
 70
     0
102
GRIDMAJOR
 70
     5
102
DEFAULTLIGHTING
280
     1
102
DEFAULTLIGHTINGTYPE
 70
     1
102
BRIGHTNESS
141
0.0
102
CONTRAST
142
0.0
102
SHADEPLOT
 70
     0
  0
XRECORD
  5
570E
102
{ACAD_REACTORS
330
570D
102
}
330
570D
100
AcDbXrecord
280
     1
102
VISUALSTYLE
340
4FBB
102
GRIDDISPLAY
 70
     0
102
GRIDMAJOR
 70
     5
102
DEFAULTLIGHTING
280
     1
102
DEFAULTLIGHTINGTYPE
 70
     1
102
BRIGHTNESS
141
0.0
102
CONTRAST
142
0.0
102
SHADEPLOT
 70
     0
  0
LAYOUT
  5
22
102
{ACAD_XDICTIONARY
360
5864
102
}
102
{ACAD_REACTORS
330
1A
102
}
330
1A
100
AcDbPlotSettings
  1

  2
\\APL01\HPLaserJet5100_Tech
  4
A4
  6

 40
5.027083396911621
 41
5.36573839187622
 42
5.746749877929687
 43
5.38690185546875
 44
209.9098358154297
 45
297.0318298339844
 46
0.0
 47
0.0
 48
548.6394787639016
 49
263.1106028382853
140
716.9187744422782
141
368.1838852636288
142
1.0
143
0.5878153278320934
 70
 11952
 72
     1
 73
     1
 74
     4
  7
A4 Specifier Manual.ctb
 75
     0
147
1.701214569698402
148
-548.6394787639016
149
-263.1106028382853
100
AcDbLayout
  1
Model
 70
     1
 71
     0
 10
0.0
 20
0.0
 11
12.0
 21
9.0
 12
0.0
 22
0.0
 32
0.0
 14
0.0
 24
0.0
 34
0.0
 15
0.0
 25
0.0
 35
0.0
146
0.0
 13
0.0
 23
0.0
 33
0.0
 16
1.0
 26
0.0
 36
0.0
 17
0.0
 27
1.0
 37
0.0
 76
     0
330
1F
  0
LAYOUT
  5
39D2
102
{ACAD_XDICTIONARY
360
3D42
102
}
102
{ACAD_REACTORS
330
1A
102
}
330
1A
100
AcDbPlotSettings
  1

  2
\\Aplfp01\APL Technical HP5100 PSLaser
  4
A4
  6

 40
5.027082920074462
 41
5.408084392547607
 42
5.70440673828125
 43
5.365753173828125
 44
209.8886566162109
 45
297.0530090332031
 46
0.0
 47
0.0
 48
0.0
 49
0.0
140
0.0
141
0.0
142
1.0
143
1.0
 70
   688
 72
     1
 73
     0
 74
     5
  7
A4 Specifier Manual.ctb
 75
    16
147
1.0
148
-11.58657583455169
149
-1.887041657726626
100
AcDbLayout
  1
Vantage A4
 70
     1
 71
     1
 10
6.559492914477232
 20
-3.52104273482098
 11
216.4481495306882
 21
293.5319662983821
 12
0.0
 22
0.0
 32
0.0
 14
23.17482469882509
 24
4.583370505175025
 34
-0.0015258207003583
 15
201.1939435889104
 25
279.5577478140557
 35
0.0000000349246037
146
0.0
 13
0.0
 23
0.0
 33
0.0
 16
1.0
 26
0.0
 36
0.0
 17
0.0
 27
1.0
 37
0.0
 76
     0
330
39C2
331
39C3
1001
ACAD_PSEXT
1000
\\Aplfp01\APL Technical HP5100 PSLaser
1000
HP LaserJet 5100 PS
1000
APL Technical Office
1000

1070
     0
  0
MATERIAL
  5
4FA5
102
{ACAD_XDICTIONARY
360
4FA6
102
}
102
{ACAD_REACTORS
330
3D12
102
}
330
3D12
100
AcDbMaterial
  1
ByBlock
 72
     0
 73
     2
 43
0.0008202099737533
 43
0.0
 43
0.0
 43
0.0
 43
0.0
 43
0.0008202099737533
 43
0.0
 43
0.0
 43
0.0
 43
0.0
 43
1.0
 43
0.0
 43
0.0
 43
0.0
 43
0.0
 43
1.0
 77
     0
 78
     2
 47
0.0008202099737533
 47
0.0
 47
0.0
 47
0.0
 47
0.0
 47
0.0008202099737533
 47
0.0
 47
0.0
 47
0.0
 47
0.0
 47
1.0
 47
0.0
 47
0.0
 47
0.0
 47
0.0
 47
1.0
171
     0
172
     2
 49
0.0008202099737533
 49
0.0
 49
0.0
 49
0.0
 49
0.0
 49
0.0008202099737533
 49
0.0
 49
0.0
 49
0.0
 49
0.0
 49
1.0
 49
0.0
 49
0.0
 49
0.0
 49
0.0
 49
1.0
175
     0
176
     2
142
0.0008202099737533
142
0.0
142
0.0
142
0.0
142
0.0
142
0.0008202099737533
142
0.0
142
0.0
142
0.0
142
0.0
142
1.0
142
0.0
142
0.0
142
0.0
142
0.0
142
1.0
179
     0
270
     2
144
0.0008202099737533
144
0.0
144
0.0
144
0.0
144
0.0
144
0.0008202099737533
144
0.0
144
0.0
144
0.0
144
0.0
144
1.0
144
0.0
144
0.0
144
0.0
144
0.0
144
1.0
274
     2
147
0.0008202099737533
147
0.0
147
0.0
147
0.0
147
0.0
147
0.0008202099737533
147
0.0
147
0.0
147
0.0
147
0.0
147
1.0
147
0.0
147
0.0
147
0.0
147
0.0
147
1.0
  0
MATERIAL
  5
4F9D
102
{ACAD_XDICTIONARY
360
4F9E
102
}
102
{ACAD_REACTORS
330
3D12
102
}
330
3D12
100
AcDbMaterial
  1
ByLayer
 72
     0
 73
     2
 43
0.0008202099737533
 43
0.0
 43
0.0
 43
0.0
 43
0.0
 43
0.0008202099737533
 43
0.0
 43
0.0
 43
0.0
 43
0.0
 43
1.0
 43
0.0
 43
0.0
 43
0.0
 43
0.0
 43
1.0
 77
     0
 78
     2
 47
0.0008202099737533
 47
0.0
 47
0.0
 47
0.0
 47
0.0
 47
0.0008202099737533
 47
0.0
 47
0.0
 47
0.0
 47
0.0
 47
1.0
 47
0.0
 47
0.0
 47
0.0
 47
0.0
 47
1.0
171
     0
172
     2
 49
0.0008202099737533
 49
0.0
 49
0.0
 49
0.0
 49
0.0
 49
0.0008202099737533
 49
0.0
 49
0.0
 49
0.0
 49
0.0
 49
1.0
 49
0.0
 49
0.0
 49
0.0
 49
0.0
 49
1.0
175
     0
176
     2
142
0.0008202099737533
142
0.0
142
0.0
142
0.0
142
0.0
142
0.0008202099737533
142
0.0
142
0.0
142
0.0
142
0.0
142
1.0
142
0.0
142
0.0
142
0.0
142
0.0
142
1.0
179
     0
270
     2
144
0.0008202099737533
144
0.0
144
0.0
144
0.0
144
0.0
144
0.0008202099737533
144
0.0
144
0.0
144
0.0
144
0.0
144
1.0
144
0.0
144
0.0
144
0.0
144
0.0
144
1.0
274
     2
147
0.0008202099737533
147
0.0
147
0.0
147
0.0
147
0.0
147
0.0008202099737533
147
0.0
147
0.0
147
0.0
147
0.0
147
1.0
147
0.0
147
0.0
147
0.0
147
0.0
147
1.0
  0
MATERIAL
  5
4FAD
102
{ACAD_XDICTIONARY
360
4FAE
102
}
102
{ACAD_REACTORS
330
3D12
102
}
330
3D12
100
AcDbMaterial
  1
Global
 72
     0
 73
     2
 43
0.0008202099737533
 43
0.0
 43
0.0
 43
0.0
 43
0.0
 43
0.0008202099737533
 43
0.0
 43
0.0
 43
0.0
 43
0.0
 43
1.0
 43
0.0
 43
0.0
 43
0.0
 43
0.0
 43
1.0
 77
     0
 78
     2
 47
0.0008202099737533
 47
0.0
 47
0.0
 47
0.0
 47
0.0
 47
0.0008202099737533
 47
0.0
 47
0.0
 47
0.0
 47
0.0
 47
1.0
 47
0.0
 47
0.0
 47
0.0
 47
0.0
 47
1.0
171
     0
172
     2
 49
0.0008202099737533
 49
0.0
 49
0.0
 49
0.0
 49
0.0
 49
0.0008202099737533
 49
0.0
 49
0.0
 49
0.0
 49
0.0
 49
1.0
 49
0.0
 49
0.0
 49
0.0
 49
0.0
 49
1.0
175
     0
176
     2
142
0.0008202099737533
142
0.0
142
0.0
142
0.0
142
0.0
142
0.0008202099737533
142
0.0
142
0.0
142
0.0
142
0.0
142
1.0
142
0.0
142
0.0
142
0.0
142
0.0
142
1.0
179
     0
270
     2
144
0.0008202099737533
144
0.0
144
0.0
144
0.0
144
0.0
144
0.0008202099737533
144
0.0
144
0.0
144
0.0
144
0.0
144
1.0
144
0.0
144
0.0
144
0.0
144
0.0
144
1.0
274
     2
147
0.0008202099737533
147
0.0
147
0.0
147
0.0
147
0.0
147
0.0008202099737533
147
0.0
147
0.0
147
0.0
147
0.0
147
1.0
147
0.0
147
0.0
147
0.0
147
0.0
147
1.0
  0
ACAD_PROXY_OBJECT
  5
56BB
102
{ACAD_REACTORS
330
4FE8
102
}
330
4FE8
100
AcDbProxyObject
 90
      499
 91
      528
 95
   983063
 70
     0
 93
      618
310
40901902A4063FBFFFFFE000000000000002040AD7A3703D0AD73F4254DD185B99185C99000000000000000104090141901A00000000000004100000000000000041025764000000000000300FFA
340
14
340
0
340
11
340
0
 94
        0
1001
ACAD_MLEADERVER
1070
     2
1001
ACAD
1000
AcRTDxfName
1000
MLEADERSTYLE
1000
AcRTDxfName
1000
MLEADERSTYLE
1000
AcRTDxfName
1000
MLEADERSTYLE
1000
AcRTDxfName
1000
MLEADERSTYLE
1000
AcRTDxfName
1000
MLEADERSTYLE
  0
MLINESTYLE
  5
18
102
{ACAD_REACTORS
330
17
102
}
330
17
100
AcDbMlineStyle
  2
STANDARD
 70
     0
  3

 62
   256
 51
90.0
 52
90.0
 71
     2
 49
0.5
 62
   256
  6
BYLAYER
 49
-0.5
 62
   256
  6
BYLAYER
  0
PLOTSETTINGS
  5
36DE
102
{ACAD_XDICTIONARY
360
5866
102
}
102
{ACAD_REACTORS
330
19
102
}
330
19
100
AcDbPlotSettings
  1
A4 Specifier Manual Hardcopy
  2
A4 Specifier Manual.pc3
  4
A4
  6

 40
6.0
 41
5.0
 42
6.97332763671875
 43
5.96832275390625
 44
209.9733276367187
 45
296.9683227539062
 46
10.5
 47
-1.0
 48
55.19893561856474
 49
77.41415496436935
140
329.6878846931311
141
251.7976535946928
142
1.0
143
2.0
 70
  1712
 72
     1
 73
     0
 74
     1
  7
A4 specifier manual.ctb
 75
    17
147
0.5
148
2.225667800726114
149
26.13925412475783
  0
PLOTSETTINGS
  5
36DF
102
{ACAD_XDICTIONARY
360
5868
102
}
102
{ACAD_REACTORS
330
19
102
}
330
19
100
AcDbPlotSettings
  1
A4 Specifier Manual PDF
  2
Acrobat Distiller.pc3
  4
A4
  6

 40
3.174999952316284
 41
3.174999952316284
 42
3.175003051757812
 43
3.17498779296875
 44
209.9098358154297
 45
297.0318298339844
 46
12.0
 47
3.0
 48
55.19893561856474
 49
77.41415496436935
140
329.6878846931311
141
251.7976535946928
142
1.0
143
2.0
 70
  1712
 72
     1
 73
     0
 74
     1
  7
A4 Specifier Manual.ctb
 75
    17
147
0.5
148
2.231438335389952
149
26.15846035871732
  0
ACDBPLACEHOLDER
  5
F
102
{ACAD_REACTORS
330
E
102
}
330
E
  0
ACAD_PROXY_OBJECT
  5
4FC7
102
{ACAD_REACTORS
330
4FC6
102
}
330
4FC6
100
AcDbProxyObject
 90
      499
 91
      527
 95
   983063
 70
     0
 93
       49
310
904313A3100580
 94
        0
1001
ACAD
1000
AcRTDxfName
1000
SCALE
1000
AcRTDxfName
1000
SCALE
1000
AcRTDxfName
1000
SCALE
1000
AcRTDxfName
1000
SCALE
1000
AcRTDxfName
1000
SCALE
1000
AcRTDxfName
1000
SCALE
1000
AcRTDxfName
1000
SCALE
  0
ACAD_PROXY_OBJECT
  5
4FC8
102
{ACAD_REACTORS
330
4FC6
102
}
330
4FC6
100
AcDbProxyObject
 90
      499
 91
      527
 95
   983063
 70
     0
 93
      113
310
904313A32004000000000000004040
 94
        0
1001
ACAD
1000
AcRTDxfName
1000
SCALE
1000
AcRTDxfName
1000
SCALE
1000
AcRTDxfName
1000
SCALE
1000
AcRTDxfName
1000
SCALE
1000
AcRTDxfName
1000
SCALE
1000
AcRTDxfName
1000
SCALE
1000
AcRTDxfName
1000
SCALE
  0
ACAD_PROXY_OBJECT
  5
4FC9
102
{ACAD_REACTORS
330
4FC6
102
}
330
4FC6
100
AcDbProxyObject
 90
      499
 91
      527
 95
   983063
 70
     0
 93
      113
310
904313A34004000000000000104040
 94
        0
1001
ACAD
1000
AcRTDxfName
1000
SCALE
1000
AcRTDxfName
1000
SCALE
1000
AcRTDxfName
1000
SCALE
1000
AcRTDxfName
1000
SCALE
1000
AcRTDxfName
1000
SCALE
1000
AcRTDxfName
1000
SCALE
1000
AcRTDxfName
1000
SCALE
  0
ACAD_PROXY_OBJECT
  5
4FCA
102
{ACAD_REACTORS
330
4FC6
102
}
330
4FC6
100
AcDbProxyObject
 90
      499
 91
      527
 95
   983063
 70
     0
 93
      113
310
904313A35004000000000000144040
 94
        0
1001
ACAD
1000
AcRTDxfName
1000
SCALE
1000
AcRTDxfName
1000
SCALE
1000
AcRTDxfName
1000
SCALE
1000
AcRTDxfName
1000
SCALE
1000
AcRTDxfName
1000
SCALE
1000
AcRTDxfName
1000
SCALE
1000
AcRTDxfName
1000
SCALE
  0
ACAD_PROXY_OBJECT
  5
4FCB
102
{ACAD_REACTORS
330
4FC6
102
}
330
4FC6
100
AcDbProxyObject
 90
      499
 91
      527
 95
   983063
 70
     0
 93
      113
310
904313A38004000000000000204040
 94
        0
1001
ACAD
1000
AcRTDxfName
1000
SCALE
1000
AcRTDxfName
1000
SCALE
1000
AcRTDxfName
1000
SCALE
1000
AcRTDxfName
1000
SCALE
1000
AcRTDxfName
1000
SCALE
1000
AcRTDxfName
1000
SCALE
1000
AcRTDxfName
1000
SCALE
  0
ACAD_PROXY_OBJECT
  5
4FCC
102
{ACAD_REACTORS
330
4FC6
102
}
330
4FC6
100
AcDbProxyObject
 90
      499
 91
      527
 95
   983063
 70
     0
 93
      121
310
905313A3130004000000000000244000
 94
        0
1001
ACAD
1000
AcRTDxfName
1000
SCALE
1000
AcRTDxfName
1000
SCALE
1000
AcRTDxfName
1000
SCALE
1000
AcRTDxfName
1000
SCALE
1000
AcRTDxfName
1000
SCALE
1000
AcRTDxfName
1000
SCALE
1000
AcRTDxfName
1000
SCALE
  0
ACAD_PROXY_OBJECT
  5
4FCD
102
{ACAD_REACTORS
330
4FC6
102
}
330
4FC6
100
AcDbProxyObject
 90
      499
 91
      527
 95
   983063
 70
     0
 93
      121
310
905313A3136004000000000000304040
 94
        0
1001
ACAD
1000
AcRTDxfName
1000
SCALE
1000
AcRTDxfName
1000
SCALE
1000
AcRTDxfName
1000
SCALE
1000
AcRTDxfName
1000
SCALE
1000
AcRTDxfName
1000
SCALE
1000
AcRTDxfName
1000
SCALE
1000
AcRTDxfName
1000
SCALE
  0
ACAD_PROXY_OBJECT
  5
4FCE
102
{ACAD_REACTORS
330
4FC6
102
}
330
4FC6
100
AcDbProxyObject
 90
      499
 91
      527
 95
   983063
 70
     0
 93
      121
310
905313A3230004000000000000344000
 94
        0
1001
ACAD
1000
AcRTDxfName
1000
SCALE
1000
AcRTDxfName
1000
SCALE
1000
AcRTDxfName
1000
SCALE
1000
AcRTDxfName
1000
SCALE
1000
AcRTDxfName
1000
SCALE
1000
AcRTDxfName
1000
SCALE
1000
AcRTDxfName
1000
SCALE
  0
ACAD_PROXY_OBJECT
  5
4FCF
102
{ACAD_REACTORS
330
4FC6
102
}
330
4FC6
100
AcDbProxyObject
 90
      499
 91
      527
 95
   983063
 70
     0
 93
      121
310
905313A33300040000000000003E4040
 94
        0
1001
ACAD
1000
AcRTDxfName
1000
SCALE
1000
AcRTDxfName
1000
SCALE
1000
AcRTDxfName
1000
SCALE
1000
AcRTDxfName
1000
SCALE
1000
AcRTDxfName
1000
SCALE
1000
AcRTDxfName
1000
SCALE
1000
AcRTDxfName
1000
SCALE
  0
ACAD_PROXY_OBJECT
  5
4FD0
102
{ACAD_REACTORS
330
4FC6
102
}
330
4FC6
100
AcDbProxyObject
 90
      499
 91
      527
 95
   983063
 70
     0
 93
      121
310
905313A3430004000000000000444000
 94
        0
1001
ACAD
1000
AcRTDxfName
1000
SCALE
1000
AcRTDxfName
1000
SCALE
1000
AcRTDxfName
1000
SCALE
1000
AcRTDxfName
1000
SCALE
1000
AcRTDxfName
1000
SCALE
1000
AcRTDxfName
1000
SCALE
1000
AcRTDxfName
1000
SCALE
  0
ACAD_PROXY_OBJECT
  5
4FD1
102
{ACAD_REACTORS
330
4FC6
102
}
330
4FC6
100
AcDbProxyObject
 90
      499
 91
      527
 95
   983063
 70
     0
 93
      121
310
905313A3530004000000000000494001
 94
        0
1001
ACAD
1000
AcRTDxfName
1000
SCALE
1000
AcRTDxfName
1000
SCALE
1000
AcRTDxfName
1000
SCALE
1000
AcRTDxfName
1000
SCALE
1000
AcRTDxfName
1000
SCALE
1000
AcRTDxfName
1000
SCALE
1000
AcRTDxfName
1000
SCALE
  0
ACAD_PROXY_OBJECT
  5
4FD2
102
{ACAD_REACTORS
330
4FC6
102
}
330
4FC6
100
AcDbProxyObject
 90
      499
 91
      527
 95
   983063
 70
     0
 93
      129
310
906313A313030004000000000000594000
 94
        0
1001
ACAD
1000
AcRTDxfName
1000
SCALE
1000
AcRTDxfName
1000
SCALE
1000
AcRTDxfName
1000
SCALE
1000
AcRTDxfName
1000
SCALE
1000
AcRTDxfName
1000
SCALE
1000
AcRTDxfName
1000
SCALE
1000
AcRTDxfName
1000
SCALE
  0
ACAD_PROXY_OBJECT
  5
4FD3
102
{ACAD_REACTORS
330
4FC6
102
}
330
4FC6
100
AcDbProxyObject
 90
      499
 91
      527
 95
   983063
 70
     0
 93
      113
310
904323A31000000000000000010165
 94
        0
1001
ACAD
1000
AcRTDxfName
1000
SCALE
1000
AcRTDxfName
1000
SCALE
1000
AcRTDxfName
1000
SCALE
1000
AcRTDxfName
1000
SCALE
1000
AcRTDxfName
1000
SCALE
1000
AcRTDxfName
1000
SCALE
1000
AcRTDxfName
1000
SCALE
  0
ACAD_PROXY_OBJECT
  5
4FD4
102
{ACAD_REACTORS
330
4FC6
102
}
330
4FC6
100
AcDbProxyObject
 90
      499
 91
      527
 95
   983063
 70
     0
 93
      113
310
904343A31000000000000000410101
 94
        0
1001
ACAD
1000
AcRTDxfName
1000
SCALE
1000
AcRTDxfName
1000
SCALE
1000
AcRTDxfName
1000
SCALE
1000
AcRTDxfName
1000
SCALE
1000
AcRTDxfName
1000
SCALE
1000
AcRTDxfName
1000
SCALE
1000
AcRTDxfName
1000
SCALE
  0
ACAD_PROXY_OBJECT
  5
4FD5
102
{ACAD_REACTORS
330
4FC6
102
}
330
4FC6
100
AcDbProxyObject
 90
      499
 91
      527
 95
   983063
 70
     0
 93
      113
310
904383A31000000000000000810165
 94
        0
1001
ACAD
1000
AcRTDxfName
1000
SCALE
1000
AcRTDxfName
1000
SCALE
1000
AcRTDxfName
1000
SCALE
1000
AcRTDxfName
1000
SCALE
1000
AcRTDxfName
1000
SCALE
1000
AcRTDxfName
1000
SCALE
1000
AcRTDxfName
1000
SCALE
  0
ACAD_PROXY_OBJECT
  5
4FD6
102
{ACAD_REACTORS
330
4FC6
102
}
330
4FC6
100
AcDbProxyObject
 90
      499
 91
      527
 95
   983063
 70
     0
 93
      121
310
90531303A31000000000000000910120
 94
        0
1001
ACAD
1000
AcRTDxfName
1000
SCALE
1000
AcRTDxfName
1000
SCALE
1000
AcRTDxfName
1000
SCALE
1000
AcRTDxfName
1000
SCALE
1000
AcRTDxfName
1000
SCALE
1000
AcRTDxfName
1000
SCALE
1000
AcRTDxfName
1000
SCALE
  0
ACAD_PROXY_OBJECT
  5
4FD7
102
{ACAD_REACTORS
330
4FC6
102
}
330
4FC6
100
AcDbProxyObject
 90
      499
 91
      527
 95
   983063
 70
     0
 93
      129
310
9063130303A31000000000000001650100
 94
        0
1001
ACAD
1000
AcRTDxfName
1000
SCALE
1000
AcRTDxfName
1000
SCALE
1000
AcRTDxfName
1000
SCALE
1000
AcRTDxfName
1000
SCALE
1000
AcRTDxfName
1000
SCALE
1000
AcRTDxfName
1000
SCALE
1000
AcRTDxfName
1000
SCALE
  0
ACAD_PROXY_OBJECT
  5
4FD8
102
{ACAD_REACTORS
330
4FC6
102
}
330
4FC6
100
AcDbProxyObject
 90
      499
 91
      527
 95
   983063
 70
     0
 93
      265
310
90F312F31323822203D2031272D302200000000000000200FC000000000000284000
 94
        0
1001
ACAD
1000
AcRTDxfName
1000
SCALE
1000
AcRTDxfName
1000
SCALE
1000
AcRTDxfName
1000
SCALE
1000
AcRTDxfName
1000
SCALE
1000
AcRTDxfName
1000
SCALE
1000
AcRTDxfName
1000
SCALE
1000
AcRTDxfName
1000
SCALE
  0
ACAD_PROXY_OBJECT
  5
4FD9
102
{ACAD_REACTORS
330
4FC6
102
}
330
4FC6
100
AcDbProxyObject
 90
      499
 91
      527
 95
   983063
 70
     0
 93
      257
310
90E312F363422203D2031272D302200000000000000240FC000000000000284062
 94
        0
1001
ACAD
1000
AcRTDxfName
1000
SCALE
1000
AcRTDxfName
1000
SCALE
1000
AcRTDxfName
1000
SCALE
1000
AcRTDxfName
1000
SCALE
1000
AcRTDxfName
1000
SCALE
1000
AcRTDxfName
1000
SCALE
1000
AcRTDxfName
1000
SCALE
  0
ACAD_PROXY_OBJECT
  5
4FDA
102
{ACAD_REACTORS
330
4FC6
102
}
330
4FC6
100
AcDbProxyObject
 90
      499
 91
      527
 95
   983063
 70
     0
 93
      257
310
90E312F333222203D2031272D302200000000000000280FC000000000000284016
 94
        0
1001
ACAD
1000
AcRTDxfName
1000
SCALE
1000
AcRTDxfName
1000
SCALE
1000
AcRTDxfName
1000
SCALE
1000
AcRTDxfName
1000
SCALE
1000
AcRTDxfName
1000
SCALE
1000
AcRTDxfName
1000
SCALE
1000
AcRTDxfName
1000
SCALE
  0
ACAD_PROXY_OBJECT
  5
4FDB
102
{ACAD_REACTORS
330
4FC6
102
}
330
4FC6
100
AcDbProxyObject
 90
      499
 91
      527
 95
   983063
 70
     0
 93
      257
310
90E312F313622203D2031272D3022000000000000002C0FC000000000000284062
 94
        0
1001
ACAD
1000
AcRTDxfName
1000
SCALE
1000
AcRTDxfName
1000
SCALE
1000
AcRTDxfName
1000
SCALE
1000
AcRTDxfName
1000
SCALE
1000
AcRTDxfName
1000
SCALE
1000
AcRTDxfName
1000
SCALE
1000
AcRTDxfName
1000
SCALE
  0
ACAD_PROXY_OBJECT
  5
4FDC
102
{ACAD_REACTORS
330
4FC6
102
}
330
4FC6
100
AcDbProxyObject
 90
      499
 91
      527
 95
   983063
 70
     0
 93
      257
310
90E332F333222203D2031272D3022000000000000002E0FC000000000000284016
 94
        0
1001
ACAD
1000
AcRTDxfName
1000
SCALE
1000
AcRTDxfName
1000
SCALE
1000
AcRTDxfName
1000
SCALE
1000
AcRTDxfName
1000
SCALE
1000
AcRTDxfName
1000
SCALE
1000
AcRTDxfName
1000
SCALE
1000
AcRTDxfName
1000
SCALE
  0
ACAD_PROXY_OBJECT
  5
4FDD
102
{ACAD_REACTORS
330
4FC6
102
}
330
4FC6
100
AcDbProxyObject
 90
      499
 91
      527
 95
   983063
 70
     0
 93
      249
310
90D312F3822203D2031272D302200000000000000300FC000000000000284062
 94
        0
1001
ACAD
1000
AcRTDxfName
1000
SCALE
1000
AcRTDxfName
1000
SCALE
1000
AcRTDxfName
1000
SCALE
1000
AcRTDxfName
1000
SCALE
1000
AcRTDxfName
1000
SCALE
1000
AcRTDxfName
1000
SCALE
1000
AcRTDxfName
1000
SCALE
  0
ACAD_PROXY_OBJECT
  5
4FDE
102
{ACAD_REACTORS
330
4FC6
102
}
330
4FC6
100
AcDbProxyObject
 90
      499
 91
      527
 95
   983063
 70
     0
 93
      257
310
90E332F313622203D2031272D302200000000000000320FC000000000000284016
 94
        0
1001
ACAD
1000
AcRTDxfName
1000
SCALE
1000
AcRTDxfName
1000
SCALE
1000
AcRTDxfName
1000
SCALE
1000
AcRTDxfName
1000
SCALE
1000
AcRTDxfName
1000
SCALE
1000
AcRTDxfName
1000
SCALE
1000
AcRTDxfName
1000
SCALE
  0
ACAD_PROXY_OBJECT
  5
4FDF
102
{ACAD_REACTORS
330
4FC6
102
}
330
4FC6
100
AcDbProxyObject
 90
      499
 91
      527
 95
   983063
 70
     0
 93
      249
310
90D312F3422203D2031272D302200000000000000340FC000000000000284062
 94
        0
1001
ACAD
1000
AcRTDxfName
1000
SCALE
1000
AcRTDxfName
1000
SCALE
1000
AcRTDxfName
1000
SCALE
1000
AcRTDxfName
1000
SCALE
1000
AcRTDxfName
1000
SCALE
1000
AcRTDxfName
1000
SCALE
1000
AcRTDxfName
1000
SCALE
  0
ACAD_PROXY_OBJECT
  5
4FE0
102
{ACAD_REACTORS
330
4FC6
102
}
330
4FC6
100
AcDbProxyObject
 90
      499
 91
      527
 95
   983063
 70
     0
 93
      249
310
90D332F3822203D2031272D302200000000000000360FC000000000000284040
 94
        0
1001
ACAD
1000
AcRTDxfName
1000
SCALE
1000
AcRTDxfName
1000
SCALE
1000
AcRTDxfName
1000
SCALE
1000
AcRTDxfName
1000
SCALE
1000
AcRTDxfName
1000
SCALE
1000
AcRTDxfName
1000
SCALE
1000
AcRTDxfName
1000
SCALE
  0
ACAD_PROXY_OBJECT
  5
4FE1
102
{ACAD_REACTORS
330
4FC6
102
}
330
4FC6
100
AcDbProxyObject
 90
      499
 91
      527
 95
   983063
 70
     0
 93
      249
310
90D312F3222203D2031272D302200000000000000380FC000000000000284062
 94
        0
1001
ACAD
1000
AcRTDxfName
1000
SCALE
1000
AcRTDxfName
1000
SCALE
1000
AcRTDxfName
1000
SCALE
1000
AcRTDxfName
1000
SCALE
1000
AcRTDxfName
1000
SCALE
1000
AcRTDxfName
1000
SCALE
1000
AcRTDxfName
1000
SCALE
  0
ACAD_PROXY_OBJECT
  5
4FE2
102
{ACAD_REACTORS
330
4FC6
102
}
330
4FC6
100
AcDbProxyObject
 90
      499
 91
      527
 95
   983063
 70
     0
 93
      249
310
90D332F3422203D2031272D3022000000000000003A0FC000000000000284040
 94
        0
1001
ACAD
1000
AcRTDxfName
1000
SCALE
1000
AcRTDxfName
1000
SCALE
1000
AcRTDxfName
1000
SCALE
1000
AcRTDxfName
1000
SCALE
1000
AcRTDxfName
1000
SCALE
1000
AcRTDxfName
1000
SCALE
1000
AcRTDxfName
1000
SCALE
  0
ACAD_PROXY_OBJECT
  5
4FE3
102
{ACAD_REACTORS
330
4FC6
102
}
330
4FC6
100
AcDbProxyObject
 90
      499
 91
      527
 95
   983063
 70
     0
 93
      169
310
90B3122203D2031272D3022004000000000000284000
 94
        0
1001
ACAD
1000
AcRTDxfName
1000
SCALE
1000
AcRTDxfName
1000
SCALE
1000
AcRTDxfName
1000
SCALE
1000
AcRTDxfName
1000
SCALE
1000
AcRTDxfName
1000
SCALE
1000
AcRTDxfName
1000
SCALE
1000
AcRTDxfName
1000
SCALE
  0
ACAD_PROXY_OBJECT
  5
4FE4
102
{ACAD_REACTORS
330
4FC6
102
}
330
4FC6
100
AcDbProxyObject
 90
      499
 91
      527
 95
   983063
 70
     0
 93
      265
310
90F312D312F3222203D2031272D3022000000000000003E0FC000000000000284018
 94
        0
1001
ACAD
1000
AcRTDxfName
1000
SCALE
1000
AcRTDxfName
1000
SCALE
1000
AcRTDxfName
1000
SCALE
1000
AcRTDxfName
1000
SCALE
1000
AcRTDxfName
1000
SCALE
1000
AcRTDxfName
1000
SCALE
1000
AcRTDxfName
1000
SCALE
  0
ACAD_PROXY_OBJECT
  5
4FE5
102
{ACAD_REACTORS
330
4FC6
102
}
330
4FC6
100
AcDbProxyObject
 90
      499
 91
      527
 95
   983063
 70
     0
 93
      233
310
90B3322203D2031272D30220000000000000002100000000000000284000
 94
        0
1001
ACAD
1000
AcRTDxfName
1000
SCALE
1000
AcRTDxfName
1000
SCALE
1000
AcRTDxfName
1000
SCALE
1000
AcRTDxfName
1000
SCALE
1000
AcRTDxfName
1000
SCALE
1000
AcRTDxfName
1000
SCALE
1000
AcRTDxfName
1000
SCALE
  0
ACAD_PROXY_OBJECT
  5
4FE6
102
{ACAD_REACTORS
330
4FC6
102
}
330
4FC6
100
AcDbProxyObject
 90
      499
 91
      527
 95
   983063
 70
     0
 93
      233
310
90B3622203D2031272D3022000000000000000610000000000000028405D
 94
        0
1001
ACAD
1000
AcRTDxfName
1000
SCALE
1000
AcRTDxfName
1000
SCALE
1000
AcRTDxfName
1000
SCALE
1000
AcRTDxfName
1000
SCALE
1000
AcRTDxfName
1000
SCALE
1000
AcRTDxfName
1000
SCALE
1000
AcRTDxfName
1000
SCALE
  0
ACAD_PROXY_OBJECT
  5
4FE7
102
{ACAD_REACTORS
330
4FC6
102
}
330
4FC6
100
AcDbProxyObject
 90
      499
 91
      527
 95
   983063
 70
     0
 93
      257
310
90E31272D3022203D2031272D3022000000000000000A100000000000000284016
 94
        0
1001
ACAD
1000
AcRTDxfName
1000
SCALE
1000
AcRTDxfName
1000
SCALE
1000
AcRTDxfName
1000
SCALE
1000
AcRTDxfName
1000
SCALE
1000
AcRTDxfName
1000
SCALE
1000
AcRTDxfName
1000
SCALE
1000
AcRTDxfName
1000
SCALE
  0
TABLESTYLE
  5
3D15
102
{ACAD_XDICTIONARY
360
51E8
102
}
102
{ACAD_REACTORS
330
3D14
102
}
330
3D14
100
AcDbTableStyle
  3
Standard
 70
     0
 71
     0
 40
1.5
 41
1.5
280
     0
281
     0
  7
Standard
140
4.5
170
     2
 62
     0
 63
     7
283
     0
274
    -2
284
     1
 64
     0
275
    -2
285
     1
 65
     0
276
    -2
286
     1
 66
     0
277
    -2
287
     1
 67
     0
278
    -2
288
     1
 68
     0
279
    -2
289
     1
 69
     0
  7
Standard
140
6.0
170
     5
 62
     0
 63
     7
283
     0
274
    -2
284
     1
 64
     0
275
    -2
285
     1
 65
     0
276
    -2
286
     1
 66
     0
277
    -2
287
     1
 67
     0
278
    -2
288
     1
 68
     0
279
    -2
289
     1
 69
     0
  7
Standard
140
4.5
170
     5
 62
     0
 63
     7
283
     0
274
    -2
284
     1
 64
     0
275
    -2
285
     1
 65
     0
276
    -2
286
     1
 66
     0
277
    -2
287
     1
 67
     0
278
    -2
288
     1
 68
     0
279
    -2
289
     1
 69
     0
  0
ACAD_PROXY_OBJECT
  5
4FBB
102
{ACAD_REACTORS
330
4FB5
102
}
330
4FB5
100
AcDbProxyObject
 90
      499
 91
      526
 95
   983063
 70
     0
 93
      444
310
430C9915DA5C99599C985B59401049028333333333333E3BF0000000000000FB0107901411070040501600405405064090741402480A0340
 94
        0
1001
ACAD
1000
AcRTDxfName
1000
VISUALSTYLE
1000
AcRTDxfName
1000
VISUALSTYLE
1000
AcDbSavedByObjectVersion
1070
     0
1000
AcRTDxfName
1000
VISUALSTYLE
1000
AcRTDxfName
1000
VISUALSTYLE
1000
AcRTDxfName
1000
VISUALSTYLE
1000
AcRTDxfName
1000
VISUALSTYLE
1000
AcRTDxfName
1000
VISUALSTYLE
  0
ACAD_PROXY_OBJECT
  5
4FBD
102
{ACAD_REACTORS
330
4FB5
102
}
330
4FB5
100
AcDbProxyObject
 90
      499
 91
      526
 95
   983063
 70
     0
 93
      508
310
428CD108121A5919195B8010640502408333333333333E3BF0000000000000FB01079024090700405020000000000001110200405405064090740C02480A034C
 94
        0
1001
ACAD
1000
AcRTDxfName
1000
VISUALSTYLE
1000
AcRTDxfName
1000
VISUALSTYLE
1000
AcDbSavedByObjectVersion
1070
     0
1000
AcRTDxfName
1000
VISUALSTYLE
1000
AcRTDxfName
1000
VISUALSTYLE
1000
AcRTDxfName
1000
VISUALSTYLE
1000
AcRTDxfName
1000
VISUALSTYLE
1000
AcRTDxfName
1000
VISUALSTYLE
  0
ACAD_PROXY_OBJECT
  5
4FBC
102
{ACAD_REACTORS
330
4FB5
102
}
330
4FB5
100
AcDbProxyObject
 90
      499
 91
      526
 95
   983063
 70
     0
 93
      444
310
430CD915DA5C99599C985B59401059028333333333333E3BF0000000000000FB0107901411070040501600405405064090741402480A0340
 94
        0
1001
ACAD
1000
AcRTDxfName
1000
VISUALSTYLE
1000
AcRTDxfName
1000
VISUALSTYLE
1000
AcDbSavedByObjectVersion
1070
     0
1000
AcRTDxfName
1000
VISUALSTYLE
1000
AcRTDxfName
1000
VISUALSTYLE
1000
AcRTDxfName
1000
VISUALSTYLE
1000
AcRTDxfName
1000
VISUALSTYLE
1000
AcRTDxfName
1000
VISUALSTYLE
  0
ACAD_PROXY_OBJECT
  5
4FBA
102
{ACAD_REACTORS
330
4FB5
102
}
330
4FB5
100
AcDbProxyObject
 90
      499
 91
      526
 95
   983063
 70
     0
 93
      396
310
4190985CDA58C0107406404333333333333E3BF0000000000000FB0107A41107004050150841D405064090741402480A0354
 94
        0
1001
ACAD
1000
AcRTDxfName
1000
VISUALSTYLE
1000
AcRTDxfName
1000
VISUALSTYLE
1000
AcDbSavedByObjectVersion
1070
     0
1000
AcRTDxfName
1000
VISUALSTYLE
1000
AcRTDxfName
1000
VISUALSTYLE
1000
AcRTDxfName
1000
VISUALSTYLE
1000
AcRTDxfName
1000
VISUALSTYLE
1000
AcRTDxfName
1000
VISUALSTYLE
  0
ACAD_PROXY_OBJECT
  5
4FC1
102
{ACAD_REACTORS
330
4FB5
102
}
330
4FB5
100
AcDbProxyObject
 90
      499
 91
      526
 95
   983063
 70
     0
 93
      436
310
42509C9A59DA1D195B8010C409028333333333333E3BF0000000000000FB010790141107004050150841D405064090741402480A02995A
 94
        0
1001
ACAD
1000
AcRTDxfName
1000
VISUALSTYLE
1000
AcRTDxfName
1000
VISUALSTYLE
1000
AcDbSavedByObjectVersion
1070
     0
1000
AcRTDxfName
1000
VISUALSTYLE
1000
AcRTDxfName
1000
VISUALSTYLE
1000
AcRTDxfName
1000
VISUALSTYLE
1000
AcRTDxfName
1000
VISUALSTYLE
1000
AcRTDxfName
1000
VISUALSTYLE
  0
ACAD_PROXY_OBJECT
  5
4FC5
102
{ACAD_REACTORS
330
4FB5
102
}
330
4FB5
100
AcDbProxyObject
 90
      499
 91
      526
 95
   983063
 70
     0
 93
      460
310
4310DBDB1BDC90DA185B99D9401104090240C333333333333E3BF0000000000000FB0108901411070040501508421405064090741402480A0352
 94
        0
1001
ACAD
1000
AcRTDxfName
1000
VISUALSTYLE
1000
AcRTDxfName
1000
VISUALSTYLE
1000
AcDbSavedByObjectVersion
1070
     0
1000
AcRTDxfName
1000
VISUALSTYLE
1000
AcRTDxfName
1000
VISUALSTYLE
1000
AcRTDxfName
1000
VISUALSTYLE
1000
AcRTDxfName
1000
VISUALSTYLE
1000
AcRTDxfName
1000
VISUALSTYLE
  0
ACAD_PROXY_OBJECT
  5
4FBE
102
{ACAD_REACTORS
330
4FB5
102
}
330
4FB5
100
AcDbProxyObject
 90
      499
 91
      526
 95
   983063
 70
     0
 93
      508
310
42D0DBDB98D95C1D1D585B0010940D028333333333333E3BF0000000000000FB0107902409070040501000000000000111010841D405064090740C02480A0342
 94
        0
1001
ACAD
1000
AcRTDxfName
1000
VISUALSTYLE
1000
AcRTDxfName
1000
VISUALSTYLE
1000
AcDbSavedByObjectVersion
1070
     0
1000
AcRTDxfName
1000
VISUALSTYLE
1000
AcRTDxfName
1000
VISUALSTYLE
1000
AcRTDxfName
1000
VISUALSTYLE
1000
AcRTDxfName
1000
VISUALSTYLE
1000
AcRTDxfName
1000
VISUALSTYLE
  0
ACAD_PROXY_OBJECT
  5
4FC0
102
{ACAD_REACTORS
330
4FB5
102
}
330
4FB5
100
AcDbProxyObject
 90
      499
 91
      526
 95
   983063
 70
     0
 93
      420
310
41111A5B4010B409028333333333333E3BF0000000000000FB010790141107004050150841D405064090741402480A02677FFFFFD2
 94
        0
1001
ACAD
1000
AcRTDxfName
1000
VISUALSTYLE
1000
AcRTDxfName
1000
VISUALSTYLE
1000
AcDbSavedByObjectVersion
1070
     0
1000
AcRTDxfName
1000
VISUALSTYLE
1000
AcRTDxfName
1000
VISUALSTYLE
1000
AcRTDxfName
1000
VISUALSTYLE
1000
AcRTDxfName
1000
VISUALSTYLE
1000
AcRTDxfName
1000
VISUALSTYLE
  0
ACAD_PROXY_OBJECT
  5
4FC4
102
{ACAD_REACTORS
330
4FB5
102
}
330
4FB5
100
AcDbProxyObject
 90
      499
 91
      526
 95
   983063
 70
     0
 93
      452
310
43119858D95C185D1D195C9B8010F409028333333333333E3BF0000000000000FB010790141107004050150841D405064090741402480A0353
 94
        0
1001
ACAD
1000
AcRTDxfName
1000
VISUALSTYLE
1000
AcRTDxfName
1000
VISUALSTYLE
1000
AcDbSavedByObjectVersion
1070
     0
1000
AcRTDxfName
1000
VISUALSTYLE
1000
AcRTDxfName
1000
VISUALSTYLE
1000
AcRTDxfName
1000
VISUALSTYLE
1000
AcRTDxfName
1000
VISUALSTYLE
1000
AcRTDxfName
1000
VISUALSTYLE
  0
ACAD_PROXY_OBJECT
  5
4FB6
102
{ACAD_REACTORS
330
4FB5
102
}
330
4FB5
100
AcDbProxyObject
 90
      499
 91
      526
 95
   983063
 70
     0
 93
      396
310
41519B185D00240901404333333333333E3BF0000000000000F9010740A41107004050150841D405064090741402480A1B58
 94
        0
1001
ACAD
1000
AcRTDxfName
1000
VISUALSTYLE
1000
AcRTDxfName
1000
VISUALSTYLE
1000
AcDbSavedByObjectVersion
1070
     0
1000
AcRTDxfName
1000
VISUALSTYLE
1000
AcRTDxfName
1000
VISUALSTYLE
1000
AcRTDxfName
1000
VISUALSTYLE
1000
AcRTDxfName
1000
VISUALSTYLE
1000
AcRTDxfName
1000
VISUALSTYLE
  0
ACAD_PROXY_OBJECT
  5
4FB7
102
{ACAD_REACTORS
330
4FB5
102
}
330
4FB5
100
AcDbProxyObject
 90
      499
 91
      526
 95
   983063
 70
     0
 93
      484
310
43919B185D15DA5D1A115919D95CC010140901404333333333333E3BF0000000000000F9010740901411070040501600405405064090741402480A1B58
 94
        0
1001
ACAD
1000
AcRTDxfName
1000
VISUALSTYLE
1000
AcRTDxfName
1000
VISUALSTYLE
1000
AcDbSavedByObjectVersion
1070
     0
1000
AcRTDxfName
1000
VISUALSTYLE
1000
AcRTDxfName
1000
VISUALSTYLE
1000
AcRTDxfName
1000
VISUALSTYLE
1000
AcRTDxfName
1000
VISUALSTYLE
1000
AcRTDxfName
1000
VISUALSTYLE
  0
ACAD_PROXY_OBJECT
  5
4FB8
102
{ACAD_REACTORS
330
4FB5
102
}
330
4FB5
100
AcDbProxyObject
 90
      499
 91
      526
 95
   983063
 70
     0
 93
      420
310
4211DBDD5C985D590010240902404333333333333E3BF0000000000000F9010740A411070040501641D405064090741402480A1B58
 94
        0
1001
ACAD
1000
AcRTDxfName
1000
VISUALSTYLE
1000
AcRTDxfName
1000
VISUALSTYLE
1000
AcDbSavedByObjectVersion
1070
     0
1000
AcRTDxfName
1000
VISUALSTYLE
1000
AcRTDxfName
1000
VISUALSTYLE
1000
AcRTDxfName
1000
VISUALSTYLE
1000
AcRTDxfName
1000
VISUALSTYLE
1000
AcRTDxfName
1000
VISUALSTYLE
  0
ACAD_PROXY_OBJECT
  5
4FB9
102
{ACAD_REACTORS
330
4FB5
102
}
330
4FB5
100
AcDbProxyObject
 90
      499
 91
      526
 95
   983063
 70
     0
 93
      508
310
4451DBDD5C985D5915DA5D1A115919D95CC010340902404333333333333E3BF0000000000000F9010740901411070040501600405405064090741402480A1B5C
 94
        0
1001
ACAD
1000
AcRTDxfName
1000
VISUALSTYLE
1000
AcRTDxfName
1000
VISUALSTYLE
1000
AcDbSavedByObjectVersion
1070
     0
1000
AcRTDxfName
1000
VISUALSTYLE
1000
AcRTDxfName
1000
VISUALSTYLE
1000
AcRTDxfName
1000
VISUALSTYLE
1000
AcRTDxfName
1000
VISUALSTYLE
1000
AcRTDxfName
1000
VISUALSTYLE
  0
ACAD_PROXY_OBJECT
  5
4FC3
102
{ACAD_REACTORS
330
4FB5
102
}
330
4FB5
100
AcDbProxyObject
 90
      499
 91
      526
 95
   983063
 70
     0
 93
      452
310
43131A5B995C185D1D195C9B8010E409028333333333333E3BF0000000000000FB010790141107004050750841D405064090741402483A0352
 94
        0
1001
ACAD
1000
AcRTDxfName
1000
VISUALSTYLE
1000
AcRTDxfName
1000
VISUALSTYLE
1000
AcDbSavedByObjectVersion
1070
     0
1000
AcRTDxfName
1000
VISUALSTYLE
1000
AcRTDxfName
1000
VISUALSTYLE
1000
AcRTDxfName
1000
VISUALSTYLE
1000
AcRTDxfName
1000
VISUALSTYLE
1000
AcRTDxfName
1000
VISUALSTYLE
  0
ACAD_PROXY_OBJECT
  5
4FBF
102
{ACAD_REACTORS
330
4FB5
102
}
330
4FB5
100
AcDbProxyObject
 90
      499
 91
      526
 95
   983063
 70
     0
 93
      428
310
429499585B1A5CDD1A58C0108409028333333333333E3BF0000000000000FB01079019070040501508421405064090741402480A1B49
 94
        0
1001
ACAD
1000
AcRTDxfName
1000
VISUALSTYLE
1000
AcRTDxfName
1000
VISUALSTYLE
1000
AcDbSavedByObjectVersion
1070
     0
1000
AcRTDxfName
1000
VISUALSTYLE
1000
AcRTDxfName
1000
VISUALSTYLE
1000
AcRTDxfName
1000
VISUALSTYLE
1000
AcRTDxfName
1000
VISUALSTYLE
1000
AcRTDxfName
1000
VISUALSTYLE
  0
ACAD_PROXY_OBJECT
  5
4FC2
102
{ACAD_REACTORS
330
4FB5
102
}
330
4FB5
100
AcDbProxyObject
 90
      499
 91
      526
 95
   983063
 70
     0
 93
      420
310
42151A1A58DAD95B8010D409028333333333333E3BF0000000000000FB010790141107004050150C41D405064090741402480A0352
 94
        0
1001
ACAD
1000
AcRTDxfName
1000
VISUALSTYLE
1000
AcRTDxfName
1000
VISUALSTYLE
1000
AcDbSavedByObjectVersion
1070
     0
1000
AcRTDxfName
1000
VISUALSTYLE
1000
AcRTDxfName
1000
VISUALSTYLE
1000
AcRTDxfName
1000
VISUALSTYLE
1000
AcRTDxfName
1000
VISUALSTYLE
1000
AcRTDxfName
1000
VISUALSTYLE
  0
DICTIONARYVAR
  5
522D
102
{ACAD_REACTORS
330
3B
102
}
330
3B
100
DictionaryVariables
280
     0
  1
1:1
  0
DICTIONARYVAR
  5
522C
102
{ACAD_REACTORS
330
3B
102
}
330
3B
100
DictionaryVariables
280
     0
  1
STANDARD
  0
DICTIONARYVAR
  5
4F6C
102
{ACAD_REACTORS
330
3B
102
}
330
3B
100
DictionaryVariables
280
     0
  1
STANDARD
  0
DICTIONARYVAR
  5
3D
102
{ACAD_REACTORS
330
3B
102
}
330
3B
100
DictionaryVariables
280
     0
  1
2
  0
DICTIONARYVAR
  5
3C
102
{ACAD_REACTORS
330
3B
102
}
330
3B
100
DictionaryVariables
280
     0
  1
1
  0
DICTIONARYVAR
  5
522F
102
{ACAD_REACTORS
330
3B
102
}
330
3B
100
DictionaryVariables
280
     0
  1
0
  0
DICTIONARYVAR
  5
4F9B
102
{ACAD_REACTORS
330
3B
102
}
330
3B
100
DictionaryVariables
280
     0
  1

  0
DICTIONARYVAR
  5
522E
102
{ACAD_REACTORS
330
3B
102
}
330
3B
100
DictionaryVariables
280
     0
  1
127
  0
DICTIONARY
  5
5864
330
22
100
AcDbDictionary
280
     1
281
     1
  3
ACAD_XREC_ROUNDTRIP
360
5865
  0
DICTIONARY
  5
3D42
330
39D2
100
AcDbDictionary
280
     1
281
     1
  3
ACAD_XREC_ROUNDTRIP
360
586A
  3
ADSK_XREC_LAYOUTTHUMBNAIL
360
3D43
  0
DICTIONARY
  5
4FA6
330
4FA5
100
AcDbDictionary
280
     1
281
     1
  3
ACAD_XREC_ROUNDTRIP
360
5726
  3
BUMPTILE
360
4FA8
  3
DIFFUSETILE
360
4FA7
  3
OPACITYTILE
360
4FAB
  3
REFLECTIONTILE
360
4FAA
  3
REFRACTIONTILE
360
4FAC
  3
SPECULARTILE
360
4FA9
  0
DICTIONARY
  5
4F9E
330
4F9D
100
AcDbDictionary
280
     1
281
     1
  3
ACAD_XREC_ROUNDTRIP
360
5725
  3
BUMPTILE
360
4FA0
  3
DIFFUSETILE
360
4F9F
  3
OPACITYTILE
360
4FA3
  3
REFLECTIONTILE
360
4FA2
  3
REFRACTIONTILE
360
4FA4
  3
SPECULARTILE
360
4FA1
  0
DICTIONARY
  5
4FAE
330
4FAD
100
AcDbDictionary
280
     1
281
     1
  3
ACAD_XREC_ROUNDTRIP
360
5727
  3
BUMPTILE
360
4FB0
  3
DIFFUSETILE
360
4FAF
  3
OPACITYTILE
360
4FB3
  3
REFLECTIONTILE
360
4FB2
  3
REFRACTIONTILE
360
4FB4
  3
SPECULARTILE
360
4FB1
  0
DICTIONARY
  5
5866
330
36DE
100
AcDbDictionary
280
     1
281
     1
  3
ACAD_XREC_ROUNDTRIP
360
5867
  0
DICTIONARY
  5
5868
330
36DF
100
AcDbDictionary
280
     1
281
     1
  3
ACAD_XREC_ROUNDTRIP
360
5869
  0
DICTIONARY
  5
51E8
330
3D15
100
AcDbDictionary
280
     1
281
     1
  3
ACAD_ROUNDTRIP_2008_TABLESTYLE_CELLSTYLEMAP
360
56FE
  3
ACAD_XREC_ROUNDTRIP
360
5710
  0
XRECORD
  5
5865
102
{ACAD_REACTORS
330
5864
102
}
330
5864
100
AcDbXrecord
280
     1
102
SHADEPLOT
 70
     0
102
SHADEPLOTRESLEVEL
 70
     2
102
SHADEPLOTCUSTOMDPI
 70
   300
  0
XRECORD
  5
586A
102
{ACAD_REACTORS
330
3D42
102
}
330
3D42
100
AcDbXrecord
280
     1
102
SHADEPLOT
 70
     0
102
SHADEPLOTRESLEVEL
 70
     2
102
SHADEPLOTCUSTOMDPI
 70
   300
  0
XRECORD
  5
3D43
102
{ACAD_REACTORS
330
3D42
102
}
330
3D42
100
AcDbXrecord
280
     1
310
28000000620000008C0000000100080000000000B0360000000000000000000000010000000000000000000000000000FFFFFF000000000000000000000000000000000000000000000000000000000000000000330000006600000099000000CC000000FF00000000330000333300006633000099330000CC330000FF3300
310
0000660000336600006666000099660000CC660000FF66000000990000339900006699000099990000CC990000FF99000000CC000033CC000066CC000099CC0000CCCC0000FFCC000000FF000033FF000066FF000099FF0000CCFF0000FFFF000000003300330033006600330099003300CC003300FF003300003333003333
310
33006633330099333300CC333300FF33330000663300336633006666330099663300CC663300FF66330000993300339933006699330099993300CC993300FF99330000CC330033CC330066CC330099CC3300CCCC3300FFCC330000FF330033FF330066FF330099FF3300CCFF3300FFFF330000006600330066006600660099
310
006600CC006600FF00660000336600333366006633660099336600CC336600FF33660000666600336666006666660099666600CC666600FF66660000996600339966006699660099996600CC996600FF99660000CC660033CC660066CC660099CC6600CCCC6600FFCC660000FF660033FF660066FF660099FF6600CCFF6600
310
FFFF660000009900330099006600990099009900CC009900FF00990000339900333399006633990099339900CC339900FF33990000669900336699006666990099669900CC669900FF66990000999900339999006699990099999900CC999900FF99990000CC990033CC990066CC990099CC9900CCCC9900FFCC990000FF99
310
0033FF990066FF990099FF9900CCFF9900FFFF99000000CC003300CC006600CC009900CC00CC00CC00FF00CC000033CC003333CC006633CC009933CC00CC33CC00FF33CC000066CC003366CC006666CC009966CC00CC66CC00FF66CC000099CC003399CC006699CC009999CC00CC99CC00FF99CC0000CCCC0033CCCC0066CC
310
CC0099CCCC00CCCCCC00FFCCCC0000FFCC0033FFCC0066FFCC0099FFCC00CCFFCC00FFFFCC000000FF003300FF006600FF009900FF00CC00FF00FF00FF000033FF003333FF006633FF009933FF00CC33FF00FF33FF000066FF003366FF006666FF009966FF00CC66FF00FF66FF000099FF003399FF006699FF009999FF00CC
310
99FF00FF99FF0000CCFF0033CCFF0066CCFF0099CCFF00CCCCFF00FFCCFF0000FFFF0033FFFF0066FFFF0099FFFF00CCFFFF00FFFFFF00000000000D0D0D001A1A1A00282828003535350043434300505050005D5D5D006B6B6B00787878008686860093939300A1A1A100AEAEAE00BBBBBB00C9C9C900D6D6D600E4E4E400
310
F1F1F100FFFFFF0000000000000000000000000000000000000000000000000000000000000000000000000000000000E2E2E2E2E2E2E2E2E2E2E2E2E2E2E2E2E2E2E2E2E2E2E2E2E2E2E2E2E2E2E2E2E2E2E2E2E2E2E2E2E2E2E2E2E2E2E2E2E2E2E2E2E2E2E2E2E2E2E2E2E2E2E2E2E2E2E2E2E2E2E2E2E2E2E2E2E2E2E2
310
E2E2E2E2E2E2E2E2E2E2E2E2E2E2E2E2E2E2E20000E2E2E2E2E2E2E2E2E2E2E2E2E2E2E2E2E2E2E2E2E2E2E2E2E2E2E2E2E2E2E2E2E2E2E2E2E2E2E2E2E2E2E2E2E2E2E2E2E2E2E2E2E2E2E2E2E2E2E2E2E2E2E2E2E2E2E2E2E2E2E2E2E2E2E2E2E2E2E2E2E2E2E2E2E2E2E2E2E2E2E2E2E2E2E2E2E2E20000E2E2E2E2E2E2
310
E2E2E2E2E2E2E2E2E2E2E2E2E2E2E2E2E2E2E2E2E2E2E2E2E2E2E2E2E2E2E2E2E2E2E2E2E2E2E2E2E2E2E2E2E2E2E2E2E2E2E2E2E2E2E2E2E2E2E2E2E2E2E2E2E2E2E2E2E2E2E2E2E2E2E2E2E2E2E2E2E2E2E2E2E2E2E2E2E2E2E2E20000E2E2F5F5F5F5F5F5F5F5E2E2E2E2E2E2E2E2F5F5F5F5F5F5F5F5F5F5F5F5F5F5F5
310
F5F5E2E2E2E2E2E2E2F5F5F5F5F5F5F5F5F5F5F5F5F5F5E2E2E2E2E2E2E2E2E2F5F5F5F5F5F5F5F5F5F5F5F5F5F5F5E2E2E2E2E2E2E2E2F5F5F5F5F5F5F5F5E2E20000E2E2F5E2E2E2E2E2E2E2E2E2E2E2E2E2E2E2E2E2F5F5F5F5F5F5F5F5F5F5F5F5F5F5F5F5F5F5F5F5F5F5F5F5F5F5F5F5F5F5F5F5F5F5F5F5F5F5F5F5
310
F5F5F5F5F5F5F5F5F5F5F5F5F5F5F5F5F5F5E2E2E2E2E2E2E2E2E2E2E2E2E2E2E2E2E2F5E2E20000E2E2F5E2E2E2E2E2E2E2E2E2E2E2E2E2E2E2E2E2F5F5F5F5F5F5F5F5F5F5F5F5F5F5F5F5F5F5F5F5F5F5F5F5F5F5F5F5F5F5F5F5F5F5F5F5F5F5F5F5F5F5F5F5F5F5F5F5F5F5F5F5F5F5F5F5F5F5E2E2E2E2E2E2E2E2E2
310
E2E2E2E2E2E2E2E2F5E2E20000E2E2F5E2E2E2E2E2F5F5F5F5F5F5F5F5F5F5F5F5F5F5F5F5F5F5F5F5F5F5F5F5F5F5F5F5F5F5F5F5F5F5F5F5F5F5F5F5F5F5F5F5F5F5F5F5F5F5F5F5F5F5F5F5F5F5F5F5F5F5F5F5F5F5F5F5F5F5F5F5F5F5F5F5F5F5F5F5F5F5F5F5E2E2E2F5E2E20000E2E2F5E2E2E2E2E2E2E2E2E2E2E2
310
E2E2E2E2E2E2E2E2E2E2E2E2E2E2E2E2E2E2E2E2E2E2E2E2E2E2E2E2E2E2E2E2E2E2E2E2E2E2E2E2E2E2E2E2E2E2E2E2E2E2E2E2E2E2E2E2E2E2E2E2E2E2E2E2E2E2E2E2E2E2E2E2E2E2E2E2E2E2E2E2E2F5E2E20000E2E2F5E2E2E2E2E2F5F5F5F5F5F5F5F5F5F5F5F5F5F5F5F5F5F5F5F5F5F5F5F5F5F5F5F5F5F5F5F5F5
310
F5F5F5F5F5F5F5F5F5F5F5F5F5F5F5F5F5F5F5F5F5F5F5F5F5F5F5F5F5F5F5F5F5F5F5F5F5F5F5F5F5F5F5F5F5F5F5F5F5F5F5E2E2E2F5E2E20000E2E2F5E2E2E2E2E2F5E2E2E2E2E2E2E2E2E2E2E2E2E2E2E2E2E2E2E2E2E2E2E2E2E2E2E2E2E2E2E2E2E2E2E2E2E2E2E2E2E2E2E2E2E2E2E2E2E2E2E2E2E2E2E2E2E2E2E2
310
E2E2E2E2E2E2E2E2E2E2E2E2E2E2E2E2E2E2E2E2E2E2E2F5E2E2E2F5E2E20000E2E2F5E2E2E2E2E2F5E2E2E2E2E2E2E2E2E2E2E2E2E2E2E2E2E2E2E2E2E2E2E2E2E2E2E2E2E2E2E2E2E2E2E2E2E2E2E2E2E2E2E2E2E2E2E2E2E2E2E2E2E2E2E2E2E2E2E2E2E2E2E2E2E2E2E2E2E2E2E2E2E2E2E2E2E2E2E2E2E2E2F5E2E2E2
310
F5E2E20000E2E2F5E2E2E2E2E2F5E2E2E2E2E2E2E2E2E2E2E2E2E2E2E2E2E2E2E2E2E2E2E2E2E2E2E2E2E2E2E2E2E2E2E2E2E2E2E2E2E2E2E2E2E2E2E2E2E2E2E2E2E2E2E2E2E2E2E2E2E2E2E2E2E2E2E2E2E2E2E2E2E2E2E2E2E2E2E2E2E2E2F5E2E2E2F5E2E20000E2E2E2E2E2E2E2E2F5E2E2E2E2E2E2E2E2E2E2E2E2E2
310
E2E2E2E2E2E2E2E2E2E2E2E2E2E2E2E2E2E2E2E2E2E2E2E2E2E2E2E2E2E2E2E2E2E2E2E2E2E2E2E2E2E2E2E2E2E2E2E2E2E2E2E2E2E2E2E2E2E2E2E2E2E2E2E2E2E2E2E2E2F5E2E2E2E2E2E20000E2E2E2E2E2E2E2E2F5E2E2E2E2E2E2E2E2E2E2E2E2E2E2E2E2E2E2E2E2E2E2E2E2E2E2E2E2E2E2E2E2E2E2E2E2E2E2E2E2
310
E2E2E2E2E2E2E2E2E2E2E2E2E2E2E2E2E2E2E2E2E2E2E2E2E2E2E2E2E2E2E2E2E2E2E2E2E2E2E2E2E2E2F5E2E2E2E2E2E20000E2E2E2E2E2E2E2E2F5E2E2E2E2E2E2E2E2E2E2E2E2E2E2E2E2E2E2E2E2E2E2E2E2E2E2E2E2E2E2E2E2E2E2E2E2E2E2E2E2E2E2E2E2E2E2E2E2E2E2E2E2E2E2E2E2E2E2E2E2E2E2E2E2E2E2E2
310
E2E2E2E2E2E2E2E2E2E2E2E2E2E2E2F5E2E2E2E2E2E20000E2E2E2E2E2E2E2E2F5E2E2E2E2E2E2E2E2E2E2E2E2E2E2E2E2E2E2E2E2E2E2E2E2E2E2E2E2E2E2E2E2E2E2E2E2E2E2E2E2E2E2E2E2E2E2E2E2E2E2E2E2E2E2E2E2E2E2E2E2E2E2E2E2E2E2E2E2E2E2E2E2E2E2E2E2E2E2E2E2E2E2F5E2E2E2E2E2E20000E2E2E2
310
E2E2E2E2E2F5E2E2E2E2E2E2E2E2E2E2E2E2E2E2E2E2E2E2E2E2E2E2E2E2E2E2E2E2E2E2E2E2E2E2E2E2E2E2E2E2E2E2E2E2E2E2E2E2E2E2E2E2E2E2E2E2E2E2E2E2E2E2E2E2E2E2E2E2E2E2E2E2E2E2E2E2E2E2E2E2E2E2F5E2E2E2E2E2E20000E2E2E2E2E2E2E2E2F5E2E2E2E2E2E2E2E2E2E2E2E2E2E2E2E2E2E2E2E2E2
310
E2E2E2E2E2E2E2E2E2E2E2E2E2E2E2E2E2E2E2E2E2E2E2E2E2E2E2E2E2E2E2E2E2E2E2E2E2E2E2E2E2E2E2E2E2E2E2E2E2E2E2E2E2E2E2E2E2E2E2E2E2F5E2E2E2E2E2E20000E2E2E2E2E2E2E2E2F5E2E2E2E2E2E2E2E2E2E2E2E2E2E2E2E2E2E2E2E2E2E2E2E2E2E2E2E2E2E2E2E2E2E2E2E2E2E2E2E2E2E2E2E2E2E2E2E2
310
E2E2E2E2E2E2E2E2E2E2E2E2E2E2E2E2E2E2E2E2E2E2E2E2E2E2E2E2E2E2E2E2E2E2F5E2E2E2E2E2E20000E2E2E2E2E2E2E2E2F5E2E2E2E2E2E2E2E2E2EFEFEFE2E2E2E2E2E2E2E2E2E2E2E2E2E2E2E2E2E2E2E2E2E2E2E2E2E2E2E2E2E2E2E2E2E2EFEFEFE2E2E2E2E2E2E2E2E2E2E2E2E2E2E2E2E2E2E2E2E2E2E2E2E2E2
310
E2E2E2E2E2E2E2F5E2E2E2E2E2E20000E2E2E2E2E2E2E2E2F5E2E2E2E2E2E2E2E2E2EFEFE2E2E2E2E2E2E2E2E2E2E2E2E2E2E2E2F5F5F5F5F5F5F5F5F5F5F5F5F5E2E2E2E2E2E2EFEFE2E2E2E2E2E2E2E2E2E2E2E2E2E2E2E2F5F5F5F5F5F5F5F5F5F5F5F5F5E2E2E2E2E2F5E2E2E2E2E2E20000E2E2F5E2E2E2E2E2F5E2E2
310
E2E2E2E2E2E2E2EFE2F5F5F5F5F5E2E2E2E2E2E2E2E2E2E2E2F5F5F5F5F5F5F5F5F5F5F5F5F5E2E2E2E2E2E2EFE2F5F5F5F5E2E2E2E2E2E2E2E2E2E2E2E2F5F5F5F5F5F5F5F5F5F5F5F5F5E2E2E2E2E2F5E2E2E2F5E2E20000E2E2F5E2E2E2E2E2F5E2E2E2E2E2E2E2E2E2EFE2F5F5F5F5F5E2E2E2E2E2E2E2E2E2E2E2F5F5
310
F5F5F5F5F5F5F5F5F5F5F5E2E2E2E2E2E2EFE2F5F5F5F5E2E2E2E2E2E2E2E2E2E2E2E2F5F5F5F5F5F5F5F5F5F5F5F5F5E2E2E2E2E2F5E2E2E2F5E2E20000E2E2F5E2E2E2E2E2F5E2E2E2E2E2E2E2E2E2EFE2E2E2E2E2E2E2E2E2E2E2E2E2E2E2E2E2E2E2E2E2E2E2E2E2E2E2E2E2E2E2E2E2E2E2E2EFE2E2E2E2E2E2E2E2E2
310
E2E2E2E2E2E2E2E2E2E2E2E2E2E2E2E2E2E2E2E2E2E2E2E2E2E2F5E2E2E2F5E2E20000E2E2F5E2E2E2E2E2F5E2E2E2E2E2E2E2E2E2EFEFEFEFEFE2E2E2E2E2E2E2EFEFE2E2E2E2E2E2E2E2E2E2E2E2E2E2E2E2E2E2E2E2E2E2E2EFEFEFEFEFE2E2E2E2E2E2E2EFEFE2E2E2E2E2E2E2E2E2E2E2E2E2E2E2E2E2E2E2E2E2E2F5
310
E2E2E2F5E2E20000E2E2F5E2E2E2E2E2F5E2E2E2E2E2E2E2E2E2EFEFEFEFEFE2E2E2E2E2E2E2EFEFE2E2E2E2E2E2E2E2E2E2E2E2E2E2E2E2E2E2E2E2E2E2E2EFEFEFEFEFE2E2E2E2E2E2E2EFEFE2E2E2E2E2E2E2E2E2E2E2E2E2E2E2E2E2E2E2E2E2E2F5E2E2E2F5E2E20000E2E2F5E2E2E2E2E2F5E2E2E2E2E2E2E2E2E2E2
310
E2E2EFEFE2E2E2E2E2E2E2EFE2E2E2E2E2E2E2E2E2E2E2E2E2E2E2E2E2E2E2E2E2E2E2E2E2E2E2EFEFE2E2E2E2E2E2E2EFE2E2E2E2E2E2E2E2E2E2E2E2E2E2E2E2E2E2E2E2E2E2E2F5E2E2E2F5E2E20000E2E2F5E2E2E2E2E2F5E2E2E2E2E2E2E2E2E2E2E2E2EFEFEFEFEFE2E2EFEFEFE2E2E2E2E228282828282828282828
310
28E2E2282828E2E2E2E2E2EFEFEFEFEFEFE2E2EFEFEFE2E2E2E2E22828282828282828282828E2E2282828E2E2F5E2E2E2F5E2E20000E2E2F5E2E2E2E2E2F5E2E2E2E2E2E2E2E2E2E2E2E2EFEFEFEFEFEFEFEFEFEFE2E2E2E2E228E2ECECECE2ECE2E2E228E2E228E228E2E2E2E2E2EFEFEFEFEFEFEFEFECECEFE2E2E2E2E2
310
28E2ECECECE2ECE2E2E228E2E228E228E2E2F5E2E2E2F5E2E20000E2E2F5E2E2E2E2E2F5E2E2E2E2E2E2E2E2E2E2E2E2EFEFEFEFEFEFEFEFEFEFEFEFEFEFEF28E2E2E2E2ECECECECE2EC282828E228E2E2E2E2E2EFEFEFEFECECE2E2ECECEFEFEFEFEFEF28E2E2E2E2ECECECECE2EC282828E228E2E2F5E2E2E2F5E2E20000
310
E2E2F5E2E2E2E2E2F5E2E2E2E2E2E2E2E2E2E2E2E2EFEFE2E2E2EFEFE2EFEF2828ECECEC28ECE2E2E2ECE2E2E2ECECECECE2E2ECE2E2E2E2E2EFEFEFECE2ECECECECECEC2828ECECEC28ECE2E2E2ECE2E2E2ECECECECE2E2ECE2E2F5E2E2E2F5E2E20000E2E2F5E2E2E2E2E2F5E2E2E2E2E2E2E2F5F5F5F5F5EFEFE2E2E2E2
310
E2E2EFEF28ECECECE2E2E2ECE2ECECE2E2E2ECECE2E2ECECECE2F5F5F5F5F5EFEFF5ECF5F5F5ECECEC28ECECECE2E2E2ECE2ECECE2E2E2ECECE2E2ECECECE2E2F5E2E2E2F5E2E20000E2E2F5E2E2E2E2E2F5E2E2E2E2E2E2E2E2E2E2E2E2EFEFE2E2E2E2E2E2EFEF2828ECE2E2E2E2E2ECECE2E2E2E2ECE2E2E2E2EC28E2F5
310
F5F5F5F5EFEFF5ECF5F5F5ECECEC2828ECE2E2E2E2E2ECECE2E2E2E2ECE2E2E2E2EC28E2E2F5E2E2E2F5E2E20000E2E2F5E2E2E2E2E2F5E2E2E2E2E2E2E2E2E2E2E2E2EFEFE2E2E2E2E2E2EFEF28E2ECE2E2E2E2ECECECE2E2E2ECECE2E2E2E2EC28E2E2E2E2E2E2EFEFF5ECF5E2E2ECECEC28E2ECE2E2E2E2ECECECE2E2E2
310
ECECE2E2E2E2EC28E2E2F5E2E2E2F5E2E20000E2E2F5E2E2E2E2E2F5E2E2E2E2E2E2E2E2E2E2E2E2EFEFEFEFEFEFEFE2EFEF282828282828282828282828282828282828282828E2E2E2E2E2E2E2E2F5ECF5E2E2ECECECEC2828282828282828282828282828282828282828E2E2F5E2E2E2F5E2E20000E2E2F5E2E2E2E2E2
310
F5E2E2E2E2E2E2E2E2E2E2E2E2EFEFEFEFEFEFEFEFEFEFEFEC2828E2E2E2E2E2E2E2E2E2E2E2E2E2E2E2E2E2E2E2E2E2E2E2E2E2F5ECF5E2E2ECECE2E2E2E2E2E2E2E2E2E2E2E2E2E2E2E2E2E2E2E2E2E2E2E2F5E2E2E2F5E2E20000E2E2F5E2E2E2E2E2F5E2E2E2E2E2E2E2E2E2E2E2E2EFEFEFEFEFEFEFEFEFEC28282828
310
E2E2E2E2E2E2E2E2E2E2E2E2E2E2E2E2E2E2E2E2E2E2E2E2E2E2E2E2E2E2E2E2E2E2E2E2E2E2E2E2E2E2E2E2E2E2E2E2E2E2E2E2E2E2E2E2F5E2E2E2F5E2E20000E2E2F5E2E2E2E2E2F5E2E2E2E2E2E2E2E2E2E2E2E2EFEFDCE2ECE2E2ECECEC28282828E2E2E2E2E2E2E2E2E2E2E2E2E2E2E2E2E2E2E2E2E2E2E2E2E2E2E2
310
E2E2E2E2E2E2E2E2E2E2E2E2E2E2E2E2E2E2E2E2E2E2E2E2E2E2E2E2E2F5E2E2E2F5E2E20000E2E2E2E2E2E2E2E2F5E2E2E2E2E2E2E2E2E2E2E2E2EFEFF5ECF5F5F5ECECECF0E2F028E2E2E2E2E2E2E2E2E2E2E2E2E2E2E2E2E2E2E2E2E2E2E2E2E2E2E2E2E2E2E2E2E2E2E2E2E2E2E2E2E2E2E2E2E2E2E2E2E2E2E2E2E2E2
310
E2E2F5E2E2E2E2E2E20000E2E2E2E2E2E2E2E2F5E2E2E2E2E2E2E2F5F5F5F5F5EFEFF5ECF5F5F5ECECEC28F0E228E2E2E2E2E2E2E2E2E2E2E2E2E2E2E2E2E2E2E2E2E2E2E2E2E2E2E2E2E2E2E2E2E2E2E2E2E2E2E2E2E2E2E2E2E2E2E2E2E2E2E2E2E2E2E2E2F5E2E2E2E2E2E20000E2E2E2E2E2E2E2E2F5E2E2E2E2E2E2E2
310
F5F5F5F5F5EFEFF5ECF5E2E2ECECEC28F0F028E2E2E2E2E2E2E2E2E2E2E2E2E2E2E2E2E2E2E2E2E2E2E2E2E2E2E2E2E2E2E2E2E2E2E2E2E2E2E2E2E2E2E2E2E2E2E2E2E2E2E2E2E2E2E2E2F5E2E2E2E2E2E20000E2E2E2E2E2E2E2E2F5E2E2E2E2E2E2E2E2E2E2E2E2E2EFF5ECF5E2E2ECECEF2828F028E2E2E2E2E2E2E2E2
310
E2E2E2E2E2E2E2E2E2E2E2E2E2E2E2E2E2E2E2E2E2E2E2E2E2E2E2E2E2E2E2E2E2E2E2E2E2E2E2E2E2E2E2E2E2E2E2E2F5E2E2E2E2E2E20000E2E2E2E2E2E2E2E2F5E2E2E2E2E2E2E2E2E2E2E2E2E2E2F5ECF5E2E2ECECE2E2E2E2E2E2E2E2E2E2E2E2E2E2E2E2E2E2E2E2E2E2E2E2E2E2E2E2E2E2E2E2E2E2E2E2E2E2E2E2
310
E2E2E2E2E2E2E2E2E2E2E2E2E2E2E2E2E2E2E2E2E2F5E2E2E2E2E2E20000E2E2E2E2E2E2E2E2F5E2E2E2E2E2E2E2E2E2E2E2E2E2E2F5ECF5E2E2ECECE2E2E2E2E2E2E2E2E2E2E2E2E2E2E2E2E2E2E2E2E2E2E2E2E2E2E2E2E2E2E2E2E2E2E2E2E2E2E2E2E2E2E2E2E2E2E2E2E2E2E2E2E2E2E2E2E2E2E2E2E2F5E2E2E2E2E2
310
E20000E2E2E2E2E2E2E2E2F5E2E2E2E2E2E2E2E2E2E2E2E2E2E2E2E2E2E2E2E2E2E2E2E2E2E2E2E2E2E2E2E2E2E2E2E2E2E2E2E2E2E2E2E2E2E2E2E2E2E2E2E2E2E2E2E2E2E2E2E2E2E2E2E2E2E2E2E2E2E2E2E2E2E2E2E2E2E2E2E2E2E2F5E2E2E2E2E2E20000E2E2E2E2E2E2E2E2F5E2E2E2E2E2E2E2E2E2E2E2E2E2E2F5
310
ECF5E2E2ECECE2E2E2E2E2E2E2E2E2E2E2E2E2E2E2E2E2E2E2E2E2E2E2E2E2E2E2E2E2E2E2E2E2E2E2E2E2E2E2E2E2E2E2E2E2E2E2E2E2E2E2E2E2E2E2E2E2E2E2E2E2F5E2E2E2E2E2E20000E2E2E2E2E2E2E2E2F5E2E2E2E2E2E2E2E2E2E2E2E2E2E2F5ECF5E2E2ECECE2E2E2E2E2E2E2E2E2E2E2E2E2E2E2E2E2E2E2E2E2
310
E2E2E2E2E2E2E2E2E2F5ECF5E2E2ECECE2E2E2E2E2E2E2E2E2E2E2E2E2E2E2E2E2E2E2E2E2E2E2E2F5E2E2E2E2E2E20000E2E2E2E2E2E2E2E2F5E2E2E2E2E2E2E2E2E2E2E2E2E2ECECECF5E2E2ECECECEC28F028E2E2E2E2E2E2E2E2E2E2E2E2E2E2E2E2E2E2E2E2E2E2E2E2E2ECECF5E2E2ECECECEC282828282828282828
310
2828282828282828282828E2E2F5E2E2E2E2E2E20000E2E2F5E2E2E2E2E2F5E2E2E2E2E2E2E2E2E2E2E2E2EFECECECF5F5F5ECECEC28F0F028E2E2E2E2E2E2E2E2E2E2E2E2E2E2E2E2E2E2E2E2E2E2E2E2ECECECF5E2E2ECECEC28E2ECE2E2E2E2ECECECE2E2E2ECECE2E2E2E2EC28E2E2F5E2E2E2F5E2E20000E2E2F5E2E2
310
E2E2E2F5E2E2E2E2E2E2E2F5F5F5F5F5EFECECECF5E2E2ECECEC28F0E228E2E2E2E2E2E2E2E2E2E2E2E2E2E2E2E2E2E2E2E2E2E2E2EFECECECF5F5F5ECECEC2828ECE2E2E2E2E2ECECE2E2E2E2ECE2E2E2E2EC28E2E2F5E2E2E2F5E2E20000E2E2F5E2E2E2E2E2F5E2E2E2E2E2E2E2E2E2E2E2E2EFECECECF5F5F5ECECECF0
310
E2F028E2E2E2E2E2E2E2E2E2E2E2E2E2E2E2E2E2E2F5F5F5F5F5EFECECECF5F5F5ECECEC28ECECECE2E2E2ECE2ECECE2E2E2ECECE2E2E2ECECE2E2F5E2E2E2F5E2E20000E2E2F5E2E2E2E2E2F5E2E2E2E2E2E2E2E2E2E2E2E2EFEFE2E2E2E2E2E2E2EC28282828E2E2E2E2E2E2E2E2E2E2E2E2E2E2E2E2E2E2E2E2E2E2E2EF
310
ECECE2E2E2E2E2E2EF28E2ECECECE2ECE2E2E2ECE2E2E2E2ECECECECE2ECE2E2F5E2E2E2F5E2E20000E2E2F5E2E2E2E2E2F5E2E2E2E2E2F5F5F5F5F5F5F5EFEFEFEFEFEFEFEFEFEC28282828E2E2E2E2E2E2E2E2E2E2E2E2E2E2E2E2E2E2E2E2E2E2E2EFEFDCE2E2E2E2E2E2EF282828282828E2E2E2E2ECE2ECECECEC2828
310
28E228E2E2F5E2E2E2F5E2E20000E2E2F5E2E2E2E2E2F5E2E2E2E2E2F5F5F5F5F5F5F5EFEFEFEFEFEFEFE2E2EFEFEC2828E2E2E2E2E2E2E2E2E2E2E2E2E2E2E2E2E2E2E2E2E2E2E2EFEFEFEFEFEFEFEFEFEFE2E2E2E2E228E2E2E2ECECECE2E2E228E2E228E228E2E2F5E2E2E2F5E2E20000E2E2F5E2E2E2E2E2F5E2E2E2E2
310
E2E2F5F5F5F5F5F5EFEFEFEFEFEFEFE2EFEF2828282828282828E2E2E2E2E2E2E2E2E2E2E2E2E2E2E2E2E2E2E2EFEFEFEFEFE2E2EFEFEFE2E2E2E2E22828ECEC2828EC28282828E2E2282828E2E2F5E2E2E2F5E2E20000E2E2F5E2E2E2E2E2F5E2E2E2E2E2E2F5F5F5F5F5F5EFEFE2E2E2E2E2E2EFEF28E2E2E2E2E2E228E2
310
E2E2E2E2E2E2E2E2E2E2E2E2E2E2E2E2E2E2EFEFE2E2E2E2E2E2E2EFE2E2E2E2E2E2E2E2E2E2E2E2E2E2E2E2E2E2E2E2E2E2E2F5E2E2E2F5E2E20000E2E2F5E2E2E2E2E2F5E2F5F5F5F5F5F5F5F5F5F5F5EFEFE2E2E2E2E2E2EFEF28E2E2E2E2E2E228E2E2E2E2E2E2E2E2E2E2E2E2E2E2E2E2E2E2EFEFEFE2E2E2E2E2E2E2
310
EFEFE2E2E2E2E2E2E2E2E2E2E2E2E2E2E2E2E2E2E2E2E2E2F5E2E2E2F5E2E20000E2E2F5E2E2E2E2E2F5E2E2E2E2E2E2E2F5F5F5F5F5EFEFE2E2E2E2E2E2EFEF28E2E2E2E2E2E228E2E2E2E2E2E2E2E2E2E2E2E2E2E2E2E2EFEFEFEFEFE2E2E2E2E2E2E2EFEFE2E2E2E2E2E2E2E2E2E2E2E2E2E2E2E2E2E2E2E2E2E2F5E2E2
310
E2F5E2E20000E2E2F5E2E2E2E2E2F5E2E2E2E2E2E2E2F5F5F5F5F5EFEFE2E2E2EFEFE2EFEF28E2E2E2E2E2E228E2E2E2E2E2E2E2E2E2E2E2E2E2E2E2E2EFE2E2E2E2E2E2E2E2E2E2E2E2E2E2E2E2E2E2E2E2E2E2E2E2E2E2E2E2E2E2E2E2E2E2E2F5E2E2E2F5E2E20000E2E2F5E2E2E2E2E2F5E2E2E2E2E2E2E2E2E2E2E2E2
310
EFEFEFEFEFEFEFEFEFEF28E2E2E2E2E2E228E2E2E2E2E2E2E2E2E2E2E2E2E2E2E2E2EFE2E2E2E2E2E2E2E2E2E2E2E2E2E2E2E2E2E2E2E2E2E2E2E2E2E2E2E2E2E2E2E2E2E2E2F5E2E2E2F5E2E20000E2E2F5E2E2E2E2E2F5E2E2E2E2E2E2E2E2E2E2E2E2EFEFEFEFEFEFEFEFEFEC28E2E2E2E2E2E228E2E2E2E2E2E2E2E2E2
310
E2E2E2E2E2E2E2EFE2E2E2E2E2E2E2E2E2E2E2E2E2E2E2E2E2E2E2E2E2E2E2E2E2E2E2E2E2E2E2E2E2E2E2F5E2E2E2F5E2E20000E2E2F5E2E2E2E2E2F5E2E2E2E2E2E2E2F5F5F5F5F5EFEFEFEFEFE2EFEFE2EC28E2E2E2E2E2ECECE2E2E2E2E2E2E2E2E2E2E2E2E2E2E2E2EFEFF5F5F5F5F5E2E2E2E2E2E2E2E2E2E2E2E2E2
310
E2E2E2E2E2E2E2E2E2E2E2E2E2E2E2E2F5E2E2E2F5E2E20000E2E2F5E2E2E2E2E2F5E2E2E2E2E2E2E2F5F5F5F5F5EFEFEFE2E2E2E2E2E2EC282828E2E2ECEC28E2E2E2E2E2E2E2E2E2E2E2E2E2E2E2E2EFEFF5F5F5F5F5E2E2E2E2E2E2E2E2E2E2E2E2E2E2E2E2E2E2E2E2E2E2E2E2E2E2E2E2E2F5E2E2E2F5E2E20000E2E2
310
F5E2E2E2E2E2F5E2E2E2E2E2E2E2E2E2E2EFEFEFEFEFE2E2E2E2E2E2EC282828E2E2ECE228E2E2E2E2E2E2E2E2E2E2E2E2E2E2E2E2E2E2E2E2E2E2E2E2E2E2E2E2E2E2E2E2E2E2E2E2E2E2E2E2E2E2E2E2E2E2E2E2E2E2E2E2F5E2E2E2F5E2E20000E2E2F5E2E2E2E2E2F5E2E2E2E2E2E2E2E2E2DCEFEFEFEFEFEFEFE2EFEF
310
E2EC28E2E2E2ECE2E228E2E2E2E2E2E2E2E2E2E2E2E2E2E2E2E2E2E2E2E2E2E2E2E2E2E2E2E2E2E2E2E2E2E2E2E2E2E2E2E2E2E2E2E2E2E2E2E2E2E2E2E2F5E2E2E2F5E2E20000E2E2E2E2E2E2E2E2F5E2E2E2E2E2E2E2E2E2EFEFEFEFEFE2EFEFEFEFEFEFEC28E2E2E2ECE2ECECE2E2E2E2E2E2E2E2E2E2E2E2E2E2E2E2E2
310
E2E2E2E2E2E2E2E2E2E2E2E2E2E2E2E2E2E2E2E2E2E2E2E2E2E2E2E2E2E2E2E2E2E2E2F5E2E2E2E2E2E20000E2E2E2E2E2E2E2E2F5E2E2E2E2F5F5F5E2EFEFEFE2E2E2E2E2E2E2E2E2E2EC28E2E2E2ECE2EC28E2E2E2E2E2E2E2E2E2E2E2E2E2E2E2E2E2E2E2E2E2E2E2E2E2E2E2E2E2E2E2E2E2E2E2E2E2E2E2E2E2E2E2E2
310
E2E2E2E2E2E2E2E2F5E2E2E2E2E2E20000E2E2E2E2E2E2E2E2F5E2E2F5F5F5F5F5F5EFEFEFEFE2E2E2E2E2E2E2E2E2EC28E2E2E2ECECEC28E2E2E2E2E2E2E2E2E2E2E2E2E2E2E2E2E2E2E2E2E2E2E2E2E2E2E2E2E2E2E2E2E2E2E2E2E2E2E2E2E2E2E2E2E2E2E2E2E2E2E2E2F5E2E2E2E2E2E20000E2E2E2E2E2E2E2E2F5E2
310
E2F5F5F5F5F5F5EFE2E2EFEFEFEFEFEFEFEFEC28EC28E2E2E2ECECE228E2E2E2E2E2E2E2E2E2E2E2E2E2E2E2E2E2E2E2E2E2E2E2E2E2E2E2E2E2E2E2E2E2E2E2E2E2E2E2E2E2E2E2E2E2E2E2E2E2E2E2E2F5E2E2E2E2E2E20000E2E2E2E2E2E2E2E2F5E2E2E2F5F5F5F5F5EFE2E2E2EFEFEFEFEFEFEFEC28EC28E2E2E2ECEC
310
E228E2E2E2E2E2E2E2E2E2E2E2E2E2E2E2E2E2E2E2E2E2E2E2E2E2E2E2E2E2E2E2E2E2E2E2E2E2E2E2E2E2E2E2E2E2E2E2E2E2E2E2E2F5E2E2E2E2E2E20000E2E2E2E2E2E2E2E2F5E2E2E2F5F5F5F5F5EFE2E2E2EFEFEFEFEFECECEC28ECECE2E2E2ECEC2828E2E2E2E2E2E2E2E2E2E2E2E2E2E2E2E2E2E2E2E2E2E2E2E2E2
310
E2E2E2E2E2E2E2E2E2E2E2E2E2E2E2E2E2E2E2E2E2E2E2E2E2E2E2F5E2E2E2E2E2E20000E2E2E2E2E2E2E2E2F5E2E2E2E2E2E2E2E2EFE2E2E2E2E2E2E2E2ECECEC28ECECECEC28282828E2E2E2E2E2E2E2E2E2E2E2E2E2E2E2E2E2E2E2E2E2E2E2E2E2E2E2E2E2E2E2E2E2E2E2E2E2E2E2E2E2E2E2E2E2E2E2E2E2E2E2E2E2
310
F5E2E2E2E2E2E20000E2E2E2E2E2E2E2E2F5E2E2E2E2E2E2E2E2EFEFEFEFEFE2E2E2E2ECE2E228ECE2ECECECECE2E2E2E2E2E2E2E2E2E2E2E2E2E2E2E2E2E2E2E2E2E2E2E2E2E2E2E2E2E2E2E2E2E2E2E2E2E2E2E2E2E2E2E2E2E2E2E2E2E2E2E2E2E2E2F5E2E2E2E2E2E20000E2E2E2E2E2E2E2E2F5E2E2E2E2E2E2E2E2EF
310
EFEFEFEFEFEFEFEFECECE228ECE2ECECE2ECE2E2E2E2E2E2E2E2E2E2E2E2E2E2E2E2E2E2E2E2E2E2E2E2E2E2E2E2E2E2E2E2E2E2E2E2E2E2E2E2E2E2E2E2E2E2E2E2E2E2E2E2E2E2E2F5E2E2E2E2E2E20000E2E2F5E2E2E2E2E2F5E2E2E2E2E2E2E2E2EFEFEFEFEFEFEFEFEFECECEC28ECECECECE2ECE2E2E2E2E2E2E2E2E2
310
E2E2E2E2E2E2E2E2E2E2E2E2E2E2E2E2E2E2E2E2E2E2E2E2E2E2E2E2E2E2E2E2E2E2E2E2E2E2E2E2E2E2E2E2E2E2F5E2E2E2F5E2E20000E2E2F5E2E2E2E2E2F5E2E2E2F5F5F5F5F5EFEFF5ECF5F5F5ECF5ECE2ECECECECECECE2ECE2E2E2E2E2E2E2E2E2E2E2E2E2E2E2E2E2E2E2E2E2E2E2E2E2E2E2E2E2E2E2E2E2E2E2E2
310
E2E2E2E2E2E2E2E2E2E2E2E2E2E2E2E2E2E2E2F5E2E2E2F5E2E20000E2E2F5E2E2E2E2E2F5E2E2E2F5F5F5F5F5EFEFF5ECF5F5F5ECF5ECECE2ECE2E2E2ECECECECECECECECE2E2E2E2E2E2E2E2E2E2E2E2E2E2E2E2E2E2E2E2E2E2E2E2E2E2E2E2E2E2E2E2E2E2E2E2E2E2E2E2E2E2E2E2E2E2E2E2E2E2F5E2E2E2F5E2E200
310
00E2E2F5E2E2E2E2E2F5E2E2E2E2E2E2E2E2EFEFF5ECE2E2F5ECF5ECECECECE2E2E2ECECE2E2E2E2ECECE2E2E2E2E2E2E2E2E2E2E2E2E2E2E2E2E2E2E2E2E2E2E2E2E2E2E2E2E2E2E2E2E2E2E2E2E2E2E2E2E2E2E2E2E2E2E2E2E2E2F5E2E2E2F5E2E20000E2E2F5E2E2E2E2E2F5E2E2E2E2E2E2E2E2EFEFF5ECE2E2F5ECF5
310
ECE2EC28E2E2E2ECE2E2E2E2ECECECE2E2E2E2E2E2E2E2E2E2E2E2E2E2E2E2E2E2E2E2E2E2E2E2E2E2E2E2E2E2E2E2E2E2E2E2E2E2E2E2E2E2E2E2E2E2E2E2E2E2F5E2E2E2F5E2E20000E2E2F5E2E2E2E2E2F5E2E2E2E2E2E2E2E2E2ECF5ECE2E2F5ECF52828EC28ECECECF5F5F5F5F5F5F5E2E2E2E2E2E2E2E2E2E2E2E2E2
310
E2E2E2E2E2E2E2E2E2E2E2E2F5F5E2E2E2E2E2E2E2E2E2E2F5F5E2E2E2E2E2E2E2E2E2E2E2E2F5E2E2E2F5E2E20000E2E2F5E2E2E2E2E2F5E2E2E2E2E2E2E2E2E2E2F5ECE2E2F5ECF5E2E2E2E2E2E2E2F5F5F5F5F5F5F5E2E2E2E2E2E2E2E2E2E2E2E2E2E2E2E2E2E2E2E2E2E2E2E2E2F5F5ECECECECECE2E2E2E2E2F5ECEC
310
ECECECE2E2E2E2E2E2E2E2F5E2E2E2F5E2E20000E2E2F5E2E2E2E2E2F5E2E2E2E2E2E2E2E2E2E2E2E2E2E2E2E2E2E2E2E2E2E2E2E2F5F5F5F5F5F5F5F5F5F5E2E2E2E2E2E2E2E2E2E2E2E2E2E2E2E2E2E2E2E2E2E2E2E2E2E2E2E2ECE2E2E2E2E2E2E2E2E2E2ECE2E2E2E2E2E2E2E2F5E2E2E2F5E2E20000E2E2F5E2E2E2E2
310
E2F5E2E2E2E2E2E2E2E2E2E2E2E2E2E2E2E2E2E2E2E2E2E2E2E2F5F5F5F5F5F5F5F5F5F5E2E2E2E2E2E2E2E2E2E2E2E2E2E2E2E2E2E2E2E2E2E2E2E2E2E2E2E2ECE2E2E2E2E2E2E2E2E2E2ECE2E2E2E2E2E2E2E2F5E2E2E2F5E2E20000E2E2F5E2E2E2E2E2F5E2E2E2E2E2E2E2E2E2E2F5ECE2E2F5ECF5E2E2E2E2E2E2E2E2
310
E2E2E2E2E2E2E2E2E2E2E2E2E2E2E2E2E2E2E2E2E2E2E2E2E2E2E2E2E2E2E2DCDCDCDCDCDCDCDCDCDCDCDCDCDCDCDCDCDCDCDCDCDCDCDCE2E2F5E2E2E2F5E2E20000E2E2F5E2E2E2E2E2F5E2E2E2E2E2E2E2E2E2E2F5ECE2E2F5ECF5EC282828E2E2E2E2E2E2E2E2E2E2E2E2E2E2E2E2E2E2E2E2E2E2E2E2E2E2E2E2E2E2E2
310
E2E2E2E2DCDCDCDCDCDCDCDCDCDCDCDCDCDCDCDCDCECDCDCDCDCDCDCE2E2F5E2E2E2F5E2E20000E2E2F5E2E2E2E2E2F5E2E2E2E2E2E2E2E2EFECECECE2E2F5ECF5ECE2EC28E2E2E2E2E2E2E2E2E2E2E2E2E2E2E2E2E2E2E2E2E2E2E2E2E2E2E2E2E2E2E2E2E2E2E2DCF5E2E2E2E2ECE2E2E2E2F5DCDCE2E2E2ECE2E2E2E2DC
310
DCE2E2F5E2E2E2F5E2E20000E2E2F5E2E2E2E2E2F5E2E2E2E2E2E2E2E2EFECECF5F5F5F5ECF5ECE2EC28E2E2E2E2E2E2E2E2E2E2E2E2E2E2E2E2E2E2E2E2E2E2E2E2E2E2E2E2E2E2E2E2E2E2E2DCF5E2E2E2E2ECE2E2E2E2F5DCDCE2E2E2ECE2E2E2E2DCDCE2E2F5E2E2E2F5E2E20000E2E2F5E2E2E2E2E2F5E2E2E2E2F5F5
310
F5F5EFECECECE2E2F5ECF5ECECECECE2E2E2E2E2E2E2E2E2E2E2E2E2E2E2E2E2E2E2E2E2E2E2E2E2E2E2E2E2E2E2E2E2E2E2DCF5E2E2E2E2ECE2E2E2E2F5DCDCE2E2E2ECE2E2E2E2DCDCE2E2F5E2E2E2F5E2E20000E2E2F5E2E2E2E2E2F5E2E2E2F5F5F5F5F5EFECECF5F5F5F5ECF5ECECECECE2E2E2E2E2E2E2E2E2E2E2E2
310
E2E2E2E2E2E2E2E2E2E2E2E2E2E2E2E2E2E2E2E2E2E2E2DCF5E2E2E2E2ECE2E2E2E2F5DCDCE2E2E2ECE2E2E2E2DCDCE2E2F5E2E2E2F5E2E20000E2E2F5E2E2E2E2E2F5E2E2E2F5F5F5F5F5EFEFE2E2E2E2E2E2E2ECE2EC28E2E2E2E2E2E2E2E2E2E2E2E2E2E2E2E2E2E2E2E2E2E2E2E2E2E2E2E2E2E2E2E2E2E2E2DCF5E2E2
310
E2E2E2E2E2E2E2F5DCDCE2E2E2E2E2E2E2E2DCDCE2E2F5E2E2E2F5E2E20000E2E2F5E2E2E2E2E2F5E2E2E2E2E2E2E2E2EFEFEFEFEFEFEFEFEFECECEC28E2E2E2E2E2E2E2E2E2E2E2E2E2E2E2E2E2E2E2E2E2E2E2E2E2E2E2E2E2E2E2E2E2E2E2DCF5E2E2E2E2E2E2E2E2E2F5DCDCE2E2E2E2E2E2E2E2DCDCE2E2F5E2E2E2F5
310
E2E20000E2E2E2E2E2E2E2E2F5E2E2E2E2E2E2E2E2EFEFEFEFEFE2E2E2E2ECE2E228E2E2E2E2E2E2E2E2E2E2E2E2E2E2E2E2E2E2E2E2E2E2E2E2E2E2E2E2E2E2E2E2E2E2E2DCF5E2E2E2E2E2E2E2E2E2F5DCDCE2E2E2E2E2E2E2E2DCDCE2E2F5E2E2E2E2E2E20000E2E2E2E2E2E2E2E2F5E2E2E2E2E2E2E2E2EFE2E2E2E2E2
310
E2E2E2EC282828E2E2E2E2E2E2E2E2E2E2E2E2E2E2E2E2E2E2E2E2E2E2E2E2E2E2E2E2E2E2E2E2E2E2E2DCF5E2E2E2E2E2E2E2E2E2F5DCDCE2E2E2E2E2E2E2E2DCDCE2E2F5E2E2E2E2E2E20000E2E2E2E2E2E2E2E2F5E2E2E2E2E2E2E2E2EFE2E2E2E2E2E2E2E2ECECECECEC2828EC28282828EC28EC282828EC2828282828
310
EC28E2E2E2E2E2E2E2E2E2E2E2E2E2DCDCDCDCDCDCDCDCDCDCDCDCDCDCE2E2E2E2E2E2E2E2DCDCE2E2F5E2E2E2E2E2E20000E2E2E2E2E2E2E2E2F5E2E2E2E2E2E2E2E2EFE2E2E2EFEFEFEFEFECECECECEC28E2ECE2E2E2E2ECECE2E2E2E2E2ECE2E2E2E2EC28E2E2E2E2E2E2E2E2E2E2E2E2E2DCDCDCDCDCDCDCDCDCDCDCDC
310
DCDCE2E2E2E2E2E2E2E2DCDCE2E2F5E2E2E2E2E2E20000E2E2E2E2E2E2E2E2F5E2E2E2F5F5F5F5F5EFE2E2EFEFEFEFEFEFEFEFECECEC2828ECE2E2E2E2E2ECECE2E2E2E2ECE2E2E2E2EC28E2E2E2E2E2E2E2E2E2E2E2E2E2DCDCDCDCDCDCDCDCDCDCDCDCDCDCE2E2E2E2E2E2E2E2DCDCE2E2F5E2E2E2E2E2E20000E2E2E2E2
310
E2E2E2E2F5E2E2E2F5F5F5F5F5EFE2EFEFEFE2E2E2E2E2EFEFECEF28ECECECE2E2E2ECE2ECECE2E2E2ECECE2E2ECECECE2E2E2E2E2E2E2E2E2E2E2E2E2DCDCF5E2E2E2E2E2E2E2F5DCDCDCE2E2E2E2E2E2E2E2DCDCE2E2F5E2E2E2E2E2E20000E2E2E2E2E2E2E2E2F5E2E2E2E2E2E2E2E2EFEFEFEFE2E2E2E2E2E2E2E2E2EF
310
2828EC28EC28ECE2E2E2ECE2E2E2ECECECECE2E2ECE2E2E2E2E2E2E2E2E2E2E2E2E2DCDCF5E2E2E2E2E2E2F5E2DCDCDCE2E2E2E2E2E2E2E2DCDCE2E2F5E2E2E2E2E2E20000E2E2E2E2E2E2E2E2F5E2E2E2E2E2E2E2E2E2EFEFE2ECEFE2EFEFEFEFEFEFEFEFEFEFEFEF28E2E2E2E2ECECECECE228282828E228E2E2E2E2E2E2
310
E2E2E2E2E2E2E2DCDCE2F5E2E2E2E2E2F5E2DCDCDCE2E2E2E2E2E2E2E2DCDCE2E2F5E2E2E2E2E2E20000E2E2E2E2E2E2E2E2F5E2E2E2E2E2E2E2E2E2EFEFECECEFE2EFEFEFEFEFEFEFE2E2E2E2E228E2ECECECE2ECE2E2E228E2E228E228E2E2E2E2E2E2E2E2E2E2E2E2E2DCDCE2F5E2E2E2E2F5E2E2DCDCDCE2E2E2E2E2E2
310
E2E2DCDCE2E2F5E2E2E2E2E2E20000E2E2E2E2E2E2E2E2F5E2E2E2E2E2E2E2E2E2E2EFECECEFEFEFEFE2E2EFEFEFE2E2E2E2E22828282828282828282828E2E2282828E2E2E2E2E2E2E2E2E2E2E2E2E2DCDCE2E2F5E2ECE2F5E2E2DCDCDCE2E2E2E2E2E2E2E2DCDCE2E2F5E2E2E2E2E2E20000E2E2F5E2E2E2E2E2F5E2E2E2
310
E2E2E2E2E2E2E2E2EFECEFE2E2E2E2E2E2E2EFE2E2E2E2E2E2E2E2E2E2E2E2E2E2E2E2E2E2E2E2E2E2E2E2E2E2E2E2E2E2E2E2E2E2DCDCE2E2E2F5ECF5E2E2E2DCDCDCE2E2E2ECE2E2E2E2DCDCE2E2F5E2E2E2F5E2E20000E2E2F5E2E2E2E2E2F5E2E2E2E2E2E2E2E2E2EFEFEFEFEFE2E2E2E2E2E2E2EFEFE2E2E2E2E2E2E2
310
E2E2E2E2E2E2E2E2E2E2E2E2E2E2E2E2E2E2E2E2E2E2E2E2E2E2DCDCE2E2E2F5ECF5E2E2E2DCDCDCE2E2E2ECE2E2E2E2DCDCE2E2F5E2E2E2F5E2E20000E2E2F5E2E2E2E2E2F5E2E2E2E2E2E2E2E2E2EFEFE2E2E2E2E2E2E2E2E2E2E2E2E2E2E2E2E2E2E2E2E2E2E2E2E2E2E2E2E2E2E2E2E2E2E2E2E2E2E2E2E2E2E2E2E2DC
310
DCE2E2E2F5F5F5E2E2E2DCDCDCE2E2E2ECE2E2E2E2DCDCE2E2F5E2E2E2F5E2E20000E2E2F5E2E2E2E2E2F5E2E2E2E2E2E2E2E2E2EFE2E2E2E2E2E2E2E2E2E2E2E2E2E2E2E2E2E2E2E2E2E2E2E2E2E2E2E2E2E2E2E2E2E2E2E2E2E2E2E2E2E2E2E2E2E2DCDCDCDCDCDCDCDCDCDCDCDCDCDCE2E2E2ECE2E2E2E2DCDCE2E2F5E2
310
E2E2F5E2E20000E2E2F5E2E2E2E2E2F5E2E2E2E2E2E2E2E2E2EFE2F5F5F5F5F5F5F5F5F5F5F5E2E2E2E2E2E2E2E2E2E2E2E2E2E2E2E2E2E2E2E2E2E2E2E2E2E2E2E2E2E2E2E2E2E2DCDCDCDCDCDCDCDCDCDCDCDCDCDCDCDCDCDCDCDCDCDCDCDCE2E2F5E2E2E2F5E2E20000E2E2F5E2E2E2E2E2F5E2E2E2E2E2E2E2E2E2EFE2
310
F5F5F5F5F5F5F5F5F5F5F5E2E2E2E2E2E2E2E2E2E2E2E2E2E2E2E2E2E2E2E2E2E2E2E2E2E2E2E2E2E2E2E2E2E2F5F5DCDCDCDCDCDCDCDCDCDCDCDCDCDCDCDCDCDCDCDCDCDCE2E2F5E2E2E2F5E2E20000E2E2F5E2E2E2E2E2F5E2E2E2E2E2E2E2E2E2EFEFF5F5F5F5F5E2E2E2E2E2E2E2E2E2E2E2E2E2E2E2E2E2E2E2E2E2E2
310
E2E2E2E2E2E2E2E2E2E2E2E2E2E2E2E2E2E2F5F5E2E2E2E2ECE2E2E2E2E2F5F5E2E2E2ECE2E2E2E2E2E2E2E2F5E2E2E2F5E2E20000E2E2F5E2E2E2E2E2F5E2E2E2E2E2E2E2E2E2EFEFEFE2E2E2E2E2E2E2E2E2E2E2E2E2E2E2E2E2E2E2E2E2E2E2E2E2E2E2E2E2E2E2E2E2E2E2E2E2E2E2E2E2E2E2E2F5F5ECECECECECE2E2
310
E2E2E2F5ECECECECECE2E2E2E2E2E2E2E2F5E2E2E2F5E2E20000E2E2F5E2E2E2E2E2F5E2E2E2E2E2E2E2E2E2E2E2E2E2E2E2E2E2E2E2E2E2E2E2E2E2E2E2E2E2E2E2E2E2E2E2E2E2E2E2E2E2E2E2E2E2E2E2E2E2E2E2E2E2E2E2E2E2E2E2E2E2E2E2E2E2E2E2E2E2E2E2E2E2E2E2E2E2E2E2E2E2E2F5E2E2E2F5E2E20000E2
310
E2F5E2E2E2E2E2F5E2E2E2E2E2E2E2E2E2E2E2E2E2E2E2E2E2E2E2E2E2E2E2E2E2E2E2E2E2E2E2E2E2E2E2E2E2E2E2E2E2E2E2E2E2E2E2E2E2E2E2E2E2E2E2E2E2E2E2E2E2E2E2E2E2E2E2E2E2E2E2E2E2E2E2E2E2E2E2E2E2E2F5E2E2E2F5E2E20000E2E2F5E2E2E2E2E2F5E2E2E2E2E2E2E2E2E2E2E2E2E2E2E2E2E2E2E2
310
E2E2E2E2E2E2E2E2E2E2E2E2E2E2E2E2E2E2E2E2E2E2E2E2E2E2E2E2E2E2E2E2E2E2E2E2E2E2E2E2E2E2E2E2E2E2E2E2E2E2E2E2E2E2E2E2E2E2E2E2E2E2E2F5E2E2E2F5E2E20000E2E2F5E2E2E2E2E2F5E2E2E2E2E2E2E2E2E2E2E2E2E2E2E2E2E2E2E2E2E2E2E2E2E2E2E2E2E2E2E2E2E2E2E2E2E2E2E2E2E2E2E2E2E2E2
310
E2E2E2E2E2E2E2E2E2E2E2E2E2E2E2E2E2E2E2E2E2E2E2E2E2E2E2E2E2E2E2E2E2E2E2E2F5E2E2E2F5E2E20000E2E2F5E2E2E2E2E2F5E2E2E2E2E2E2E2E2E2E2E2E2E2E2E2E2E2E2E2E2E2E2E2E2E2E2E2E2E2E2E2E2E2E2E2E2E2E2E2E2E2E2E2E2E2E2E2E2E2E2E2E2E2E2E2E2E2E2E2E2E2E2E2E2E2E2E2E2E2E2E2E2E2
310
E2E2E2E2E2E2E2E2E2F5E2E2E2F5E2E20000E2E2F5E2E2E2E2E2F5E2E2E2E2E2E2E2E2E2E2E2E2E2E2E2E2E2E2E2E2E2E2E2E2E2E2E2E2E2E2E2E2E2E2E2E2E2E2E2E2E2E2E2E2E2E2E2E2E2E2E2E2E2E2E2E2E2E2E2E2E2E2E2E2E2E2E2E2E2E2E2E2E2E2E2E2E2E2E2E2E2E2F5E2E2E2F5E2E20000E2E2F5E2E2E2E2E2F5
310
E2E2E2E2E2E2E2E2E2E2E2E2E2E2E2E2E2E2E2E2E2E2E2E2E2E2E2E2E2E2E2E2E2E2E2E2E2E2E2E2E2E2E2E2E2E2E2E2E2E2E2E2E2E2E2E2E2E2E2E2E2E2E2E2E2E2E2E2E2E2E2E2E2E2E2E2E2E2E2E2E2E2F5E2E2E2F5E2E20000E2E2F5E2E2E2E2E2F5E2E2E2E2E2E2E2E2E2E2E2E2E2E2E2E2E2E2E2E2E2E2E2E2E2E2E2
310
E2E2E2E2E2E2E2E2E2E2E2E2E2E2E2E2E2E2E2E2E2E2E2E2E2E2E2E2E2E2E2E2E2E2E2E2E2E2E2E2E2E2E2E2E2E2E2E2E2E2E2E2E2E2E2F5E2E2E2F5E2E20000E2E2F5E2E2E2E2E2F5E2E2E2E2E2E2E2E2E2E2E2E2E2E2E2E2E2E2E2E2E2E2E2E2E2E2E2E2E2E2E2E2E2E2E2E2E2E2E2E2E2E2E2E2E2E2E2E2E2E2E2E2E2E2
310
E2E2E2E2E2E2E2E2E2E2E2E2E2E2E2E2E2E2E2E2E2E2E2E2E2E2E2E2F5E2E2E2F5E2E20000E2E2E2E2E2E2E2E2F5E2E2E2E2E2E2E2E2E2E2E2E2E2E2E2E2E2E2E2E2E2E2E2E2E2E2E2E2E2E2E2E2E2E2E2E2E2E2E2E2E2E2E2E2E2E2E2E2E2E2E2E2E2E2E2E2E2E2E2E2E2E2E2E2E2E2E2E2E2E2E2E2E2E2E2E2E2E2E2E2E2
310
E2F5E2E2E2E2E2E20000E2E2E2E2E2E2E2E2F5F5F5F5F5F5F5F5F5F5F5F5F5F5F5F5F5F5F5F5F5F5F5F5F5F5F5F5F5F5F5F5F5F5F5F5F5F5F5F5F5F5F5F5F5F5F5F5F5F5F5F5F5F5F5F5F5F5F5F5F5F5F5F5F5F5F5F5F5F5F5F5F5F5F5F5F5F5F5F5F5F5F5F5E2E2E2E2E2E20000E2E2E2E2E2E2E2E2F5F5F5F5F5F5F5F5F5
310
F5F5F5F5F5F5F5F5F5F5F5F5F5F5F5F5F5F5F5F5F5F5F5F5F5F5F5F5F5F5F5F5F5F5F5F5F5F5F5F5F5F5F5F5F5F5F5F5F5F5F5F5F5F5F5F5F5F5F5F5F5F5F5F5F5F5F5F5F5F5F5F5F5F5F5E2E2E2E2E2E20000E2E2E2E2E2E2E2E2E2E2E2E2E2E2E2E2E2E2E2E2E2E2E2E2E2E2E2E2E2E2E2E2E2E2E2E2E2E2E2E2E2E2E2E2
310
E2E2E2E2E2E2E2E2E2E2E2E2E2E2E2E2E2E2E2E2E2E2E2E2E2E2E2E2E2E2E2E2E2E2E2E2E2E2E2E2E2E2E2E2E2E2E2E2E2E2E2E2E2E20000E2E2E2E2E2E2E2E2E2E2E2E2E2E2E2E2E2E2E2E2E2E2E2E2E2E2E2E2E2E2E2E2E2E2E2E2E2E2E2E2E2E2E2E2E2E2E2E2E2E2E2E2E2E2E2E2E2E2E2E2E2E2E2E2E2E2E2E2E2E2E2
310
E2E2E2E2E2E2E2E2E2E2E2E2E2E2E2E2E2E2E2E2E2E2E2E2E2E2E20000E2E2E2E2E2E2E2E2E2E2E2E2E2E2E2E2E2E2E2E2E2E2E2E2E2E2F5F5F5F5F5F5F5F5F5F5F5F5F5F5E2E2E2F5F5F5F5F5F5F5E2E2F5F5F5F5F5F5F5F5F5F5F5E2E2E2E2E2E2E2E2E2E2E2E2E2E2E2E2E2E2E2E2E2E2E2E2E2E2E2E2E2E2E2E2E2E2E2
310
0000E2E2E2E2E2E2E2E2E2E2F5F5F5F5F5F5F5F5F5F5F5F5E2E2E2E2F5F5F5F5F5F5F5F5F5F5F5F5F5F5E2E2E2F5F5F5F5F5F5F5E2E2F5F5F5F5F5F5F5F5F5F5F5E2E2E2E2E2E2E2E2E2E2E2E2E2E2E2E2E2E2E2E2E2E2E2E2E2E2E2E2E2E2E2E2E2E2E20000E2E2E2E2E2E2E2E2E2F5F5F5F5F5F5F5F5F5F5F5F5F5F5F5E2
310
E2E2E2E2E2E2E2E2E2E2E2E2E2E2E2E2E2E2E2E2E2E2E2E2E2E2E2E2E2E2E2E2E2E2E2E2E2E2E2E2E2E2E2E2E2E2E2E2E2E2E2E2E2E2E2E2E2E2E2E2E2E2E2E2E2E2E2E2E2E2E2E2E20000E2E2E2E2E2E2E2E2F5F5F5F5F5F5F5F5F5F5F5F5F5F5F5F5F5E2F5F5F5F5F5F5F5F5F5F5F5F5F5F5F5F5F5F5F5F5F5F5F5F5F5F5
310
F5F5F5F5F5F5F5F5F5F5F5F5F5F5F5F5F5F5F5F5F5F5F5F5F5F5F5F5F5F5F5F5F5F5F5F5F5F5F5F5E2E2E2E2E2E20000E2E2F5E2E2E2E2E2F5F5F5E2E2F5F5F5F5F5F5F5F5F5E2E2F5E2F5F5F5F5F5F5F5F5F5F5F5F5F5F5F5F5F5F5F5E2E2E2E2E2E2E2E2E2E2E2E2E2E2E2E2E2E2E2E2E2E2E2E2E2E2E2E2E2E2E2E2E2E2
310
E2E2E2E2E2E2E2E2E2E2E2E2E2E2E2E2F5E2E20000E2E2F5E2E2E2E2E2F5F5E2F5F5F5F5F5F5F5F5F5F5F5E2E2F5E2F5F5F5F5F5F5F5F5F5F5F5F5F5F5F5F5F5F5F5E2E2E2E2E2E2E2E2E2E2E2E2E2E2E2E2E2E2E2E2E2E2E2E2E2E2E2E2E2E2E2E2E2E2E2E2E2E2E2E2E2E2E2E2E2E2E2E2E2E2F5E2E20000E2E2F5E2E2E2
310
E2E2E2F5F5F5F5F5F5F5F5F5F5F5E2E2F5F5F5E2F5F5F5F5F5F5F5F5F5F5F5F5F5F5F5F5F5F5F5F5F5F5F5F5F5F5F5F5F5F5F5F5F5F5F5F5F5F5F5F5F5F5F5F5F5F5F5F5F5F5E2E2E2E2E2E2E2E2E2E2E2E2E2E2E2E2E2E2E2F5E2E20000E2E2F5E2E2E2E2E2E2E2F5F5F5F5F5E2E2E2F5F5F5F5F5F5E2E2F5F5F5F5F5F5F5
310
F5F5F5F5F5F5F5F5F5F5F5F5F5F5F5F5F5F5F5F5F5F5F5F5F5F5F5F5F5F5F5F5F5F5F5F5F5F5F5F5F5F5F5E2E2E2E2E2E2E2E2E2E2E2E2E2E2E2E2E2E2E2F5E2E20000E2E2F5E2E2E2E2E2E2E2E2E2E2F5F5F5F5F5F5F5F5E2E2E2E2E2E2E2E2E2E2E2E2E2E2E2E2E2E2E2E2E2E2E2E2E2E2E2E2E2E2E2E2E2E2E2E2E2E2E2
310
E2E2E2E2E2E2E2E2E2E2E2E2E2E2E2E2E2E2E2E2E2E2E2E2E2E2E2E2E2E2E2E2E2E2E2F5E2E20000E2E2F5E2E2E2E2E2E2E2E2E2E2E2E2E2E2E2E2E2E2E2E2E2E2E2E2E2E2E2E2E2E2E2E2E2E2E2E2E2E2E2E2E2E2E2E2E2E2E2E2E2E2E2E2E2E2E2E2E2E2E2E2E2E2E2E2E2E2E2E2E2E2E2E2E2E2E2E2E2E2E2E2E2E2E2E2
310
E2E2E2E2E2E2E2E2F5E2E2E2E2E2E2F5E2E2E2E2E2E2E2E2E2E2E2E2E2E2E2E2E2E2E2E2E2E2E2E2E2E2E2E2E2E2E2E2E2E2E2E2E2E2E2E2E2E2E2E2E2E2E2E2E2E2E2E2E2E2E2E2E2E2E2E2E2E2E2E2E2E2E2E2E2E2E2E2E2E2E2E2E2E2E2E2E2E2E2E2E2E2E2E2E2E2E2E2F5E2E2F5F5E2E2F5E2E2E2E2E2E2E2E2E2E2E2
310
E2E2E2E2E2E2E2E2E2E2E2E2E2E2E2E2E2E2E2E2E2E2E2E2E2E2E2E2E2E2E2E2E2E2E2E2E2E2E2E2E2E2E2E2E2E2E2E2E2E2E2E2E2E2E2E2E2E2E2E2E2E2E2E2E2E2E2E2E2E2E2E2E2E2E2E2E2E2E2E2E2F5E2E27FF5E2E2F5F5F5F5F5F5F5F5E2E2E2E2E2E2E2E2F5F5F5F5F5F5F5F5F5F5F5F5F5F5F5E2E2E2E2E2E2E2E2
310
E2F5F5F5F5F5F5F5F5F5F5F5F5F5F5E2E2E2E2E2E2E2E2E2F5F5F5F5F5F5F5F5F5F5F5F5F5F5F5E2E2E2E2E2E2E2E2F5F5F5F5F5F5F5F5E2E2E2E2E2E2E2E2E2E2E2E2E2E2E2E2E2E2E2E2E2E2E2E2E2E2E2E2E2E2E2E2E2E2E2E2E2E2E2E2E2E2E2E2E2E2E2E2E2E2E2E2E2E2E2E2E2E2E2E2E2E2E2E2E2E2E2E2E2E2E2E2
310
E2E2E2E2E2E2E2E2E2E2E2E2E2E2E2E2E2E2E2E2E2E2E2E2E2E2E2E2E2E2E2E2E2E2E2E2E2E2E2E2E2E2E2E2E2E2E2E2E2E2E2E2E2E2E2E2E2E2E2E2E2E2E2E2E2E2E2E2E2E2E2E2E2E2E2E2E2E2E2E2E2E2E2E2E2E2E2E2E2E2E2E2E2E2E2E2E2E2E2E2E2E2E2E2E2E2E2E2E2E2E2E2E2E2E2E2E2E2E2E2E2E2E2E2E2E2E2
310
E2E2E2E2E2E2E2E2E2E2E2E2E2E2E2E2E2E2E2E2E2E2E2E2E2E2E2E2E2E2E2E2E2E2E2E2E2E2E2E2E2E2E2E2E2E2E2E2E2E2E2E2E2E2E2E2E2E2E2E2E2E2E2E2E2E2E2E2E2E2E2E2E2E2E2E2E2E2E2E2E2E2E2E2E2E2E2E2E2E2E2E2E2E2E2E2E2E2E2E2E2E2E2E2E2E2E2E2E2E2E2E2E2E2E2E2E2E2E2E2E2E2E2E2E2E2E2
310
E2E2E2E2E2E2E2E2E2E2E2E2E2E2E2E2E2E2E2E2E2E2E2E2E2E2E2E2E2E2E2E2E2E2E2E2E2E2E2E2E2E2E2E2E2E2E2E2E2E2E2E2E2E2E2E2E2E2E2E2E2E2E2E2E2E2E2E2E2E2E2E2E2E2E2E2F5F5
  0
XRECORD
  5
5726
102
{ACAD_REACTORS
330
4FA6
102
}
330
4FA6
100
AcDbXrecord
280
     1
102
MATERIAL
148
0.0
149
0.0
149
0.0
 93
        0
 94
      127
282
     0
 72
     0
 77
     0
171
     0
175
     0
179
     0
273
     0
  0
XRECORD
  5
4FA8
102
{ACAD_REACTORS
330
4FA6
102
}
330
4FA6
100
AcDbXrecord
280
     1
270
     1
271
     1
  0
XRECORD
  5
4FA7
102
{ACAD_REACTORS
330
4FA6
102
}
330
4FA6
100
AcDbXrecord
280
     1
270
     1
271
     1
  0
XRECORD
  5
4FAB
102
{ACAD_REACTORS
330
4FA6
102
}
330
4FA6
100
AcDbXrecord
280
     1
270
     1
271
     1
  0
XRECORD
  5
4FAA
102
{ACAD_REACTORS
330
4FA6
102
}
330
4FA6
100
AcDbXrecord
280
     1
270
     1
271
     1
  0
XRECORD
  5
4FAC
102
{ACAD_REACTORS
330
4FA6
102
}
330
4FA6
100
AcDbXrecord
280
     1
270
     1
271
     1
  0
XRECORD
  5
4FA9
102
{ACAD_REACTORS
330
4FA6
102
}
330
4FA6
100
AcDbXrecord
280
     1
270
     1
271
     1
  0
XRECORD
  5
5725
102
{ACAD_REACTORS
330
4F9E
102
}
330
4F9E
100
AcDbXrecord
280
     1
102
MATERIAL
148
0.0
149
0.0
149
0.0
 93
        0
 94
      127
282
     0
 72
     0
 77
     0
171
     0
175
     0
179
     0
273
     0
  0
XRECORD
  5
4FA0
102
{ACAD_REACTORS
330
4F9E
102
}
330
4F9E
100
AcDbXrecord
280
     1
270
     1
271
     1
  0
XRECORD
  5
4F9F
102
{ACAD_REACTORS
330
4F9E
102
}
330
4F9E
100
AcDbXrecord
280
     1
270
     1
271
     1
  0
XRECORD
  5
4FA3
102
{ACAD_REACTORS
330
4F9E
102
}
330
4F9E
100
AcDbXrecord
280
     1
270
     1
271
     1
  0
XRECORD
  5
4FA2
102
{ACAD_REACTORS
330
4F9E
102
}
330
4F9E
100
AcDbXrecord
280
     1
270
     1
271
     1
  0
XRECORD
  5
4FA4
102
{ACAD_REACTORS
330
4F9E
102
}
330
4F9E
100
AcDbXrecord
280
     1
270
     1
271
     1
  0
XRECORD
  5
4FA1
102
{ACAD_REACTORS
330
4F9E
102
}
330
4F9E
100
AcDbXrecord
280
     1
270
     1
271
     1
  0
XRECORD
  5
5727
102
{ACAD_REACTORS
330
4FAE
102
}
330
4FAE
100
AcDbXrecord
280
     1
102
MATERIAL
148
0.0
149
0.0
149
0.0
 93
        0
 94
      127
282
     0
 72
     0
 77
     0
171
     0
175
     0
179
     0
273
     0
  0
XRECORD
  5
4FB0
102
{ACAD_REACTORS
330
4FAE
102
}
330
4FAE
100
AcDbXrecord
280
     1
270
     1
271
     1
  0
XRECORD
  5
4FAF
102
{ACAD_REACTORS
330
4FAE
102
}
330
4FAE
100
AcDbXrecord
280
     1
270
     1
271
     1
  0
XRECORD
  5
4FB3
102
{ACAD_REACTORS
330
4FAE
102
}
330
4FAE
100
AcDbXrecord
280
     1
270
     1
271
     1
  0
XRECORD
  5
4FB2
102
{ACAD_REACTORS
330
4FAE
102
}
330
4FAE
100
AcDbXrecord
280
     1
270
     1
271
     1
  0
XRECORD
  5
4FB4
102
{ACAD_REACTORS
330
4FAE
102
}
330
4FAE
100
AcDbXrecord
280
     1
270
     1
271
     1
  0
XRECORD
  5
4FB1
102
{ACAD_REACTORS
330
4FAE
102
}
330
4FAE
100
AcDbXrecord
280
     1
270
     1
271
     1
  0
XRECORD
  5
5867
102
{ACAD_REACTORS
330
5866
102
}
330
5866
100
AcDbXrecord
280
     1
102
SHADEPLOT
 70
     0
102
SHADEPLOTRESLEVEL
 70
     2
102
SHADEPLOTCUSTOMDPI
 70
   300
  0
XRECORD
  5
5869
102
{ACAD_REACTORS
330
5868
102
}
330
5868
100
AcDbXrecord
280
     1
102
SHADEPLOT
 70
     0
102
SHADEPLOTRESLEVEL
 70
     2
102
SHADEPLOTCUSTOMDPI
 70
   300
  0
ACAD_PROXY_OBJECT
  5
56FE
102
{ACAD_REACTORS
330
51E8
102
}
330
51E8
100
AcDbProxyObject
 90
      499
 91
      532
 95
   983063
 70
     0
 93
     5232
310
40D054060020000020000003200101A412A5058000000C10000000000000006101010000000000003E0FC000000000000F83F0000000000003E0FC000000000000F83F02B5E8DC0F42B1CFC0AD7A3703D0AC73F419019018000000C1003FBFFFFFE02B5E8DC0F42A9CFD029018000000C1003FBFFFFFE02B5E8DC0F42A9CFD
310
049018000000C1003FBFFFFFE02B5E8DC0F42A9CFD089018000000C1003FBFFFFFE02B5E8DC0F42A9CFD109018000000C1003FBFFFFFE02B5E8DC0F42A9CFD209018000000C1003FBFFFFFE02B5E8DC0F42A9CFD01405075F5449544C450041501A8000000C800406904A94160000003040000000000000012404040000000
310
00000F83F0000000000003E0FC000000000000F83F0000000000003E0FC0AD7A3703D0AC73F02B5E8DC0F42B1CFD0640640600000030400FEFFFFFF80AD7A3703D0AA73F40A40600000030400FEFFFFFF80AD7A3703D0AA73F41240600000030400FEFFFFFF80AD7A3703D0AA73F42240600000030400FEFFFFFF80AD7A370
310
3D0AA73F44240600000030400FEFFFFFF80AD7A3703D0AA73F48240600000030400FEFFFFFF80AD7A3703D0AA73F409014217D2115051115480105406A0000003200101A412A5028000000C10000000000000004901010000000000003E0FC000000000000F83F0000000000003E0FC000000000000F83F02B5E8DC0F42B1C
310
FC0AD7A3703D0AC73F419019018000000C1003FBFFFFFE02B5E8DC0F42A9CFD029018000000C1003FBFFFFFE02B5E8DC0F42A9CFD049018000000C1003FBFFFFFE02B5E8DC0F42A9CFD089018000000C1003FBFFFFFE02B5E8DC0F42A9CFD109018000000C1003FBFFFFFE02B5E8DC0F42A9CFD209018000000C1003FBFFFF
310
FE02B5E8DC0F42A9CFD03409065F444154410054
340
11
340
0
340
0
340
0
340
0
340
0
340
0
340
11
340
0
340
0
340
0
340
0
340
0
340
0
340
11
340
0
340
0
340
0
340
0
340
0
340
0
 94
        0
1001
ACAD
1000
AcRTDxfName
1000
CELLSTYLEMAP
1000
AcRTDxfName
1000
CELLSTYLEMAP
1000
AcRTDxfName
1000
CELLSTYLEMAP
1000
AcRTDxfName
1000
CELLSTYLEMAP
1000
AcRTDxfName
1000
CELLSTYLEMAP
  0
XRECORD
  5
5710
102
{ACAD_REACTORS
330
51E8
102
}
330
51E8
100
AcDbXrecord
280
     1
102
ACAD_ROUNDTRIP_PRE2007_TABLESTYLE
 90
        4
 91
        0
  1

 92
        4
 93
        0
  2

 94
        4
 95
        0
  3

  0
ENDSEC
  0
EOF
