  0
SECTION
  2
HEADER
  9
$ACADVER
  1
AC1015
  9
$ACADMAINTVER
 70
    20
  9
$DWGCODEPAGE
  3
ANSI_1252
  9
$INSBASE
 10
0.0
 20
0.0
 30
0.0
  9
$EXTMIN
 10
0.0
 20
0.0
 30
0.0
  9
$EXTMAX
 10
356.0
 20
483.9999999999998
 30
0.0
  9
$LIMMIN
 10
11.59500000000003
 20
10.19
  9
$LIMMAX
 10
189.595
 20
252.19
  9
$ORTHOMODE
 70
     0
  9
$REGENMODE
 70
     1
  9
$FILLMODE
 70
     1
  9
$QTEXTMODE
 70
     0
  9
$MIRRTEXT
 70
     0
  9
$LTSCALE
 40
0.25
  9
$ATTMODE
 70
     1
  9
$TEXTSIZE
 40
1.75
  9
$TRACEWID
 40
1.0
  9
$TEXTSTYLE
  7
Body
  9
$CLAYER
  8
APL Border
  9
$CELTYPE
  6
ByLayer
  9
$CECOLOR
 62
   256
  9
$CELTSCALE
 40
1.0
  9
$DISPSILH
 70
     0
  9
$DIMSCALE
 40
1.0
  9
$DIMASZ
 40
5.0
  9
$DIMEXO
 40
0.625
  9
$DIMDLI
 40
3.75
  9
$DIMRND
 40
0.0
  9
$DIMDLE
 40
0.0
  9
$DIMEXE
 40
1.25
  9
$DIMTP
 40
0.0
  9
$DIMTM
 40
0.0
  9
$DIMTXT
 40
2.5
  9
$DIMCEN
 40
2.5
  9
$DIMTSZ
 40
0.0
  9
$DIMTOL
 70
     0
  9
$DIMLIM
 70
     0
  9
$DIMTIH
 70
     0
  9
$DIMTOH
 70
     0
  9
$DIMSE1
 70
     0
  9
$DIMSE2
 70
     0
  9
$DIMTAD
 70
     1
  9
$DIMZIN
 70
     8
  9
$DIMBLK
  1

  9
$DIMASO
 70
     1
  9
$DIMSHO
 70
     1
  9
$DIMPOST
  1

  9
$DIMAPOST
  1

  9
$DIMALT
 70
     0
  9
$DIMALTD
 70
     3
  9
$DIMALTF
 40
0.03937007874016
  9
$DIMLFAC
 40
1.0
  9
$DIMTOFL
 70
     1
  9
$DIMTVP
 40
0.0
  9
$DIMTIX
 70
     0
  9
$DIMSOXD
 70
     0
  9
$DIMSAH
 70
     0
  9
$DIMBLK1
  1

  9
$DIMBLK2
  1

  9
$DIMSTYLE
  2
ISO-25
  9
$DIMCLRD
 70
     0
  9
$DIMCLRE
 70
     0
  9
$DIMCLRT
 70
     0
  9
$DIMTFAC
 40
1.0
  9
$DIMGAP
 40
0.625
  9
$DIMJUST
 70
     0
  9
$DIMSD1
 70
     0
  9
$DIMSD2
 70
     0
  9
$DIMTOLJ
 70
     0
  9
$DIMTZIN
 70
     8
  9
$DIMALTZ
 70
     0
  9
$DIMALTTZ
 70
     0
  9
$DIMUPT
 70
     0
  9
$DIMDEC
 70
     2
  9
$DIMTDEC
 70
     2
  9
$DIMALTU
 70
     2
  9
$DIMALTTD
 70
     3
  9
$DIMTXSTY
  7
Arial-Regular
  9
$DIMAUNIT
 70
     0
  9
$DIMADEC
 70
     0
  9
$DIMALTRND
 40
0.0
  9
$DIMAZIN
 70
     0
  9
$DIMDSEP
 70
    46
  9
$DIMATFIT
 70
     3
  9
$DIMFRAC
 70
     0
  9
$DIMLDRBLK
  1

  9
$DIMLUNIT
 70
     2
  9
$DIMLWD
 70
    -2
  9
$DIMLWE
 70
    -2
  9
$DIMTMOVE
 70
     0
  9
$LUNITS
 70
     2
  9
$LUPREC
 70
     4
  9
$SKETCHINC
 40
1.0
  9
$FILLETRAD
 40
0.0
  9
$AUNITS
 70
     0
  9
$AUPREC
 70
     0
  9
$MENU
  1
.
  9
$ELEVATION
 40
0.0
  9
$PELEVATION
 40
0.0
  9
$THICKNESS
 40
0.0
  9
$LIMCHECK
 70
     0
  9
$CHAMFERA
 40
10.0
  9
$CHAMFERB
 40
10.0
  9
$CHAMFERC
 40
20.0
  9
$CHAMFERD
 40
0.0
  9
$SKPOLY
 70
     0
  9
$TDCREATE
 40
2452682.337302118
  9
$TDUCREATE
 40
2452681.837302118
  9
$TDUPDATE
 40
2455660.390849965
  9
$TDUUPDATE
 40
2455659.890849965
  9
$TDINDWG
 40
0.9251054745
  9
$TDUSRTIMER
 40
0.9251048958
  9
$USRTIMER
 70
     1
  9
$ANGBASE
 50
0.0
  9
$ANGDIR
 70
     0
  9
$PDMODE
 70
     3
  9
$PDSIZE
 40
3.0
  9
$PLINEWID
 40
0.0
  9
$SPLFRAME
 70
     0
  9
$SPLINETYPE
 70
     6
  9
$SPLINESEGS
 70
     8
  9
$HANDSEED
  5
2DC2
  9
$SURFTAB1
 70
     6
  9
$SURFTAB2
 70
     6
  9
$SURFTYPE
 70
     6
  9
$SURFU
 70
     6
  9
$SURFV
 70
     6
  9
$UCSBASE
  2

  9
$UCSNAME
  2

  9
$UCSORG
 10
0.0
 20
0.0
 30
0.0
  9
$UCSXDIR
 10
1.0
 20
0.0
 30
0.0
  9
$UCSYDIR
 10
0.0
 20
1.0
 30
0.0
  9
$UCSORTHOREF
  2

  9
$UCSORTHOVIEW
 70
     0
  9
$UCSORGTOP
 10
0.0
 20
0.0
 30
0.0
  9
$UCSORGBOTTOM
 10
0.0
 20
0.0
 30
0.0
  9
$UCSORGLEFT
 10
0.0
 20
0.0
 30
0.0
  9
$UCSORGRIGHT
 10
0.0
 20
0.0
 30
0.0
  9
$UCSORGFRONT
 10
0.0
 20
0.0
 30
0.0
  9
$UCSORGBACK
 10
0.0
 20
0.0
 30
0.0
  9
$PUCSBASE
  2

  9
$PUCSNAME
  2

  9
$PUCSORG
 10
0.0
 20
0.0
 30
0.0
  9
$PUCSXDIR
 10
1.0
 20
0.0
 30
0.0
  9
$PUCSYDIR
 10
0.0
 20
1.0
 30
0.0
  9
$PUCSORTHOREF
  2

  9
$PUCSORTHOVIEW
 70
     0
  9
$PUCSORGTOP
 10
0.0
 20
0.0
 30
0.0
  9
$PUCSORGBOTTOM
 10
0.0
 20
0.0
 30
0.0
  9
$PUCSORGLEFT
 10
0.0
 20
0.0
 30
0.0
  9
$PUCSORGRIGHT
 10
0.0
 20
0.0
 30
0.0
  9
$PUCSORGFRONT
 10
0.0
 20
0.0
 30
0.0
  9
$PUCSORGBACK
 10
0.0
 20
0.0
 30
0.0
  9
$USERI1
 70
     0
  9
$USERI2
 70
     0
  9
$USERI3
 70
     0
  9
$USERI4
 70
     0
  9
$USERI5
 70
     0
  9
$USERR1
 40
0.0
  9
$USERR2
 40
0.0
  9
$USERR3
 40
0.0
  9
$USERR4
 40
0.0
  9
$USERR5
 40
0.0
  9
$WORLDVIEW
 70
     1
  9
$SHADEDGE
 70
     3
  9
$SHADEDIF
 70
    70
  9
$TILEMODE
 70
     0
  9
$MAXACTVP
 70
    64
  9
$PINSBASE
 10
0.0
 20
0.0
 30
0.0
  9
$PLIMCHECK
 70
     0
  9
$PEXTMIN
 10
11.46014299460751
 20
3.285575844812797
 30
-0.0015258207003583
  9
$PEXTMAX
 10
189.6073677543587
 20
282.2033753668244
 30
0.0000000349246037
  9
$PLIMMIN
 10
-5.027082920074462
 20
-5.408084392547607
  9
$PLIMMAX
 10
204.8615736961365
 20
291.6449246406555
  9
$UNITMODE
 70
     0
  9
$VISRETAIN
 70
     1
  9
$PLINEGEN
 70
     0
  9
$PSLTSCALE
 70
     1
  9
$TREEDEPTH
 70
  3020
  9
$CMLSTYLE
  2
Standard
  9
$CMLJUST
 70
     0
  9
$CMLSCALE
 40
20.0
  9
$PROXYGRAPHICS
 70
     1
  9
$MEASUREMENT
 70
     1
  9
$CELWEIGHT
370
    -1
  9
$ENDCAPS
280
     0
  9
$JOINSTYLE
280
     0
  9
$LWDISPLAY
290
     0
  9
$INSUNITS
 70
     4
  9
$HYPERLINKBASE
  1

  9
$STYLESHEET
  1
A4 Specifier Manual.ctb
  9
$XEDIT
290
     1
  9
$CEPSNTYPE
380
     0
  9
$PSTYLEMODE
290
     1
  9
$FINGERPRINTGUID
  2
{5C5B7ED4-663B-48E1-9F7A-5A0E9EDC2DBF}
  9
$VERSIONGUID
  2
{8F3DFB32-A441-48D8-AF6D-8683A1465997}
  9
$EXTNAMES
290
     1
  9
$PSVPSCALE
 40
0.0
  9
$OLESTARTUP
290
     0
  0
ENDSEC
  0
SECTION
  2
CLASSES
  0
CLASS
  1
ACDBDICTIONARYWDFLT
  2
AcDbDictionaryWithDefault
  3
ObjectDBX Classes
 90
        0
280
     0
281
     0
  0
CLASS
  1
ACDBPLACEHOLDER
  2
AcDbPlaceHolder
  3
ObjectDBX Classes
 90
        0
280
     0
281
     0
  0
CLASS
  1
LAYOUT
  2
AcDbLayout
  3
ObjectDBX Classes
 90
        0
280
     0
281
     0
  0
CLASS
  1
DICTIONARYVAR
  2
AcDbDictionaryVar
  3
ObjectDBX Classes
 90
        0
280
     0
281
     0
  0
CLASS
  1
DIMASSOC
  2
AcDbDimAssoc
  3
"AcDbDimAssoc|Product Desc:     AcDim ARX App For Dimension|Company:          Autodesk, Inc.|WEB Address:      www.autodesk.com"
 90
    32768
280
     0
281
     0
  0
CLASS
  1
TABLESTYLE
  2
AcDbTableStyle
  3
ObjectDBX Classes
 90
     2047
280
     0
281
     0
  0
CLASS
  1
MATERIAL
  2
AcDbMaterial
  3
ObjectDBX Classes
 90
        0
280
     0
281
     0
  0
CLASS
  1
VISUALSTYLE
  2
AcDbVisualStyle
  3
ObjectDBX Classes
 90
     4095
280
     0
281
     0
  0
CLASS
  1
SCALE
  2
AcDbScale
  3
ObjectDBX Classes
 90
     1153
280
     0
281
     0
  0
CLASS
  1
MLEADERSTYLE
  2
AcDbMLeaderStyle
  3
ACDB_MLEADERSTYLE_CLASS
 90
     4095
280
     0
281
     0
  0
CLASS
  1
EXACTERMXREFMAP
  2
ExAcTermXrefMap
  3
EXAC_SERVICE
 90
    33793
280
     0
281
     0
  0
CLASS
  1
NPOCOLLECTION
  2
AcDbImpNonPersistentObjectsCollection
  3
ObjectDBX Classes
 90
    33921
280
     0
281
     0
  0
CLASS
  1
EXACXREFPANELOBJECT
  2
ExAcXREFPanelObject
  3
EXAC_ESW
 90
    33793
280
     0
281
     0
  0
CLASS
  1
CELLSTYLEMAP
  2
AcDbCellStyleMap
  3
ObjectDBX Classes
 90
     1152
280
     0
281
     0
  0
CLASS
  1
SORTENTSTABLE
  2
AcDbSortentsTable
  3
ObjectDBX Classes
 90
        0
280
     0
281
     0
  0
ENDSEC
  0
SECTION
  2
TABLES
  0
TABLE
  2
VPORT
  5
8
102
{ACAD_XDICTIONARY
360
2465
102
}
330
0
100
AcDbSymbolTable
 70
     1
  0
VPORT
  5
2953
330
8
100
AcDbSymbolTableRecord
100
AcDbViewportTableRecord
  2
*Active
 70
     0
 10
0.0
 20
0.0
 11
1.0
 21
1.0
 12
160.4216586996568
 22
148.9221765226063
 13
0.0
 23
0.0
 14
10.0
 24
10.0
 15
10.0
 25
10.0
 16
0.0
 26
0.0
 36
1.0
 17
0.0
 27
0.0
 37
0.0
 40
396.0280359566795
 41
1.817945383615084
 42
50.0
 43
0.0
 44
0.0
 50
0.0
 51
0.0
 71
     0
 72
 20000
 73
     1
 74
     2
 75
     0
 76
     0
 77
     0
 78
     0
281
     0
 65
     1
110
0.0
120
0.0
130
0.0
111
1.0
121
0.0
131
0.0
112
0.0
122
1.0
132
0.0
 79
     0
146
0.0
  0
ENDTAB
  0
TABLE
  2
LTYPE
  5
5
330
0
100
AcDbSymbolTable
 70
     2
  0
LTYPE
  5
14
330
5
100
AcDbSymbolTableRecord
100
AcDbLinetypeTableRecord
  2
ByBlock
 70
     0
  3

 72
    65
 73
     0
 40
0.0
  0
LTYPE
  5
15
330
5
100
AcDbSymbolTableRecord
100
AcDbLinetypeTableRecord
  2
ByLayer
 70
     0
  3

 72
    65
 73
     0
 40
0.0
  0
LTYPE
  5
16
330
5
100
AcDbSymbolTableRecord
100
AcDbLinetypeTableRecord
  2
Continuous
 70
     0
  3
Solid line
 72
    65
 73
     0
 40
0.0
  0
LTYPE
  5
6A
330
5
100
AcDbSymbolTableRecord
100
AcDbLinetypeTableRecord
  2
DASHED
 70
     0
  3
Dashed __ __ __ __ __ __ __ __ __ __ __ __ __ _
 72
    65
 73
     2
 40
19.05
 49
12.7
 74
     0
 49
-6.349999999999999
 74
     0
  0
ENDTAB
  0
TABLE
  2
LAYER
  5
2
102
{ACAD_XDICTIONARY
360
A4F
102
}
330
0
100
AcDbSymbolTable
 70
     6
  0
LAYER
  5
10
102
{ACAD_XDICTIONARY
360
21E6
102
}
330
2
100
AcDbSymbolTableRecord
100
AcDbLayerTableRecord
  2
0
 70
     4
 62
     7
  6
Continuous
290
     0
370
    -3
390
F
  0
LAYER
  5
41
102
{ACAD_XDICTIONARY
360
21E8
102
}
330
2
100
AcDbSymbolTableRecord
100
AcDbLayerTableRecord
  2
APL Border
 70
     0
 62
     7
  6
Continuous
370
    -3
390
F
  0
LAYER
  5
42
102
{ACAD_XDICTIONARY
360
21EA
102
}
330
2
100
AcDbSymbolTableRecord
100
AcDbLayerTableRecord
  2
APL Notes
 70
     0
 62
     7
  6
Continuous
370
    -3
390
F
  0
LAYER
  5
11C
102
{ACAD_XDICTIONARY
360
21EC
102
}
330
2
100
AcDbSymbolTableRecord
100
AcDbLayerTableRecord
  2
APL Joinery
 70
     0
 62
     2
  6
Continuous
370
    -3
390
F
  0
LAYER
  5
2162
102
{ACAD_XDICTIONARY
360
21FC
102
}
330
2
100
AcDbSymbolTableRecord
100
AcDbLayerTableRecord
  2
APL Hatch
 70
     0
 62
   253
  6
Continuous
370
    -3
390
F
  0
ENDTAB
  0
TABLE
  2
STYLE
  5
3
330
0
100
AcDbSymbolTable
 70
     5
  0
STYLE
  5
11
330
3
100
AcDbSymbolTableRecord
100
AcDbTextStyleTableRecord
  2
Standard
 70
     0
 40
0.0
 41
1.0
 50
0.0
 71
     0
 42
2.5
  3
txt
  4

  0
STYLE
  5
71
330
3
100
AcDbSymbolTableRecord
100
AcDbTextStyleTableRecord
  2
Arial-Regular
 70
     0
 40
0.0
 41
1.0
 50
0.0
 71
     0
 42
5.0
  3
ARIAL.TTF
  4

1001
ACAD
1000
Arial
1071
       34
  0
STYLE
  5
72
330
3
100
AcDbSymbolTableRecord
100
AcDbTextStyleTableRecord
  2
Arial-Bold
 70
     0
 40
0.0
 41
1.0
 50
0.0
 71
     0
 42
5.0
  3
ARIALBD.TTF
  4

1001
ACAD
1000
Arial
1071
 33554466
  0
STYLE
  5
C9D
330
3
100
AcDbSymbolTableRecord
100
AcDbTextStyleTableRecord
  2
Body
 70
     0
 40
3.5
 41
1.0
 50
0.0
 71
     0
 42
1.75
  3
TT0260M_.TTF
  4

1001
ACAD
1000
Zurich Ex BT
1071
       34
  0
ENDTAB
  0
TABLE
  2
VIEW
  5
6
330
0
100
AcDbSymbolTable
 70
     0
  0
ENDTAB
  0
TABLE
  2
UCS
  5
7
330
0
100
AcDbSymbolTable
 70
     0
  0
ENDTAB
  0
TABLE
  2
APPID
  5
9
330
0
100
AcDbSymbolTable
 70
    10
  0
APPID
  5
12
330
9
100
AcDbSymbolTableRecord
100
AcDbRegAppTableRecord
  2
ACAD
 70
     0
  0
APPID
  5
72C
330
9
100
AcDbSymbolTableRecord
100
AcDbRegAppTableRecord
  2
DCO15
 70
     0
  0
APPID
  5
21D9
330
9
100
AcDbSymbolTableRecord
100
AcDbRegAppTableRecord
  2
ACAD_MLEADERVER
 70
     0
  0
APPID
  5
24E6
330
9
100
AcDbSymbolTableRecord
100
AcDbRegAppTableRecord
  2
ACAD_PSEXT
 70
     0
  0
APPID
  5
27E9
330
9
100
AcDbSymbolTableRecord
100
AcDbRegAppTableRecord
  2
ACAUTHENVIRON
 70
     0
  0
APPID
  5
27EA
330
9
100
AcDbSymbolTableRecord
100
AcDbRegAppTableRecord
  2
AcDbDynamicBlockTrueName
 70
     0
  0
APPID
  5
27EB
330
9
100
AcDbSymbolTableRecord
100
AcDbRegAppTableRecord
  2
AcDbDynamicBlockGUID
 70
     0
  0
APPID
  5
27EC
330
9
100
AcDbSymbolTableRecord
100
AcDbRegAppTableRecord
  2
AcDbBlockRepETag
 70
     0
  0
APPID
  5
27ED
330
9
100
AcDbSymbolTableRecord
100
AcDbRegAppTableRecord
  2
AcDbBlockRepBTag
 70
     0
  0
APPID
  5
27EE
330
9
100
AcDbSymbolTableRecord
100
AcDbRegAppTableRecord
  2
ACAD_EXEMPT_FROM_CAD_STANDARDS
 70
     0
  0
ENDTAB
  0
TABLE
  2
DIMSTYLE
  5
A
330
0
100
AcDbSymbolTable
 70
     1
100
AcDbDimStyleTable
 71
     1
340
27
  0
DIMSTYLE
105
27
330
A
100
AcDbSymbolTableRecord
100
AcDbDimStyleTableRecord
  2
ISO-25
 70
     0
 41
5.0
 42
0.625
 43
3.75
 44
1.25
 73
     0
 74
     0
 77
     1
 78
     8
140
2.5
141
2.5
143
0.03937007874016
147
0.625
171
     3
172
     1
271
     2
272
     2
274
     3
283
     0
284
     8
340
71
  0
ENDTAB
  0
TABLE
  2
BLOCK_RECORD
  5
1
330
0
100
AcDbSymbolTable
 70
    18
  0
BLOCK_RECORD
  5
1F
102
{ACAD_XDICTIONARY
360
240C
102
}
330
1
100
AcDbSymbolTableRecord
100
AcDbBlockTableRecord
  2
*Model_Space
340
22
  0
BLOCK_RECORD
  5
972
330
1
100
AcDbSymbolTableRecord
100
AcDbBlockTableRecord
  2
*Paper_Space
340
982
  0
BLOCK_RECORD
  5
987
330
1
100
AcDbSymbolTableRecord
100
AcDbBlockTableRecord
  2
vantage a4 SM border
340
0
102
{BLKREFS
331
98B
102
}
  0
BLOCK_RECORD
  5
1D30
102
{ACAD_XDICTIONARY
360
2D80
102
}
330
1
100
AcDbSymbolTableRecord
100
AcDbBlockTableRecord
  2
01955
340
0
102
{BLKREFS
331
1DD2
331
1EC0
102
}
  0
BLOCK_RECORD
  5
1D36
102
{ACAD_XDICTIONARY
360
2D85
102
}
330
1
100
AcDbSymbolTableRecord
100
AcDbBlockTableRecord
  2
01953
340
0
102
{BLKREFS
331
1DD1
331
1DD3
331
1EC3
331
1EAD
102
}
  0
BLOCK_RECORD
  5
1D3C
102
{ACAD_XDICTIONARY
360
2D8A
102
}
330
1
100
AcDbSymbolTableRecord
100
AcDbBlockTableRecord
  2
01956
340
0
102
{BLKREFS
331
1DEC
331
1DF9
331
2070
331
2071
331
2072
331
2074
331
2075
331
2076
102
}
  0
BLOCK_RECORD
  5
1D42
102
{ACAD_XDICTIONARY
360
2D8F
102
}
330
1
100
AcDbSymbolTableRecord
100
AcDbBlockTableRecord
  2
01951
340
0
102
{BLKREFS
331
1E70
331
1FFF
102
}
  0
BLOCK_RECORD
  5
1D48
102
{ACAD_XDICTIONARY
360
2D95
102
}
330
1
100
AcDbSymbolTableRecord
100
AcDbBlockTableRecord
  2
01964
340
0
102
{BLKREFS
331
1E71
331
1F2B
102
}
  0
BLOCK_RECORD
  5
20AA
330
1
100
AcDbSymbolTableRecord
100
AcDbBlockTableRecord
  2
baluster
340
0
310
2800000020000000200000000100080000000000000400000000000000000000000000000000000000000000000080000080000000808000800000008000800080800000C0C0C000C0DCC000F0CAA6000020400000206000002080000020A0000020C0000020E00000400000004020000040400000406000004080000040A0
310
000040C0000040E00000600000006020000060400000606000006080000060A0000060C0000060E00000800000008020000080400000806000008080000080A0000080C0000080E00000A0000000A0200000A0400000A0600000A0800000A0A00000A0C00000A0E00000C0000000C0200000C0400000C0600000C0800000C0
310
A00000C0C00000C0E00000E0000000E0200000E0400000E0600000E0800000E0A00000E0C00000E0E00040000000400020004000400040006000400080004000A0004000C0004000E00040200000402020004020400040206000402080004020A0004020C0004020E000404000004040200040404000404060004040800040
310
40A0004040C0004040E00040600000406020004060400040606000406080004060A0004060C0004060E00040800000408020004080400040806000408080004080A0004080C0004080E00040A0000040A0200040A0400040A0600040A0800040A0A00040A0C00040A0E00040C0000040C0200040C0400040C0600040C08000
310
40C0A00040C0C00040C0E00040E0000040E0200040E0400040E0600040E0800040E0A00040E0C00040E0E00080000000800020008000400080006000800080008000A0008000C0008000E00080200000802020008020400080206000802080008020A0008020C0008020E00080400000804020008040400080406000804080
310
008040A0008040C0008040E00080600000806020008060400080606000806080008060A0008060C0008060E00080800000808020008080400080806000808080008080A0008080C0008080E00080A0000080A0200080A0400080A0600080A0800080A0A00080A0C00080A0E00080C0000080C0200080C0400080C0600080C0
310
800080C0A00080C0C00080C0E00080E0000080E0200080E0400080E0600080E0800080E0A00080E0C00080E0E000C0000000C0002000C0004000C0006000C0008000C000A000C000C000C000E000C0200000C0202000C0204000C0206000C0208000C020A000C020C000C020E000C0400000C0402000C0404000C0406000C0
310
408000C040A000C040C000C040E000C0600000C0602000C0604000C0606000C0608000C060A000C060C000C060E000C0800000C0802000C0804000C0806000C0808000C080A000C080C000C080E000C0A00000C0A02000C0A04000C0A06000C0A08000C0A0A000C0A0C000C0A0E000C0C00000C0C02000C0C04000C0C06000
310
C0C08000C0C0A000F0FBFF00A4A0A000808080000000FF0000FF000000FFFF00FF000000FF00FF00FFFF0000FFFFFF0000000000000000000000000000000000000000000000000000000000000000000000000000000000000000000000000000000000000000000000000000000000000000000000000000000000000000
310
000000000000000000000000000000000000000000000000000000000000000000000000000000000000000000000000000000000000000000000000000000000000000000000000000000000000000000000000000000000000000000000000000000000000000000000000000000000000000000FFFFFFFFFF0000000000
310
000000000000000000000000000000000000000000FF0000000000FFFFFFFFFFFFFFFFFFFF000000000000000000000000000000FF00FFFFFFFFFFFFFF0000000000000000FFFFFFFFFF000000000000000000FF00FF000000000000FF00FFFFFF0000FFFFFFFFFF0000FFFF00000000000000FF00FF000000000000FF00FF
310
0000FFFF0000000000FF000000FF000000000000FF00FF000000000000FF00FF0000FFFF000000000000FF000000FFFF00000000FF00FF000000000000FF00FF0000FFFF000000000000FF0000000000FF000000FF00FF00000000000000FFFF0000FFFF00000000000000FF00000000FF000000FF00FF0000000000000000
310
00000000000000000000000000FF000000FF000000FF00FF00000000000000000000000000000000000000000000FF0000FF000000FF00FF000000000000000000000000000000000000000000FF000000FF000000FF00FF000000000000000000000000000000000000000000FF000000FF000000FF00FF00000000000000
310
FFFF0000FFFF00000000000000FF00000000FF000000FF00FF000000000000FF00FF0000FFFF000000000000FF0000000000FF000000FF00FF000000000000FF00FF0000FFFF0000000000FF00000000FFFF00000000FF00FF000000000000FF00FF0000FFFF0000000000FF000000FF000000000000FF00FF000000000000
310
FF00FFFFFF0000FFFFFFFFFF0000FFFF0000000000000000FF00FFFFFFFFFFFFFF0000000000000000FFFFFFFFFF0000000000000000000000FF0000000000FFFFFFFFFFFFFFFFFFFF0000000000000000000000000000000000FFFFFFFFFF0000000000000000000000000000000000000000000000000000000000000000
310
00000000000000000000000000000000000000000000000000000000000000000000000000000000000000000000000000000000000000000000000000000000000000000000000000000000000000000000000000000000000000000000000000000000000000000000000000000000000000000000000000000000000000
310
0000000000000000000000000000000000000000000000000000000000000000000000000000000000000000000000000000000000000000
102
{BLKREFS
331
20DD
331
20DE
331
20E0
331
20E4
331
20E8
331
20ED
102
}
1001
ACAD
1000
DesignCenter Data
1002
{
1070
     1
1070
     4
1002
}
  0
BLOCK_RECORD
  5
225D
330
1
100
AcDbSymbolTableRecord
100
AcDbBlockTableRecord
  2
vantage a4 SM attributes (3)
340
0
102
{BLKREFS
331
2268
102
}
1001
ACAD
1000
DesignCenter Data
1002
{
1070
     1
1070
     4
1002
}
  0
BLOCK_RECORD
  5
2341
102
{ACAD_XDICTIONARY
360
2D9B
102
}
330
1
100
AcDbSymbolTableRecord
100
AcDbBlockTableRecord
  2
01954
340
0
102
{BLKREFS
331
2346
331
2347
102
}
1001
ACAD
1000
DesignCenter Data
1002
{
1070
     1
1070
     4
1002
}
  0
BLOCK_RECORD
  5
2C5D
102
{ACAD_XDICTIONARY
360
2C5E
102
}
330
1
100
AcDbSymbolTableRecord
100
AcDbBlockTableRecord
  2
vantage black & white logo
340
0
310
2800000020000000200000000100080000000000000400000000000000000000000000000000000000000000000080000080000000808000800000008000800080800000C0C0C000C0DCC000F0CAA6000020400000206000002080000020A0000020C0000020E00000400000004020000040400000406000004080000040A0
310
000040C0000040E00000600000006020000060400000606000006080000060A0000060C0000060E00000800000008020000080400000806000008080000080A0000080C0000080E00000A0000000A0200000A0400000A0600000A0800000A0A00000A0C00000A0E00000C0000000C0200000C0400000C0600000C0800000C0
310
A00000C0C00000C0E00000E0000000E0200000E0400000E0600000E0800000E0A00000E0C00000E0E00040000000400020004000400040006000400080004000A0004000C0004000E00040200000402020004020400040206000402080004020A0004020C0004020E000404000004040200040404000404060004040800040
310
40A0004040C0004040E00040600000406020004060400040606000406080004060A0004060C0004060E00040800000408020004080400040806000408080004080A0004080C0004080E00040A0000040A0200040A0400040A0600040A0800040A0A00040A0C00040A0E00040C0000040C0200040C0400040C0600040C08000
310
40C0A00040C0C00040C0E00040E0000040E0200040E0400040E0600040E0800040E0A00040E0C00040E0E00080000000800020008000400080006000800080008000A0008000C0008000E00080200000802020008020400080206000802080008020A0008020C0008020E00080400000804020008040400080406000804080
310
008040A0008040C0008040E00080600000806020008060400080606000806080008060A0008060C0008060E00080800000808020008080400080806000808080008080A0008080C0008080E00080A0000080A0200080A0400080A0600080A0800080A0A00080A0C00080A0E00080C0000080C0200080C0400080C0600080C0
310
800080C0A00080C0C00080C0E00080E0000080E0200080E0400080E0600080E0800080E0A00080E0C00080E0E000C0000000C0002000C0004000C0006000C0008000C000A000C000C000C000E000C0200000C0202000C0204000C0206000C0208000C020A000C020C000C020E000C0400000C0402000C0404000C0406000C0
310
408000C040A000C040C000C040E000C0600000C0602000C0604000C0606000C0608000C060A000C060C000C060E000C0800000C0802000C0804000C0806000C0808000C080A000C080C000C080E000C0A00000C0A02000C0A04000C0A06000C0A08000C0A0A000C0A0C000C0A0E000C0C00000C0C02000C0C04000C0C06000
310
C0C08000C0C0A000F0FBFF00A4A0A000808080000000FF0000FF000000FFFF00FF000000FF00FF00FFFF0000FFFFFF0000000000000000000000000000000000000000000000000000000000000000000000000000000000000000000000000000000000000000000000000000000000000000000000000000000000000000
310
0000000000000000000000000000000000000000000000000000000000000000A4A40000000000000000000000000000000000000000000000000000000000A400000700000000000000000000000000000000000000000000000000000000A4000707000000000000000000000000000000000000000000000000000000A4
310
00A4A407070000000000000000000000000000000000000000000000000000A400A400A40700000000000000000000000000000000000000000000000000A400A4A400A407070000000000000000000000000000000000000000000000A40700A4000000A4070000000000000000000000000000000000000000000000A400
310
A4A4000000A40707000000000000000000000000000000000000000000A400A4A4000000A4A4A400070000000000000000000000000000000000000000A400A400000000A400A4070700000000000000000000000000000000000000A400A4A4000000A4A40000A40007000000000000000000000000000000000000A400A4
310
A4A4A4A4A4A4A4A4A407070000000000000000000000000000000000A400A4A4A4A4A4A4A4A4A4A4A4A40007000000000000000000000000000000A40000A4A4A4A4A4A4A4A4A4A4A4A40700070000000000000000000000000000A400A4A400A4A4A4A4A4A4A4A4A4A4A4070700000000000000000000000000A400A4A4A4
310
A4A4A4A4A4A4A4A4A4A4A4A4070007000000000000000000000000A400A4A4A4A4A4A4A4A4A4A4A4A4A4A4A4A407070000000000000000000000A400A4A400A4A4A4A4A4A4A4A4A4A4A4A4A4A4070007000000000000000000A40700A4A400A4A4A4A4A4A4A4A4A4A4A4A4A400A40707000000000000000000A400A4A4A4A4
310
A4A4A4A4A4A4A4A4A4A4A4A4A4A4A407000700000000000000A400A4A4A4A4A4A4A4A4A4A4A4A4A4A4A4A4A4A4A4A4A4070007000000000000A400A4A4A4A4A4A4A4A4A4A4A4A4A4A4A4A4A4A4A4A4A40700070000000000A400A4A400A4A4A4A4A4A4A4A4A4A4A4A4A4A4A4A4A4A4A40007000700000000A400A4A4A400A4
310
A4A4A4A4A4A4A4A4A4A4A4A4A4A4A4A4A4000700070000000700A4A4A4A4A4A4A4A4A4A4A4A4A4A4A4A4A4A4A4A4A4A4A4A4A40700070000A407A4A4A4A4A4A4A4A4A4A4A4A4A4A4A4A4A4A4A4A4A4A4A4A4A4A407A40000000000000000000000000000000000000000000000000000000000000000000000000000000000
310
0000000000000000000000000000000000000000000000000000000000000000000000000000000000000000000000000000000000000000
102
{BLKREFS
331
2C5B
102
}
1001
AcDbDynamicBlockGUID
1000
{7D04BC3F-8AE2-40EA-A482-CE6E620AF154}
1001
AcDbBlockRepETag
1070
     1
1071
      907
1001
ACAD
1000
DesignCenter Data
1002
{
1070
     1
1070
     4
1002
}
  0
ENDTAB
  0
ENDSEC
  0
SECTION
  2
BLOCKS
  0
BLOCK
  5
20
330
1F
100
AcDbEntity
  8
0
100
AcDbBlockBegin
  2
*Model_Space
 70
     0
 10
0.0
 20
0.0
 30
0.0
  3
*Model_Space
  1

  0
ENDBLK
  5
21
330
1F
100
AcDbEntity
  8
0
100
AcDbBlockEnd
  0
BLOCK
  5
980
330
972
100
AcDbEntity
 67
     1
  8
0
100
AcDbBlockBegin
  2
*Paper_Space
 70
     0
 10
0.0
 20
0.0
 30
0.0
  3
*Paper_Space
  1

  0
ENDBLK
  5
981
330
972
100
AcDbEntity
 67
     1
  8
0
100
AcDbBlockEnd
  0
BLOCK
  5
988
330
987
100
AcDbEntity
  8
0
100
AcDbBlockBegin
  2
vantage a4 SM border
 70
     0
 10
0.0
 20
0.0
 30
0.0
  3
vantage a4 SM border
  1
vantage a4 SM border.dwg
  0
TEXT
  5
2C4F
330
987
100
AcDbEntity
  8
APL Border
100
AcDbText
 10
11.59500000000003
 20
3.979818213543524
 30
0.0
 40
1.5
  1
VANTAGE SPECIFIER'S GUIDE 2011:1     ARCHITECTURAL PROFILES LTD. NB. TECHNICAL SPECIFICATIONS SUBJECT TO CHANGE WITHOUT NOTICE.
 41
1.175568529931163
  7
Arial-Regular
 72
     5
 11
189.595
 21
3.979818213543524
 31
0.0
100
AcDbText
  0
LINE
  5
2C50
330
987
100
AcDbEntity
  8
APL Border
100
AcDbLine
 10
11.59500000000003
 20
6.189999999999997
 30
0.0
 11
189.595
 21
6.189999999999997
 31
0.0
  0
MTEXT
  5
2C51
330
987
100
AcDbEntity
  8
APL Border
100
AcDbMText
 10
57.55102029361978
 20
3.879818213543526
 30
0.0
 40
1.5
 41
0.0
 71
     8
 72
     5
  1
{\fCommercialPi BT|b0|i0|c2|p18;a}
  7
Arial-Regular
 73
     1
 44
1.0
1001
ACAD
1000
MTEXTBEGIN
1070
    73
1070
     1
1070
    44
1040
1.0
1070
    74
1070
     0
1000
MTEXTEND
  0
LINE
  5
2C52
330
987
100
AcDbEntity
  8
APL Border
100
AcDbLine
 10
189.595
 20
268.19
 30
0.0
 11
142.595
 21
268.19
 31
0.0
  0
LINE
  5
2C53
330
987
100
AcDbEntity
  8
APL Border
100
AcDbLine
 10
189.595
 20
282.19
 30
0.0
 11
189.595
 21
254.19
 31
0.0
  0
LINE
  5
2C54
330
987
100
AcDbEntity
  8
APL Border
100
AcDbLine
 10
166.095
 20
268.19
 30
0.0
 11
166.095
 21
254.19
 31
0.0
  0
LINE
  5
2C55
330
987
100
AcDbEntity
  8
APL Border
100
AcDbLine
 10
189.595
 20
254.19
 30
0.0
 11
24.99473224900737
 21
254.19
 31
0.0
  0
LINE
  5
2C56
330
987
100
AcDbEntity
  8
APL Border
100
AcDbLine
 10
189.595
 20
282.19
 30
0.0
 11
24.99473224900737
 21
282.19
 31
0.0
  0
LINE
  5
2C57
330
987
100
AcDbEntity
  8
APL Border
100
AcDbLine
 10
142.595
 20
282.19
 30
0.0
 11
142.595
 21
254.19
 31
0.0
  0
TEXT
  5
2C58
330
987
100
AcDbEntity
  8
APL Border
100
AcDbText
 10
147.845
 20
273.69
 30
0.0
 40
2.5
  1
CAD REF.
  7
Arial-Regular
100
AcDbText
  0
TEXT
  5
2C59
330
987
100
AcDbEntity
  8
APL Border
100
AcDbText
 10
149.6877694406548
 20
262.19
 30
0.0
 40
2.5
  1
DATE
  7
Arial-Regular
 72
     1
 11
154.345
 21
262.19
 31
0.0
100
AcDbText
  0
TEXT
  5
2C5A
330
987
100
AcDbEntity
  8
APL Border
100
AcDbText
 10
172.1185334242838
 20
262.19
 30
0.0
 40
2.5
  1
SCALE
  7
Arial-Regular
 72
     1
 11
177.845
 21
262.19
 31
0.0
100
AcDbText
  0
INSERT
  5
2C5B
102
{ACAD_XDICTIONARY
360
2C5C
102
}
330
987
100
AcDbEntity
  8
APL Border
100
AcDbBlockReference
  2
vantage black & white logo
 10
24.99473224900737
 20
256.19
 30
0.0
 41
0.5
 42
0.5
 43
0.5
  0
LINE
  5
2CA0
330
987
100
AcDbEntity
  8
APL Border
100
AcDbLine
 10
24.99473224900737
 20
256.19
 30
0.0
 11
24.99473224900737
 21
254.19
 31
0.0
  0
LINE
  5
2CA1
330
987
100
AcDbEntity
  8
APL Border
100
AcDbLine
 10
24.99473224900716
 20
279.6304177948761
 30
0.0
 11
24.99473224900737
 21
282.19
 31
0.0
  0
ENDBLK
  5
989
330
987
100
AcDbEntity
  8
0
100
AcDbBlockEnd
  0
BLOCK
  5
1D31
330
1D30
100
AcDbEntity
  8
0
100
AcDbBlockBegin
  2
01955
 70
     0
 10
0.0
 20
0.0
 30
0.0
  3
01955
  1
I:\DWG Master Blocks\01955.dwg
  0
LWPOLYLINE
  5
2D7D
102
{ACAD_REACTORS
330
2D7F
102
}
330
1D30
100
AcDbEntity
  8
APL Joinery
  6
Continuous
370
     0
100
AcDbPolyline
 90
       20
 70
     1
 43
0.0
 10
-32.78157616970461
 20
9.76146302335653
 42
-0.2429394270217656
 10
-24.97582462237777
 20
5.748775030134201
 42
0.6414119697186866
 10
-24.08313868207224
 20
5.919664793751454
 42
-0.0200118588720752
 10
-23.53275791583413
 20
7.826193515448725
 42
-0.323013520710938
 10
-18.9780305772856
 20
11.11144638424869
 10
-7.653908409531943
 20
11.11144638424869
 42
0.1539147210598293
 10
-7.367120191356427
 20
11.20187036210425
 10
-3.682790654220362
 20
13.78166567725558
 42
-0.1539147210598313
 10
-2.478280137883153
 20
14.16144638424871
 10
2.478280137882954
 20
14.16144638424871
 42
-0.153914721059827
 10
3.682790654220134
 20
13.78166567725558
 10
7.367120191356285
 20
11.20187036210419
 42
0.1539147210598248
 10
7.653908409531801
 20
11.11144638424869
 10
18.9780305772855
 20
11.11144638424872
 42
-0.323013520710938
 10
23.53275791583403
 20
7.826193515448725
 42
-0.0516628958517011
 10
24.63735047685359
 20
2.835658918977348
 42
0.3810350587037197
 10
25.63079202833962
 20
1.950000004248725
 10
37.00000000000005
 20
1.950000004248725
 42
0.8038602520180063
 10
40.02260180812407
 20
15.68482045392631
 42
0.1197046755258291
 10
-33.24172362530708
 20
30.15187720138522
 42
0.979455715475656
  0
LWPOLYLINE
  5
2D7E
102
{ACAD_REACTORS
330
2D7F
102
}
330
1D30
100
AcDbEntity
  8
APL Joinery
  6
Continuous
370
     0
100
AcDbPolyline
 90
       50
 70
     1
 43
0.0
 10
-33.31967485330246
 20
31.95018852205635
 42
0.9794557154756557
 10
-32.77832490553483
 20
7.961465959669688
 42
-0.4091100701847326
 10
-25.00085067331091
 20
0.3461478310719919
 42
0.4085830239400837
 10
-24.80088777484766
 20
0.1500000042487137
 10
-23.99954999594998
 20
0.1500000042487137
 42
0.0874886635259127
 10
-23.82853992428717
 20
0.1801536938557753
 10
-21.92425696919106
 20
0.8732560071310935
 42
-0.414213562373104
 10
-21.5397431399576
 20
0.6939542638930086
 10
-20.35304509617494
 20
-2.566471815111381
 42
-0.5205670505517476
 10
-20.63495288241072
 20
-2.96907785810907
 10
-21.40650848038811
 20
-2.96907785810907
 42
0.5205670505517304
 10
-21.87635479078108
 20
-3.640087929771876
 10
-20.50827421747861
 20
-7.398858412915611
 42
1.000000000000028
 10
-19.3806430725355
 20
-6.988434240924842
 10
-20.4128242910387
 20
-4.15253965030163
 42
0.4742147524221573
 10
-19.22541395123182
 20
-2.15604764312064
 10
-20.41211199501448
 20
1.104378435883777
 42
0.4142135623730908
 10
-22.3346811411818
 20
2.000887152074231
 10
-22.81081070027535
 20
1.827590164909882
 42
-0.547296458421574
 10
-22.92044289040937
 20
1.911360176347361
 42
-0.0595354828529356
 10
-21.82473516387842
 20
7.25816334124875
 42
-0.3230135207109356
 10
-18.9780305772856
 20
9.311446384248714
 10
-7.590848651756153
 20
9.311446384248714
 42
0.1539147210598293
 10
-6.386338135418955
 20
9.691227091241831
 10
-2.70200859828288
 20
12.2710224063932
 42
-0.1539147210598148
 10
-2.415220380107363
 20
12.36144638424867
 10
2.41522038010715
 20
12.36144638424869
 42
-0.1539147210598209
 10
2.702008598282681
 20
12.2710224063932
 10
6.38633813541883
 20
9.691227091241822
 42
0.1539147210598271
 10
7.590848651756013
 20
9.311446384248714
 10
18.9780305772855
 20
9.311446384248714
 42
-0.3230135207109398
 10
21.82473516387834
 20
7.258163341248721
 42
-0.0595354828529356
 10
22.92044289040928
 20
1.911360176347475
 42
-0.5472964584216897
 10
22.81081070027528
 20
1.82759016490991
 10
22.3346811411817
 20
2.000887152074231
 42
0.4142135623730951
 10
20.41211199501439
 20
1.10437843588372
 10
19.22541395123174
 20
-2.156047643120639
 42
0.474214752422161
 10
20.41282429103864
 20
-4.152539650301601
 10
19.3806430725354
 20
-6.988434240924842
 42
1.000000000000005
 10
20.50827421747854
 20
-7.398858412915583
 10
21.87635479078099
 20
-3.640087929771905
 42
0.5205670505517434
 10
21.40650848038804
 20
-2.96907785810907
 10
20.63495288241064
 20
-2.96907785810907
 42
-0.5205670505517701
 10
20.35304509617486
 20
-2.566471815111381
 10
21.5397431399575
 20
0.6939542638930086
 42
-0.4142135623730951
 10
21.92425696919097
 20
0.8732560071311219
 10
23.82853992428708
 20
0.180153693855747
 42
0.0874886635259089
 10
23.99954999594989
 20
0.1500000042487137
 10
37.00000000000007
 20
0.1500000042487706
 42
0.8038602520180052
 10
40.77825226015504
 20
17.31852556634573
 42
0.1197046755258291
  0
HATCH
  5
2D7F
330
1D30
100
AcDbEntity
  8
APL Hatch
100
AcDbHatch
 10
0.0
 20
0.0
 30
0.0
210
0.0
220
0.0
230
1.0
  2
SOLID
 70
     1
 71
     1
 91
        2
 92
       16
 93
       20
 72
     2
 10
-32.76429951313522
 20
0.1965893399673844
 40
9.564889286450338
 50
269.8965089909421
 51
324.5159930360535
 73
     0
 72
     2
 10
-24.56868583292047
 20
6.039012874184956
 40
0.4999999999999918
 50
215.4840069639487
 51
346.1904004999141
 73
     1
 72
     2
 10
0.0000000000001137
 20
0.0000000042487205
 40
24.80000000000016
 50
193.809599500088
 51
198.3953676187163
 73
     0
 72
     2
 10
-18.97803057728561
 20
6.311446384248707
 40
4.79999999999999
 50
198.3953676187167
 51
270.0000000000001
 73
     0
 72
     1
 10
-18.9780305772856
 20
11.11144638424869
 11
-7.653908409531943
 21
11.11144638424869
 72
     2
 10
-7.653908409532021
 20
11.61144638424871
 40
0.5000000000000107
 50
270.0000000000088
 51
305.000000000009
 73
     1
 72
     1
 10
-7.367120191356427
 20
11.20187036210425
 11
-3.682790654220362
 21
13.78166567725558
 72
     2
 10
-2.478280137883146
 20
12.06144638424871
 40
2.099999999999997
 50
234.9999999999993
 51
269.9999999999998
 73
     0
 72
     1
 10
-2.478280137883153
 20
14.16144638424871
 11
2.478280137882954
 21
14.16144638424871
 72
     2
 10
2.478280137882916
 20
12.0614463842487
 40
2.100000000000006
 50
270.000000000001
 51
305.0000000000006
 73
     0
 72
     1
 10
3.682790654220134
 20
13.78166567725558
 11
7.367120191356285
 21
11.20187036210419
 72
     2
 10
7.653908409531792
 20
11.61144638424869
 40
0.4999999999999966
 50
235.0000000000019
 51
270.000000000001
 73
     1
 72
     1
 10
7.653908409531801
 20
11.11144638424869
 11
18.9780305772855
 21
11.11144638424872
 72
     2
 10
18.9780305772855
 20
6.311446384248716
 40
4.800000000000009
 50
270.0000000000001
 51
341.6046323812835
 73
     0
 72
     2
 10
-0.0000000000005222
 20
0.0000000042486636
 40
24.80000000000048
 50
341.6046323812838
 51
353.4343786736295
 73
     0
 72
     2
 10
25.63079202833961
 20
2.950000004248714
 40
0.9999999999999907
 50
186.5656213263735
 51
270.0000000000006
 73
     1
 72
     1
 10
25.63079202833962
 20
1.950000004248725
 11
37.00000000000005
 21
1.950000004248725
 72
     2
 10
36.99999999999997
 20
9.150000004248706
 40
7.199999999999981
 50
270.0000000000007
 51
425.1776721368811
 73
     1
 72
     2
 10
-26.3906768092698
 20
-127.8997066487125
 40
158.2
 50
65.17767213688101
 51
92.48204087950345
 73
     1
 72
     2
 10
-32.80000000000009
 20
19.9614463842487
 40
10.2
 50
92.48204087950293
 51
270.1034910090584
 73
     1
 97
        1
330
2D7D
 92
        1
 93
       50
 72
     2
 10
-32.8000000000001
 20
19.9614463842487
 40
11.99999999999998
 50
92.48204087950304
 51
270.1034910090584
 73
     1
 72
     2
 10
-32.76429951313609
 20
0.1965893399665299
 40
7.764889286451203
 50
269.8965089909485
 51
358.8963654303363
 73
     0
 72
     2
 10
-24.80088777484766
 20
0.350000004248731
 40
0.200000000000017
 50
181.1036345699781
 51
270.0
 73
     1
 72
     1
 10
-24.80088777484766
 20
0.1500000042487137
 11
-23.99954999594998
 21
0.1500000042487137
 72
     2
 10
-23.99954999595005
 20
0.6500000042487056
 40
0.4999999999999919
 50
270.0000000000081
 51
290.0000000000056
 73
     1
 72
     1
 10
-23.82853992428717
 20
0.1801536938557753
 11
-21.92425696919106
 21
0.8732560071310935
 72
     2
 10
-21.82165092619337
 20
0.5913482208953257
 40
0.2999999999999928
 50
250.0000000000012
 51
340.000000000003
 73
     0
 72
     1
 10
-21.5397431399576
 20
0.6939542638930086
 11
-20.35304509617494
 21
-2.566471815111381
 72
     2
 10
-20.63495288241071
 20
-2.669077858109075
 40
0.2999999999999955
 50
340.000000000001
 51
450.0000000000013
 73
     0
 72
     1
 10
-20.63495288241072
 20
-2.96907785810907
 11
-21.40650848038811
 21
-2.96907785810907
 72
     2
 10
-21.40650848038812
 20
-3.469077858109069
 40
0.4999999999999992
 50
89.99999999999959
 51
199.9999999999967
 73
     1
 72
     1
 10
-21.87635479078108
 20
-3.640087929771876
 11
-20.50827421747861
 21
-7.398858412915611
 72
     2
 10
-19.94445864500705
 20
-7.193646326920243
 40
0.6000000000000045
 50
199.9999999999965
 51
379.9999999999999
 73
     1
 72
     1
 10
-19.3806430725355
 20
-6.988434240924842
 11
-20.4128242910387
 21
-4.15253965030163
 72
     2
 10
-20.63495288241072
 20
-2.669077858109084
 40
1.500000000000012
 50
278.5160079305336
 51
379.9999999999974
 73
     1
 72
     1
 10
-19.22541395123182
 20
-2.15604764312064
 11
-20.41211199501448
 21
1.104378435883777
 72
     2
 10
-21.82165092619338
 20
0.5913482208953306
 40
1.500000000000009
 50
19.99999999999758
 51
109.9999999999967
 73
     1
 72
     1
 10
-22.3346811411818
 20
2.000887152074231
 11
-22.81081070027535
 21
1.827590164909882
 72
     2
 10
-22.83882318046962
 20
1.904553821706525
 40
0.0819030128514573
 50
69.99999999999182
 51
184.7669267160704
 73
     0
 72
     2
 10
0.0000000000001421
 20
0.0000000042487286
 40
23.00000000000019
 50
184.7669267160688
 51
198.3953676187163
 73
     0
 72
     2
 10
-18.9780305772856
 20
6.311446384248716
 40
2.999999999999998
 50
198.3953676187171
 51
270.0000000000001
 73
     0
 72
     1
 10
-18.9780305772856
 20
9.311446384248714
 11
-7.590848651756154
 21
9.311446384248714
 72
     2
 10
-7.59084865175615
 20
11.41144638424871
 40
2.099999999999997
 50
269.9999999999999
 51
304.9999999999999
 73
     1
 72
     1
 10
-6.386338135418955
 20
9.691227091241831
 11
-2.70200859828288
 21
12.2710224063932
 72
     2
 10
-2.415220380107407
 20
11.86144638424865
 40
0.5000000000000143
 50
235.0000000000083
 51
270.0000000000051
 73
     0
 72
     1
 10
-2.415220380107363
 20
12.36144638424867
 11
2.41522038010715
 21
12.36144638424869
 72
     2
 10
2.415220380107162
 20
11.86144638424866
 40
0.500000000000032
 50
269.9999999999986
 51
304.9999999999968
 73
     0
 72
     1
 10
2.702008598282681
 20
12.2710224063932
 11
6.38633813541883
 21
9.691227091241822
 72
     2
 10
7.590848651756013
 20
11.41144638424871
 40
2.100000000000001
 50
235.0000000000004
 51
270.0
 73
     1
 72
     1
 10
7.590848651756013
 20
9.311446384248714
 11
18.9780305772855
 21
9.311446384248714
 72
     2
 10
18.97803057728551
 20
6.311446384248721
 40
2.999999999999992
 50
269.9999999999998
 51
341.6046323812835
 73
     0
 72
     2
 10
0.0000000000003801
 20
0.0000000042487871
 40
22.99999999999959
 50
341.6046323812834
 51
355.233073283931
 73
     0
 72
     2
 10
22.83882318046952
 20
1.904553821706579
 40
0.0819030128514729
 50
355.2330732838876
 51
469.9999999999858
 73
     0
 72
     1
 10
22.81081070027528
 20
1.82759016490991
 11
22.3346811411817
 21
2.000887152074231
 72
     2
 10
21.8216509261933
 20
0.5913482208953232
 40
1.500000000000006
 50
70.00000000000439
 51
160.0000000000044
 73
     1
 72
     1
 10
20.41211199501439
 20
1.10437843588372
 11
19.22541395123174
 21
-2.156047643120639
 72
     2
 10
20.63495288241063
 20
-2.669077858109065
 40
1.499999999999999
 50
160.0000000000031
 51
261.4839920694677
 73
     1
 72
     1
 10
20.41282429103864
 20
-4.152539650301601
 11
19.3806430725354
 21
-6.988434240924842
 72
     2
 10
19.94445864500697
 20
-7.193646326920216
 40
0.600000000000013
 50
160.0000000000032
 51
340.0000000000038
 73
     1
 72
     1
 10
20.50827421747854
 20
-7.398858412915583
 11
21.87635479078099
 21
-3.640087929771905
 72
     2
 10
21.40650848038803
 20
-3.469077858109072
 40
0.5000000000000017
 50
340.0000000000001
 51
449.9999999999996
 73
     1
 72
     1
 10
21.40650848038804
 20
-2.96907785810907
 11
20.63495288241064
 21
-2.96907785810907
 72
     2
 10
20.63495288241062
 20
-2.669077858109082
 40
0.2999999999999883
 50
89.99999999999664
 51
200.0000000000009
 73
     0
 72
     1
 10
20.35304509617486
 20
-2.566471815111381
 11
21.5397431399575
 21
0.6939542638930086
 72
     2
 10
21.82165092619329
 20
0.5913482208953305
 40
0.3000000000000101
 50
199.9999999999947
 51
289.9999999999947
 73
     0
 72
     1
 10
21.92425696919097
 20
0.8732560071311219
 11
23.82853992428708
 21
0.180153693855747
 72
     2
 10
23.99954999594988
 20
0.6500000042487127
 40
0.4999999999999987
 50
250.0000000000042
 51
270.0000000000008
 73
     1
 72
     1
 10
23.99954999594989
 20
0.1500000042487137
 11
37.00000000000007
 21
0.1500000042487706
 72
     2
 10
36.99999999999993
 20
9.150000004248731
 40
8.99999999999996
 50
270.0000000000009
 51
425.1776721368812
 73
     1
 72
     2
 10
-26.39067680926976
 20
-127.8997066487123
 40
159.9999999999998
 50
65.17767213688101
 51
92.48204087950348
 73
     1
 97
        1
330
2D7E
 75
     0
 76
     1
 98
        1
 10
0.0
 20
0.0
  0
ENDBLK
  5
1D32
330
1D30
100
AcDbEntity
  8
0
100
AcDbBlockEnd
  0
BLOCK
  5
1D37
330
1D36
100
AcDbEntity
  8
0
100
AcDbBlockBegin
  2
01953
 70
     0
 10
0.0
 20
0.0
 30
0.0
  3
01953
  1
I:\DWG Master Blocks\01953.dwg
  0
LWPOLYLINE
  5
2D83
102
{ACAD_REACTORS
330
2D84
102
}
330
1D36
100
AcDbEntity
  8
APL Joinery
100
AcDbPolyline
 90
       87
 70
     1
 43
0.0
 10
13.21379665825646
 20
-21.03550667845746
 42
0.1467329466698731
 10
13.76413804349982
 20
-20.87044641260031
 42
0.250023212464894
 10
25.00479063629082
 20
-0.1985417500784303
 42
0.4165420903199045
 10
24.80479694624302
 20
0.0030469415444396
 10
21.85570718152736
 20
0.0030469415444672
 42
0.3152987888790281
 10
21.38586087113441
 20
-0.3259429867927541
 10
21.22377067542377
 20
-0.7712821394229773
 42
0.0874886635258957
 10
21.19361698581668
 20
-0.9422922110857577
 10
21.19361698581668
 20
-2.316030920813457
 42
0.4142135623730431
 10
21.69361698581659
 20
-2.816030920813457
 10
22.83218440927706
 20
-2.816030920813687
 42
-0.2068083242921014
 10
13.59651250333176
 20
-18.55193055999541
 42
-0.6141312683256609
 10
12.00560341242241
 20
-17.74519240775475
 10
12.00560341242241
 20
2.014493321544225
 42
-0.4142135623730909
 10
13.00560341242239
 20
3.014493321544225
 10
13.7056034124224
 20
3.014493321544112
 42
0.4142135623730919
 10
15.0556034124224
 20
4.364493321544077
 10
15.05560341242239
 20
7.76449332154414
 42
0.4142135623730951
 10
13.70560341242237
 20
9.114493321544163
 10
10.30560341242238
 20
9.114493321544106
 42
0.4142135623730951
 10
10.10560341242237
 20
8.914493321544146
 10
10.10560341242237
 20
7.964493321544129
 42
0.4142135623731159
 10
10.30560341242238
 20
7.76449332154414
 10
13.70560341242237
 20
7.76449332154414
 10
13.7056034124224
 20
4.364493321544077
 10
-13.69439658757762
 20
4.364493321544077
 10
-13.69439658757761
 20
7.76449332154414
 10
-10.29439658757761
 20
7.76449332154414
 42
0.4142135623731262
 10
-10.0943965875776
 20
7.964493321544129
 10
-10.09439658757761
 20
8.914493321544146
 42
0.4142135623730847
 10
-10.29439658757762
 20
9.114493321544163
 10
-13.69439658757762
 20
9.114493321544106
 42
0.4142135623730997
 10
-15.04439658757761
 20
7.76449332154414
 10
-15.04439658757761
 20
4.364493321544077
 42
0.4142135623731013
 10
-13.69439658757758
 20
3.014493321544083
 10
-12.99439658757762
 20
3.014493321544112
 42
-0.4142135623730951
 10
-11.99439658757761
 20
2.014493321544225
 10
-11.9943965875776
 20
-17.74519240775475
 42
-0.6141312683256669
 10
-13.58530567848669
 20
-18.55193055999562
 42
-0.2068083242921016
 10
-22.82097758443219
 20
-2.81603092081394
 10
-21.68241016097172
 20
-2.816030920813729
 42
0.4142135623730425
 10
-21.18241016097181
 20
-2.316030920813723
 10
-21.18241016097186
 20
-0.9422922110860234
 42
0.0874886635258944
 10
-21.21256385057884
 20
-0.7712821394232248
 10
-21.37465404628954
 20
-0.3259429867930201
 42
0.3152987888790284
 10
-21.84450035668249
 20
0.003046941544202
 10
-24.79359012139815
 20
0.0030469415441736
 42
0.4165420903199014
 10
-24.99358381144595
 20
-0.1985417500786929
 42
0.250075749340437
 10
-13.75293121861886
 20
-20.87044641262414
 42
0.1467329466735393
 10
-13.20258983337724
 20
-21.03550667845746
 10
-8.194396587577614
 20
-21.03550667845746
 42
0.4142135623730951
 10
-7.994396587577625
 20
-20.83550667845747
 10
-7.994396587577604
 20
-19.48550667845586
 42
0.4142135623730951
 10
-8.194396587577593
 20
-19.28550667845587
 10
-8.794396587577601
 20
-19.28550667845587
 42
0.4142135623730951
 10
-8.99439658757759
 20
-19.48550667845586
 10
-8.994396587575963
 20
-19.83550667845591
 42
-0.4142135623730951
 10
-9.1943965875776
 20
-20.03550667845755
 10
-9.794396587577601
 20
-20.03550667845746
 42
-0.4142135623730639
 10
-9.99439658757759
 20
-19.83550667845591
 10
-9.99439658757759
 20
-16.7355066784558
 42
-0.4142135623731367
 10
-9.794396587577594
 20
-16.53550667845584
 10
-9.194396587577593
 20
-16.53550667845581
 42
-0.4142135623731054
 10
-8.99439658757759
 20
-16.7355066784558
 10
-8.99439658757759
 20
-17.08550667845588
 42
0.4142135623731054
 10
-8.794396587577594
 20
-17.28550667845587
 10
-8.194396587577593
 20
-17.28550667845587
 42
0.4142135623730951
 10
-7.994396587577597
 20
-17.08550667845588
 10
-7.994396587577618
 20
-15.53550667845573
 42
0.4142135623730951
 10
-8.194396587577607
 20
-15.33550667845574
 10
-9.794396587577864
 20
-15.33550667845574
 42
0.0358522416801851
 10
-9.994396587577604
 20
-15.34986603240076
 10
-9.99439658757759
 20
2.364493321544077
 10
10.00560341242241
 20
2.364493321544077
 10
10.00560341242241
 20
-19.03550667845578
 10
7.005603412422395
 20
-19.03550667845578
 42
0.4142063376921495
 10
5.505640412422401
 20
-17.53550667891224
 10
5.505640412422402
 20
-16.98091235175249
 42
0.339454258863343
 10
5.357404221442928
 20
-16.78772718649469
 10
4.257420494664891
 20
-16.492987435217
 42
0.4931454260313212
 10
4.005603412422395
 20
-16.68621347845578
 10
4.005603412422395
 20
-17.61768622355131
 10
4.226461788055409
 20
-18.87023631398917
 42
0.3639702342662046
 10
4.423423338657851
 20
-19.03550667845578
 10
5.505603412422395
 20
-19.03550667845578
 10
5.505603412422369
 20
-20.83550667845746
 42
0.4142135623731003
 10
5.70560341242237
 20
-21.03550667845746
  0
HATCH
  5
2D84
330
1D36
100
AcDbEntity
  8
APL Hatch
100
AcDbHatch
 10
0.0
 20
0.0
 30
0.0
210
0.0
220
0.0
230
1.0
  2
SOLID
 70
     1
 71
     1
 91
        1
 92
        1
 93
       87
 72
     2
 10
13.21379665821042
 20
-20.03550667841873
 40
1.000000000038738
 50
270.0000000026381
 51
303.3904365766545
 73
     1
 72
     2
 10
0.0065928854935216
 20
0.0025088974717367
 40
24.99900622326511
 50
303.3892217588043
 51
359.5392025726518
 73
     1
 72
     2
 10
24.80479694624304
 20
-0.1969530584555642
 40
0.2000000000000036
 50
359.5448685888708
 51
450.0000000000061
 73
     1
 72
     1
 10
24.80479694624302
 20
0.0030469415444396
 11
21.85570718152736
 21
0.0030469415444672
 72
     2
 10
21.85570718152736
 20
-0.4969530584555017
 40
0.4999999999999689
 50
90.0
 51
160.0000000000093
 73
     1
 72
     1
 10
21.38586087113441
 20
-0.3259429867927541
 11
21.22377067542377
 21
-0.7712821394229773
 72
     2
 10
21.69361698581671
 20
-0.9422922110859177
 40
0.5000000000000249
 50
159.9999999999881
 51
179.9999999999816
 73
     1
 72
     1
 10
21.19361698581668
 20
-0.9422922110857577
 11
21.19361698581668
 21
-2.316030920813457
 72
     2
 10
21.69361698581667
 20
-2.31603092081346
 40
0.4999999999999929
 50
179.9999999999996
 51
269.9999999999898
 73
     1
 72
     1
 10
21.69361698581659
 20
-2.816030920813457
 11
22.83218440927706
 21
-2.816030920813687
 72
     2
 10
0.0056034124227793
 20
0.0030469415439356
 40
22.99999999999964
 50
7.0403672345872
 51
53.7784533801646
 73
     0
 72
     2
 10
13.00560341242249
 20
-17.74519240775458
 40
1.000000000000081
 50
53.7784533801558
 51
179.99999999999
 73
     0
 72
     1
 10
12.00560341242241
 20
-17.74519240775475
 11
12.00560341242241
 21
2.014493321544225
 72
     2
 10
13.00560341242241
 20
2.014493321544225
 40
1.0
 50
180.0
 51
269.9999999999992
 73
     0
 72
     1
 10
13.00560341242239
 20
3.014493321544225
 11
13.7056034124224
 21
3.014493321544112
 72
     2
 10
13.70560341242241
 20
4.364493321544106
 40
1.349999999999994
 50
269.9999999999994
 51
359.9999999999988
 73
     1
 72
     1
 10
15.0556034124224
 20
4.364493321544077
 11
15.05560341242239
 21
7.76449332154414
 72
     2
 10
13.70560341242237
 20
7.76449332154414
 40
1.350000000000022
 50
0.0
 51
90.0
 73
     1
 72
     1
 10
13.70560341242237
 20
9.114493321544163
 11
10.30560341242238
 21
9.114493321544106
 72
     2
 10
10.30560341242235
 20
8.914493321544124
 40
0.1999999999999815
 50
89.99999999999388
 51
179.9999999999939
 73
     1
 72
     1
 10
10.10560341242237
 20
8.914493321544146
 11
10.10560341242237
 21
7.964493321544129
 72
     2
 10
10.30560341242236
 20
7.964493321544129
 40
0.1999999999999886
 50
180.0
 51
270.0000000000041
 73
     1
 72
     1
 10
10.30560341242238
 20
7.76449332154414
 11
13.70560341242237
 21
7.76449332154414
 72
     1
 10
13.70560341242237
 20
7.76449332154414
 11
13.7056034124224
 21
4.364493321544077
 72
     1
 10
13.7056034124224
 20
4.364493321544077
 11
-13.69439658757762
 21
4.364493321544077
 72
     1
 10
-13.69439658757762
 20
4.364493321544077
 11
-13.69439658757761
 21
7.76449332154414
 72
     1
 10
-13.69439658757761
 20
7.76449332154414
 11
-10.29439658757761
 21
7.76449332154414
 72
     2
 10
-10.29439658757759
 20
7.964493321544129
 40
0.1999999999999886
 50
269.9999999999939
 51
360.0
 73
     1
 72
     1
 10
-10.0943965875776
 20
7.964493321544129
 11
-10.09439658757761
 21
8.914493321544146
 72
     2
 10
-10.29439658757763
 20
8.914493321544146
 40
0.200000000000017
 50
0.0
 51
89.99999999999797
 73
     1
 72
     1
 10
-10.29439658757762
 20
9.114493321544163
 11
-13.69439658757762
 21
9.114493321544106
 72
     2
 10
-13.69439658757764
 20
7.76449332154414
 40
1.349999999999965
 50
89.99999999999909
 51
180.0
 73
     1
 72
     1
 10
-15.04439658757761
 20
7.76449332154414
 11
-15.04439658757761
 21
4.364493321544077
 72
     2
 10
-13.69439658757761
 20
4.364493321544077
 40
1.349999999999994
 50
180.0
 51
270.0000000000012
 73
     1
 72
     1
 10
-13.69439658757758
 20
3.014493321544083
 11
-12.99439658757762
 21
3.014493321544112
 72
     2
 10
-12.99439658757756
 20
2.014493321544165
 40
0.9999999999999467
 50
269.9999999999965
 51
359.9999999999965
 73
     0
 72
     1
 10
-11.99439658757761
 20
2.014493321544225
 11
-11.9943965875776
 21
-17.74519240775475
 72
     2
 10
-12.99439658757761
 20
-17.74519240775476
 40
1.000000000000005
 50
359.9999999999994
 51
486.2215466198348
 73
     0
 72
     2
 10
0.0056034124221327
 20
0.0030469415439267
 40
22.99999999999972
 50
126.2215466198348
 51
172.9596327654122
 73
     0
 72
     1
 10
-22.82097758443219
 20
-2.81603092081394
 11
-21.68241016097172
 21
-2.816030920813729
 72
     2
 10
-21.68241016097181
 20
-2.316030920813729
 40
0.5
 50
270.000000000011
 51
360.0000000000008
 73
     1
 72
     1
 10
-21.18241016097181
 20
-2.316030920813723
 11
-21.18241016097186
 21
-0.9422922110860234
 72
     2
 10
-21.6824101609719
 20
-0.9422922110858836
 40
0.5000000000000356
 50
359.999999999984
 51
379.9999999999772
 73
     1
 72
     1
 10
-21.21256385057884
 20
-0.7712821394232248
 11
-21.37465404628954
 21
-0.3259429867930201
 72
     2
 10
-21.84450035668249
 20
-0.4969530584557669
 40
0.4999999999999686
 50
19.99999999999063
 51
90.0
 73
     1
 72
     1
 10
-21.84450035668249
 20
0.003046941544202
 11
-24.79359012139815
 21
0.0030469415441736
 72
     2
 10
-24.79359012139817
 20
-0.1969530584558295
 40
0.2000000000000032
 50
89.99999999999388
 51
180.4551314111284
 73
     1
 72
     2
 10
0.0000000000019327
 20
0.0000000000015384
 40
24.99437237792529
 50
180.4551314111343
 51
236.6164442575091
 73
     1
 72
     2
 10
-13.20258983337724
 20
-20.03550667845746
 40
0.9999999999999996
 50
236.6095634251609
 51
269.9999999999999
 73
     1
 72
     1
 10
-13.20258983337724
 20
-21.03550667845746
 11
-8.194396587577614
 21
-21.03550667845746
 72
     2
 10
-8.194396587577614
 20
-20.83550667845747
 40
0.1999999999999886
 50
270.0
 51
360.0
 73
     1
 72
     1
 10
-7.994396587577625
 20
-20.83550667845747
 11
-7.994396587577604
 21
-19.48550667845586
 72
     2
 10
-8.194396587577593
 20
-19.48550667845586
 40
0.1999999999999886
 50
0.0
 51
90.0
 73
     1
 72
     1
 10
-8.194396587577593
 20
-19.28550667845587
 11
-8.794396587577601
 21
-19.28550667845587
 72
     2
 10
-8.794396587577601
 20
-19.48550667845586
 40
0.1999999999999886
 50
90.0
 51
180.0
 73
     1
 72
     1
 10
-8.99439658757759
 20
-19.48550667845586
 11
-8.994396587575963
 21
-19.83550667845591
 72
     2
 10
-9.1943965875776
 20
-19.83550667845591
 40
0.2000000000016371
 50
360.0
 51
450.0
 73
     0
 72
     1
 10
-9.1943965875776
 20
-20.03550667845755
 11
-9.794396587577601
 21
-20.03550667845746
 72
     2
 10
-9.794396587576809
 20
-19.83550667845668
 40
0.2000000000007809
 50
90.00000000022696
 51
180.0000000002208
 73
     0
 72
     1
 10
-9.99439658757759
 20
-19.83550667845591
 11
-9.99439658757759
 21
-16.7355066784558
 72
     2
 10
-9.794396587577626
 20
-16.7355066784558
 40
0.1999999999999637
 50
180.000000000001
 51
270.0000000000092
 73
     0
 72
     1
 10
-9.794396587577594
 20
-16.53550667845584
 11
-9.194396587577593
 21
-16.53550667845581
 72
     2
 10
-9.194396587577582
 20
-16.7355066784558
 40
0.1999999999999922
 50
269.9999999999969
 51
359.999999999999
 73
     0
 72
     1
 10
-8.99439658757759
 20
-16.7355066784558
 11
-8.99439658757759
 21
-17.08550667845588
 72
     2
 10
-8.794396587577601
 20
-17.08550667845588
 40
0.1999999999999886
 50
180.0
 51
270.0000000000021
 73
     1
 72
     1
 10
-8.794396587577594
 20
-17.28550667845587
 11
-8.194396587577593
 21
-17.28550667845587
 72
     2
 10
-8.194396587577589
 20
-17.08550667845588
 40
0.1999999999999922
 50
269.999999999999
 51
359.999999999999
 73
     1
 72
     1
 10
-7.994396587577597
 20
-17.08550667845588
 11
-7.994396587577618
 21
-15.53550667845573
 72
     2
 10
-8.194396587577607
 20
-15.53550667845573
 40
0.1999999999999886
 50
0.0
 51
90.0
 73
     1
 72
     1
 10
-8.194396587577607
 20
-15.33550667845574
 11
-9.794396587577864
 21
-15.33550667845574
 72
     2
 10
-9.794396587576715
 20
-16.73550667845589
 40
1.400000000000151
 50
90.00000000004705
 51
98.21321070177408
 73
     1
 72
     1
 10
-9.994396587577604
 20
-15.34986603240076
 11
-9.99439658757759
 21
2.364493321544077
 72
     1
 10
-9.99439658757759
 20
2.364493321544077
 11
10.00560341242241
 21
2.364493321544077
 72
     1
 10
10.00560341242241
 20
2.364493321544077
 11
10.00560341242241
 21
-19.03550667845578
 72
     1
 10
10.00560341242241
 20
-19.03550667845578
 11
7.005603412422395
 21
-19.03550667845578
 72
     2
 10
5.505603412422454
 20
-19.03550667845584
 40
1.499999999999941
 50
0.000000000002307
 51
89.99858670410722
 73
     1
 72
     1
 10
5.505640412422401
 20
-17.53550667891224
 11
5.505640412422402
 21
-16.98091235175249
 72
     2
 10
5.305640412422401
 20
-16.98091235175249
 40
0.2000000000000011
 50
0.0
 51
74.99999999999326
 73
     1
 72
     1
 10
5.357404221442928
 20
-16.78772718649469
 11
4.257420494664891
 21
-16.492987435217
 72
     2
 10
4.205645732422392
 20
-16.68621347845578
 40
0.2000423199999967
 50
74.99999999999784
 51
180.000000000001
 73
     1
 72
     1
 10
4.005603412422395
 20
-16.68621347845578
 11
4.005603412422395
 21
-17.61768622355131
 72
     1
 10
4.005603412422395
 20
-17.61768622355131
 11
4.226461788055409
 21
-18.87023631398917
 72
     2
 10
4.423423338657851
 20
-18.83550667845578
 40
0.1999999999999999
 50
189.9999999999995
 51
270.0
 73
     1
 72
     1
 10
4.423423338657851
 20
-19.03550667845578
 11
5.505603412422395
 21
-19.03550667845578
 72
     1
 10
5.505603412422395
 20
-19.03550667845578
 11
5.505603412422369
 21
-20.83550667845746
 72
     2
 10
5.70560341242237
 20
-20.83550667845746
 40
0.2000000000000002
 50
179.999999999999
 51
270.0
 73
     1
 72
     1
 10
5.70560341242237
 20
-21.03550667845746
 11
13.21379665825646
 21
-21.03550667845746
 97
        1
330
2D83
 75
     0
 76
     1
 98
        1
 10
0.0
 20
0.0
  0
ENDBLK
  5
1D38
330
1D36
100
AcDbEntity
  8
0
100
AcDbBlockEnd
  0
BLOCK
  5
1D3D
330
1D3C
100
AcDbEntity
  8
0
100
AcDbBlockBegin
  2
01956
 70
     0
 10
0.0
 20
0.0
 30
0.0
  3
01956
  1
I:\DWG Master Blocks\01956.dwg
  0
LWPOLYLINE
  5
2D88
102
{ACAD_REACTORS
330
2D89
102
}
330
1D3C
100
AcDbEntity
  8
APL Joinery
370
     0
100
AcDbPolyline
 90
       32
 70
     1
 43
0.0
 10
11.05000000003371
 20
5.699999999999675
 42
0.4142135623727622
 10
10.85000000003389
 20
5.499999999999573
 10
10.85000000003389
 20
1.500000000000028
 10
5.749999999999936
 20
1.500000000000028
 10
5.349999999999987
 20
1.100000000000108
 10
4.950000000000009
 20
1.500000000000028
 10
0.9999999999999928
 20
1.500000000000028
 10
1.000000000000021
 20
9.531785542833546
 42
0.9999999999999998
 10
-0.0000000000000355
 20
9.531785542833546
 10
-0.0000000000000071
 20
4.261361160396603
 10
-0.8841392167848098
 20
2.175620496873733
 42
0.5371616220862369
 10
-0.7000000000000242
 20
1.897564434701479
 10
-0.0000000000000071
 20
1.897564434701536
 10
-0.0000000000000071
 20
0.1999999999997328
 42
0.4142135623730951
 10
0.1999999999999815
 20
-0.0000000000002558
 10
12.99999999999993
 20
-0.0000000000002558
 42
0.4142135623730118
 10
13.19999999999998
 20
0.1999999999999602
 10
13.19999999999992
 20
1.649999999999664
 42
0.4142135623730118
 10
12.99999999999988
 20
1.849999999999653
 10
12.83393854483858
 20
1.850000000000108
 42
0.3039179107164106
 10
12.64900292514084
 20
1.726149961044569
 10
12.40099707489309
 20
1.123850038955396
 42
-0.3039179107173865
 10
12.21606145519541
 20
0.9999999999996305
 10
12.05000000003394
 20
0.9999999999996305
 42
-0.4142135623730951
 10
11.85000000003389
 20
1.199999999999846
 10
11.85000000003389
 20
4.699999999999675
 10
12.35000000003389
 20
4.699999999999619
 42
0.4743947408741408
 10
12.5459726368964
 20
4.939934015590011
 10
11.58993159219005
 20
9.631620581809187
 42
0.9999999999999998
 10
10.61006840787774
 20
9.431950503858018
 10
11.3216485708861
 20
5.939934015590296
 42
-0.4743947408738657
 10
11.12567593402359
 20
5.700000000000017
  0
HATCH
  5
2D89
330
1D3C
100
AcDbEntity
  8
APL Hatch
100
AcDbHatch
 10
0.0
 20
0.0
 30
0.0
210
0.0
220
0.0
230
1.0
  2
SOLID
 70
     1
 71
     1
 91
        1
 92
        1
 93
       32
 72
     2
 10
11.05000000003397
 20
5.499999999999602
 40
0.2000000000000739
 50
90.00000000007329
 51
180.0000000000081
 73
     1
 72
     1
 10
10.85000000003389
 20
5.499999999999573
 11
10.85000000003389
 21
1.500000000000028
 72
     1
 10
10.85000000003389
 20
1.500000000000028
 11
5.749999999999936
 21
1.500000000000028
 72
     1
 10
5.749999999999936
 20
1.500000000000028
 11
5.349999999999987
 21
1.100000000000108
 72
     1
 10
5.349999999999987
 20
1.100000000000108
 11
4.950000000000009
 21
1.500000000000028
 72
     1
 10
4.950000000000009
 20
1.500000000000028
 11
0.9999999999999928
 21
1.500000000000028
 72
     1
 10
0.9999999999999928
 20
1.500000000000028
 11
1.000000000000021
 21
9.531785542833546
 72
     2
 10
0.4999999999999929
 20
9.531785542833546
 40
0.5000000000000285
 50
0.0
 51
180.0
 73
     1
 72
     1
 10
-0.0000000000000355
 20
9.531785542833546
 11
-0.0000000000000071
 21
4.261361160396603
 72
     1
 10
-0.0000000000000071
 20
4.261361160396603
 11
-0.8841392167848098
 21
2.175620496873733
 72
     2
 10
-0.7000000000000825
 20
2.097564434701356
 40
0.1999999999998771
 50
157.0280577163797
 51
270.0000000000167
 73
     1
 72
     1
 10
-0.7000000000000242
 20
1.897564434701479
 11
-0.0000000000000071
 21
1.897564434701536
 72
     1
 10
-0.0000000000000071
 20
1.897564434701536
 11
-0.0000000000000071
 21
0.1999999999997328
 72
     2
 10
0.1999999999999815
 20
0.1999999999997328
 40
0.1999999999999886
 50
180.0
 51
270.0
 73
     1
 72
     1
 10
0.1999999999999815
 20
-0.0000000000002558
 11
12.99999999999993
 21
-0.0000000000002558
 72
     2
 10
12.99999999999982
 20
0.1999999999999034
 40
0.2000000000001592
 50
270.0000000000326
 51
360.0000000000163
 73
     1
 72
     1
 10
13.19999999999998
 20
0.1999999999999602
 11
13.19999999999992
 21
1.649999999999664
 72
     2
 10
12.99999999999988
 20
1.649999999999607
 40
0.2000000000000455
 50
0.0000000000162844
 51
90.0
 73
     1
 72
     1
 10
12.99999999999988
 20
1.849999999999653
 11
12.83393854483858
 21
1.850000000000108
 72
     2
 10
12.83393854483886
 20
1.649999999999438
 40
0.2000000000006694
 50
90.00000000008192
 51
157.6198649498939
 73
     1
 72
     1
 10
12.64900292514084
 20
1.726149961044569
 11
12.40099707489309
 21
1.123850038955396
 72
     2
 10
12.21606145519528
 20
1.199999999999837
 40
0.2000000000002064
 50
22.38013504994695
 51
89.99999999996386
 73
     0
 72
     1
 10
12.21606145519541
 20
0.9999999999996305
 11
12.05000000003394
 21
0.9999999999996305
 72
     2
 10
12.05000000003402
 20
1.199999999999761
 40
0.2000000000001307
 50
90.00000000002442
 51
180.0000000000244
 73
     0
 72
     1
 10
11.85000000003389
 20
1.199999999999846
 11
11.85000000003389
 21
4.699999999999675
 72
     1
 10
11.85000000003389
 20
4.699999999999675
 11
12.35000000003389
 21
4.699999999999619
 72
     2
 10
12.35000000003389
 20
4.899999999999659
 40
0.2000000000000401
 50
270.000000000001
 51
371.5176667580161
 73
     1
 72
     1
 10
12.5459726368964
 20
4.939934015590011
 11
11.58993159219005
 21
9.631620581809187
 72
     2
 10
11.10000000003389
 20
9.531785542833603
 40
0.4999999999999203
 50
11.51766675798554
 51
191.5176667579855
 73
     1
 72
     1
 10
10.61006840787774
 20
9.431950503858018
 11
11.3216485708861
 21
5.939934015590296
 72
     2
 10
11.12567593402355
 20
5.900000000000074
 40
0.2000000000000573
 50
348.482333242023
 51
449.9999999999862
 73
     0
 72
     1
 10
11.12567593402359
 20
5.700000000000017
 11
11.05000000003371
 21
5.699999999999675
 97
        1
330
2D88
 75
     0
 76
     1
 98
        1
 10
0.0
 20
0.0
  0
ENDBLK
  5
1D3E
330
1D3C
100
AcDbEntity
  8
0
100
AcDbBlockEnd
  0
BLOCK
  5
1D43
330
1D42
100
AcDbEntity
  8
0
100
AcDbBlockBegin
  2
01951
 70
     0
 10
0.0
 20
0.0
 30
0.0
  3
01951
  1
I:\DWG Master Blocks\01951.dwg
  0
LWPOLYLINE
  5
2D8D
102
{ACAD_REACTORS
330
2D8E
102
}
330
1D42
100
AcDbEntity
  8
APL Joinery
100
AcDbPolyline
 90
       65
 70
     1
 43
0.0
 10
15.50000000000007
 20
0.0
 42
0.9999999999999927
 10
15.49999999999991
 20
23.99999999999999
 10
8.699999999999903
 20
23.9999999999998
 42
0.4142135623730898
 10
8.499999999999909
 20
23.7999999999998
 10
8.499999999999921
 20
21.9999999999998
 10
7.417819926235403
 20
21.99999999999997
 42
0.3639702342662365
 10
7.22085837563293
 20
21.83472963553336
 10
6.999999999999893
 20
20.58217954509554
 10
6.999999999999907
 20
19.65070679999999
 42
0.4931454260313214
 10
7.251817082242403
 20
19.45748075676121
 10
8.351800809020389
 20
19.75222050803857
 42
0.3394542588634064
 10
8.500036999999913
 20
19.94540567329639
 10
8.500036999999927
 20
20.50000000045613
 42
0.4142063376921483
 10
9.999999999999936
 20
21.99999999999981
 10
13.69999999999991
 20
22.0
 42
-0.8991943913098566
 10
15.80526315789463
 20
2.224118094207
 42
-0.4777963207470501
 10
15.19999999999991
 20
2.712912189496648
 10
15.19999999999991
 20
5.399999999999998
 42
0.4142135623730924
 10
13.69999999999992
 20
6.899999999999998
 10
12.19999999999992
 20
6.899999999999792
 42
0.4142135623731054
 10
11.69999999999991
 20
6.399999999999792
 10
11.69999999999991
 20
5.899999999999792
 42
0.4142135623730971
 10
12.19999999999991
 20
5.399999999999806
 10
13.69999999999991
 20
5.399999999999998
 10
13.69999999999991
 20
2.000000000000014
 10
0.8999999999999133
 20
1.999999999999985
 10
0.4999999999999219
 20
1.599999999999987
 10
0.0999999999999162
 20
1.999999999999985
 10
-13.70000000000008
 20
2.0
 10
-13.70000000000007
 20
5.399999999999998
 10
-12.20000000000007
 20
5.399999999999998
 42
0.4142135623730909
 10
-11.70000000000008
 20
5.899999999999998
 10
-11.70000000000008
 20
6.399999999999984
 42
0.4142135623730951
 10
-12.20000000000008
 20
6.899999999999984
 10
-13.70000000000008
 20
6.900000000000019
 42
0.4142135623730958
 10
-15.20000000000009
 20
5.399999999999998
 10
-15.20000000000007
 20
2.712912189496648
 42
-0.477796320747043
 10
-15.80526315789474
 20
2.224118094206971
 42
-0.899194391309865
 10
-13.70000000000009
 20
21.99999999999999
 10
-8.700000000000343
 20
22.00000000000001
 42
-0.4142135623731033
 10
-8.200000000000329
 20
21.50000000000002
 10
-8.200000000000386
 20
19.69999999999977
 42
0.4142135623731084
 10
-6.800000000000331
 20
18.29999999999978
 10
-5.200000000000081
 20
18.29999999999978
 42
0.4142135623730833
 10
-5.000000000000085
 20
18.49999999999979
 10
-5.000000000000078
 20
20.04999999999979
 42
0.4142135623730951
 10
-5.200000000000081
 20
20.24999999999979
 10
-5.800000000000082
 20
20.24999999999977
 42
0.4142135623730951
 10
-6.000000000000078
 20
20.04999999999979
 10
-6.000000000000127
 20
19.69999999999979
 42
-0.4142135623730938
 10
-6.20000000000013
 20
19.49999999999979
 10
-6.800000000000132
 20
19.49999999999977
 42
-0.4142135623730951
 10
-7.000000000000127
 20
19.69999999999979
 10
-7.000000000000085
 20
22.79999999999978
 42
-0.4142135623730951
 10
-6.800000000000082
 20
22.99999999999979
 10
-6.200000000000073
 20
22.99999999999979
 42
-0.4142135623730951
 10
-6.000000000000078
 20
22.79999999999978
 10
-6.000000000000085
 20
22.44999999999979
 42
0.4142135623730951
 10
-5.800000000000082
 20
22.24999999999979
 10
-5.200000000000081
 20
22.24999999999979
 42
0.414213562373086
 10
-5.000000000000085
 20
22.44999999999979
 10
-5.000000000000078
 20
23.79999999999979
 42
0.4142135623730951
 10
-5.200000000000081
 20
23.99999999999979
 10
-15.5000000000001
 20
24.0
 42
1.000000000000005
 10
-15.50000000000007
 20
0.0
  0
HATCH
  5
2D8E
330
1D42
100
AcDbEntity
  8
APL Hatch
100
AcDbHatch
 10
0.0
 20
0.0
 30
0.0
210
0.0
220
0.0
230
1.0
  2
SOLID
 70
     1
 71
     1
 91
        1
 92
        1
 93
       65
 72
     2
 10
15.4999999999999
 20
11.99999999999999
 40
11.99999999999999
 50
270.0000000000008
 51
450.0
 73
     1
 72
     1
 10
15.49999999999991
 20
23.99999999999999
 11
8.699999999999903
 21
23.9999999999998
 72
     2
 10
8.699999999999906
 20
23.7999999999998
 40
0.1999999999999993
 50
90.00000000000103
 51
180.0
 73
     1
 72
     1
 10
8.499999999999909
 20
23.7999999999998
 11
8.499999999999921
 21
21.9999999999998
 72
     1
 10
8.499999999999921
 20
21.9999999999998
 11
7.417819926235403
 21
21.99999999999997
 72
     2
 10
7.417819926235374
 20
21.79999999999997
 40
0.2000000000000028
 50
89.99999999999159
 51
169.9999999999985
 73
     1
 72
     1
 10
7.22085837563293
 20
21.83472963553336
 11
6.999999999999893
 21
20.58217954509554
 72
     1
 10
6.999999999999893
 20
20.58217954509554
 11
6.999999999999907
 21
19.65070679999999
 72
     2
 10
7.200042319999904
 20
19.65070679999999
 40
0.200042319999997
 50
179.999999999999
 51
285.0000000000022
 73
     1
 72
     1
 10
7.251817082242403
 20
19.45748075676121
 11
8.351800809020389
 21
19.75222050803857
 72
     2
 10
8.300036999999912
 20
19.9454056732964
 40
0.200000000000002
 50
284.9999999999917
 51
359.999999999998
 73
     1
 72
     1
 10
8.500036999999913
 20
19.94540567329639
 11
8.500036999999927
 21
20.50000000045613
 72
     2
 10
8.499999999999914
 20
21.99999999999981
 40
1.500000000000022
 50
270.0014132958953
 51
360.0
 73
     1
 72
     1
 10
9.999999999999936
 20
21.99999999999981
 11
13.69999999999991
 21
22.0
 72
     2
 10
13.69999999999984
 20
11.99999999999999
 40
10.0
 50
270.0000000000004
 51
437.8468025309918
 73
     0
 72
     2
 10
15.6999999999999
 20
2.712912189496648
 40
0.4999999999999968
 50
77.84680253099296
 51
180.0
 73
     0
 72
     1
 10
15.19999999999991
 20
2.712912189496648
 11
15.19999999999991
 21
5.399999999999998
 72
     2
 10
13.69999999999991
 20
5.399999999999998
 40
1.5
 50
0.0
 51
89.99999999999946
 73
     1
 72
     1
 10
13.69999999999992
 20
6.899999999999998
 11
12.19999999999992
 21
6.899999999999792
 72
     2
 10
12.19999999999991
 20
6.399999999999794
 40
0.4999999999999983
 50
89.99999999999817
 51
180.0000000000002
 73
     1
 72
     1
 10
11.69999999999991
 20
6.399999999999792
 11
11.69999999999991
 21
5.899999999999792
 72
     2
 10
12.1999999999999
 20
5.899999999999797
 40
0.4999999999999912
 50
180.0000000000006
 51
270.000000000001
 73
     1
 72
     1
 10
12.19999999999991
 20
5.399999999999806
 11
13.69999999999991
 21
5.399999999999998
 72
     1
 10
13.69999999999991
 20
5.399999999999998
 11
13.69999999999991
 21
2.000000000000014
 72
     1
 10
13.69999999999991
 20
2.000000000000014
 11
0.8999999999999133
 21
1.999999999999985
 72
     1
 10
0.8999999999999133
 20
1.999999999999985
 11
0.4999999999999219
 21
1.599999999999987
 72
     1
 10
0.4999999999999219
 20
1.599999999999987
 11
0.0999999999999162
 21
1.999999999999985
 72
     1
 10
0.0999999999999162
 20
1.999999999999985
 11
-13.70000000000008
 21
2.0
 72
     1
 10
-13.70000000000008
 20
2.0
 11
-13.70000000000007
 21
5.399999999999998
 72
     1
 10
-13.70000000000007
 20
5.399999999999998
 11
-12.20000000000007
 21
5.399999999999998
 72
     2
 10
-12.20000000000008
 20
5.899999999999998
 40
0.5
 50
270.0000000000008
 51
360.0
 73
     1
 72
     1
 10
-11.70000000000008
 20
5.899999999999998
 11
-11.70000000000008
 21
6.399999999999984
 72
     2
 10
-12.20000000000008
 20
6.399999999999984
 40
0.5
 50
0.0
 51
90.0
 73
     1
 72
     1
 10
-12.20000000000008
 20
6.899999999999984
 11
-13.70000000000008
 21
6.900000000000019
 72
     2
 10
-13.70000000000008
 20
5.400000000000003
 40
1.500000000000015
 50
90.00000000000005
 51
180.0000000000002
 73
     1
 72
     1
 10
-15.20000000000009
 20
5.399999999999998
 11
-15.20000000000007
 21
2.712912189496648
 72
     2
 10
-15.70000000000006
 20
2.712912189496617
 40
0.4999999999999841
 50
359.9999999999964
 51
462.1531974690022
 73
     0
 72
     2
 10
-13.70000000000008
 20
11.99999999999999
 40
9.999999999999996
 50
102.1531974690074
 51
269.9999999999999
 73
     0
 72
     1
 10
-13.70000000000009
 20
21.99999999999999
 11
-8.700000000000343
 21
22.00000000000001
 72
     2
 10
-8.700000000000329
 20
21.50000000000002
 40
0.5
 50
269.9999999999984
 51
360.0
 73
     0
 72
     1
 10
-8.200000000000329
 20
21.50000000000002
 11
-8.200000000000386
 21
19.69999999999977
 72
     2
 10
-6.800000000000395
 20
19.69999999999977
 40
1.399999999999991
 50
180.0
 51
270.0000000000026
 73
     1
 72
     1
 10
-6.800000000000331
 20
18.29999999999978
 11
-5.200000000000081
 21
18.29999999999978
 72
     2
 10
-5.200000000000088
 20
18.49999999999979
 40
0.2000000000000028
 50
270.0000000000021
 51
360.0
 73
     1
 72
     1
 10
-5.000000000000085
 20
18.49999999999979
 11
-5.000000000000078
 21
20.04999999999979
 72
     2
 10
-5.200000000000081
 20
20.04999999999979
 40
0.2000000000000028
 50
0.0
 51
90.0
 73
     1
 72
     1
 10
-5.200000000000081
 20
20.24999999999979
 11
-5.800000000000082
 21
20.24999999999977
 72
     2
 10
-5.800000000000085
 20
20.04999999999978
 40
0.1999999999999922
 50
89.99999999999898
 51
179.999999999999
 73
     1
 72
     1
 10
-6.000000000000078
 20
20.04999999999979
 11
-6.000000000000127
 21
19.69999999999979
 72
     2
 10
-6.20000000000013
 20
19.69999999999979
 40
0.2000000000000028
 50
360.0
 51
450.0
 73
     0
 72
     1
 10
-6.20000000000013
 20
19.49999999999979
 11
-6.800000000000132
 21
19.49999999999977
 72
     2
 10
-6.800000000000121
 20
19.69999999999978
 40
0.2000000000000064
 50
90.00000000000305
 51
180.000000000003
 73
     0
 72
     1
 10
-7.000000000000127
 20
19.69999999999979
 11
-7.000000000000085
 21
22.79999999999978
 72
     2
 10
-6.800000000000082
 20
22.79999999999978
 40
0.2000000000000028
 50
180.0
 51
270.0
 73
     0
 72
     1
 10
-6.800000000000082
 20
22.99999999999979
 11
-6.200000000000073
 21
22.99999999999979
 72
     2
 10
-6.200000000000077
 20
22.79999999999979
 40
0.1999999999999993
 50
270.000000000001
 51
360.000000000001
 73
     0
 72
     1
 10
-6.000000000000078
 20
22.79999999999978
 11
-6.000000000000085
 21
22.44999999999979
 72
     2
 10
-5.800000000000082
 20
22.44999999999979
 40
0.2000000000000028
 50
180.0
 51
270.0
 73
     1
 72
     1
 10
-5.800000000000082
 20
22.24999999999979
 11
-5.200000000000081
 21
22.24999999999979
 72
     2
 10
-5.200000000000088
 20
22.44999999999979
 40
0.2000000000000028
 50
270.0000000000021
 51
360.0
 73
     1
 72
     1
 10
-5.000000000000085
 20
22.44999999999979
 11
-5.000000000000078
 21
23.79999999999979
 72
     2
 10
-5.200000000000081
 20
23.79999999999979
 40
0.2000000000000028
 50
0.0
 51
90.0
 73
     1
 72
     1
 10
-5.200000000000081
 20
23.99999999999979
 11
-15.5000000000001
 21
24.0
 72
     2
 10
-15.50000000000016
 20
12.0
 40
12.0
 50
89.99999999999975
 51
270.0000000000004
 73
     1
 72
     1
 10
-15.50000000000007
 20
0.0
 11
15.50000000000007
 21
0.0
 97
        1
330
2D8D
 75
     0
 76
     1
 98
        1
 10
0.0
 20
0.0
  0
ENDBLK
  5
1D44
330
1D42
100
AcDbEntity
  8
0
100
AcDbBlockEnd
  0
BLOCK
  5
1D49
330
1D48
100
AcDbEntity
  8
0
100
AcDbBlockBegin
  2
01964
 70
     0
 10
0.0
 20
0.0
 30
0.0
  3
01964
  1
I:\DWG Master Blocks\01964.dwg
  0
LWPOLYLINE
  5
2D92
102
{ACAD_REACTORS
330
2D94
102
}
330
1D48
100
AcDbEntity
  8
APL Joinery
100
AcDbPolyline
 90
        4
 70
     1
 43
0.0
 10
19.01754375452208
 20
-12.75707762557078
 42
0.5999935312621859
 10
18.1870833285604
 20
-11.19999999999999
 10
-18.1870833285604
 20
-11.19999999999999
 42
0.5999935312621871
 10
-19.01754375452191
 20
-12.75707762557098
 42
0.5333455521571976
  0
LWPOLYLINE
  5
2D93
102
{ACAD_REACTORS
330
2D94
102
}
330
1D48
100
AcDbEntity
  8
APL Joinery
100
AcDbPolyline
 90
       68
 70
     1
 43
0.0
 10
15.20000000000002
 20
-5.599999999999965
 42
0.4142135623730883
 10
13.70000000000003
 20
-4.099999999999994
 10
12.20000000000003
 20
-4.100000000000193
 42
0.4142135623731054
 10
11.70000000000001
 20
-4.600000000000221
 10
11.7
 20
-5.100000000000193
 42
0.4142135623731054
 10
12.20000000000001
 20
-5.600000000000193
 10
13.70000000000002
 20
-5.599999999999994
 10
13.70000000000002
 20
-8.999999999999971
 10
-13.69999999999997
 20
-9.0
 10
-13.69999999999996
 20
-5.599999999999994
 10
-12.19999999999996
 20
-5.599999999999994
 42
0.4142135623730826
 10
-11.69999999999997
 20
-5.099999999999994
 10
-11.69999999999997
 20
-4.600000000000022
 42
0.4142135623730951
 10
-12.19999999999997
 20
-4.100000000000022
 10
-13.69999999999997
 20
-4.099999999999965
 42
0.4142135623730943
 10
-15.19999999999999
 20
-5.599999999999994
 10
-15.19999999999996
 20
-7.999999999999971
 42
-0.4142135623730951
 10
-16.19999999999997
 20
-8.999999999999971
 10
-20.38651515095211
 20
-8.999999999999971
 42
-0.3084721549632547
 10
-21.31740625373518
 20
-8.365296803653279
 42
-0.1701915320511881
 10
-21.87481132582056
 20
6.775147928994073
 42
-0.3287397894651697
 10
-16.14341971206845
 20
10.99999999999997
 10
-8.70000000000023
 20
11.0
 42
-0.4142135623731034
 10
-8.200000000000216
 20
10.5
 10
-8.200000000000301
 20
8.699999999999789
 42
0.414213562373112
 10
-6.800000000000224
 20
7.299999999999783
 10
-5.19999999999996
 20
7.299999999999755
 42
0.4142135623730701
 10
-4.999999999999971
 20
7.499999999999772
 10
-4.999999999999971
 20
9.049999999999783
 42
0.4142135623730951
 10
-5.19999999999996
 20
9.249999999999772
 10
-5.799999999999968
 20
9.249999999999772
 42
0.414213562373118
 10
-5.999999999999957
 20
9.049999999999783
 10
-6.0
 20
8.699999999999789
 42
-0.4142135623730909
 10
-6.200000000000017
 20
8.499999999999772
 10
-6.800000000000025
 20
8.499999999999772
 42
-0.4142135623734926
 10
-7.000000000000156
 20
8.699999999999789
 10
-6.999999999999985
 20
11.79999999999978
 42
-0.4142135623730971
 10
-6.799999999999968
 20
11.9999999999998
 10
-6.199999999999974
 20
11.9999999999998
 42
-0.4142135623730951
 10
-5.999999999999957
 20
11.79999999999978
 10
-5.999999999999971
 20
11.44999999999979
 42
0.4142135623730971
 10
-5.799999999999968
 20
11.2499999999998
 10
-5.19999999999996
 20
11.2499999999998
 42
0.4142135623730701
 10
-4.999999999999971
 20
11.44999999999979
 10
-4.999999999999943
 20
12.79999999999978
 42
0.4142135623730951
 10
-5.19999999999996
 20
12.9999999999998
 10
-16.56170281100353
 20
12.9999999999998
 42
0.3307225680696719
 10
-24.22029370626525
 20
7.312138728323446
 42
1.346479903333608
 10
24.22029370626517
 20
7.312138728323731
 42
0.3307225680696732
 10
16.56170281100346
 20
13.0
 10
8.700000000000017
 20
12.99999999999983
 42
0.4142135623730971
 10
8.500000000000028
 20
12.79999999999981
 10
8.500000000000042
 20
10.9999999999998
 10
7.417819926235509
 20
10.99999999999997
 42
0.3639702342662487
 10
7.220858375633042
 20
10.83472963553336
 10
7.000000000000014
 20
9.582179545095556
 10
7.000000000000028
 20
8.650706799999994
 42
0.4931454260312993
 10
7.25181708224251
 20
8.457480756761214
 10
8.351800809020502
 20
8.75222050803859
 42
0.3394542588634219
 10
8.500037000000034
 20
8.94540567329642
 10
8.500037000000048
 20
9.500000000456111
 42
0.4142063376921483
 10
10.00000000000004
 20
10.9999999999998
 10
16.1434197120684
 20
11.00000000000011
 42
-0.3287397894651653
 10
21.87481132582049
 20
6.775147928994243
 42
-0.1701915320511826
 10
21.31740625373531
 20
-8.365296803652938
 42
-0.3084721549632713
 10
20.38651515095212
 20
-8.999999999999943
 10
16.20000000000004
 20
-8.999999999999971
 42
-0.4142135623731013
 10
15.20000000000002
 20
-7.999999999999971
  0
HATCH
  5
2D94
330
1D48
100
AcDbEntity
  8
APL Hatch
100
AcDbHatch
 10
0.0
 20
0.0
 30
0.0
210
0.0
220
0.0
230
1.0
  2
SOLID
 70
     1
 71
     1
 91
        2
 92
        1
 93
       68
 72
     2
 10
13.70000000000002
 20
-5.59999999999999
 40
1.499999999999996
 50
0.0000000000009499
 51
89.99999999999959
 73
     1
 72
     1
 10
13.70000000000003
 20
-4.099999999999994
 11
12.20000000000003
 21
-4.100000000000193
 72
     2
 10
12.20000000000003
 20
-4.600000000000205
 40
0.5000000000000125
 50
89.9999999999998
 51
180.0000000000018
 73
     1
 72
     1
 10
11.70000000000001
 20
-4.600000000000221
 11
11.7
 21
-5.100000000000193
 72
     2
 10
12.2
 20
-5.100000000000195
 40
0.4999999999999983
 50
179.9999999999998
 51
270.0000000000018
 73
     1
 72
     1
 10
12.20000000000001
 20
-5.600000000000193
 11
13.70000000000002
 21
-5.599999999999994
 72
     1
 10
13.70000000000002
 20
-5.599999999999994
 11
13.70000000000002
 21
-8.999999999999971
 72
     1
 10
13.70000000000002
 20
-8.999999999999971
 11
-13.69999999999997
 21
-9.0
 72
     1
 10
-13.69999999999997
 20
-9.0
 11
-13.69999999999996
 21
-5.599999999999994
 72
     1
 10
-13.69999999999996
 20
-5.599999999999994
 11
-12.19999999999996
 21
-5.599999999999994
 72
     2
 10
-12.19999999999998
 20
-5.09999999999999
 40
0.5000000000000036
 50
270.0000000000021
 51
359.9999999999996
 73
     1
 72
     1
 10
-11.69999999999997
 20
-5.099999999999994
 11
-11.69999999999997
 21
-4.600000000000022
 72
     2
 10
-12.19999999999997
 20
-4.600000000000022
 40
0.5
 50
0.0
 51
90.0
 73
     1
 72
     1
 10
-12.19999999999997
 20
-4.100000000000022
 11
-13.69999999999997
 21
-4.099999999999965
 72
     2
 10
-13.69999999999996
 20
-5.599999999999988
 40
1.500000000000023
 50
90.00000000000033
 51
180.0000000000002
 73
     1
 72
     1
 10
-15.19999999999999
 20
-5.599999999999994
 11
-15.19999999999996
 21
-7.999999999999971
 72
     2
 10
-16.19999999999996
 20
-7.999999999999964
 40
1.000000000000007
 50
0.0000000000004071
 51
90.0000000000004
 73
     0
 72
     1
 10
-16.19999999999997
 20
-8.999999999999971
 11
-20.38651515095211
 21
-8.999999999999971
 72
     2
 10
-20.38651515095226
 20
-8.000000000000184
 40
0.9999999999997868
 50
89.99999999999104
 51
158.5741503547217
 73
     0
 72
     2
 10
0.0000000000000178
 20
0.0000000000000107
 40
22.90000000000002
 50
158.5741503547335
 51
197.2089932219158
 73
     0
 72
     2
 10
-16.14341971206846
 20
4.999999999999977
 40
5.999999999999992
 50
197.208993221916
 51
270.0000000000001
 73
     0
 72
     1
 10
-16.14341971206845
 20
10.99999999999997
 11
-8.70000000000023
 21
11.0
 72
     2
 10
-8.700000000000216
 20
10.5
 40
0.5
 50
269.9999999999984
 51
360.0
 73
     0
 72
     1
 10
-8.200000000000216
 20
10.5
 11
-8.200000000000301
 21
8.699999999999789
 72
     2
 10
-6.8000000000003
 20
8.699999999999784
 40
1.4
 50
179.9999999999998
 51
270.0000000000031
 73
     1
 72
     1
 10
-6.800000000000224
 20
7.299999999999783
 11
-5.19999999999996
 21
7.299999999999755
 72
     2
 10
-5.199999999999983
 20
7.499999999999767
 40
0.2000000000000117
 50
270.0000000000066
 51
360.0000000000016
 73
     1
 72
     1
 10
-4.999999999999971
 20
7.499999999999772
 11
-4.999999999999971
 21
9.049999999999783
 72
     2
 10
-5.19999999999996
 20
9.049999999999783
 40
0.1999999999999886
 50
0.0
 51
90.0
 73
     1
 72
     1
 10
-5.19999999999996
 20
9.249999999999772
 11
-5.799999999999968
 21
9.249999999999772
 72
     2
 10
-5.799999999999976
 20
9.049999999999791
 40
0.1999999999999815
 50
89.9999999999977
 51
180.000000000002
 73
     1
 72
     1
 10
-5.999999999999957
 20
9.049999999999783
 11
-6.0
 21
8.699999999999789
 72
     2
 10
-6.200000000000018
 20
8.699999999999791
 40
0.2000000000000188
 50
0.0000000000005089
 51
89.99999999999948
 73
     0
 72
     1
 10
-6.200000000000017
 20
8.499999999999772
 11
-6.800000000000025
 21
8.499999999999772
 72
     2
 10
-6.800000000000218
 20
8.699999999999711
 40
0.1999999999999389
 50
89.99999999994479
 51
180.0000000000224
 73
     0
 72
     1
 10
-7.000000000000156
 20
8.699999999999789
 11
-6.999999999999985
 21
11.79999999999978
 72
     2
 10
-6.799999999999969
 20
11.79999999999978
 40
0.2000000000000162
 50
180.0
 51
270.0000000000002
 73
     0
 72
     1
 10
-6.799999999999968
 20
11.9999999999998
 11
-6.199999999999974
 21
11.9999999999998
 72
     2
 10
-6.199999999999974
 20
11.79999999999978
 40
0.200000000000017
 50
270.0
 51
360.0
 73
     0
 72
     1
 10
-5.999999999999957
 20
11.79999999999978
 11
-5.999999999999971
 21
11.44999999999979
 72
     2
 10
-5.799999999999976
 20
11.4499999999998
 40
0.1999999999999948
 50
180.000000000002
 51
270.0000000000023
 73
     1
 72
     1
 10
-5.799999999999968
 20
11.2499999999998
 11
-5.19999999999996
 21
11.2499999999998
 72
     2
 10
-5.199999999999969
 20
11.4499999999998
 40
0.1999999999999975
 50
270.0000000000025
 51
359.9999999999974
 73
     1
 72
     1
 10
-4.999999999999971
 20
11.44999999999979
 11
-4.999999999999943
 21
12.79999999999978
 72
     2
 10
-5.19999999999996
 20
12.79999999999978
 40
0.200000000000017
 50
0.0
 51
90.0
 73
     1
 72
     1
 10
-5.19999999999996
 20
12.9999999999998
 11
-16.56170281100353
 21
12.9999999999998
 72
     2
 10
-16.56170281100346
 20
4.999999999999724
 40
8.000000000000076
 50
90.00000000000046
 51
163.2008651870173
 73
     1
 72
     2
 10
0.0000000000000003
 20
0.0000000000000036
 40
25.3
 50
163.2008651870179
 51
376.7991348129827
 73
     1
 72
     2
 10
16.56170281100346
 20
5.0
 40
7.999999999999999
 50
16.79913481298285
 51
90.00000000000003
 73
     1
 72
     1
 10
16.56170281100346
 20
13.0
 11
8.700000000000017
 21
12.99999999999983
 72
     2
 10
8.700000000000031
 20
12.79999999999982
 40
0.2000000000000028
 50
90.00000000000406
 51
180.000000000004
 73
     1
 72
     1
 10
8.500000000000028
 20
12.79999999999981
 11
8.500000000000042
 21
10.9999999999998
 72
     1
 10
8.500000000000042
 20
10.9999999999998
 11
7.417819926235509
 21
10.99999999999997
 72
     2
 10
7.417819926235476
 20
10.79999999999998
 40
0.1999999999999922
 50
89.99999999999058
 51
170.0
 73
     1
 72
     1
 10
7.220858375633042
 20
10.83472963553336
 11
7.000000000000014
 21
9.582179545095556
 72
     1
 10
7.000000000000014
 20
9.582179545095556
 11
7.000000000000028
 21
8.650706799999994
 72
     2
 10
7.200042320000023
 20
8.650706799999992
 40
0.2000423199999952
 50
179.9999999999995
 51
284.9999999999986
 73
     1
 72
     1
 10
7.25181708224251
 20
8.457480756761214
 11
8.351800809020502
 21
8.75222050803859
 72
     2
 10
8.300037000000028
 20
8.945405673296418
 40
0.2000000000000067
 50
284.9999999999908
 51
360.0000000000005
 73
     1
 72
     1
 10
8.500037000000034
 20
8.94540567329642
 11
8.500037000000048
 21
9.500000000456111
 72
     2
 10
8.500000000000028
 20
10.99999999999979
 40
1.500000000000015
 50
270.0014132958956
 51
360.0000000000002
 73
     1
 72
     1
 10
10.00000000000004
 20
10.9999999999998
 11
16.1434197120684
 21
11.00000000000011
 72
     2
 10
16.14341971206837
 20
5.000000000000089
 40
6.000000000000023
 50
270.0000000000003
 51
342.7910067780835
 73
     0
 72
     2
 10
-0.0000000000004867
 20
0.0000000000000098
 40
22.90000000000045
 50
342.7910067780841
 51
381.4258496452652
 73
     0
 72
     2
 10
20.38651515095214
 20
-7.999999999999961
 40
0.9999999999999817
 50
21.4258496452666
 51
90.00000000000081
 73
     0
 72
     1
 10
20.38651515095212
 20
-8.999999999999943
 11
16.20000000000004
 21
-8.999999999999971
 72
     2
 10
16.20000000000002
 20
-7.999999999999968
 40
1.000000000000003
 50
89.99999999999857
 51
179.9999999999998
 73
     0
 72
     1
 10
15.20000000000002
 20
-7.999999999999971
 11
15.20000000000002
 21
-5.599999999999965
 97
        1
330
2D93
 92
       16
 93
        4
 72
     2
 10
18.18708332856042
 20
-12.19999999999999
 40
1.000000000000007
 50
326.1460639670986
 51
450.0000000000007
 73
     1
 72
     1
 10
18.1870833285604
 20
-11.19999999999999
 11
-18.1870833285604
 21
-11.19999999999999
 72
     2
 10
-18.18708332856028
 20
-12.20000000000005
 40
1.00000000000006
 50
90.00000000000691
 51
213.8539360329094
 73
     1
 72
     2
 10
0.0000000000000185
 20
-0.0000000000001954
 40
22.89999999999989
 50
213.8539360329008
 51
326.1460639670998
 73
     1
 97
        1
330
2D92
 75
     0
 76
     1
 98
        1
 10
0.0
 20
0.0
  0
ENDBLK
  5
1D4A
330
1D48
100
AcDbEntity
  8
0
100
AcDbBlockEnd
  0
BLOCK
  5
20AB
330
20AA
100
AcDbEntity
  8
0
100
AcDbBlockBegin
  2
baluster
 70
     0
 10
0.0
 20
0.0
 30
0.0
  3
baluster
  1

  0
LINE
  5
20AD
330
20AA
100
AcDbEntity
  8
APL Joinery
  6
DASHED
 62
     7
100
AcDbLine
 10
245.2255952299424
 20
142.8158867352767
 30
0.0
 11
262.0786976391314
 21
141.3414313292343
 31
0.0
  0
ARC
  5
20AE
330
20AA
100
AcDbEntity
  8
APL Joinery
  6
DASHED
 62
     7
100
AcDbCircle
 10
259.7051453063674
 20
134.8234973390931
 30
0.0
 40
5.40000000000306
100
AcDbArc
 50
274.9999999999965
 51
84.99999999962431
  0
LINE
  5
20AF
330
20AA
100
AcDbEntity
  8
APL Joinery
  6
DASHED
 62
     7
100
AcDbLine
 10
262.0786976390927
 20
128.3055633489484
 30
0.0
 11
245.2255952299462
 21
126.8311079429065
 31
0.0
  0
ARC
  5
20B0
330
20AA
100
AcDbEntity
  8
APL Joinery
  6
DASHED
 62
     7
100
AcDbCircle
 10
250.4810465869725
 20
129.0977760659379
 30
0.0
 40
0.5000000000014256
100
AcDbArc
 50
275.0000000002124
 51
27.13632508254963
  0
ARC
  5
20B1
330
20AA
100
AcDbEntity
  8
APL Joinery
  6
DASHED
 62
     7
100
AcDbCircle
 10
245.2512837444471
 20
128.8409950717952
 30
0.0
 40
0.700000000000401
100
AcDbArc
 50
180.0
 51
275.0000000001927
  0
ARC
  5
20B2
330
20AA
100
AcDbEntity
  8
APL Joinery
  6
DASHED
 62
     7
100
AcDbCircle
 10
245.051283744447
 20
128.82349733909
 30
0.0
 40
2.000000000000357
100
AcDbArc
 50
180.0
 51
275.0000000001076
  0
LINE
  5
20B3
330
20AA
100
AcDbEntity
  8
APL Joinery
  6
DASHED
 62
     7
100
AcDbLine
 10
250.5246244583483
 20
128.5996787168907
 30
0.0
 11
245.3122927643727
 21
128.1436587831308
 31
0.0
  0
LINE
  5
20B4
330
20AA
100
AcDbEntity
  8
APL Joinery
  6
DASHED
 62
     7
100
AcDbLine
 10
245.3122927643704
 20
141.5033358950522
 30
0.0
 11
250.5246244583494
 21
141.0473159612921
 31
0.0
  0
LINE
  5
20B5
330
20AA
100
AcDbEntity
  8
APL Joinery
  6
DASHED
 62
     7
100
AcDbLine
 10
243.0512837444467
 20
128.82349733909
 30
0.0
 11
243.0512837444471
 21
140.8234973390932
 31
0.0
  0
LINE
  5
20B6
330
20AA
100
AcDbEntity
  8
APL Joinery
  6
DASHED
 62
     7
100
AcDbLine
 10
244.5512837444467
 20
128.8409950717952
 30
0.0
 11
244.5512837444471
 21
140.8059996063879
 31
0.0
  0
ARC
  5
20B7
330
20AA
100
AcDbEntity
  8
APL Joinery
  6
DASHED
 62
     7
100
AcDbCircle
 10
245.0512837444471
 20
140.8234973390932
 30
0.0
 40
2.0
100
AcDbArc
 50
85.00000000000026
 51
180.0
  0
ARC
  5
20B8
330
20AA
100
AcDbEntity
  8
APL Joinery
  6
DASHED
 62
     7
100
AcDbCircle
 10
245.2512837444471
 20
140.805999606388
 30
0.0
 40
0.6999999999999318
100
AcDbArc
 50
84.99999999999701
 51
180.0000000000049
  0
ARC
  5
20B9
330
20AA
100
AcDbEntity
  8
APL Joinery
  6
DASHED
 62
     7
100
AcDbCircle
 10
254.1068956642949
 20
140.1509271193384
 30
0.0
 40
0.5000000000000108
100
AcDbArc
 50
12.96939969474605
 51
64.69772387711606
  0
ARC
  5
20BA
330
20AA
100
AcDbEntity
  8
APL Joinery
  6
DASHED
 62
     7
100
AcDbCircle
 10
254.914402180695
 20
137.6691582743992
 30
0.0
 40
0.3381184362481642
100
AcDbArc
 50
136.2153314393471
 51
270.0
  0
ARC
  5
20BB
330
20AA
100
AcDbEntity
  8
APL Joinery
  6
DASHED
 62
     7
100
AcDbCircle
 10
254.1068956642951
 20
129.4960675588445
 30
0.0
 40
0.5000000000000444
100
AcDbArc
 50
295.302276122873
 51
347.0306003052492
  0
ARC
  5
20BC
330
20AA
100
AcDbEntity
  8
APL Joinery
  6
DASHED
 62
     7
100
AcDbCircle
 10
254.9144021806948
 20
131.9778364037843
 30
0.0
 40
0.3381184362481804
100
AcDbArc
 50
90.0
 51
223.7846685606713
  0
ARC
  5
20BD
330
20AA
100
AcDbEntity
  8
APL Joinery
  6
DASHED
 62
     7
100
AcDbCircle
 10
253.5512837444469
 20
138.9756418594704
 30
0.0
 40
1.549999999999966
100
AcDbArc
 50
140.0554948101784
 51
223.784668560654
  0
ARC
  5
20BE
330
20AA
100
AcDbEntity
  8
APL Joinery
  6
DASHED
 62
     7
100
AcDbCircle
 10
253.5512837444468
 20
138.9756418594705
 30
0.0
 40
2.949999999999887
100
AcDbArc
 50
152.86367491721
 51
207.8516908992935
  0
ARC
  5
20BF
330
20AA
100
AcDbEntity
  8
APL Joinery
  6
DASHED
 62
     7
100
AcDbCircle
 10
251.3850921063891
 20
137.8310398381511
 30
0.0
 40
0.4999999999999972
100
AcDbArc
 50
207.851690899295
 51
270.0
  0
ARC
  5
20C0
330
20AA
100
AcDbEntity
  8
APL Joinery
  6
DASHED
 62
     7
100
AcDbCircle
 10
251.3850921063891
 20
131.8159548400326
 30
0.0
 40
0.5
100
AcDbArc
 50
90.0
 51
152.148309100705
  0
ARC
  5
20C1
330
20AA
100
AcDbEntity
  8
APL Joinery
  6
DASHED
 62
     7
100
AcDbCircle
 10
253.5512837444472
 20
130.6713528187128
 30
0.0
 40
2.950000000000314
100
AcDbArc
 50
152.148309100705
 51
207.1363250827944
  0
ARC
  5
20C2
330
20AA
100
AcDbEntity
  8
APL Joinery
  6
DASHED
 62
     7
100
AcDbCircle
 10
252.1881653081989
 20
137.6691582743992
 30
0.0
 40
0.3381184362480951
100
AcDbArc
 50
270.0
 51
43.78466856065286
  0
LINE
  5
20C3
330
20AA
100
AcDbEntity
  8
APL Joinery
  6
DASHED
 62
     7
100
AcDbLine
 10
251.3850921063891
 20
137.331039838151
 30
0.0
 11
252.1881653081989
 21
137.331039838151
 31
0.0
  0
ARC
  5
20C4
330
20AA
100
AcDbEntity
  8
APL Joinery
  6
DASHED
 62
     7
100
AcDbCircle
 10
252.995671824599
 20
129.4960675588444
 30
0.0
 40
0.4999999999999474
100
AcDbArc
 50
192.9693996947413
 51
244.6977238771161
  0
ARC
  5
20C5
330
20AA
100
AcDbEntity
  8
APL Joinery
  6
DASHED
 62
     7
100
AcDbCircle
 10
253.551283744447
 20
130.6713528187126
 30
0.0
 40
1.800000018284782
100
AcDbArc
 50
244.697723877127
 51
295.302276122873
  0
ARC
  5
20C6
330
20AA
100
AcDbEntity
  8
APL Joinery
  6
DASHED
 62
     7
100
AcDbCircle
 10
252.1881653081987
 20
131.977836403784
 30
0.0
 40
0.3381184362484455
100
AcDbArc
 50
316.215331439346
 51
90.0
  0
ARC
  5
20C7
330
20AA
100
AcDbEntity
  8
APL Joinery
  6
DASHED
 62
     7
100
AcDbCircle
 10
253.551283744447
 20
130.6713528187126
 30
0.0
 40
1.54999999999997
100
AcDbArc
 50
136.2153314393471
 51
219.9445051898124
  0
ARC
  5
20C8
330
20AA
100
AcDbEntity
  8
APL Joinery
  6
DASHED
 62
     7
100
AcDbCircle
 10
251.826283744447
 20
129.2267507973931
 30
0.0
 40
0.7000000000001303
100
AcDbArc
 50
12.9693996947358
 51
39.94450518982495
  0
LINE
  5
20C9
330
20AA
100
AcDbEntity
  8
APL Joinery
  6
DASHED
 62
     7
100
AcDbLine
 10
252.1881653081987
 20
132.3159548400324
 30
0.0
 11
251.3850921063891
 21
132.3159548400325
 31
0.0
  0
ARC
  5
20CA
330
20AA
100
AcDbEntity
  8
APL Joinery
  6
DASHED
 62
     7
100
AcDbCircle
 10
250.4810465869747
 20
140.5492186122464
 30
0.0
 40
0.4999999999999711
100
AcDbArc
 50
332.8636749171983
 51
84.99999999989558
  0
ARC
  5
20CB
330
20AA
100
AcDbEntity
  8
APL Joinery
  6
DASHED
 62
     7
100
AcDbCircle
 10
251.826283744447
 20
140.4202438807898
 30
0.0
 40
0.7000000000000102
100
AcDbArc
 50
320.0554948101947
 51
347.0306003052642
  0
ARC
  5
20CC
330
20AA
100
AcDbEntity
  8
APL Joinery
  6
DASHED
 62
     7
100
AcDbCircle
 10
253.5512837444469
 20
138.9756418594704
 30
0.0
 40
1.800000018284705
100
AcDbArc
 50
64.69772387712335
 51
115.302276122873
  0
ARC
  5
20CD
330
20AA
100
AcDbEntity
  8
APL Joinery
  6
DASHED
 62
     7
100
AcDbCircle
 10
252.9956718245988
 20
140.1509271193385
 30
0.0
 40
0.4999999999999293
100
AcDbArc
 50
115.3022761228875
 51
167.0306003052619
  0
ARC
  5
20CE
330
20AA
100
AcDbEntity
  8
APL Joinery
  6
DASHED
 62
     7
100
AcDbCircle
 10
253.5512837444467
 20
138.9756418594702
 30
0.0
 40
2.9500000000001
100
AcDbArc
 50
332.1483091007138
 51
17.1363250827924
  0
ARC
  5
20CF
330
20AA
100
AcDbEntity
  8
APL Joinery
  6
DASHED
 62
     7
100
AcDbCircle
 10
253.5512837444468
 20
138.9756418594705
 30
0.0
 40
1.550000000000148
100
AcDbArc
 50
316.2153314393472
 51
39.9445051898066
  0
LINE
  5
20D0
330
20AA
100
AcDbEntity
  8
APL Joinery
  6
DASHED
 62
     7
100
AcDbLine
 10
260.1757863172047
 20
129.4440459693945
 30
0.0
 11
256.8917037076252
 21
129.1567259709735
 31
0.0
  0
ARC
  5
20D1
330
20AA
100
AcDbEntity
  8
APL Joinery
  6
DASHED
 62
     7
100
AcDbCircle
 10
255.7174753825046
 20
137.8310398381511
 30
0.0
 40
0.5
100
AcDbArc
 50
270.0
 51
332.1483091007123
  0
LINE
  5
20D2
330
20AA
100
AcDbEntity
  8
APL Joinery
  6
DASHED
 62
     7
100
AcDbLine
 10
254.914402180695
 20
137.331039838151
 30
0.0
 11
255.7174753825046
 21
137.331039838151
 31
0.0
  0
ARC
  5
20D3
330
20AA
100
AcDbEntity
  8
APL Joinery
  6
DASHED
 62
     7
100
AcDbCircle
 10
256.8481258362506
 20
129.6548233200192
 30
0.0
 40
0.4999999999999378
100
AcDbArc
 50
162.8636749171839
 51
275.0000000000979
  0
ARC
  5
20D4
330
20AA
100
AcDbEntity
  8
APL Joinery
  6
DASHED
 62
     7
100
AcDbCircle
 10
253.551283744447
 20
130.6713528187126
 30
0.0
 40
2.950000000000228
100
AcDbArc
 50
342.8636749172076
 51
27.85169089930084
  0
ARC
  5
20D5
330
20AA
100
AcDbEntity
  8
APL Joinery
  6
DASHED
 62
     7
100
AcDbCircle
 10
253.551283744447
 20
130.6713528187126
 30
0.0
 40
1.549999999999998
100
AcDbArc
 50
320.0554948101843
 51
43.78466856067129
  0
ARC
  5
20D6
330
20AA
100
AcDbEntity
  8
APL Joinery
  6
DASHED
 62
     7
100
AcDbCircle
 10
255.276283744447
 20
129.2267507973933
 30
0.0
 40
0.7000000000000031
100
AcDbArc
 50
140.0554948101888
 51
167.0306003052753
  0
LINE
  5
20D7
330
20AA
100
AcDbEntity
  8
APL Joinery
  6
DASHED
 62
     7
100
AcDbLine
 10
255.7174753825048
 20
132.3159548400324
 30
0.0
 11
254.9144021806948
 21
132.3159548400324
 31
0.0
  0
ARC
  5
20D8
330
20AA
100
AcDbEntity
  8
APL Joinery
  6
DASHED
 62
     7
100
AcDbCircle
 10
255.7174753825048
 20
131.8159548400325
 30
0.0
 40
0.4999999999999986
100
AcDbArc
 50
27.85169089930227
 51
90.0
  0
LINE
  5
20D9
330
20AA
100
AcDbEntity
  8
APL Joinery
  6
DASHED
 62
     7
100
AcDbLine
 10
256.8917037076241
 20
140.4902687072093
 30
0.0
 11
260.1757863172401
 21
140.2029487087885
 31
0.0
  0
ARC
  5
20DA
330
20AA
100
AcDbEntity
  8
APL Joinery
  6
DASHED
 62
     7
100
AcDbCircle
 10
256.8481258362498
 20
139.9921713581638
 30
0.0
 40
0.4999999999996763
100
AcDbArc
 50
84.99999999994129
 51
197.1363250828532
  0
ARC
  5
20DB
330
20AA
100
AcDbEntity
  8
APL Joinery
  6
DASHED
 62
     7
100
AcDbCircle
 10
255.2762837444469
 20
140.4202438807903
 30
0.0
 40
0.7000000000002579
100
AcDbArc
 50
192.9693996947816
 51
219.9445051898516
  0
ARC
  5
20DC
330
20AA
100
AcDbEntity
  8
APL Joinery
  6
DASHED
 62
     7
100
AcDbCircle
 10
261.5084523053452
 20
134.8234973390931
 30
0.0
 40
6.542831439105296
100
AcDbArc
 50
274.9999999999965
 51
84.99999999966354
  0
ENDBLK
  5
20AC
330
20AA
100
AcDbEntity
  8
0
100
AcDbBlockEnd
  0
BLOCK
  5
2266
330
225D
100
AcDbEntity
  8
0
100
AcDbBlockBegin
  2
vantage a4 SM attributes (3)
 70
     2
 10
0.0
 20
0.0
 30
0.0
  3
vantage a4 SM attributes (3)
  1

  0
ATTDEF
  5
225E
330
225D
100
AcDbEntity
  8
APL Border
100
AcDbText
 10
41.78979785863008
 20
272.19
 30
0.0
 40
3.5
  1
DRAWING TITLE LINE 1
  7
Arial-Bold
100
AcDbAttributeDefinition
  3
Drawing Title Line 1
  2
DRAWINGTITLE_1
 70
     0
  0
ATTDEF
  5
225F
330
225D
100
AcDbEntity
  8
APL Border
100
AcDbText
 10
41.78979785863008
 20
266.19
 30
0.0
 40
3.5
  1
DRAWING TITLE LINE 2
  7
Arial-Bold
100
AcDbAttributeDefinition
  3
Drawing Title Line 2
  2
DRAWINGTITLE_2
 70
     0
  0
ATTDEF
  5
2260
330
225D
100
AcDbEntity
  8
APL Border
100
AcDbText
 10
41.78979785863008
 20
260.19
 30
0.0
 40
3.0
  1
DRAWING TITLE LINE 3
  7
Arial-Regular
100
AcDbAttributeDefinition
  3
Drawing Title Line 3
  2
DRAWINGTITLE_3
 70
     0
  0
ATTDEF
  5
2261
330
225D
100
AcDbEntity
  8
APL Border
100
AcDbText
 10
165.845
 20
273.69
 30
0.0
 40
2.5
  1
AW123-456
  7
Arial-Regular
100
AcDbAttributeDefinition
  3
CAD Reference
  2
AW123-456
 70
     0
  0
ATTDEF
  5
2262
330
225D
100
AcDbEntity
  8
APL Border
100
AcDbText
 10
147.5475920873124
 20
257.1899999999999
 30
0.0
 40
2.5
  1
24.05.02
  7
Arial-Regular
 72
     1
 11
154.345
 21
257.1899999999999
 31
0.0
100
AcDbAttributeDefinition
  3
Date
  2
24.05.02
 70
     0
  0
ATTDEF
  5
2263
330
225D
100
AcDbEntity
  8
APL Border
100
AcDbText
 10
175.4174761255116
 20
257.1899999999999
 30
0.0
 40
2.5
  1
1:2
  7
Arial-Regular
 72
     1
 11
177.845
 21
257.1899999999999
 31
0.0
100
AcDbAttributeDefinition
  3
Scale
  2
1:2
 70
     0
  0
ATTDEF
  5
2264
330
225D
100
AcDbEntity
  8
APL Border
100
AcDbText
 10
11.59500000000001
 20
1.189999999999997
 30
0.0
 40
3.75
  1
1.2.34
  7
Arial-Bold
100
AcDbAttributeDefinition
  3
Page Number (Left)
  2
1.2.34
 70
     0
  0
ATTDEF
  5
2265
330
225D
100
AcDbEntity
  8
APL Border
100
AcDbText
 10
175.0298567530696
 20
1.189999999999997
 30
0.0
 40
3.75
  1
1.2.34
  7
Arial-Bold
 72
     2
 11
189.595
 21
1.189999999999997
 31
0.0
100
AcDbAttributeDefinition
  3
Page Number (Right)
  2
1.2.34
 70
     0
  0
ENDBLK
  5
2267
330
225D
100
AcDbEntity
  8
0
100
AcDbBlockEnd
  0
BLOCK
  5
2342
330
2341
100
AcDbEntity
  8
0
100
AcDbBlockBegin
  2
01954
 70
     0
 10
0.0
 20
0.0
 30
0.0
  3
01954
  1
I:\DWG Master Blocks\01954.dwg
  0
LWPOLYLINE
  5
2D98
102
{ACAD_REACTORS
330
2D9A
102
}
330
2341
100
AcDbEntity
  8
APL Joinery
100
AcDbPolyline
 90
       12
 70
     1
 43
0.0
 10
-19.8173305470257
 20
12.4432073835454
 42
0.5897770656351003
 10
-18.97043607920409
 20
10.91144638424856
 10
-7.59084865175609
 20
10.91144638424856
 42
0.1539147210598273
 10
-7.304060433580588
 20
11.00187036210406
 10
-4.262397499478453
 20
13.13166567725548
 42
-0.1539147210598274
 10
-3.057886983141258
 20
13.51144638424858
 10
3.057886983141173
 20
13.51144638424858
 42
-0.1539147210598232
 10
4.262397499478339
 20
13.13166567725545
 10
7.304060433580588
 20
11.00187036210406
 42
0.1539147210598173
 10
7.59084865175609
 20
10.91144638424856
 10
18.97043607920412
 20
10.91144638424859
 42
0.5897770656350922
 10
19.81733054702585
 20
12.44320738354523
 42
0.5528894313214681
  0
LWPOLYLINE
  5
2D99
102
{ACAD_REACTORS
330
2D9A
102
}
330
2341
100
AcDbEntity
  8
APL Joinery
100
AcDbPolyline
 90
       48
 70
     1
 43
0.0
 10
-23.31905929596348
 20
1.944601129110689
 42
-0.0579013959862048
 10
-22.25192549001909
 20
7.239600264285116
 42
-0.3248128526732711
 10
-19.39911452976022
 20
9.311446384248569
 10
-7.590848651756089
 20
9.311446384248569
 42
0.1539147210598293
 10
-6.386338135418889
 20
9.691227091241687
 10
-3.344675201316761
 20
11.82102240639307
 42
-0.1539147210598335
 10
-3.05788698314123
 20
11.91144638424856
 10
3.057886983141173
 20
11.91144638424856
 42
-0.1539147210598236
 10
3.344675201316675
 20
11.82102240639307
 10
6.386338135418882
 20
9.691227091241676
 42
0.1539147210598271
 10
7.590848651756066
 20
9.311446384248569
 10
19.39911452976022
 20
9.311446384248569
 42
-0.3248128526732712
 10
22.25192549001921
 20
7.239600264284889
 42
-0.0579013959862047
 10
23.31905929596349
 20
1.944601129110765
 42
-0.5472964571752126
 10
23.0513470681876
 20
1.740042082482517
 10
22.33468114118176
 20
2.00088714782538
 42
0.4142135623730951
 10
20.41211199501444
 20
1.104378431634899
 10
19.22541395123178
 20
-2.15604764736949
 42
0.4742147524221569
 10
20.41282429103867
 20
-4.152539654550452
 10
19.38064307253546
 20
-6.988434245173692
 42
1.000000000000018
 10
20.50827421747854
 20
-7.398858417164433
 10
21.87635479078102
 20
-3.640087934020726
 42
0.5205670505517383
 10
21.40650848038806
 20
-2.969077862357892
 10
20.63495288241069
 20
-2.96907786235792
 42
-0.5205670505517178
 10
20.35304509617489
 20
-2.566471819360231
 10
21.53974313995755
 20
0.6939542596441584
 42
-0.4142135623730951
 10
21.92425696919102
 20
0.8732560028822433
 10
23.82853992428713
 20
0.1801536896068967
 42
0.0874886635259085
 10
23.99954999594994
 20
0.1499999999998636
 10
24.79753011894533
 20
0.1499999999998636
 42
0.4183533406700995
 10
24.99751020054973
 20
0.3528225806454373
 42
0.9859852929997982
 10
-24.99751020054969
 20
0.3528225806464865
 42
0.4183533406700972
 10
-24.7975301189453
 20
0.1499999999998636
 10
-23.99954999594994
 20
0.1499999999998636
 42
0.0874886635259152
 10
-23.8285399242871
 20
0.1801536896068967
 10
-21.92425696919099
 20
0.8732560028822433
 42
-0.4142135623731041
 10
-21.53974313995755
 20
0.6939542596441584
 10
-20.35304509617487
 20
-2.566471819360231
 42
-0.5205670505517194
 10
-20.63495288241066
 20
-2.969077862357892
 10
-21.40650848038806
 20
-2.969077862357892
 42
0.5205670505517468
 10
-21.876354790781
 20
-3.640087934020726
 10
-20.50827421747854
 20
-7.39885841716449
 42
0.9999999999999868
 10
-19.38064307253543
 20
-6.988434245173692
 10
-20.41282429103862
 20
-4.152539654550452
 42
0.474214752422148
 10
-19.22541395123175
 20
-2.15604764736949
 10
-20.41211199501441
 20
1.104378431634899
 42
0.4142135623730951
 10
-22.33468114118173
 20
2.000887147825352
 10
-23.05134706818757
 20
1.740042082482517
 42
-0.5472964571751803
  0
HATCH
  5
2D9A
330
2341
100
AcDbEntity
  8
APL Hatch
100
AcDbHatch
 10
0.0
 20
0.0
 30
0.0
210
0.0
220
0.0
230
1.0
  2
SOLID
 70
     1
 71
     1
 91
        2
 92
       16
 93
       12
 72
     2
 10
-18.97043607920409
 20
11.91144638424857
 40
1.000000000000005
 50
147.8754841528693
 51
270.0000000000002
 73
     1
 72
     1
 10
-18.97043607920409
 20
10.91144638424856
 11
-7.59084865175609
 21
10.91144638424856
 72
     2
 10
-7.590848651756085
 20
11.41144638424853
 40
0.4999999999999681
 50
269.9999999999995
 51
304.999999999999
 73
     1
 72
     1
 10
-7.304060433580588
 20
11.00187036210406
 11
-4.262397499478453
 21
13.13166567725548
 72
     2
 10
-3.057886983141274
 20
11.41144638424857
 40
2.10000000000001
 50
235.0000000000008
 51
270.0000000000004
 73
     0
 72
     1
 10
-3.057886983141258
 20
13.51144638424858
 11
3.057886983141173
 21
13.51144638424858
 72
     2
 10
3.057886983141112
 20
11.41144638424855
 40
2.100000000000033
 50
270.0000000000017
 51
305.0000000000003
 73
     0
 72
     1
 10
4.262397499478339
 20
13.13166567725545
 11
7.304060433580588
 21
11.00187036210406
 72
     2
 10
7.590848651756095
 20
11.41144638424856
 40
0.4999999999999981
 50
235.000000000002
 51
269.9999999999994
 73
     1
 72
     1
 10
7.59084865175609
 20
10.91144638424856
 11
18.97043607920412
 21
10.91144638424859
 72
     2
 10
18.97043607920422
 20
11.91144638424853
 40
0.9999999999999431
 50
269.9999999999941
 51
392.1245158471236
 73
     1
 72
     2
 10
0.0000000000000175
 20
0.0000000000000107
 40
23.39999999999994
 50
32.12451584712923
 51
147.8754841528703
 73
     1
 97
        1
330
2D98
 92
        1
 93
       48
 72
     2
 10
0.0000000000009628
 20
-0.0000000000002827
 40
23.40000000000097
 50
184.7669264962647
 51
198.0221491599527
 73
     0
 72
     2
 10
-19.39911452976023
 20
6.311446384248574
 40
2.999999999999995
 50
198.0221491599525
 51
270.0000000000001
 73
     0
 72
     1
 10
-19.39911452976022
 20
9.311446384248569
 11
-7.59084865175609
 21
9.311446384248569
 72
     2
 10
-7.590848651756088
 20
11.41144638424857
 40
2.100000000000001
 50
270.0
 51
305.0000000000001
 73
     1
 72
     1
 10
-6.386338135418889
 20
9.691227091241687
 11
-3.344675201316761
 21
11.82102240639307
 72
     2
 10
-3.057886983141254
 20
11.41144638424857
 40
0.4999999999999929
 50
235.0000000000018
 51
270.0000000000028
 73
     0
 72
     1
 10
-3.05788698314123
 20
11.91144638424856
 11
3.057886983141173
 21
11.91144638424856
 72
     2
 10
3.057886983141174
 20
11.41144638424858
 40
0.4999999999999787
 50
269.9999999999999
 51
304.9999999999987
 73
     0
 72
     1
 10
3.344675201316675
 20
11.82102240639307
 11
6.386338135418882
 21
9.691227091241676
 72
     2
 10
7.590848651756066
 20
11.41144638424857
 40
2.100000000000001
 50
235.0000000000004
 51
270.0
 73
     1
 72
     1
 10
7.590848651756066
 20
9.311446384248569
 11
19.39911452976022
 21
9.311446384248569
 72
     2
 10
19.39911452976013
 20
6.31144638424838
 40
3.000000000000188
 50
270.0000000000018
 51
341.9778508400494
 73
     0
 72
     2
 10
0.0000000000003837
 20
0.0000000000001283
 40
23.3999999999996
 50
341.9778508400479
 51
355.2330735037358
 73
     0
 72
     2
 10
23.1197510968527
 20
1.927980606639688
 40
0.1999999999999826
 50
355.2330735037224
 51
469.9999999999947
 73
     0
 72
     1
 10
23.0513470681876
 20
1.740042082482517
 11
22.33468114118176
 21
2.00088714782538
 72
     2
 10
21.82165092619334
 20
0.5913482166464803
 40
1.500000000000006
 50
70.00000000000354
 51
160.0000000000035
 73
     1
 72
     1
 10
20.41211199501444
 20
1.104378431634899
 11
19.22541395123178
 21
-2.15604764736949
 72
     2
 10
20.63495288241068
 20
-2.669077862357914
 40
1.500000000000001
 50
160.0000000000032
 51
261.483992069467
 73
     1
 72
     1
 10
20.41282429103867
 20
-4.152539654550452
 11
19.38064307253546
 21
-6.988434245173692
 72
     2
 10
19.944458645007
 20
-7.193646331169073
 40
0.5999999999999854
 50
160.0000000000015
 51
340.0000000000037
 73
     1
 72
     1
 10
20.50827421747854
 20
-7.398858417164433
 11
21.87635479078102
 21
-3.640087934020726
 72
     2
 10
21.40650848038806
 20
-3.469077862357901
 40
0.500000000000009
 50
340.0000000000014
 51
450.0
 73
     1
 72
     1
 10
21.40650848038806
 20
-2.969077862357892
 11
20.63495288241069
 21
-2.96907786235792
 72
     2
 10
20.63495288241069
 20
-2.66907786235791
 40
0.3000000000000105
 50
90.0
 51
199.9999999999948
 73
     0
 72
     1
 10
20.35304509617489
 20
-2.566471819360231
 11
21.53974313995755
 21
0.6939542596441584
 72
     2
 10
21.82165092619333
 20
0.5913482166464661
 40
0.3000000000000016
 50
199.9999999999982
 51
289.9999999999982
 73
     0
 72
     1
 10
21.92425696919102
 20
0.8732560028822433
 11
23.82853992428713
 21
0.1801536896068967
 72
     2
 10
23.99954999594993
 20
0.6499999999998649
 40
0.5000000000000011
 50
250.0000000000043
 51
270.0000000000008
 73
     1
 72
     1
 10
23.99954999594994
 20
0.1499999999998636
 11
24.79753011894533
 21
0.1499999999998636
 72
     2
 10
24.79753011894585
 20
0.3499999999993553
 40
0.1999999999994917
 50
269.9999999998524
 51
360.8086366365334
 73
     1
 72
     2
 10
0.0000000000000068
 20
0.0000000000004095
 40
25.0
 50
0.8086366362672393
 51
179.1913633637304
 73
     1
 72
     2
 10
-24.7975301189453
 20
0.3499999999998807
 40
0.2000000000000171
 50
179.1913633633187
 51
269.999999999999
 73
     1
 72
     1
 10
-24.7975301189453
 20
0.1499999999998636
 11
-23.99954999594994
 21
0.1499999999998636
 72
     2
 10
-23.9995499959499
 20
0.6499999999999078
 40
0.5000000000000443
 50
269.9999999999968
 51
289.9999999999947
 73
     1
 72
     1
 10
-23.8285399242871
 20
0.1801536896068967
 11
-21.92425696919099
 21
0.8732560028822433
 72
     2
 10
-21.82165092619331
 20
0.5913482166464862
 40
0.2999999999999791
 50
250.0000000000024
 51
340.0000000000042
 73
     0
 72
     1
 10
-21.53974313995755
 20
0.6939542596441584
 11
-20.35304509617487
 21
-2.566471819360231
 72
     2
 10
-20.63495288241065
 20
-2.669077862357896
 40
0.2999999999999957
 50
340.0000000000069
 51
450.000000000002
 73
     0
 72
     1
 10
-20.63495288241066
 20
-2.969077862357892
 11
-21.40650848038806
 21
-2.969077862357892
 72
     2
 10
-21.40650848038805
 20
-3.469077862357886
 40
0.4999999999999947
 50
90.00000000000081
 51
200.0000000000009
 73
     1
 72
     1
 10
-21.876354790781
 20
-3.640087934020726
 11
-20.50827421747854
 21
-7.39885841716449
 72
     2
 10
-19.94445864500699
 20
-7.193646331169084
 40
0.6000000000000072
 50
200.0000000000002
 51
379.9999999999987
 73
     1
 72
     1
 10
-19.38064307253543
 20
-6.988434245173692
 11
-20.41282429103862
 21
-4.152539654550452
 72
     2
 10
-20.63495288241066
 20
-2.669077862357911
 40
1.50000000000001
 50
278.5160079305344
 51
379.9999999999965
 73
     1
 72
     1
 10
-19.22541395123175
 20
-2.15604764736949
 11
-20.41211199501441
 21
1.104378431634899
 72
     2
 10
-21.8216509261933
 20
0.5913482166464659
 40
1.499999999999998
 50
19.99999999999718
 51
109.9999999999971
 73
     1
 72
     1
 10
-22.33468114118173
 20
2.000887147825352
 11
-23.05134706818757
 21
1.740042082482517
 72
     2
 10
-23.11975109685271
 20
1.927980606639668
 40
0.1999999999999737
 50
69.99999999999463
 51
184.7669264962619
 73
     0
 97
        1
330
2D99
 75
     0
 76
     1
 98
        1
 10
0.0
 20
0.0
  0
ENDBLK
  5
2343
330
2341
100
AcDbEntity
  8
0
100
AcDbBlockEnd
  0
BLOCK
  5
2C60
330
2C5D
100
AcDbEntity
  8
0
 62
     9
100
AcDbBlockBegin
  2
vantage black & white logo
 70
     0
 10
0.0
 20
0.0
 30
0.0
  3
vantage black & white logo
  1

  0
SPLINE
  5
2C61
102
{ACAD_REACTORS
330
2C91
102
}
330
2C5D
100
AcDbEntity
  8
APL Border
 62
     8
100
AcDbSpline
210
0.0
220
0.0
230
1.0
 70
     8
 71
     3
 72
    16
 73
    12
 74
    10
 42
0.0000000001
 43
0.0000000001
 44
0.0000000001
 40
0.0
 40
0.0
 40
0.0
 40
0.0
 40
0.1978277931646383
 40
0.361463118001824
 40
0.5540499897785108
 40
0.7796220130725381
 40
0.979106605438038
 40
1.222151590302332
 40
1.40748727220097
 40
1.607226525619232
 40
1.815049166761618
 40
1.815049166761618
 40
1.815049166761618
 40
1.815049166761618
 10
-6.679452083611295
 20
24.89125032803118
 30
0.0
 10
-6.685371732996674
 20
24.82559351525051
 30
0.0
 10
-6.696187882184245
 20
24.70562798418881
 30
0.0
 10
-6.721757155054659
 20
24.52229576436942
 30
0.0
 10
-6.768469983285688
 20
24.33480615160983
 30
0.0
 10
-6.86071972339088
 20
24.14153771241002
 30
0.0
 10
-7.051789745146238
 20
24.01851519430105
 30
0.0
 10
-7.233921808197289
 20
23.91285203345822
 30
0.0
 10
-7.443451931375125
 20
23.87675735439051
 30
0.0
 10
-7.641222718647389
 20
23.88093312949101
 30
0.0
 10
-7.776581895343343
 20
23.89281010788354
 30
0.0
 10
-7.845603808282817
 20
23.89886637823479
 30
0.0
 11
-6.679452083611295
 21
24.89125032803118
 31
0.0
 11
-6.698967886443824
 21
24.69438750983487
 31
0.0
 11
-6.7229873764864
 21
24.53252465544059
 31
0.0
 11
-6.771947617386814
 21
24.34626516442952
 31
0.0
 11
-6.880972027936735
 21
24.14879006322128
 31
0.0
 11
-7.039699899396197
 21
24.02796140183178
 31
0.0
 11
-7.25666078222261
 21
23.91842218515177
 31
0.0
 11
-7.438645676318543
 21
23.88333923622035
 31
0.0
 11
-7.638384704687155
 21
23.88303939885124
 31
0.0
 11
-7.845603808282817
 21
23.89886637823479
 31
0.0
1001
AcDbBlockRepETag
1070
     1
1071
      590
1005
2C61
  0
SPLINE
  5
2C62
102
{ACAD_REACTORS
330
2C91
102
}
330
2C5D
100
AcDbEntity
  8
APL Border
 62
     8
100
AcDbSpline
210
0.0
220
0.0
230
1.0
 70
     8
 71
     3
 72
    11
 73
     7
 74
     5
 42
0.0000000001
 43
0.0000000001
 44
0.0000000001
 40
0.0
 40
0.0
 40
0.0
 40
0.0
 40
0.0680840587483313
 40
0.1752723045973904
 40
0.2784233367375334
 40
0.4826852714337078
 40
0.4826852714337078
 40
0.4826852714337078
 40
0.4826852714337078
 10
-7.465264214605014
 20
24.80065518845331
 30
0.0
 10
-7.468646137215252
 20
24.77808681972154
 30
0.0
 10
-7.47735239504952
 20
24.719987903891
 30
0.0
 10
-7.524447891091254
 20
24.63752792323728
 30
0.0
 10
-7.635129760920157
 20
24.54333837224584
 30
0.0
 10
-7.743266182308203
 20
24.55714977626708
 30
0.0
 10
-7.815117916056323
 20
24.56632682606847
 30
0.0
 11
-7.465264214605014
 21
24.80065518845331
 31
0.0
 11
-7.478569823577657
 21
24.73388393846117
 31
0.0
 11
-7.530473398252325
 21
24.64010046985295
 31
0.0
 11
-7.611072397370236
 21
24.57572705319073
 31
0.0
 11
-7.815117916056323
 21
24.56632682606847
 31
0.0
1001
AcDbBlockRepETag
1070
     1
1071
      593
1005
2C62
  0
SPLINE
  5
2C63
102
{ACAD_REACTORS
330
2C91
102
}
330
2C5D
100
AcDbEntity
  8
APL Border
 62
     8
100
AcDbSpline
210
0.0
220
0.0
230
1.0
 70
     8
 71
     3
 72
    20
 73
    16
 74
     0
 42
0.0000000001
 43
0.0000000001
 40
0.0
 40
0.0
 40
0.0
 40
0.0
 40
0.1774120264923274
 40
0.3258093286713144
 40
0.4834060703451958
 40
0.6311237014699663
 40
0.811161917566129
 40
0.9605198197290178
 40
1.289502400757101
 40
1.459697744220917
 40
1.604754171475458
 40
1.794797311213428
 40
2.030760379210173
 40
2.301729078160567
 40
2.393267743077617
 40
2.393267743077617
 40
2.393267743077617
 40
2.393267743077617
 10
5.780015564168593
 20
26.87985997284487
 30
0.0
 10
5.839056126904296
 20
26.87337384475878
 30
0.0
 10
5.947481505327601
 20
26.86146235781404
 30
0.0
 10
6.098807931884806
 20
26.80185114122353
 30
0.0
 10
6.227972759762906
 20
26.72168911843352
 30
0.0
 10
6.347510602881385
 20
26.61140356622764
 30
0.0
 10
6.442310149474394
 20
26.48207375794227
 30
0.0
 10
6.536759215535255
 20
26.28338234239492
 30
0.0
 10
6.578465181725675
 20
26.06469589684353
 30
0.0
 10
6.553150099427256
 20
25.85079503063701
 30
0.0
 10
6.524121382020268
 20
25.68499989147718
 30
0.0
 10
6.464236525716046
 20
25.50199988960434
 30
0.0
 10
6.327150620479812
 20
25.31187331731421
 30
0.0
 10
6.179477266233362
 20
25.17172660684537
 30
0.0
 10
6.072729148555964
 20
25.11631253421805
 30
0.0
 10
6.045077525535504
 20
25.10350570839811
 30
0.0
1001
AcDbBlockRepETag
1070
     1
1071
      594
1005
2C63
  0
SPLINE
  5
2C64
102
{ACAD_REACTORS
330
2C91
102
}
330
2C5D
100
AcDbEntity
  8
APL Border
 62
     8
100
AcDbSpline
210
0.0
220
0.0
230
1.0
 70
     8
 71
     3
 72
    17
 73
    13
 74
    11
 42
0.0000000001
 43
0.0000000001
 44
0.0000000001
 40
0.0
 40
0.0
 40
0.0
 40
0.0
 40
0.0975027714782739
 40
0.2117924486065133
 40
0.317678689712162
 40
0.4843960423119905
 40
0.5983164751676271
 40
0.7475672999664091
 40
0.8854036234346642
 40
1.040732215041493
 40
1.197661337444246
 40
1.243973057737614
 40
1.243973057737614
 40
1.243973057737614
 40
1.243973057737614
 10
5.580769717272147
 20
26.18861664944085
 30
0.0
 10
5.613502616848285
 20
26.1875961553427
 30
0.0
 10
5.684603990133519
 20
26.18537947021098
 30
0.0
 10
5.781919321100519
 20
26.1258482190374
 30
0.0
 10
5.832561030472812
 20
26.0011917111029
 30
0.0
 10
5.820388894698232
 20
25.86817511516085
 30
0.0
 10
5.765298612935113
 20
25.7349784962169
 30
0.0
 10
5.67725421213275
 20
25.62965962372396
 30
0.0
 10
5.546675458142082
 20
25.55725132865025
 30
0.0
 10
5.401760839408257
 20
25.51345804330555
 30
0.0
 10
5.281860155064943
 20
25.50729075876586
 30
0.0
 10
5.21427201805345
 20
25.50302975767877
 30
0.0
 10
5.198870965514487
 20
25.50205881951548
 30
0.0
 11
5.580769717272147
 21
26.18861664944085
 31
0.0
 11
5.67764963039707
 21
26.17761333726443
 31
0.0
 11
5.774085473546278
 21
26.11627608549865
 31
0.0
 11
5.81791994770495
 21
26.01988918322082
 31
0.0
 11
5.809153052873227
 21
25.85340249542595
 31
0.0
 11
5.765318578714499
 21
25.74825305939683
 31
0.0
 11
5.668882735565347
 21
25.63434108961652
 31
0.0
 11
5.55010046754208
 21
25.56441523695462
 31
0.0
 11
5.401316428353624
 21
25.51980267086244
 31
0.0
 11
5.245093480229996
 21
25.50493189624708
 31
0.0
 11
5.198870965514487
 21
25.50205881951548
 31
0.0
1001
AcDbBlockRepETag
1070
     1
1071
      595
1005
2C64
  0
SPLINE
  5
2C65
102
{ACAD_REACTORS
330
2C9B
330
2C9C
102
}
330
2C5D
100
AcDbEntity
  8
APL Border
 62
     8
100
AcDbSpline
210
0.0
220
0.0
230
1.0
 70
     8
 71
     3
 72
    25
 73
    21
 74
     0
 42
0.0000000001
 43
0.0000000001
 40
0.0289432764998855
 40
0.0289432764998855
 40
0.0289432764998855
 40
0.0289432764998855
 40
0.7134165119202287
 40
1.411731005087882
 40
2.041147618059464
 40
3.036171077105474
 40
3.957911241576911
 40
4.83592253147705
 40
5.676684481733094
 40
6.271141751551381
 40
6.974058201941041
 40
7.825808739104269
 40
8.5265481701528
 40
9.125733480364379
 40
9.891766509798275
 40
10.6767880070383
 40
11.66821110410527
 40
12.42950909475574
 40
13.09855121203093
 40
13.70132750762923
 40
13.70132750762923
 40
13.70132750762923
 40
13.70132750762923
 10
13.141643811855
 20
43.40554077871886
 30
0.0
 10
12.91988216430481
 20
43.459256627421
 30
0.0
 10
12.47168844867874
 20
43.5669624691983
 30
0.0
 10
11.80600758681791
 20
43.66484839798013
 30
0.0
 10
11.02988777388427
 20
43.6649333207477
 30
0.0
 10
10.1361516270939
 20
43.55263717791944
 30
0.0
 10
9.306733533720876
 20
43.19741938393827
 30
0.0
 10
8.599762003673276
 20
42.45478219212527
 30
0.0
 10
8.236440109363229
 20
41.77191325718488
 30
0.0
 10
8.073464067873601
 20
41.07996170309042
 30
0.0
 10
8.007035995439764
 20
40.3638923215899
 30
0.0
 10
7.98103501985804
 20
39.60493317412716
 30
0.0
 10
8.107710769833204
 20
38.92055182387923
 30
0.0
 10
8.442098079777224
 20
38.21445924826959
 30
0.0
 10
9.036296716232907
 20
37.66873436641545
 30
0.0
 10
9.909689132144507
 20
37.42421376773082
 30
0.0
 10
10.75775873959412
 20
37.35554609345542
 30
0.0
 10
11.56487972715851
 20
37.38454149767491
 30
0.0
 10
12.23983007222788
 20
37.44815687239099
 30
0.0
 10
12.66077873273661
 20
37.49837935861893
 30
0.0
 10
12.86026661033734
 20
37.52234731786496
 30
0.0
1001
AcDbBlockRepETag
1070
     1
1071
      596
1005
2C65
  0
SPLINE
  5
2C66
102
{ACAD_REACTORS
330
2C9B
330
2C9C
102
}
330
2C5D
100
AcDbEntity
  8
APL Border
 62
     8
100
AcDbSpline
210
0.0
220
0.0
230
1.0
 70
     8
 71
     3
 72
    19
 73
    15
 74
     0
 42
0.0000000001
 43
0.0000000001
 40
1.529304964685563
 40
1.529304964685563
 40
1.529304964685563
 40
1.529304965389289
 40
2.032016958536417
 40
2.556791262130423
 40
2.964493033520332
 40
3.465275586793771
 40
4.160836826595903
 40
4.71800698457321
 40
5.304510401169525
 40
5.733359288828643
 40
6.099728421126306
 40
6.422629926283571
 40
6.722447272622213
 40
6.957123473755099
 40
6.957123473755099
 40
6.957123473755099
 40
6.957123473755099
 10
11.64369617822672
 20
42.03297741382947
 30
0.0
 10
11.47589856643677
 20
42.04574754506741
 30
0.0
 10
11.13485165915975
 20
42.01473204050012
 30
0.0
 10
10.65553906793815
 20
41.91613810684326
 30
0.0
 10
10.23036575101369
 20
41.67654609785123
 30
0.0
 10
9.854221329784113
 20
41.27113304911427
 30
0.0
 10
9.717431528044755
 20
40.66388266631498
 30
0.0
 10
9.641062203095145
 20
40.05806431643046
 30
0.0
 10
9.716968816830743
 20
39.48770259248511
 30
0.0
 10
10.00680770225198
 20
39.09661486818469
 30
0.0
 10
10.3797311442331
 20
38.98358798973799
 30
0.0
 10
10.70216182646531
 20
38.92661434152812
 30
0.0
 10
10.99026249243499
 20
38.92783484269152
 30
0.0
 10
11.24302802126629
 20
38.95177692242413
 30
0.0
 10
11.33360452536307
 20
38.96406177273881
 30
0.0
1001
AcDbBlockRepETag
1070
     1
1071
      597
1005
2C66
  0
LWPOLYLINE
  5
2C67
102
{ACAD_REACTORS
330
2C98
102
}
330
2C5D
100
AcDbEntity
  8
APL Border
 62
     8
100
AcDbPolyline
 90
       12
 70
     1
 43
0.0
 10
14.13627631352983
 20
43.61979184908029
 10
18.38986203356285
 20
43.61979184908029
 10
18.21321428445671
 20
41.9726305274507
 10
15.84058876400877
 20
41.9726305274507
 10
15.75340373709809
 20
41.15966911198297
 10
17.71732334684157
 20
41.15966911198297
 10
17.56969663746741
 20
39.57967635988449
 10
15.58395939694927
 20
39.57967635988449
 10
15.5052467299167
 20
38.84571591422678
 10
17.87787225036464
 20
38.84571591422678
 10
17.72077299807506
 20
37.38083558975206
 10
13.46718727804204
 20
37.38083558975206
1001
AcDbBlockRepETag
1070
     1
1071
      599
1005
2C67
  0
LWPOLYLINE
  5
2C68
102
{ACAD_REACTORS
330
2C9B
330
2C9C
102
}
330
2C5D
100
AcDbEntity
  8
APL Border
 62
     8
100
AcDbPolyline
 90
        2
 70
     0
 43
0.0
 10
13.141643811855
 20
43.40554077871887
 10
13.141643811855
 20
41.76981947766621
1001
AcDbBlockRepETag
1070
     1
1071
      600
1005
2C68
  0
LWPOLYLINE
  5
2C69
102
{ACAD_REACTORS
330
2C9B
330
2C9C
102
}
330
2C5D
100
AcDbEntity
  8
APL Border
 62
     8
100
AcDbPolyline
 90
        6
 70
     0
 43
0.0
 10
11.33358781659778
 20
38.96390597096916
 10
11.39962533929804
 20
39.57967635988449
 10
10.96889270630695
 20
39.57967635988449
 10
11.12639005748273
 20
41.04826877857415
 10
13.23839963312048
 20
41.04826877857415
 10
12.86026661033734
 20
37.52234731786496
1001
AcDbBlockRepETag
1070
     1
1071
      601
1005
2C69
  0
LWPOLYLINE
  5
2C6A
102
{ACAD_REACTORS
330
2C95
102
}
330
2C5D
100
AcDbEntity
  8
APL Border
 62
     8
100
AcDbPolyline
 90
        8
 70
     1
 43
0.0
 10
3.105743226874893
 20
43.61998313276061
 10
2.929095477768755
 20
41.97282181113101
 10
1.466301152475638
 20
41.97282181113101
 10
0.9741138955425029
 20
37.38339558452146
 10
-0.867968570535281
 20
37.38102687343238
 10
-0.3755272841536326
 20
41.97282181113101
 10
-1.891167362926863
 20
41.97282181113101
 10
-1.725754035154749
 20
43.61998313276061
1001
AcDbBlockRepETag
1070
     1
1071
      604
1005
2C6A
  0
LWPOLYLINE
  5
2C6B
102
{ACAD_REACTORS
330
2C94
102
}
330
2C5D
100
AcDbEntity
  8
APL Border
 62
     8
100
AcDbPolyline
 90
       10
 70
     1
 43
0.0
 10
-4.228474015381578
 20
40.14164596649268
 10
-3.855464624526035
 20
43.61979184908029
 10
-2.181839912298443
 20
43.61979184908029
 10
-2.850928947786229
 20
37.38083558975206
 10
-5.032306754624556
 20
37.38083558975206
 10
-6.131920885667284
 20
40.6246666384634
 10
-6.479801476178323
 20
37.38083558975206
 10
-8.135186891292875
 20
37.38083558975206
 10
-7.466097855805088
 20
43.61979184908029
 10
-5.40751765387219
 20
43.61979184908029
1001
AcDbBlockRepETag
1070
     1
1071
      605
1005
2C6B
  0
LWPOLYLINE
  5
2C6C
102
{ACAD_REACTORS
330
2C9B
102
}
330
2C5D
100
AcDbEntity
  8
APL Border
  6
Continuous
 62
     8
100
AcDbPolyline
 90
        8
 70
     1
 43
0.0
 10
-8.449177928734428
 20
37.38083558975206
 10
-9.847253547555595
 20
43.61979184908029
 10
-12.02298966350147
 20
43.61979184908029
 10
-14.82679588919473
 20
37.38083558975206
 10
-12.95240022532295
 20
37.38083558975206
 10
-12.35252874042399
 20
38.71565392391761
 10
-10.64639685172309
 20
38.71565392391761
 10
-10.34727999772013
 20
37.38083558975206
1001
AcDbBlockRepETag
1070
     1
1071
      606
1005
2C6C
  0
LWPOLYLINE
  5
2C6D
330
2C5D
100
AcDbEntity
  8
APL Border
  6
Continuous
 62
     8
100
AcDbPolyline
 90
        7
 70
     1
 43
0.0
 10
-18.99614352503855
 20
43.61979184908029
 10
-17.7875751270476
 20
37.38083558975206
 10
-15.77022638070494
 20
37.38083558975206
 10
-12.96642015501169
 20
43.61979184908029
 10
-14.7664201550117
 20
43.61979184908029
 10
-16.54136876356097
 20
39.42215966960597
 10
-17.19614352503853
 20
43.61979184908029
1001
AcDbBlockRepETag
1070
     1
1071
      608
1005
2C6D
  0
LWPOLYLINE
  5
2C6E
102
{ACAD_REACTORS
330
2C9E
102
}
330
2C5D
100
AcDbEntity
  8
APL Border
  6
Continuous
 62
     8
100
AcDbPolyline
 90
        4
 70
     1
 43
0.0
 10
16.33779773177886
 20
35.29789574745093
 10
-16.33747952551644
 20
35.29789574745093
 10
-12.98884796421711
 20
29.49789574745094
 10
12.98916617047902
 20
29.49789574745094
1001
AcDbBlockRepETag
1070
     1
1071
      609
1005
2C6E
  0
LWPOLYLINE
  5
2C6F
102
{ACAD_REACTORS
330
2C91
102
}
330
2C5D
100
AcDbEntity
  8
APL Border
 62
     8
100
AcDbPolyline
 90
        9
 70
     1
 43
0.0
 10
7.455500104221528
 20
25.00957443408062
 10
6.800478684667126
 20
26.87985997284487
 10
7.607536311785906
 20
26.87985997284487
 10
7.963471882016364
 20
25.86355557445326
 10
8.538893993587493
 20
26.87985997284487
 10
9.414203966725494
 20
26.87985997284487
 10
8.232331174709315
 20
25.00957443408062
 10
8.120338037129926
 20
23.87985997284487
 10
7.343506966642138
 20
23.87985997284487
1001
AcDbBlockRepETag
1070
     1
1071
      611
1005
2C6F
  0
LWPOLYLINE
  5
2C70
102
{ACAD_REACTORS
330
2C91
102
}
330
2C5D
100
AcDbEntity
  8
APL Border
 62
     8
100
AcDbPolyline
 90
        4
 70
     1
 43
0.0
 10
12.20974330707307
 20
28.14789574745094
 10
8.850698786449385
 20
22.32985997284487
 10
-8.850380580188158
 20
22.32985997284487
 10
-12.20942510081127
 20
28.14789574745094
1001
AcDbBlockRepETag
1070
     1
1071
      613
1005
2C70
  0
LWPOLYLINE
  5
2C71
102
{ACAD_REACTORS
330
2C91
102
}
330
2C5D
100
AcDbEntity
  8
APL Border
 62
     8
100
AcDbPolyline
 90
        6
 70
     0
 43
0.0
 10
5.580769717272147
 20
26.18861664944085
 10
5.137953374950967
 20
26.18861664944085
 10
4.909077041159065
 20
23.87985997284487
 10
4.132245970671277
 20
23.87985997284487
 10
4.429648034880159
 20
26.87985997284487
 10
5.793677369303878
 20
26.87985997284487
1001
AcDbBlockRepETag
1070
     1
1071
      614
1005
2C71
  0
LWPOLYLINE
  5
2C72
102
{ACAD_REACTORS
330
2C9E
102
}
330
2C5D
100
AcDbEntity
  8
APL Border
  6
Continuous
 62
     8
100
AcDbPolyline
 90
        4
 70
     1
 43
0.0
 10
1.119422795136273
 20
34.02289574745092
 10
0.3425917246484857
 20
34.02289574745092
 10
0.0451896604396041
 20
31.02289574745093
 10
0.8220207309273916
 20
31.02289574745093
1001
AcDbBlockRepETag
1070
     1
1071
      620
1005
2C72
  0
LWPOLYLINE
  5
2C73
102
{ACAD_REACTORS
330
2C91
102
}
330
2C5D
100
AcDbEntity
  8
APL Border
 62
     8
100
AcDbPolyline
 90
        4
 70
     0
 43
0.0
 10
6.045077525535504
 20
25.1035057083981
 10
6.339444173005233
 20
23.87985997284487
 10
5.532386545886623
 20
23.87985997284487
 10
5.142141867913778
 20
25.50205881951548
1001
AcDbBlockRepETag
1070
     1
1071
      621
1005
2C73
  0
LWPOLYLINE
  5
2C74
102
{ACAD_REACTORS
330
2C92
102
}
330
2C5D
100
AcDbEntity
  8
APL Border
 62
     8
100
AcDbPolyline
 90
        4
 70
     1
 43
0.0
 10
0.0001591031300165
 20
7.000275566930961
 10
3.563095122801513
 20
13.17146177711931
 10
-0.9450856774407441
 20
20.97985997284487
 10
-8.070957716782203
 20
20.97985997284487
1001
AcDbBlockRepETag
1070
     1
1071
      622
1005
2C74
  0
LWPOLYLINE
  5
2C75
102
{ACAD_REACTORS
330
2C96
102
}
330
2C5D
100
AcDbEntity
  8
APL Border
 62
     8
100
AcDbPolyline
 90
        3
 70
     1
 43
0.0
 10
0.8484489512626112
 20
20.97985997284487
 10
4.459862437153191
 20
14.72470832814346
 10
8.071275923043373
 20
20.97985997284487
1001
AcDbBlockRepETag
1070
     1
1071
      623
1005
2C75
  0
LWPOLYLINE
  5
2C76
102
{ACAD_REACTORS
330
2C91
102
}
330
2C5D
100
AcDbEntity
  8
APL Border
 62
     8
100
AcDbPolyline
 90
        4
 70
     0
 43
0.0
 10
-7.465264214605014
 20
24.80065518845331
 10
-7.259144283007998
 20
26.87985997284487
 10
-6.48231321252021
 20
26.87985997284487
 10
-6.679452083611295
 20
24.89125032803118
1001
AcDbBlockRepETag
1070
     1
1071
      626
1005
2C76
  0
LWPOLYLINE
  5
2C77
102
{ACAD_REACTORS
330
2C91
102
}
330
2C5D
100
AcDbEntity
  8
APL Border
 62
     8
100
AcDbPolyline
 90
        4
 70
     0
 43
0.0
 10
-7.845603808282817
 20
23.89886637823479
 10
-8.399876560405061
 20
23.98304774476413
 10
-8.399876560405061
 20
24.64579492155148
 10
-7.81511791605564
 20
24.56632682606838
1001
AcDbBlockRepETag
1070
     1
1071
      627
1005
2C77
  0
LWPOLYLINE
  5
2C78
102
{ACAD_REACTORS
330
2C9E
102
}
330
2C5D
100
AcDbEntity
  8
APL Border
  6
Continuous
 62
     8
100
AcDbPolyline
 90
        6
 70
     1
 43
0.0
 10
-7.549934049473819
 20
34.02289574745092
 10
-8.326765119961606
 20
34.02289574745092
 10
-8.624167184170488
 20
31.02289574745093
 10
-6.770246795158442
 20
31.02289574745093
 10
-6.700109532938455
 20
31.73039516316516
 10
-7.777198851462713
 20
31.73039516316516
1001
AcDbBlockRepETag
1070
     1
1071
      628
1005
2C78
  0
LWPOLYLINE
  5
2C79
102
{ACAD_REACTORS
330
2C9E
102
}
330
2C5D
100
AcDbEntity
  8
APL Border
  6
Continuous
 62
     8
100
AcDbPolyline
 90
        3
 70
     1
 43
0.0
 10
-10.14693849009504
 20
33.12550842600547
 10
-10.00044093617224
 20
32.51653621849665
 10
-10.45444607654239
 20
32.51653621849665
1001
AcDbBlockRepETag
1070
     1
1071
      629
1005
2C79
  0
LWPOLYLINE
  5
2C7A
102
{ACAD_REACTORS
330
2C9E
102
}
330
2C5D
100
AcDbEntity
  8
APL Border
  6
Continuous
 62
     8
100
AcDbPolyline
 90
        8
 70
     1
 43
0.0
 10
-8.834065309397374
 20
31.02289574745093
 10
-9.555761072109191
 20
34.02289574745092
 10
-10.50084997043805
 20
34.02289574745092
 10
-12.01573480092304
 20
31.02289574745093
 10
-11.20867717380426
 20
31.02289574745093
 10
-10.74455961985978
 20
31.94201027933759
 10
-9.862229957552528
 20
31.94201027933759
 10
-9.641122936515984
 20
31.02289574745093
1001
AcDbBlockRepETag
1070
     1
1071
      630
1005
2C7A
  0
LWPOLYLINE
  5
2C7B
102
{ACAD_REACTORS
330
2C97
102
}
330
2C5D
100
AcDbEntity
  8
APL Border
 62
     8
100
AcDbPolyline
 90
        3
 70
     1
 43
0.0
 10
0.0000000003145431
 20
4.000000000000009
 10
23.60256143704041
 20
44.88083558975217
 10
-23.60256142783933
 20
44.88083558975206
1001
AcDbBlockRepETag
1070
     1
1071
      631
1005
2C7B
  0
LWPOLYLINE
  5
2C7C
102
{ACAD_REACTORS
330
2C97
102
}
330
2C5D
100
AcDbEntity
  8
APL Border
 62
     8
100
AcDbPolyline
 90
        3
 70
     1
 43
0.0
 10
27.06666305249243
 20
46.88083558975206
 10
-27.06666304266244
 20
46.88083558975206
 10
-0.0000000000000284
 20
0.0000000000000238
1001
AcDbBlockRepETag
1070
     1
1071
      703
1005
2C7C
  0
LWPOLYLINE
  5
2C7D
102
{ACAD_REACTORS
330
2C9B
330
2C9D
102
}
330
2C5D
100
AcDbEntity
  8
APL Border
  6
Continuous
 62
     8
100
AcDbPolyline
 90
        8
 70
     1
 43
0.0
 10
7.980630193374565
 20
37.38083558975206
 10
6.582554574553398
 20
43.61979184908029
 10
4.406818458607517
 20
43.61979184908029
 10
1.603012232914267
 20
37.38083558975206
 10
3.477407896786047
 20
37.38083558975206
 10
4.077279381685002
 20
38.71565392391761
 10
5.783411270385897
 20
38.71565392391761
 10
6.082528124388858
 20
37.38083558975206
1001
AcDbBlockRepETag
1070
     1
1071
      760
1005
2C7D
  0
LWPOLYLINE
  5
2C7E
102
{ACAD_REACTORS
330
2C9B
330
2C9D
102
}
330
2C5D
100
AcDbEntity
  8
APL Border
  6
Continuous
 62
     8
100
AcDbPolyline
 90
        3
 70
     1
 43
0.0
 10
5.206046831612667
 20
41.69367581194667
 10
5.552066120962537
 20
40.14955389030274
 10
4.512113667606024
 20
40.14955389030274
1001
AcDbBlockRepETag
1070
     1
1071
      761
1005
2C7E
  0
LWPOLYLINE
  5
2C7F
102
{ACAD_REACTORS
330
2C9E
102
}
330
2C5D
100
AcDbEntity
  8
APL Border
  6
Continuous
 62
     8
100
AcDbPolyline
 90
        4
 70
     1
 43
0.0
 10
5.615530392135354
 20
34.02289574745092
 10
4.838699321647567
 20
34.02289574745092
 10
4.541297257438685
 20
31.02289574745093
 10
5.318128327926473
 20
31.02289574745093
1001
AcDbBlockRepETag
1070
     1
1071
      785
1005
2C7F
  0
LWPOLYLINE
  5
2C80
102
{ACAD_REACTORS
330
2C9E
102
}
330
2C5D
100
AcDbEntity
  8
APL Border
 62
     8
100
AcDbPolyline
 90
       13
 70
     0
 43
0.0
 10
-5.535628094882099
 20
32.1870929174454
 10
-5.353790768486447
 20
34.02289574745092
 10
-6.130425112774389
 20
34.0248801943346
 10
-6.333826921263238
 20
31.9730940808461
 42
0.1695250701542156
 10
-6.106840682758871
 20
31.39301551086222
 42
0.0826087127293405
 10
-5.813961912619959
 20
31.13108995311734
 42
0.1017056431856583
 10
-5.510404689928634
 20
31.02488019433462
 10
-4.760057203160528
 20
31.0248801943346
 42
0.1918846087154957
 10
-4.136172756560569
 20
31.41919793838074
 42
0.1021851328841131
 10
-3.889225876952792
 20
31.97309408084612
 10
-3.685824068463887
 20
34.0248801943346
 10
-4.462655138951674
 20
34.0248801943346
 10
-4.65073703420694
 20
32.12763147393075
1001
AcDbBlockRepETag
1070
     1
1071
      866
1005
2C80
  0
SPLINE
  5
2C81
102
{ACAD_REACTORS
330
2C9E
102
}
330
2C5D
100
AcDbEntity
  8
APL Border
 62
     8
100
AcDbSpline
210
0.0
220
0.0
230
1.0
 70
     8
 71
     3
 72
    24
 73
    20
 74
    18
 42
0.0000000001
 43
0.0000000001
 44
0.0000000001
 40
0.0
 40
0.0
 40
0.0
 40
0.0
 40
0.1612668085855933
 40
0.2532303870616441
 40
0.3214574742553387
 40
0.4101806452459026
 40
0.5031588697521256
 40
0.5664511009171887
 40
0.624871878778038
 40
0.6731644290699905
 40
0.7797386132933425
 40
0.9206747739903356
 40
1.025058962643435
 40
1.116412352300609
 40
1.212929457806147
 40
1.276240530363035
 40
1.339961572016457
 40
1.386280507025952
 40
1.435584820291647
 40
1.435584820291647
 40
1.435584820291647
 40
1.435584820291647
 10
-5.535628094882099
 20
32.1870929174454
 30
0.0
 10
-5.53213414748617
 20
32.13312332644234
 30
0.0
 10
-5.526647751003197
 20
32.04837718097616
 30
0.0
 10
-5.488860432547518
 20
31.94683424540268
 30
0.0
 10
-5.447171648840961
 20
31.8753242559261
 30
0.0
 10
-5.395818187958767
 20
31.80737001333622
 30
0.0
 10
-5.320761662408248
 20
31.77062767698265
 30
0.0
 10
-5.254477128417399
 20
31.74466351916423
 30
0.0
 10
-5.200112096792143
 20
31.72723210184819
 30
0.0
 10
-5.128888988289486
 20
31.72198763189771
 30
0.0
 10
-5.030042811850907
 20
31.72786870372271
 30
0.0
 10
-4.915707066470194
 20
31.75812586881066
 30
0.0
 10
-4.815771266393483
 20
31.81405298527761
 30
0.0
 10
-4.754740567305573
 20
31.89193427605802
 30
0.0
 10
-4.714673995441981
 20
31.96546823314959
 30
0.0
 10
-4.683526695854578
 20
32.03313813212702
 30
0.0
 10
-4.662006183068958
 20
32.08703079743258
 30
0.0
 10
-4.651792807669443
 20
32.13930455656534
 30
0.0
 10
-4.647206914869654
 20
32.17083533130903
 30
0.0
 10
-4.644842382192905
 20
32.1870929174454
 30
0.0
 11
-5.535628094882099
 21
32.1870929174454
 31
0.0
 11
-5.515298846223288
 21
32.02711258990369
 31
0.0
 11
-5.483433995220536
 21
31.94084596230824
 31
0.0
 11
-5.44947766231354
 21
31.88166908437061
 31
0.0
 11
-5.392321718875223
 21
31.8138089399536
 31
0.0
 11
-5.311535231450477
 21
31.76778184269665
 31
0.0
 11
-5.252609732475718
 21
31.74468006578604
 31
0.0
 11
-5.196420818688864
 21
31.72868652792477
 31
0.0
 11
-5.148347479287053
 21
31.72409039341204
 31
0.0
 11
-5.041949649235618
 21
31.73021889267523
 31
0.0
 11
-4.906104524581394
 21
31.76775692005663
 31
0.0
 11
-4.816802280674096
 21
31.82180475140893
 31
0.0
 11
-4.758009512288197
 21
31.89172507883507
 31
0.0
 11
-4.710553499371997
 21
31.97576958188711
 31
0.0
 11
-4.684063009443377
 21
32.03327215445256
 31
0.0
 11
-4.662061522518769
 21
32.09307437617135
 31
0.0
 11
-4.652346246099511
 21
32.13836297456555
 31
0.0
 11
-4.644842382192905
 21
32.1870929174454
 31
0.0
1001
AcDbBlockRepETag
1070
     1
1071
      827
1005
2C81
  0
LWPOLYLINE
  5
2C82
102
{ACAD_REACTORS
330
2C9E
102
}
330
2C5D
100
AcDbEntity
  8
APL Border
 62
     8
100
AcDbPolyline
 90
       13
 70
     0
 43
0.0
 10
6.787553510813182
 20
32.18510847056172
 10
6.969390837208834
 20
34.02091130056725
 10
6.192756492920892
 20
34.02289574745092
 10
5.989354684432043
 20
31.97110963396243
 42
0.1695250701542156
 10
6.21634092293641
 20
31.39103106397854
 42
0.0826087127293405
 10
6.509219693075323
 20
31.12910550623367
 42
0.1017056431856583
 10
6.812776915766647
 20
31.02289574745094
 10
7.563124402534754
 20
31.02289574745093
 42
0.1918846087154957
 10
8.187008849134713
 20
31.41721349149707
 42
0.1021851328841131
 10
8.433955728742489
 20
31.97110963396244
 10
8.637357537231395
 20
34.02289574745092
 10
7.860526466743607
 20
34.02289574745092
 10
7.672444571488341
 20
32.12564702704707
1001
AcDbBlockRepETag
1070
     1
1071
      837
1005
2C82
  0
LWPOLYLINE
  5
2C83
102
{ACAD_REACTORS
330
2C9E
102
}
330
2C5D
100
AcDbEntity
  8
APL Border
  6
Continuous
 62
     8
100
AcDbPolyline
 90
       13
 70
     1
 43
0.0
 10
-1.295012624591635
 20
34.02807364104484
 10
-0.1975458970834154
 20
34.0280551402308
 10
-0.4949479612922972
 20
31.0280551402308
 10
-1.115886909891884
 20
31.0280551402308
 10
-0.9222174129992311
 20
32.98166797820307
 10
-1.611942464131544
 20
31.0280551402308
 10
-2.344230471214956
 20
31.0280551402308
 10
-2.63016252924163
 20
32.98166797820306
 10
-2.823832026134283
 20
31.0280551402308
 10
-3.44477097473387
 20
31.0280551402308
 10
-3.147349004861581
 20
34.02825593571061
 10
-2.047349004861558
 20
34.02825593571061
 10
-1.8272453185659
 20
32.52441131541936
1001
AcDbBlockRepETag
1070
     1
1071
      867
1005
2C83
  0
LWPOLYLINE
  5
2C84
102
{ACAD_REACTORS
330
2C9E
102
}
330
2C5D
100
AcDbEntity
  8
APL Border
  6
Continuous
 62
     8
100
AcDbPolyline
 90
       10
 70
     1
 43
0.0
 10
1.724974710806094
 20
34.02289574745092
 10
1.427552740933805
 20
31.02269495197112
 10
2.048491689533392
 20
31.02269495197112
 10
2.231899581960561
 20
32.87279534971117
 10
3.051434648859952
 20
31.02269495197112
 10
3.902826396438257
 20
31.02269495197112
 10
4.200228460647139
 20
34.02269495197112
 10
3.580266230192904
 20
34.02269495197112
 10
3.395920304875374
 20
32.17298478610545
 10
2.576558098165463
 20
34.02269495197112
1001
AcDbBlockRepETag
1070
     1
1071
      616
1005
2C84
  0
LWPOLYLINE
  5
2C85
102
{ACAD_REACTORS
330
2C9E
102
}
330
2C5D
100
AcDbEntity
  8
APL Border
  6
Continuous
 62
     8
100
AcDbPolyline
 90
       13
 70
     1
 43
0.0
 10
11.01183437133605
 20
34.02271345278515
 10
12.10930109884427
 20
34.02269495197111
 10
11.81189903463539
 20
31.02269495197111
 10
11.1909600860358
 20
31.02269495197111
 10
11.38462958292845
 20
32.97630778994339
 10
10.69490453179614
 20
31.02269495197111
 10
9.962616524712728
 20
31.02269495197111
 10
9.676684466686054
 20
32.97630778994338
 10
9.483014969793401
 20
31.02269495197111
 10
8.862076021193814
 20
31.02269495197111
 10
9.159497991066103
 20
34.02289574745092
 10
10.25949799106612
 20
34.02289574745092
 10
10.47960167736178
 20
32.51905112715967
1001
AcDbBlockRepETag
1070
     1
1071
      847
1005
2C85
  0
SPLINE
  5
2C86
102
{ACAD_REACTORS
330
2C9E
102
}
330
2C5D
100
AcDbEntity
  8
APL Border
 62
     8
100
AcDbSpline
210
0.0
220
0.0
230
1.0
 70
     8
 71
     3
 72
    24
 73
    20
 74
    18
 42
0.0000000001
 43
0.0000000001
 44
0.0000000001
 40
0.0
 40
0.0
 40
0.0
 40
0.0
 40
0.1612668085856004
 40
0.2532303870616512
 40
0.3214574742553458
 40
0.4101806452458731
 40
0.5031588697521455
 40
0.5664511009172086
 40
0.6248718787780579
 40
0.6731644290699537
 40
0.7797386132933625
 40
0.9206747739903555
 40
1.025058962643406
 40
1.116412352300617
 40
1.212929457806155
 40
1.276240530363043
 40
1.339961572016455
 40
1.386280507025956
 40
1.435584820291643
 40
1.435584820291643
 40
1.435584820291643
 40
1.435584820291643
 10
6.787553510813182
 20
32.18510847056172
 30
0.0
 10
6.791047458209138
 20
32.13113887955867
 30
0.0
 10
6.796533854692151
 20
32.04639273409249
 30
0.0
 10
6.834321173147815
 20
31.94484979851901
 30
0.0
 10
6.876009956854381
 20
31.87333980904243
 30
0.0
 10
6.927363417736518
 20
31.80538556645249
 30
0.0
 10
7.002419943287081
 20
31.76864323009899
 30
0.0
 10
7.068704477277941
 20
31.74267907228054
 30
0.0
 10
7.123069508903178
 20
31.72524765496453
 30
0.0
 10
7.194292617405833
 20
31.72000318501402
 30
0.0
 10
7.293138793844411
 20
31.72588425683905
 30
0.0
 10
7.407474539225143
 20
31.75614142192696
 30
0.0
 10
7.507410339301799
 20
31.81206853839397
 30
0.0
 10
7.568441038389779
 20
31.88994982917432
 30
0.0
 10
7.608507610253345
 20
31.96348378626594
 30
0.0
 10
7.639654909840773
 20
32.03115368524333
 30
0.0
 10
7.661175422626328
 20
32.08504635054892
 30
0.0
 10
7.671388798025919
 20
32.13732010968165
 30
0.0
 10
7.675974690825655
 20
32.16885088442535
 30
0.0
 10
7.678339223502376
 20
32.18510847056172
 30
0.0
 11
6.787553510813182
 21
32.18510847056172
 31
0.0
 11
6.80788275947205
 21
32.02512814302002
 31
0.0
 11
6.839747610474802
 21
31.93886151542456
 31
0.0
 11
6.873703943381798
 21
31.87968463748693
 31
0.0
 11
6.930859886820059
 21
31.81182449306993
 31
0.0
 11
7.011646374244861
 21
31.76579739581298
 31
0.0
 11
7.07057187321962
 21
31.74269561890237
 31
0.0
 11
7.126760787006475
 21
31.72670208104109
 31
0.0
 11
7.174834126408228
 21
31.72210594652836
 31
0.0
 11
7.28123195645972
 21
31.72823444579155
 31
0.0
 11
7.417077081113944
 21
31.76577247317295
 31
0.0
 11
7.506379325021185
 21
31.81982030452526
 31
0.0
 11
7.565172093407142
 21
31.88974063195139
 31
0.0
 11
7.612628106323342
 21
31.97378513500343
 31
0.0
 11
7.639118596251961
 21
32.03128770756889
 31
0.0
 11
7.661120083176541
 21
32.09108992928768
 31
0.0
 11
7.670835359595827
 21
32.13637852768188
 31
0.0
 11
7.678339223502376
 21
32.18510847056172
 31
0.0
1001
AcDbBlockRepETag
1070
     1
1071
      848
1005
2C86
  0
LWPOLYLINE
  5
2C87
102
{ACAD_REACTORS
330
2C91
102
}
330
2C5D
100
AcDbEntity
  8
APL Border
  6
Continuous
 62
     8
100
AcDbPolyline
 90
        4
 70
     1
 43
0.0
 10
-1.87552020613694
 20
26.87985997284487
 10
-2.652351276624727
 20
26.87985997284487
 10
-2.949753340833609
 20
23.87985997284487
 10
-2.172922270345821
 20
23.87985997284487
1001
AcDbBlockRepETag
1070
     1
1071
      851
1005
2C87
  0
LWPOLYLINE
  5
2C88
102
{ACAD_REACTORS
330
2C91
102
}
330
2C5D
100
AcDbEntity
  8
APL Border
  6
Continuous
 62
     8
100
AcDbPolyline
 90
       10
 70
     1
 43
0.0
 10
-1.269968290467119
 20
26.87985997284487
 10
-1.567390260339408
 20
23.87965917736506
 10
-0.9464513117398212
 20
23.87965917736506
 10
-0.7630434193126519
 20
25.72975957510511
 10
0.0564916475867392
 20
23.87965917736506
 10
0.9078833951650437
 20
23.87965917736506
 10
1.205285459373925
 20
26.87965917736506
 10
0.5853232289196911
 20
26.87965917736506
 10
0.4009773036021614
 20
25.0299490114994
 10
-0.41838490310775
 20
26.87965917736506
1001
AcDbBlockRepETag
1070
     1
1071
      852
1005
2C88
  0
LWPOLYLINE
  5
2C89
102
{ACAD_REACTORS
330
2C91
102
}
330
2C5D
100
AcDbEntity
  8
APL Border
 62
     8
100
AcDbPolyline
 90
       13
 70
     0
 43
0.0
 10
1.882971499788112
 20
26.87985997284487
 10
3.847979515363789
 20
26.87985997284487
 10
3.788499102522024
 20
26.27985997284487
 10
2.600322157434135
 20
26.27985997284487
 10
2.540562294183217
 20
25.67704105755032
 10
3.542578834455781
 20
25.67704105755032
 10
3.476410183919
 20
25.07985997284487
 10
2.474393643646379
 20
25.07985997284487
 10
2.421932428393546
 20
24.48037956726917
 10
3.610109373481435
 20
24.48037956726917
 10
3.550577451154907
 20
23.87985997284487
 10
1.58556943557923
 20
23.87985997284487
 10
1.882971499788112
 20
26.87985997284487
1001
AcDbBlockRepETag
1070
     1
1071
      864
1005
2C89
  0
LINE
  5
2C8A
102
{ACAD_REACTORS
330
2C91
102
}
330
2C5D
100
AcDbEntity
  8
APL Border
 62
     8
100
AcDbLine
 10
5.198870965514487
 20
25.50205881951548
 30
0.0
 11
5.142141867913778
 21
25.50205881951548
 31
0.0
1001
AcDbBlockRepETag
1070
     1
1071
      865
1005
2C8A
  0
SPLINE
  5
2C8B
102
{ACAD_REACTORS
330
2C91
102
}
330
2C5D
100
AcDbEntity
  8
APL Border
 62
     8
100
AcDbSpline
210
0.0
220
0.0
230
1.0
 70
     8
 71
     3
 72
    25
 73
    21
 74
     0
 42
0.0000000001
 43
0.0000000001
 40
0.0
 40
0.0
 40
0.0
 40
0.0
 40
0.3463130802699203
 40
0.6043703055549736
 40
0.8524756959462802
 40
1.099102870182333
 40
1.318598063912852
 40
1.521064627602771
 40
1.694788988362445
 40
1.912615757663666
 40
2.142780600046976
 40
2.483378398179008
 40
2.873129106540456
 40
3.09179617846886
 40
3.322387155839943
 40
3.509181810940893
 40
3.69147909649244
 40
3.927844502409028
 40
4.143063657146388
 40
4.406491840702669
 40
4.406491840702669
 40
4.406491840702669
 40
4.406491840702669
 10
-5.114032196843737
 20
23.8798599728377
 30
0.0
 10
-5.228982970363915
 20
23.89503832123493
 30
0.0
 10
-5.429589987754155
 20
23.92152690506636
 30
0.0
 10
-5.693675021857103
 20
24.03567408988205
 30
0.0
 10
-5.892941488864977
 20
24.19306688135278
 30
0.0
 10
-6.036314150572081
 20
24.38541826526996
 30
0.0
 10
-6.137502326421099
 20
24.58575647986304
 30
0.0
 10
-6.184089306330008
 20
24.77995730666768
 30
0.0
 10
-6.209030826709039
 20
24.97670983726675
 30
0.0
 10
-6.206060891535827
 20
25.18442176502657
 30
0.0
 10
-6.186178297010457
 20
25.44676950423098
 30
0.0
 10
-6.128537036390639
 20
25.76177491648128
 30
0.0
 10
-6.024273636684796
 20
26.06592307272473
 30
0.0
 10
-5.858617591962229
 20
26.29271170654482
 30
0.0
 10
-5.725334295882049
 20
26.45803039682342
 30
0.0
 10
-5.575727893531166
 20
26.59168695454355
 30
0.0
 10
-5.409633372236157
 20
26.70740493083671
 30
0.0
 10
-5.217340570729675
 20
26.79721770551459
 30
0.0
 10
-4.988026372094168
 20
26.86731869684436
 30
0.0
 10
-4.849424991220388
 20
26.87777876054341
 30
0.0
 10
-4.7645039250757
 20
26.87985997283595
 30
0.0
1001
AcDbBlockRepETag
1070
     1
1071
      875
1005
2C8B
  0
ELLIPSE
  5
2C8C
102
{ACAD_REACTORS
330
2C90
330
2C91
102
}
330
2C5D
100
AcDbEntity
  8
APL Border
 62
     8
100
AcDbEllipse
 10
-4.728528852722632
 20
25.3825150979867
 30
0.0
 11
-0.2732326585474372
 21
-0.8283682112856686
 31
0.0
210
0.0
220
0.0
230
-1.0
 40
0.767138872147242
 41
0.0
 42
6.283185307179586
1001
AcDbBlockRepETag
1070
     1
1071
      876
1005
2C8C
  0
SPLINE
  5
2C8D
102
{ACAD_REACTORS
330
2C91
102
}
330
2C5D
100
AcDbEntity
  8
APL Border
 62
     8
100
AcDbSpline
210
0.0
220
0.0
230
1.0
 70
     8
 71
     3
 72
    26
 73
    22
 74
     0
 42
0.0000000001
 43
0.0000000001
 40
4.60284491300692
 40
4.60284491300692
 40
4.60284491300692
 40
4.60284491300692
 40
4.695921259854779
 40
4.963507654731998
 40
5.182979392648435
 40
5.397234555269768
 40
5.619529682274728
 40
5.869260387557257
 40
6.093250787730498
 40
6.263427758207029
 40
6.582064557968705
 40
6.800458868269094
 40
7.179401531729983
 40
7.575889850719137
 40
7.787844664578662
 40
8.01909420716162
 40
8.205730502580088
 40
8.387453763945252
 40
8.621856230932909
 40
8.833419194479944
 40
8.988019761194074
 40
8.988019761194074
 40
8.988019761194074
 40
8.988019761194074
 10
-4.486699891621668
 20
26.8798599728377
 30
0.0
 10
-4.440001835107608
 20
26.87954742494388
 30
0.0
 10
-4.335540249228728
 20
26.87475925711838
 30
0.0
 10
-4.164200665084621
 20
26.85307202884131
 30
0.0
 10
-3.96932086400659
 20
26.77880589501945
 30
0.0
 10
-3.766465201232762
 20
26.6658847706859
 30
0.0
 10
-3.60114437794968
 20
26.50570040783856
 30
0.0
 10
-3.471205788265336
 20
26.31143584383913
 30
0.0
 10
-3.381388817883674
 20
26.11392472080339
 30
0.0
 10
-3.317144182132551
 20
25.88552622199355
 30
0.0
 10
-3.281793375658168
 20
25.65006475492956
 30
0.0
 10
-3.30137826591374
 20
25.34538614523087
 30
0.0
 10
-3.327064239225308
 20
25.0112478652753
 30
0.0
 10
-3.471288581215731
 20
24.71021445059323
 30
0.0
 10
-3.60460091530777
 20
24.4641890220082
 30
0.0
 10
-3.737092402415015
 20
24.29954990084814
 30
0.0
 10
-3.882945983371143
 20
24.16225529150343
 30
0.0
 10
-4.046861838463826
 20
24.04508050911121
 30
0.0
 10
-4.233796525969012
 20
23.94884265716423
 30
0.0
 10
-4.427631511903911
 20
23.89220734010023
 30
0.0
 10
-4.549580407823555
 20
23.882511578974
 30
0.0
 10
-4.601116794093542
 20
23.87985997285202
 30
0.0
1001
AcDbBlockRepETag
1070
     1
1071
      877
1005
2C8D
  0
LWPOLYLINE
  5
2C8E
102
{ACAD_REACTORS
330
2C91
102
}
330
2C5D
100
AcDbEntity
  8
APL Border
 62
     8
100
AcDbPolyline
 90
        2
 70
     0
 43
0.0
 10
-4.764503925211641
 20
26.8798599728377
 10
-4.486699891621924
 20
26.8798599728377
1001
AcDbBlockRepETag
1070
     1
1071
      878
1005
2C8E
  0
LWPOLYLINE
  5
2C8F
102
{ACAD_REACTORS
330
2C91
102
}
330
2C5D
100
AcDbEntity
  8
APL Border
 62
     8
100
AcDbPolyline
 90
        2
 70
     0
 43
0.0
 10
-5.114032196843737
 20
23.8798599728377
 10
-4.601116794093513
 20
23.87985997285202
1001
AcDbBlockRepETag
1070
     1
1071
      879
1005
2C8F
  0
HATCH
  5
2C90
330
2C5D
100
AcDbEntity
  8
APL Border
 62
     8
100
AcDbHatch
 10
0.0
 20
0.0
 30
0.0
210
0.0
220
0.0
230
1.0
  2
SOLID
 70
     1
 71
     1
 91
        1
 92
        5
 93
        1
 72
     3
 10
-4.728528852722632
 20
25.3825150979867
 11
-0.2732326585474372
 21
-0.8283682112856686
 40
0.767138872147242
 50
0.0
 51
360.0
 73
     0
 97
        1
330
2C8C
 75
     0
 76
     1
 47
0.0172809346375552
 98
        1
 10
-4.520972790815363
 20
25.15086651129009
1001
ACAD
1010
0.0
1020
0.0
1030
0.0
1001
AcDbBlockRepETag
1070
     1
1071
      880
1005
2C90
  0
HATCH
  5
2C91
330
2C5D
100
AcDbEntity
  8
APL Border
 62
     8
100
AcDbHatch
 10
0.0
 20
0.0
 30
0.0
210
0.0
220
0.0
230
1.0
  2
SOLID
 70
     1
 71
     1
 91
        9
 92
        7
 72
     0
 73
     1
 93
        4
 10
-12.20942510081127
 20
28.14789574745095
 10
-8.85038058018816
 20
22.32985997284487
 10
8.850698786449385
 20
22.32985997284487
 10
12.20974330707306
 20
28.14789574745094
 97
        1
330
2C70
 92
       20
 93
        4
 72
     4
 94
        3
 73
     0
 74
     0
 95
       25
 96
       21
 40
0.0
 40
0.0
 40
0.0
 40
0.0
 40
0.3463130802699203
 40
0.6043703055549736
 40
0.8524756959462802
 40
1.099102870182333
 40
1.318598063912852
 40
1.521064627602771
 40
1.694788988362445
 40
1.912615757663666
 40
2.142780600046976
 40
2.483378398179008
 40
2.873129106540456
 40
3.09179617846886
 40
3.322387155839943
 40
3.509181810940893
 40
3.69147909649244
 40
3.927844502409028
 40
4.143063657146388
 40
4.406491840702669
 40
4.406491840702669
 40
4.406491840702669
 40
4.406491840702669
 10
-5.114032196843737
 20
23.8798599728377
 10
-5.228982970363915
 20
23.89503832123493
 10
-5.429589987754155
 20
23.92152690506636
 10
-5.693675021857103
 20
24.03567408988205
 10
-5.892941488864977
 20
24.19306688135278
 10
-6.036314150572081
 20
24.38541826526996
 10
-6.137502326421099
 20
24.58575647986304
 10
-6.184089306330008
 20
24.77995730666768
 10
-6.209030826709039
 20
24.97670983726675
 10
-6.206060891535827
 20
25.18442176502657
 10
-6.186178297010457
 20
25.44676950423098
 10
-6.128537036390639
 20
25.76177491648128
 10
-6.024273636684796
 20
26.06592307272473
 10
-5.858617591962229
 20
26.29271170654482
 10
-5.725334295882049
 20
26.45803039682342
 10
-5.575727893531166
 20
26.59168695454355
 10
-5.409633372236157
 20
26.70740493083671
 10
-5.217340570729675
 20
26.79721770551459
 10
-4.988026372094168
 20
26.86731869684436
 10
-4.849424991220388
 20
26.87777876054341
 10
-4.7645039250757
 20
26.87985997283595
 72
     1
 10
-4.764503925020689
 20
26.87985997283771
 11
-4.486699891621347
 21
26.8798599728377
 72
     4
 94
        3
 73
     0
 74
     0
 95
       26
 96
       22
 40
4.60284491300692
 40
4.60284491300692
 40
4.60284491300692
 40
4.60284491300692
 40
4.695921259854779
 40
4.963507654731998
 40
5.182979392648435
 40
5.397234555269768
 40
5.619529682274728
 40
5.869260387557257
 40
6.093250787730498
 40
6.263427758207029
 40
6.582064557968705
 40
6.800458868269094
 40
7.179401531729983
 40
7.575889850719137
 40
7.787844664578662
 40
8.01909420716162
 40
8.205730502580088
 40
8.387453763945252
 40
8.621856230932909
 40
8.833419194479944
 40
8.988019761194074
 40
8.988019761194074
 40
8.988019761194074
 40
8.988019761194074
 10
-4.486699891621668
 20
26.8798599728377
 10
-4.440001835107608
 20
26.87954742494388
 10
-4.335540249228728
 20
26.87475925711838
 10
-4.164200665084621
 20
26.85307202884131
 10
-3.96932086400659
 20
26.77880589501945
 10
-3.766465201232762
 20
26.6658847706859
 10
-3.60114437794968
 20
26.50570040783856
 10
-3.471205788265336
 20
26.31143584383913
 10
-3.381388817883674
 20
26.11392472080339
 10
-3.317144182132551
 20
25.88552622199355
 10
-3.281793375658168
 20
25.65006475492956
 10
-3.30137826591374
 20
25.34538614523087
 10
-3.327064239225308
 20
25.0112478652753
 10
-3.471288581215731
 20
24.71021445059323
 10
-3.60460091530777
 20
24.4641890220082
 10
-3.737092402415015
 20
24.29954990084814
 10
-3.882945983371143
 20
24.16225529150343
 10
-4.046861838463826
 20
24.04508050911121
 10
-4.233796525969012
 20
23.94884265716423
 10
-4.427631511903911
 20
23.89220734010023
 10
-4.549580407823555
 20
23.882511578974
 10
-4.601116794093542
 20
23.87985997285202
 72
     1
 10
-4.601116794093525
 20
23.87985997285202
 11
-5.114032196843729
 21
23.8798599728377
 97
        4
330
2C8B
330
2C8E
330
2C8D
330
2C8F
 92
        4
 93
        1
 72
     3
 10
-4.728528852722632
 20
25.3825150979867
 11
-0.2732326585474372
 21
-0.8283682112856686
 40
0.767138872147242
 50
0.0
 51
360.0
 73
     0
 97
        1
330
2C8C
 92
       20
 93
        8
 72
     1
 10
-6.482313212520211
 20
26.87985997284487
 11
-6.679452083611267
 21
24.89125032803125
 72
     4
 94
        3
 73
     0
 74
     0
 95
       16
 96
       12
 40
0.0
 40
0.0
 40
0.0
 40
0.0
 40
0.1978277931646383
 40
0.361463118001824
 40
0.5540499897785108
 40
0.7796220130725381
 40
0.979106605438038
 40
1.222151590302332
 40
1.40748727220097
 40
1.607226525619232
 40
1.815049166761618
 40
1.815049166761618
 40
1.815049166761618
 40
1.815049166761618
 10
-6.679452083611295
 20
24.89125032803118
 10
-6.685371732996685
 20
24.82559351525052
 10
-6.696187882184318
 20
24.70562798418881
 10
-6.721757155054632
 20
24.52229576436942
 10
-6.768469983285655
 20
24.33480615160982
 10
-6.860719723390843
 20
24.14153771241002
 10
-7.051789745146265
 20
24.01851519430106
 10
-7.233921808197266
 20
23.91285203345821
 10
-7.443451931375136
 20
23.87675735439051
 10
-7.641222718647384
 20
23.88093312949101
 10
-7.776581895343355
 20
23.89281010788354
 10
-7.845603808282817
 20
23.89886637823479
 72
     1
 10
-7.845603808282787
 20
23.89886637823479
 11
-8.399876560405061
 21
23.98304774476413
 72
     1
 10
-8.399876560405061
 20
23.98304774476413
 11
-8.399876560405061
 21
24.64579492155148
 72
     1
 10
-8.399876560405061
 20
24.64579492155148
 11
-7.815117916056302
 21
24.56632682606845
 72
     4
 94
        3
 73
     0
 74
     0
 95
       11
 96
        7
 40
0.0
 40
0.0
 40
0.0
 40
0.0
 40
0.2042619346961744
 40
0.3074129668363174
 40
0.4146012126853764
 40
0.4826852714337078
 40
0.4826852714337078
 40
0.4826852714337078
 40
0.4826852714337078
 10
-7.815117916056323
 20
24.56632682606847
 10
-7.743266182308218
 20
24.55714977626708
 10
-7.635129760920136
 20
24.54333837224583
 10
-7.524447891091284
 20
24.63752792323729
 10
-7.477352395049535
 20
24.71998790389099
 10
-7.468646137215245
 20
24.77808681972154
 10
-7.465264214605014
 20
24.80065518845331
 72
     1
 10
-7.465264214605014
 20
24.80065518845333
 11
-7.259144283007996
 21
26.87985997284487
 72
     1
 10
-7.259144283007996
 20
26.87985997284487
 11
-6.482313212520211
 21
26.87985997284487
 97
        4
330
2C76
330
2C61
330
2C77
330
2C62
 92
       22
 72
     0
 73
     1
 93
        4
 10
-2.652351276624725
 20
26.87985997284486
 10
-1.87552020613694
 20
26.87985997284486
 10
-2.172922270345821
 20
23.87985997284487
 10
-2.949753340833609
 20
23.87985997284487
 97
        1
330
2C87
 92
       22
 72
     0
 73
     1
 93
       10
 10
-1.269968290467114
 20
26.87985997284487
 10
-0.4183849031077484
 20
26.87965917736506
 10
0.4009773036021615
 20
25.0299490114994
 10
0.5853232289196909
 20
26.87965917736506
 10
1.205285459373925
 20
26.87965917736506
 10
0.9078833951650439
 20
23.87965917736506
 10
0.056491647586738
 20
23.87965917736506
 10
-0.7630434193126518
 20
25.72975957510511
 10
-0.946451311739821
 20
23.87965917736506
 10
-1.567390260339408
 20
23.87965917736506
 97
        1
330
2C88
 92
       22
 72
     0
 73
     1
 93
       12
 10
1.882971499788112
 20
26.87985997284486
 10
3.847979515363789
 20
26.87985997284486
 10
3.788499102522024
 20
26.27985997284486
 10
2.600322157434135
 20
26.27985997284487
 10
2.540562294183218
 20
25.67704105755032
 10
3.542578834455781
 20
25.67704105755032
 10
3.476410183919
 20
25.07985997284487
 10
2.47439364364638
 20
25.07985997284487
 10
2.421932428393546
 20
24.48037956726917
 10
3.610109373481436
 20
24.48037956726917
 10
3.550577451154907
 20
23.87985997284487
 10
1.585569435579231
 20
23.87985997284487
 97
        1
330
2C89
 92
       20
 93
       11
 72
     1
 10
4.429648034880159
 20
26.87985997284486
 11
5.780015564168562
 21
26.87985997284487
 72
     4
 94
        3
 73
     0
 74
     0
 95
       20
 96
       16
 40
0.0
 40
0.0
 40
0.0
 40
0.0
 40
0.1774120264923274
 40
0.3258093286713144
 40
0.4834060703451958
 40
0.6311237014699663
 40
0.811161917566129
 40
0.9605198197290178
 40
1.289502400757101
 40
1.459697744220917
 40
1.604754171475458
 40
1.794797311213428
 40
2.030760379210173
 40
2.301729078160567
 40
2.393267743077617
 40
2.393267743077617
 40
2.393267743077617
 40
2.393267743077617
 10
5.780015564168593
 20
26.87985997284487
 10
5.839056126904296
 20
26.87337384475878
 10
5.947481505327601
 20
26.86146235781404
 10
6.098807931884806
 20
26.80185114122353
 10
6.227972759762906
 20
26.72168911843352
 10
6.347510602881385
 20
26.61140356622764
 10
6.442310149474394
 20
26.48207375794227
 10
6.536759215535255
 20
26.28338234239492
 10
6.578465181725675
 20
26.06469589684353
 10
6.553150099427256
 20
25.85079503063701
 10
6.524121382020268
 20
25.68499989147718
 10
6.464236525716046
 20
25.50199988960434
 10
6.327150620479812
 20
25.31187331731421
 10
6.179477266233362
 20
25.17172660684537
 10
6.072729148555964
 20
25.11631253421805
 10
6.045077525535504
 20
25.10350570839811
 72
     1
 10
6.045077525535502
 20
25.1035057083981
 11
6.339444173005232
 21
23.87985997284487
 72
     1
 10
6.339444173005232
 20
23.87985997284487
 11
5.532386545886621
 21
23.87985997284487
 72
     1
 10
5.532386545886621
 20
23.87985997284487
 11
5.142141867913776
 21
25.50205881951548
 72
     1
 10
5.142141867913776
 20
25.50205881951548
 11
5.19887096551445
 21
25.50205881951548
 72
     4
 94
        3
 73
     0
 74
     0
 95
       17
 96
       13
 40
0.0
 40
0.0
 40
0.0
 40
0.0
 40
0.0463117202933683
 40
0.2032408426961212
 40
0.3585694343029505
 40
0.4964057577712057
 40
0.6456565825699876
 40
0.7595770154256244
 40
0.9262943680254526
 40
1.032180609131101
 40
1.14647028625934
 40
1.243973057737614
 40
1.243973057737614
 40
1.243973057737614
 40
1.243973057737614
 10
5.198870965514487
 20
25.50205881951548
 10
5.214272018053407
 20
25.50302975767877
 10
5.28186015506489
 20
25.50729075876586
 10
5.40176083940824
 20
25.51345804330556
 10
5.546675458142118
 20
25.55725132865025
 10
5.67725421213268
 20
25.62965962372397
 10
5.765298612935083
 20
25.7349784962169
 10
5.820388894698254
 20
25.86817511516085
 10
5.832561030472788
 20
26.0011917111029
 10
5.781919321100474
 20
26.1258482190374
 10
5.684603990133524
 20
26.18537947021099
 10
5.613502616848251
 20
26.1875961553427
 10
5.580769717272147
 20
26.18861664944085
 72
     1
 10
5.580769717272125
 20
26.18861664944085
 11
5.137953374950967
 21
26.18861664944085
 72
     1
 10
5.137953374950967
 20
26.18861664944085
 11
4.909077041159065
 21
23.87985997284487
 72
     1
 10
4.909077041159065
 20
23.87985997284487
 11
4.132245970671278
 21
23.87985997284487
 72
     1
 10
4.132245970671278
 20
23.87985997284487
 11
4.429648034880159
 21
26.87985997284486
 97
        5
330
2C71
330
2C63
330
2C73
330
2C8A
330
2C64
 92
       22
 72
     0
 73
     1
 93
        9
 10
6.800478684667179
 20
26.87985997284487
 10
7.607536311785904
 20
26.87985997284487
 10
7.963471882016363
 20
25.86355557445326
 10
8.538893993587493
 20
26.87985997284487
 10
9.414203966725493
 20
26.87985997284487
 10
8.232331174709315
 20
25.00957443408062
 10
8.120338037129924
 20
23.87985997284486
 10
7.343506966642139
 20
23.87985997284486
 10
7.455500104221528
 20
25.00957443408062
 97
        1
330
2C6F
 75
     0
 76
     1
 47
0.0276408434878157
 98
        9
 10
-5.110068937762804
 20
27.30829258594788
 10
-5.110068937762804
 20
27.30829258594788
 10
-5.110068937762804
 20
27.30829258594788
 10
-5.110068937762804
 20
27.30829258594788
 10
-5.110068937762804
 20
27.30829258594788
 10
-5.110068937762804
 20
27.30829258594788
 10
-5.110068937762804
 20
27.30829258594788
 10
-5.110068937762804
 20
27.30829258594788
 10
-5.110068937762804
 20
27.30829258594788
1001
ACAD
1010
0.0
1020
0.0
1030
0.0
1001
AcDbBlockRepETag
1070
     1
1071
      881
1005
2C91
  0
HATCH
  5
2C92
330
2C5D
100
AcDbEntity
  8
APL Border
 62
     8
100
AcDbHatch
 10
0.0
 20
0.0
 30
0.0
210
0.0
220
0.0
230
1.0
  2
SOLID
 70
     1
 71
     1
 91
        1
 92
        7
 72
     0
 73
     1
 93
        4
 10
0.0001591031300169
 20
7.000275566930961
 10
3.563095122801513
 20
13.17146177711931
 10
-0.9450856774407473
 20
20.97985997284487
 10
-8.070957716782199
 20
20.97985997284487
 97
        1
330
2C74
 75
     0
 76
     1
 47
0.0707162833847576
 98
        3
 10
-2.675438732228172
 20
16.47794635472378
 10
6.312751868664321
 20
42.28939048605213
 10
-9.894301834166896
 20
39.60217176706084
1001
ACAD
1010
0.0
1020
0.0
1030
0.0
1001
AcDbBlockRepETag
1070
     1
1071
      883
1005
2C92
  0
HATCH
  5
2C93
330
2C5D
100
AcDbEntity
  8
APL Border
 62
     8
100
AcDbHatch
 10
0.0
 20
0.0
 30
0.0
210
0.0
220
0.0
230
1.0
  2
SOLID
 70
     1
 71
     0
 91
        1
 92
        7
 72
     0
 73
     1
 93
        7
 10
-12.96642015501169
 20
43.61979184908029
 10
-14.7664201550117
 20
43.61979184908029
 10
-16.54136876356097
 20
39.42215966960598
 10
-17.19614352503853
 20
43.61979184908029
 10
-18.99614352503854
 20
43.61979184908029
 10
-17.7875751270476
 20
37.38083558975206
 10
-15.77022638070493
 20
37.38083558975206
 97
        0
 75
     0
 76
     1
 47
0.0707162833847576
 98
        3
 10
6.249678794057444
 20
42.28939048605213
 10
-9.957374908773772
 20
39.60217176706084
 10
-16.39773218462096
 20
38.68285940442952
1001
ACAD
1010
0.0
1020
0.0
1030
0.0
1001
AcDbBlockRepETag
1070
     1
1071
      884
1005
2C93
  0
HATCH
  5
2C94
330
2C5D
100
AcDbEntity
  8
APL Border
 62
     8
100
AcDbHatch
 10
0.0
 20
0.0
 30
0.0
210
0.0
220
0.0
230
1.0
  2
SOLID
 70
     1
 71
     1
 91
        1
 92
        7
 72
     0
 73
     1
 93
       10
 10
-2.850928947786229
 20
37.38083558975206
 10
-2.181839912298442
 20
43.6197918490803
 10
-3.855464624526036
 20
43.61979184908029
 10
-4.228474015381578
 20
40.14164596649268
 10
-5.40751765387219
 20
43.61979184908029
 10
-7.466097855805088
 20
43.61979184908029
 10
-8.135186891292875
 20
37.38083558975206
 10
-6.479801476178323
 20
37.38083558975206
 10
-6.131920885667285
 20
40.6246666384634
 10
-5.032306754624555
 20
37.38083558975206
 97
        1
330
2C6B
 75
     0
 76
     1
 47
0.0707162833847576
 98
        3
 10
6.312751868664321
 20
42.28939048605213
 10
-5.364819983741796
 20
40.80434854252457
 10
-9.894301834166896
 20
39.60217176706084
1001
ACAD
1010
0.0
1020
0.0
1030
0.0
1001
AcDbBlockRepETag
1070
     1
1071
      886
1005
2C94
  0
HATCH
  5
2C95
330
2C5D
100
AcDbEntity
  8
APL Border
 62
     8
100
AcDbHatch
 10
0.0
 20
0.0
 30
0.0
210
0.0
220
0.0
230
1.0
  2
SOLID
 70
     1
 71
     1
 91
        1
 92
        7
 72
     0
 73
     1
 93
        8
 10
2.929095477768755
 20
41.97282181113101
 10
3.105743226874893
 20
43.6199831327606
 10
-1.725754035154748
 20
43.61998313276061
 10
-1.891167362926863
 20
41.97282181113101
 10
-0.3755272841536335
 20
41.97282181113101
 10
-0.8679685705352806
 20
37.38102687343239
 10
0.9741138955425025
 20
37.38339558452146
 10
1.466301152475638
 20
41.97282181113101
 97
        1
330
2C6A
 75
     0
 76
     1
 47
0.0707162833847576
 98
        3
 10
6.461508006627583
 20
42.28958176973246
 10
0.3042431306128051
 20
42.36029787294049
 10
-9.745545696203633
 20
39.60236305074117
1001
ACAD
1010
0.0
1020
0.0
1030
0.0
1001
AcDbBlockRepETag
1070
     1
1071
      887
1005
2C95
  0
HATCH
  5
2C96
330
2C5D
100
AcDbEntity
  8
APL Border
 62
     8
100
AcDbHatch
 10
0.0
 20
0.0
 30
0.0
210
0.0
220
0.0
230
1.0
  2
SOLID
 70
     1
 71
     1
 91
        1
 92
        7
 72
     0
 73
     1
 93
        3
 10
8.071275923043375
 20
20.97985997284487
 10
0.8484489512626126
 20
20.97985997284487
 10
4.459862437153192
 20
14.72470832814346
 97
        1
330
2C75
 75
     0
 76
     1
 47
0.0707162833847576
 98
        3
 10
4.897289869501349
 20
18.17513736310713
 10
6.312751868664321
 20
42.28939048605213
 10
-9.894301834166896
 20
39.60217176706084
1001
ACAD
1010
0.0
1020
0.0
1030
0.0
1001
AcDbBlockRepETag
1070
     1
1071
      891
1005
2C96
  0
HATCH
  5
2C97
330
2C5D
100
AcDbEntity
  8
APL Border
 62
     8
100
AcDbHatch
 10
0.0
 20
0.0
 30
0.0
210
0.0
220
0.0
230
1.0
  2
SOLID
 70
     1
 71
     1
 91
        2
 92
       16
 93
        3
 72
     1
 10
0.0000000003145431
 20
4.000000000000009
 11
23.60256143704041
 21
44.88083558975217
 72
     1
 10
23.60256143704041
 20
44.88083558975217
 11
-23.60256142783933
 21
44.88083558975206
 72
     1
 10
-23.60256142783933
 20
44.88083558975206
 11
0.0000000003145431
 21
4.000000000000007
 97
        1
330
2C7B
 92
        1
 93
        3
 72
     1
 10
27.06666305249243
 20
46.88083558975206
 11
-27.06666304266244
 21
46.88083558975206
 72
     1
 10
-27.06666304266244
 20
46.88083558975206
 11
-0.0000000000000284
 21
0.0000000000000213
 72
     1
 10
-0.0000000000000284
 20
0.0000000000000238
 11
27.06666305249243
 21
46.88083558975206
 97
        1
330
2C7C
 75
     0
 76
     1
 98
        1
 10
-236.5641112216887
 20
1.231020082252661
1001
ACAD
1010
0.0
1020
0.0
1030
0.0
1001
AcDbBlockRepETag
1070
     1
1071
      892
1005
2C97
  0
HATCH
  5
2C98
330
2C5D
100
AcDbEntity
  8
APL Border
 62
     8
100
AcDbHatch
 10
0.0
 20
0.0
 30
0.0
210
0.0
220
0.0
230
1.0
  2
SOLID
 70
     1
 71
     1
 91
        1
 92
        7
 72
     0
 73
     1
 93
       12
 10
15.84058876400877
 20
41.9726305274507
 10
18.21321428445671
 20
41.9726305274507
 10
18.38986203356285
 20
43.61979184908029
 10
14.13627631352983
 20
43.61979184908029
 10
13.46718727804204
 20
37.38083558975206
 10
17.72077299807506
 20
37.38083558975207
 10
17.87787225036464
 20
38.84571591422678
 10
15.50524672991671
 20
38.84571591422678
 10
15.58395939694927
 20
39.5796763598845
 10
17.56969663746741
 20
39.57967635988449
 10
17.71732334684157
 20
41.15966911198297
 10
15.75340373709809
 20
41.15966911198297
 97
        1
330
2C67
 75
     0
 76
     1
 47
0.0265225354961204
 98
        1
 10
15.74642260871314
 20
42.54140343148856
1001
ACAD
1010
0.0
1020
0.0
1030
0.0
1001
AcDbBlockRepETag
1070
     1
1071
      895
1005
2C98
  0
SPLINE
  5
2C99
102
{ACAD_REACTORS
330
2C9B
330
2C9C
102
}
330
2C5D
100
AcDbEntity
  8
APL Border
 62
     8
100
AcDbSpline
210
0.0
220
0.0
230
1.0
 70
     8
 71
     3
 72
    12
 73
     8
 74
     0
 42
0.0000000001
 43
0.0000000001
 40
0.0
 40
0.0
 40
0.0
 40
0.0
 40
0.6153828260925694
 40
0.6153828260925694
 40
1.184895113366773
 40
1.184895113366773
 40
1.406874102447421
 40
1.406874102447421
 40
1.406874102447421
 40
1.406874102447421
 10
13.141643811855
 20
41.76981947766621
 30
0.0
 10
12.65093549588437
 20
41.90084145687704
 30
0.0
 10
12.40139116615246
 20
41.94113120867605
 30
0.0
 10
12.08548087756223
 20
41.99544455363318
 30
0.0
 10
11.92864742837253
 20
42.01465504085827
 30
0.0
 10
11.75444086026641
 20
42.02973960983341
 30
0.0
 10
11.75444086026641
 20
42.02973960983341
 30
0.0
 10
11.64369617822672
 20
42.03297741382947
 30
0.0
1001
AcDbBlockRepETag
1070
     1
1071
      898
1005
2C99
  0
LWPOLYLINE
  5
2C9A
102
{ACAD_REACTORS
330
2C9B
102
}
330
2C5D
100
AcDbEntity
  8
APL Border
  6
Continuous
 62
     8
100
AcDbPolyline
 90
        3
 70
     1
 43
0.0
 10
-11.22376129049633
 20
41.69367581194667
 10
-10.87774200114645
 20
40.14955389030274
 10
-11.91769445450297
 20
40.14955389030274
1001
AcDbBlockRepETag
1070
     1
1071
      902
1005
2C9A
  0
HATCH
  5
2C9B
330
2C5D
100
AcDbEntity
  8
APL Border
 62
     8
100
AcDbHatch
 10
0.0
 20
0.0
 30
0.0
210
0.0
220
0.0
230
1.0
  2
SOLID
 70
     1
 71
     1
 91
        2
 92
        7
 72
     0
 73
     1
 93
        8
 10
-9.847253547555595
 20
43.61979184908029
 10
-12.02298966350147
 20
43.61979184908029
 10
-14.82679588919472
 20
37.38083558975206
 10
-12.95240022532295
 20
37.38083558975206
 10
-12.352528740424
 20
38.71565392391761
 10
-10.64639685172309
 20
38.71565392391761
 10
-10.34727999772013
 20
37.38083558975206
 10
-8.449177928734428
 20
37.38083558975207
 97
        1
330
2C6C
 92
       22
 72
     0
 73
     1
 93
        3
 10
-11.22376129049633
 20
41.69367581194668
 10
-10.87774200114645
 20
40.14955389030274
 10
-11.91769445450297
 20
40.14955389030274
 97
        1
330
2C9A
 75
     0
 76
     1
 47
0.0464409783890934
 98
        3
 10
-10.7866676671747
 20
42.18285929720354
 10
-10.7866676671747
 20
42.18285929720354
 10
4.318789658947025
 20
41.34692151769582
1001
ACAD
1010
0.0
1020
0.0
1030
0.0
1001
AcDbBlockRepETag
1070
     1
1071
      903
1005
2C9B
  0
HATCH
  5
2C9C
330
2C5D
100
AcDbEntity
  8
APL Border
 62
     8
100
AcDbHatch
 10
0.0
 20
0.0
 30
0.0
210
0.0
220
0.0
230
1.0
  2
SOLID
 70
     1
 71
     1
 91
        1
 92
        5
 93
        9
 72
     4
 94
        3
 73
     0
 74
     0
 95
       25
 96
       21
 40
0.0289432764998855
 40
0.0289432764998855
 40
0.0289432764998855
 40
0.0289432764998855
 40
0.7134165119202287
 40
1.411731005087882
 40
2.041147618059464
 40
3.036171077105474
 40
3.957911241576911
 40
4.83592253147705
 40
5.676684481733094
 40
6.271141751551381
 40
6.974058201941041
 40
7.825808739104269
 40
8.5265481701528
 40
9.125733480364379
 40
9.891766509798275
 40
10.6767880070383
 40
11.66821110410527
 40
12.42950909475574
 40
13.09855121203093
 40
13.70132750762923
 40
13.70132750762923
 40
13.70132750762923
 40
13.70132750762923
 10
13.141643811855
 20
43.40554077871886
 10
12.91988216430481
 20
43.459256627421
 10
12.47168844867874
 20
43.5669624691983
 10
11.80600758681791
 20
43.66484839798013
 10
11.02988777388427
 20
43.6649333207477
 10
10.1361516270939
 20
43.55263717791944
 10
9.306733533720876
 20
43.19741938393827
 10
8.599762003673276
 20
42.45478219212527
 10
8.236440109363229
 20
41.77191325718488
 10
8.073464067873601
 20
41.07996170309042
 10
8.007035995439764
 20
40.3638923215899
 10
7.98103501985804
 20
39.60493317412716
 10
8.107710769833204
 20
38.92055182387923
 10
8.442098079777224
 20
38.21445924826959
 10
9.036296716232907
 20
37.66873436641545
 10
9.909689132144507
 20
37.42421376773082
 10
10.75775873959412
 20
37.35554609345542
 10
11.56487972715851
 20
37.38454149767491
 10
12.23983007222788
 20
37.44815687239099
 10
12.66077873273661
 20
37.49837935861893
 10
12.86026661033734
 20
37.52234731786496
 72
     1
 10
12.86026661033734
 20
37.52234731786496
 11
13.23839963312048
 21
41.04826877857415
 72
     1
 10
13.23839963312048
 20
41.04826877857415
 11
11.12639005748273
 21
41.04826877857415
 72
     1
 10
11.12639005748273
 20
41.04826877857415
 11
10.96889270630695
 21
39.57967635988449
 72
     1
 10
10.96889270630695
 20
39.57967635988449
 11
11.39962533929804
 21
39.57967635988449
 72
     1
 10
11.39962533929804
 20
39.57967635988449
 11
11.33360452536307
 21
38.96406177273883
 72
     4
 94
        3
 73
     0
 74
     0
 95
       19
 96
       15
 40
1.529304964685562
 40
1.529304964685562
 40
1.529304964685562
 40
1.529304964685562
 40
1.763981165818448
 40
2.06379851215709
 40
2.386700017314354
 40
2.753069149612017
 40
3.181918037271135
 40
3.768421453867451
 40
4.325591611844758
 40
5.021152851646889
 40
5.521935404920329
 40
5.929637176310238
 40
6.454411479904243
 40
6.957123473051371
 40
6.957123473755098
 40
6.957123473755098
 40
6.957123473755098
 10
11.33360452536307
 20
38.96406177273881
 10
11.24302802126629
 20
38.95177692242413
 10
10.99026249243499
 20
38.92783484269152
 10
10.70216182646531
 20
38.92661434152812
 10
10.3797311442331
 20
38.98358798973799
 10
10.00680770225198
 20
39.09661486818469
 10
9.716968816830743
 20
39.48770259248511
 10
9.641062203095145
 20
40.05806431643046
 10
9.717431528044755
 20
40.66388266631498
 10
9.854221329784113
 20
41.27113304911427
 10
10.23036575101369
 20
41.67654609785123
 10
10.65553906793815
 20
41.91613810684326
 10
11.13485165915975
 20
42.01473204050012
 10
11.47589856643677
 20
42.04574754506741
 10
11.64369617822672
 20
42.03297741382947
 72
     4
 94
        3
 73
     0
 74
     0
 95
       12
 96
        8
 40
0.0
 40
0.0
 40
0.0
 40
0.0
 40
0.2219789890806476
 40
0.2219789890806476
 40
0.7914912763548521
 40
0.7914912763548521
 40
1.406874102447421
 40
1.406874102447421
 40
1.406874102447421
 40
1.406874102447421
 10
11.64369617822672
 20
42.03297741382947
 10
11.75444086026641
 20
42.02973960983341
 10
11.75444086026641
 20
42.02973960983341
 10
11.92864742837253
 20
42.01465504085827
 10
12.08548087756223
 20
41.99544455363318
 10
12.40139116615246
 20
41.94113120867605
 10
12.65093549588437
 20
41.90084145687704
 10
13.141643811855
 20
41.76981947766621
 72
     1
 10
13.14164381185501
 20
41.76981947766621
 11
13.141643811855
 21
43.40554077871886
 97
        5
330
2C65
330
2C69
330
2C66
330
2C99
330
2C68
 75
     0
 76
     1
 47
0.0464409783890934
 98
        3
 10
-10.7866676671747
 20
42.18285929720354
 10
4.318789658947025
 20
41.34692151769582
 10
10.26801654887663
 20
42.50794595375691
1001
ACAD
1010
0.0
1020
0.0
1030
0.0
1001
AcDbBlockRepETag
1070
     1
1071
      904
1005
2C9C
  0
HATCH
  5
2C9D
330
2C5D
100
AcDbEntity
  8
APL Border
 62
     8
100
AcDbHatch
 10
0.0
 20
0.0
 30
0.0
210
0.0
220
0.0
230
1.0
  2
SOLID
 70
     1
 71
     1
 91
        2
 92
        7
 72
     0
 73
     1
 93
        8
 10
6.582554574553399
 20
43.61979184908029
 10
4.406818458607519
 20
43.6197918490803
 10
1.603012232914266
 20
37.38083558975206
 10
3.477407896786048
 20
37.38083558975206
 10
4.077279381684999
 20
38.71565392391761
 10
5.783411270385895
 20
38.71565392391761
 10
6.082528124388858
 20
37.38083558975206
 10
7.980630193374566
 20
37.38083558975207
 97
        1
330
2C7D
 92
       22
 72
     0
 73
     1
 93
        3
 10
5.206046831612668
 20
41.69367581194667
 10
5.552066120962536
 20
40.14955389030274
 10
4.512113667606024
 20
40.14955389030274
 97
        1
330
2C7E
 75
     0
 76
     1
 47
0.0464409783890934
 98
        3
 10
-10.7866676671747
 20
42.18285929720354
 10
4.318789658947025
 20
41.34692151769582
 10
4.318789658947025
 20
41.34692151769582
1001
ACAD
1010
0.0
1020
0.0
1030
0.0
1001
AcDbBlockRepETag
1070
     1
1071
      905
1005
2C9D
  0
HATCH
  5
2C9E
330
2C5D
100
AcDbEntity
  8
APL Border
 62
     8
100
AcDbHatch
 10
0.0
 20
0.0
 30
0.0
210
0.0
220
0.0
230
1.0
  2
SOLID
 70
     1
 71
     1
 91
       11
 92
        7
 72
     0
 73
     1
 93
        4
 10
-16.33747952551644
 20
35.29789574745092
 10
-12.98884796421712
 20
29.49789574745095
 10
12.98916617047902
 20
29.49789574745094
 10
16.33779773177886
 20
35.29789574745093
 97
        1
330
2C6E
 92
       22
 72
     0
 73
     1
 93
        8
 10
-10.50084997043805
 20
34.02289574745092
 10
-9.555761072109191
 20
34.02289574745092
 10
-8.834065309397374
 20
31.02289574745093
 10
-9.641122936515984
 20
31.02289574745093
 10
-9.86222995755253
 20
31.94201027933759
 10
-10.74455961985978
 20
31.94201027933758
 10
-11.20867717380426
 20
31.02289574745093
 10
-12.01573480092304
 20
31.02289574745093
 97
        1
330
2C7A
 92
        6
 72
     0
 73
     1
 93
        3
 10
-10.14693849009504
 20
33.12550842600547
 10
-10.00044093617224
 20
32.51653621849666
 10
-10.45444607654239
 20
32.51653621849665
 97
        1
330
2C79
 92
       22
 72
     0
 73
     1
 93
        6
 10
-8.326765119961606
 20
34.02289574745092
 10
-7.549934049473819
 20
34.02289574745092
 10
-7.777198851462713
 20
31.73039516316516
 10
-6.700109532938454
 20
31.73039516316516
 10
-6.770246795158442
 20
31.02289574745093
 10
-8.624167184170486
 20
31.02289574745092
 97
        1
330
2C78
 92
       20
 93
       13
 72
     1
 10
-6.13042511277439
 20
34.02488019433461
 11
-5.353790768486449
 21
34.02289574745093
 72
     1
 10
-5.353790768486449
 20
34.02289574745093
 11
-5.5356280948821
 21
32.18709291744541
 72
     4
 94
        3
 73
     0
 74
     0
 95
       24
 96
       20
 40
0.0
 40
0.0
 40
0.0
 40
0.0
 40
0.1612668085855933
 40
0.2532303870616441
 40
0.3214574742553387
 40
0.4101806452459026
 40
0.5031588697521256
 40
0.5664511009171887
 40
0.624871878778038
 40
0.6731644290699905
 40
0.7797386132933425
 40
0.9206747739903356
 40
1.025058962643435
 40
1.116412352300609
 40
1.212929457806147
 40
1.276240530363035
 40
1.339961572016457
 40
1.386280507025952
 40
1.435584820291647
 40
1.435584820291647
 40
1.435584820291647
 40
1.435584820291647
 10
-5.535628094882099
 20
32.1870929174454
 10
-5.53213414748617
 20
32.13312332644234
 10
-5.526647751003197
 20
32.04837718097616
 10
-5.488860432547518
 20
31.94683424540268
 10
-5.447171648840961
 20
31.8753242559261
 10
-5.395818187958767
 20
31.80737001333622
 10
-5.320761662408248
 20
31.77062767698265
 10
-5.254477128417399
 20
31.74466351916423
 10
-5.200112096792143
 20
31.72723210184819
 10
-5.128888988289486
 20
31.72198763189771
 10
-5.030042811850907
 20
31.72786870372271
 10
-4.915707066470194
 20
31.75812586881066
 10
-4.815771266393483
 20
31.81405298527762
 10
-4.754740567305573
 20
31.89193427605802
 10
-4.71467399544198
 20
31.96546823314959
 10
-4.683526695854578
 20
32.03313813212702
 10
-4.662006183068958
 20
32.08703079743258
 10
-4.651792807669443
 20
32.13930455656534
 10
-4.647206914869654
 20
32.17083533130903
 10
-4.644842382192905
 20
32.1870929174454
 72
     1
 10
-4.644842382192908
 20
32.18709291744538
 11
-4.462655138951674
 21
34.0248801943346
 72
     1
 10
-4.462655138951674
 20
34.0248801943346
 11
-3.685824068463886
 21
34.0248801943346
 72
     1
 10
-3.685824068463886
 20
34.0248801943346
 11
-3.889225876952792
 21
31.97309408084612
 72
     2
 10
-5.35367831607159
 20
32.29400281725688
 40
1.499200908332752
 50
12.35998596222624
 51
34.57361697223234
 73
     0
 72
     2
 10
-4.942942423735221
 20
32.00494866311196
 40
0.9969860617863467
 50
34.29038331790704
 51
79.42991665428312
 73
     0
 72
     1
 10
-4.760057203160528
 20
31.0248801943346
 11
-5.510404689928634
 21
31.02488019433462
 72
     2
 10
-5.403812384664131
 20
31.8164328281441
 40
0.7986973717449786
 50
97.66944495435136
 51
120.898786067779
 73
     0
 72
     2
 10
-5.173141343771899
 20
32.14234761068797
 40
1.197202176515717
 50
122.3618931068037
 51
141.2515245137382
 73
     0
 72
     2
 10
-5.389471681131198
 20
32.00817328375058
 40
0.9450065449727091
 50
139.3862736078239
 51
177.8726579657922
 73
     0
 72
     1
 10
-6.333826921263238
 20
31.9730940808461
 11
-6.13042511277439
 21
34.02488019433461
 97
        2
330
2C80
330
2C81
 92
       22
 72
     0
 73
     1
 93
       13
 10
-3.14734900486158
 20
34.02825593571061
 10
-2.047349004861559
 20
34.02825593571061
 10
-1.827245318565901
 20
32.52441131541936
 10
-1.295012624591634
 20
34.02807364104484
 10
-0.1975458970834157
 20
34.0280551402308
 10
-0.4949479612922965
 20
31.0280551402308
 10
-1.115886909891883
 20
31.02805514023081
 10
-0.9222174129992312
 20
32.98166797820307
 10
-1.611942464131546
 20
31.02805514023081
 10
-2.344230471214956
 20
31.0280551402308
 10
-2.630162529241629
 20
32.98166797820306
 10
-2.823832026134283
 20
31.02805514023081
 10
-3.444770974733871
 20
31.0280551402308
 97
        1
330
2C83
 92
       22
 72
     0
 73
     1
 93
        4
 10
0.342591724648486
 20
34.02289574745092
 10
1.119422795136273
 20
34.02289574745092
 10
0.822020730927392
 20
31.02289574745093
 10
0.045189660439604
 20
31.02289574745093
 97
        1
330
2C72
 92
       22
 72
     0
 73
     1
 93
       10
 10
1.724974710806094
 20
34.02289574745093
 10
2.57655809816546
 20
34.02269495197112
 10
3.395920304875375
 20
32.17298478610545
 10
3.580266230192904
 20
34.02269495197112
 10
4.200228460647139
 20
34.02269495197112
 10
3.902826396438257
 20
31.02269495197112
 10
3.051434648859951
 20
31.02269495197112
 10
2.231899581960561
 20
32.87279534971117
 10
2.048491689533392
 20
31.02269495197111
 10
1.427552740933804
 20
31.02269495197111
 97
        1
330
2C84
 92
       22
 72
     0
 73
     1
 93
        4
 10
4.838699321647566
 20
34.02289574745092
 10
5.615530392135354
 20
34.02289574745092
 10
5.318128327926473
 20
31.02289574745093
 10
4.541297257438685
 20
31.02289574745093
 97
        1
330
2C7F
 92
       20
 93
       13
 72
     1
 10
6.192756492920892
 20
34.02289574745092
 11
6.969390837208833
 21
34.02091130056725
 72
     1
 10
6.969390837208833
 20
34.02091130056725
 11
6.787553510813181
 21
32.18510847056173
 72
     4
 94
        3
 73
     0
 74
     0
 95
       24
 96
       20
 40
0.0
 40
0.0
 40
0.0
 40
0.0
 40
0.1612668085856004
 40
0.2532303870616512
 40
0.3214574742553458
 40
0.4101806452458731
 40
0.5031588697521455
 40
0.5664511009172086
 40
0.6248718787780579
 40
0.6731644290699537
 40
0.7797386132933625
 40
0.9206747739903555
 40
1.025058962643406
 40
1.116412352300617
 40
1.212929457806155
 40
1.276240530363043
 40
1.339961572016455
 40
1.386280507025956
 40
1.435584820291643
 40
1.435584820291643
 40
1.435584820291643
 40
1.435584820291643
 10
6.787553510813182
 20
32.18510847056172
 10
6.791047458209138
 20
32.13113887955868
 10
6.796533854692151
 20
32.04639273409249
 10
6.834321173147815
 20
31.944849798519
 10
6.876009956854381
 20
31.87333980904244
 10
6.927363417736517
 20
31.80538556645249
 10
7.002419943287081
 20
31.76864323009899
 10
7.068704477277941
 20
31.74267907228055
 10
7.123069508903178
 20
31.72524765496452
 10
7.194292617405833
 20
31.72000318501404
 10
7.293138793844411
 20
31.72588425683904
 10
7.407474539225143
 20
31.75614142192696
 10
7.507410339301799
 20
31.81206853839398
 10
7.568441038389779
 20
31.88994982917431
 10
7.608507610253345
 20
31.96348378626593
 10
7.639654909840775
 20
32.03115368524333
 10
7.661175422626328
 20
32.08504635054892
 10
7.671388798025919
 20
32.13732010968165
 10
7.675974690825655
 20
32.16885088442535
 10
7.678339223502376
 20
32.18510847056172
 72
     1
 10
7.678339223502373
 20
32.1851084705617
 11
7.860526466743608
 21
34.02289574745092
 72
     1
 10
7.860526466743608
 20
34.02289574745092
 11
8.637357537231395
 21
34.02289574745092
 72
     1
 10
8.637357537231395
 20
34.02289574745092
 11
8.433955728742489
 21
31.97110963396244
 72
     2
 10
6.969503289623695
 20
32.29201837037321
 40
1.499200908332751
 50
12.35998596222655
 51
34.57361697220028
 73
     0
 72
     2
 10
7.38023918196006
 20
32.00296421622829
 40
0.9969860617863467
 50
34.2903833178587
 51
79.42991665428322
 73
     0
 72
     1
 10
7.563124402534754
 20
31.02289574745093
 11
6.812776915766647
 21
31.02289574745094
 72
     2
 10
6.919369221031151
 20
31.81444838126043
 40
0.7986973717449786
 50
97.66944495435136
 51
120.898786067779
 73
     0
 72
     2
 10
7.150040261923383
 20
32.14036316380429
 40
1.197202176515717
 50
122.3618931068037
 51
141.2515245137382
 73
     0
 72
     2
 10
6.933709924564084
 20
32.0061888368669
 40
0.9450065449727091
 50
139.3862736078239
 51
177.8726579657922
 73
     0
 72
     1
 10
5.989354684432043
 20
31.97110963396243
 11
6.192756492920892
 21
34.02289574745092
 97
        2
330
2C82
330
2C86
 92
       22
 72
     0
 73
     1
 93
       13
 10
9.159497991066102
 20
34.02289574745092
 10
10.25949799106612
 20
34.02289574745092
 10
10.47960167736178
 20
32.51905112715967
 10
11.01183437133604
 20
34.02271345278515
 10
12.10930109884427
 20
34.02269495197111
 10
11.81189903463539
 20
31.02269495197112
 10
11.1909600860358
 20
31.02269495197111
 10
11.38462958292845
 20
32.97630778994339
 10
10.69490453179614
 20
31.02269495197111
 10
9.962616524712728
 20
31.02269495197112
 10
9.676684466686056
 20
32.97630778994339
 10
9.4830149697934
 20
31.02269495197111
 10
8.862076021193814
 20
31.02269495197111
 97
        1
330
2C85
 75
     0
 76
     1
 47
0.0356978143457059
 98
       11
 10
-12.74387987022192
 20
34.13164800304253
 10
-12.74387987022192
 20
34.13164800304253
 10
-12.74387987022192
 20
34.13164800304253
 10
-12.74387987022192
 20
34.13164800304253
 10
-12.74387987022192
 20
34.13164800304253
 10
-12.74387987022192
 20
34.13164800304253
 10
-12.74387987022192
 20
34.13164800304253
 10
-12.74387987022192
 20
34.13164800304253
 10
-12.74387987022192
 20
34.13164800304253
 10
-12.74387987022192
 20
34.13164800304253
 10
-12.74387987022192
 20
34.13164800304253
1001
ACAD
1010
0.0
1020
0.0
1030
0.0
1001
AcDbBlockRepETag
1070
     1
1071
      906
1005
2C9E
  0
ENDBLK
  5
2C9F
330
2C5D
100
AcDbEntity
  8
0
 62
     9
100
AcDbBlockEnd
  0
ENDSEC
  0
SECTION
  2
ENTITIES
  0
MTEXT
  5
1B6
330
1F
100
AcDbEntity
  8
APL Joinery
100
AcDbMText
 10
228.3034221982953
 20
376.2185796563134
 30
0.0
 40
2.5
 41
0.0
 71
     1
 72
     1
  1

  7
Arial-Regular
 73
     1
 44
1.0
1001
ACAD
1000
MTEXTBEGIN
1070
    73
1070
     1
1070
    44
1040
1.0
1070
    74
1070
     0
1000
MTEXTEND
  0
TEXT
  5
6D3
330
1F
100
AcDbEntity
  8
APL Notes
100
AcDbText
 10
193.5205963540795
 20
137.1974761167121
 30
0.0
 40
5.0
  1

  7
Arial-Regular
 11
193.5205963540795
 21
139.6974761167121
 31
0.0
100
AcDbText
 73
     2
  0
LWPOLYLINE
  5
A37
330
1F
100
AcDbEntity
  8
0
 62
   253
100
AcDbPolyline
 90
        4
 70
     1
 43
0.0
 10
0.0
 20
0.0
 10
0.0
 20
483.9999999999998
 10
356.0
 20
483.9999999999998
 10
356.0
 20
0.0
  0
INSERT
  5
1DD1
330
1F
100
AcDbEntity
  8
APL Joinery
100
AcDbBlockReference
  2
01953
 10
94.41653373335844
 20
433.3643597529277
 30
0.0
  0
INSERT
  5
1DD2
330
1F
100
AcDbEntity
  8
APL Joinery
100
AcDbBlockReference
  2
01955
 10
94.42213714578072
 20
433.2166245438394
 30
0.0
  0
INSERT
  5
1DD3
330
1F
100
AcDbEntity
  8
APL Joinery
100
AcDbBlockReference
  2
01953
 10
256.0956803320244
 20
433.3643597529277
 30
0.0
  0
ARC
  5
1DDD
330
1F
100
AcDbEntity
  8
APL Joinery
  6
DASHED
 62
     7
100
AcDbCircle
 10
101.4894161457809
 20
409.2615740744705
 30
0.0
 40
3.067279000000041
100
AcDbArc
 50
90.0
 51
180.0
  0
LINE
  5
1DDE
330
1F
100
AcDbEntity
  8
APL Joinery
  6
DASHED
 62
     7
100
AcDbLine
 10
98.42213714578093
 20
409.2615740744705
 30
0.0
 11
98.42213714578093
 21
400.3288530744707
 31
0.0
  0
ARC
  5
1DDF
330
1F
100
AcDbEntity
  8
APL Joinery
  6
DASHED
 62
     7
100
AcDbCircle
 10
101.422137145781
 20
400.3288530744707
 30
0.0
 40
3.000000000000056
100
AcDbArc
 50
180.0
 51
270.0
  0
LINE
  5
1DE0
330
1F
100
AcDbEntity
  8
APL Joinery
  6
DASHED
 62
     7
100
AcDbLine
 10
101.422137145781
 20
397.3288530744707
 30
0.0
 11
106.999942290869
 21
397.3288530744707
 31
0.0
  0
ARC
  5
1DE1
330
1F
100
AcDbEntity
  8
APL Joinery
  6
DASHED
 62
     7
100
AcDbCircle
 10
106.999942290869
 20
377.3288530744707
 30
0.0
 40
20.0
100
AcDbArc
 50
58.21166938294838
 51
90.0
  0
ARC
  5
1DE2
330
1F
100
AcDbEntity
  8
APL Joinery
  6
DASHED
 62
     7
100
AcDbCircle
 10
81.84433200069287
 20
377.3288530744706
 30
0.0
 40
20.00000000000003
100
AcDbArc
 50
90.0
 51
121.7883306170516
  0
LINE
  5
1DE3
330
1F
100
AcDbEntity
  8
APL Joinery
  6
DASHED
 62
     7
100
AcDbLine
 10
81.84433200069287
 20
397.3288530744707
 30
0.0
 11
87.42213714578088
 21
397.3288530744707
 31
0.0
  0
ARC
  5
1DE4
330
1F
100
AcDbEntity
  8
APL Joinery
  6
DASHED
 62
     7
100
AcDbCircle
 10
87.42213714578088
 20
400.3288530744707
 30
0.0
 40
3.000000000000056
100
AcDbArc
 50
270.0
 51
0.0
  0
LINE
  5
1DE5
330
1F
100
AcDbEntity
  8
APL Joinery
  6
DASHED
 62
     7
100
AcDbLine
 10
90.42213714578094
 20
400.3288530744706
 30
0.0
 11
90.42213714578087
 21
409.2615740744705
 31
0.0
  0
ARC
  5
1DE6
330
1F
100
AcDbEntity
  8
APL Joinery
  6
DASHED
 62
     7
100
AcDbCircle
 10
87.35485814578089
 20
409.2615740744705
 30
0.0
 40
3.067279000000013
100
AcDbArc
 50
0.0
 51
90.0
  0
LINE
  5
1DE7
330
1F
100
AcDbEntity
  8
APL Joinery
  6
DASHED
 62
     7
100
AcDbLine
 10
87.35485814578089
 20
412.3288530744707
 30
0.0
 11
86.22213714578084
 21
412.3288530744703
 31
0.0
  0
LINE
  5
1DE8
330
1F
100
AcDbEntity
  8
APL Joinery
  6
DASHED
 62
     7
100
AcDbLine
 10
71.30867824784019
 20
394.3288530744707
 30
0.0
 11
54.42213714578082
 21
394.3288530744707
 31
0.0
  0
LINE
  5
1DE9
330
1F
100
AcDbEntity
  8
APL Joinery
  6
DASHED
 62
     7
100
AcDbLine
 10
117.5355960437219
 20
394.3288530744706
 30
0.0
 11
135.422137145781
 21
394.3288530744706
 31
0.0
  0
LINE
  5
1DEA
330
1F
100
AcDbEntity
  8
APL Joinery
  6
DASHED
 62
     7
100
AcDbLine
 10
137.4221371457811
 20
388.3288530744707
 30
0.0
 11
52.42213714578082
 21
388.3288530744707
 31
0.0
  0
INSERT
  5
1DEC
330
1F
100
AcDbEntity
  8
APL Joinery
100
AcDbBlockReference
  2
01956
 10
86.52213714578079
 20
412.3288530744704
 30
0.0
  0
MTEXT
  5
1DEF
330
1F
100
AcDbEntity
  8
APL Notes
100
AcDbMText
 10
274.9395602905786
 20
413.9640703987067
 30
0.0
 40
5.0
 41
86.4512
 71
     1
 72
     5
  1
{\fArial|b1|i0|c0|p34;01956\P}Glazing Infill (unpunched)
  7
Arial-Regular
 73
     1
 44
1.0
1001
ACAD
1000
MTEXTBEGIN
1070
    73
1070
     1
1070
    44
1040
1.0
1070
    74
1070
     0
1000
MTEXTEND
  0
INSERT
  5
1DF9
330
1F
100
AcDbEntity
  8
APL Joinery
100
AcDbBlockReference
  2
01956
 10
248.2012837444468
 20
412.3288530744704
 30
0.0
  0
LINE
  5
1E04
330
1F
100
AcDbEntity
  8
APL Joinery
  6
DASHED
 62
     7
100
AcDbLine
 10
137.4221371457811
 20
360.8306233737315
 30
0.0
 11
137.422137145781
 21
392.3288530744706
 31
0.0
  0
LINE
  5
1E07
330
1F
100
AcDbEntity
  8
APL Joinery
  6
DASHED
 62
     7
100
AcDbLine
 10
52.42213714578082
 20
360.8306233737315
 30
0.0
 11
52.42213714578082
 21
392.3288530744707
 31
0.0
  0
ARC
  5
1E20
330
1F
100
AcDbEntity
  8
APL Joinery
  6
DASHED
 62
     7
100
AcDbCircle
 10
135.422137145781
 20
392.3288530744706
 30
0.0
 40
2.0
100
AcDbArc
 50
0.0
 51
90.0
  0
ARC
  5
1E21
330
1F
100
AcDbEntity
  8
APL Joinery
  6
DASHED
 62
     7
100
AcDbCircle
 10
54.42213714578082
 20
392.3288530744707
 30
0.0
 40
2.0
100
AcDbArc
 50
90.0
 51
180.0
  0
LWPOLYLINE
  5
1E2E
330
1F
100
AcDbEntity
  8
APL Joinery
  6
DASHED
 62
   253
100
AcDbPolyline
 90
        2
 70
     0
 43
0.0
 10
299.1012837444472
 20
388.3288530744707
 10
214.1012837444468
 20
388.3288530744707
  0
ARC
  5
1E2F
330
1F
100
AcDbEntity
  8
APL Joinery
  6
DASHED
 62
     7
100
AcDbCircle
 10
263.168562744447
 20
409.2615740744705
 30
0.0
 40
3.067279000000041
100
AcDbArc
 50
90.0
 51
180.0
  0
LINE
  5
1E30
330
1F
100
AcDbEntity
  8
APL Joinery
  6
DASHED
 62
     7
100
AcDbLine
 10
260.1012837444469
 20
409.2615740744705
 30
0.0
 11
260.1012837444469
 21
400.3288530744707
 31
0.0
  0
ARC
  5
1E31
330
1F
100
AcDbEntity
  8
APL Joinery
  6
DASHED
 62
     7
100
AcDbCircle
 10
263.1012837444469
 20
400.3288530744707
 30
0.0
 40
3.000000000000056
100
AcDbArc
 50
180.0
 51
270.0
  0
ARC
  5
1E32
330
1F
100
AcDbEntity
  8
APL Joinery
  6
DASHED
 62
     7
100
AcDbCircle
 10
249.1012837444469
 20
400.3288530744707
 30
0.0
 40
3.000000000000056
100
AcDbArc
 50
270.0
 51
0.0
  0
LINE
  5
1E33
330
1F
100
AcDbEntity
  8
APL Joinery
  6
DASHED
 62
     7
100
AcDbLine
 10
252.1012837444469
 20
400.3288530744706
 30
0.0
 11
252.1012837444469
 21
409.2615740744705
 31
0.0
  0
ARC
  5
1E34
330
1F
100
AcDbEntity
  8
APL Joinery
  6
DASHED
 62
     7
100
AcDbCircle
 10
249.0340047444468
 20
409.2615740744705
 30
0.0
 40
3.067279000000013
100
AcDbArc
 50
0.0
 51
90.0
  0
LINE
  5
1E35
330
1F
100
AcDbEntity
  8
APL Joinery
  6
DASHED
 62
     7
100
AcDbLine
 10
249.0340047444468
 20
412.3288530744707
 30
0.0
 11
247.9012837444468
 21
412.3288530744703
 31
0.0
  0
LINE
  5
1E36
330
1F
100
AcDbEntity
  8
APL Joinery
  6
DASHED
 62
     7
100
AcDbLine
 10
299.1012837444472
 20
388.3288530744707
 30
0.0
 11
214.1012837444468
 21
388.3288530744707
 31
0.0
  0
ARC
  5
1E37
330
1F
100
AcDbEntity
  8
APL Joinery
  6
DASHED
 62
     7
100
AcDbCircle
 10
263.1012837444469
 20
400.3288530744707
 30
0.0
 40
3.000000000000056
100
AcDbArc
 50
180.0
 51
270.0
  0
LINE
  5
1E38
330
1F
100
AcDbEntity
  8
APL Joinery
  6
DASHED
 62
     7
100
AcDbLine
 10
263.1012837444469
 20
397.3288530744707
 30
0.0
 11
268.679088889535
 21
397.3288530744707
 31
0.0
  0
ARC
  5
1E39
330
1F
100
AcDbEntity
  8
APL Joinery
  6
DASHED
 62
     7
100
AcDbCircle
 10
268.6790888895351
 20
377.3288530744707
 30
0.0
 40
20.0
100
AcDbArc
 50
58.21166938294838
 51
90.0
  0
ARC
  5
1E3A
330
1F
100
AcDbEntity
  8
APL Joinery
  6
DASHED
 62
     7
100
AcDbCircle
 10
243.5234785993588
 20
377.3288530744706
 30
0.0
 40
20.00000000000003
100
AcDbArc
 50
90.0
 51
121.7883306170516
  0
LINE
  5
1E3B
330
1F
100
AcDbEntity
  8
APL Joinery
  6
DASHED
 62
     7
100
AcDbLine
 10
243.5234785993588
 20
397.3288530744707
 30
0.0
 11
249.1012837444469
 21
397.3288530744707
 31
0.0
  0
ARC
  5
1E3C
330
1F
100
AcDbEntity
  8
APL Joinery
  6
DASHED
 62
     7
100
AcDbCircle
 10
249.1012837444469
 20
400.3288530744707
 30
0.0
 40
3.000000000000056
100
AcDbArc
 50
270.0
 51
0.0
  0
LINE
  5
1E3D
330
1F
100
AcDbEntity
  8
APL Joinery
  6
DASHED
 62
     7
100
AcDbLine
 10
232.9878248465062
 20
394.3288530744707
 30
0.0
 11
216.1012837444468
 21
394.3288530744707
 31
0.0
  0
LINE
  5
1E3E
330
1F
100
AcDbEntity
  8
APL Joinery
  6
DASHED
 62
     7
100
AcDbLine
 10
279.2147426423879
 20
394.3288530744706
 30
0.0
 11
297.1012837444471
 21
394.3288530744706
 31
0.0
  0
LINE
  5
1E3F
330
1F
100
AcDbEntity
  8
APL Joinery
  6
DASHED
 62
     7
100
AcDbLine
 10
299.1012837444472
 20
360.8306233737315
 30
0.0
 11
299.1012837444472
 21
392.3288530744706
 31
0.0
  0
LINE
  5
1E40
330
1F
100
AcDbEntity
  8
APL Joinery
  6
DASHED
 62
     7
100
AcDbLine
 10
214.1012837444468
 20
360.8306233737315
 30
0.0
 11
214.1012837444468
 21
392.3288530744707
 31
0.0
  0
ARC
  5
1E41
330
1F
100
AcDbEntity
  8
APL Joinery
  6
DASHED
 62
     7
100
AcDbCircle
 10
297.1012837444471
 20
392.3288530744706
 30
0.0
 40
2.0
100
AcDbArc
 50
0.0
 51
90.0
  0
ARC
  5
1E42
330
1F
100
AcDbEntity
  8
APL Joinery
  6
DASHED
 62
     7
100
AcDbCircle
 10
216.1012837444468
 20
392.3288530744707
 30
0.0
 40
2.0
100
AcDbArc
 50
90.0
 51
180.0
  0
INSERT
  5
1E70
330
1F
100
AcDbEntity
  8
APL Joinery
100
AcDbBlockReference
  2
01951
 10
253.101283744447
 20
185.5831567183432
 30
0.0
 41
-1.0
 50
180.0
  0
INSERT
  5
1E71
330
1F
100
AcDbEntity
  8
APL Joinery
100
AcDbBlockReference
  2
01964
 10
91.42213714578099
 20
172.4294135796157
 30
0.0
 41
-1.0
 50
180.0
  0
MTEXT
  5
1E73
330
1F
100
AcDbEntity
  8
APL Notes
100
AcDbMText
 10
52.24801728096133
 20
125.4262275621195
 30
0.0
 40
5.0
 41
109.0007
 71
     1
 72
     5
  1
{\fArial|b1|i0|c0|p34;01964\P}50mm Bottom Rail (as a mid Rail)
  7
Arial-Regular
 73
     1
 44
1.0
1001
ACAD
1000
MTEXTBEGIN
1070
    73
1070
     1
1070
    44
1040
1.0
1070
    74
1070
     0
1000
MTEXTEND
  0
ARC
  5
1EAB
330
1F
100
AcDbEntity
  8
APL Joinery
  6
DASHED
 62
     7
100
AcDbCircle
 10
243.5234785993588
 20
247.6425174477152
 30
0.0
 40
20.00000000000003
100
AcDbArc
 50
90.0
 51
121.7883306170516
  0
INSERT
  5
1EAD
330
1F
100
AcDbEntity
  8
APL Joinery
100
AcDbBlockReference
  2
01953
 10
256.0956803320244
 20
303.6780241261724
 30
0.0
  0
LWPOLYLINE
  5
1EAF
330
1F
100
AcDbEntity
  8
APL Joinery
  6
DASHED
 62
   253
100
AcDbPolyline
 90
        2
 70
     0
 43
0.0
 10
299.1012837444472
 20
258.6425174477152
 10
214.1012837444468
 20
258.6425174477152
  0
LINE
  5
1EB0
330
1F
100
AcDbEntity
  8
APL Joinery
  6
DASHED
 62
     7
100
AcDbLine
 10
299.1012837444472
 20
258.6425174477152
 30
0.0
 11
214.1012837444468
 21
258.6425174477152
 31
0.0
  0
MTEXT
  5
1EB1
330
1F
100
AcDbEntity
  8
APL Notes
100
AcDbMText
 10
283.3231310969514
 20
323.3301015793911
 30
0.0
 40
5.0
 41
64.75419999999999
 71
     1
 72
     5
  1
{\fArial|b1|i0|c0|p34;01954\P}50mm Top Cap
  7
Arial-Regular
 73
     1
 44
1.0
1001
ACAD
1000
MTEXTBEGIN
1070
    73
1070
     1
1070
    44
1040
1.0
1070
    74
1070
     0
1000
MTEXTEND
  0
ARC
  5
1EB2
330
1F
100
AcDbEntity
  8
APL Joinery
  6
DASHED
 62
     7
100
AcDbCircle
 10
216.1012837444468
 20
262.6425174477152
 30
0.0
 40
2.0
100
AcDbArc
 50
90.0
 51
180.0
  0
ARC
  5
1EB3
330
1F
100
AcDbEntity
  8
APL Joinery
  6
DASHED
 62
     7
100
AcDbCircle
 10
135.422137145781
 20
262.6425174477152
 30
0.0
 40
2.0
100
AcDbArc
 50
0.0
 51
90.0
  0
ARC
  5
1EB4
330
1F
100
AcDbEntity
  8
APL Joinery
  6
DASHED
 62
     7
100
AcDbCircle
 10
54.42213714578082
 20
262.6425174477152
 30
0.0
 40
2.0
100
AcDbArc
 50
90.0
 51
180.0
  0
LINE
  5
1EB9
330
1F
100
AcDbEntity
  8
APL Joinery
  6
DASHED
 62
     7
100
AcDbLine
 10
137.4221371457811
 20
258.6425174477152
 30
0.0
 11
52.42213714578082
 21
258.6425174477152
 31
0.0
  0
LINE
  5
1EBB
330
1F
100
AcDbEntity
  8
APL Joinery
  6
DASHED
 62
     7
100
AcDbLine
 10
52.42213714578082
 20
231.1442877469761
 30
0.0
 11
52.42213714578082
 21
262.6425174477152
 31
0.0
  0
LINE
  5
1EBE
330
1F
100
AcDbEntity
  8
APL Joinery
  6
DASHED
 62
     7
100
AcDbLine
 10
137.4221371457811
 20
231.1442877469761
 30
0.0
 11
137.422137145781
 21
262.6425174477152
 31
0.0
  0
LINE
  5
1EBF
330
1F
100
AcDbEntity
  8
APL Joinery
  6
DASHED
 62
     7
100
AcDbLine
 10
214.1012837444468
 20
231.1442877469761
 30
0.0
 11
214.1012837444468
 21
262.6425174477152
 31
0.0
  0
INSERT
  5
1EC0
330
1F
100
AcDbEntity
  8
APL Joinery
100
AcDbBlockReference
  2
01955
 10
94.42213714578072
 20
303.5302889170841
 30
0.0
  0
MTEXT
  5
1EC2
330
1F
100
AcDbEntity
  8
APL Notes
100
AcDbMText
 10
125.975755812583
 20
342.3704240028597
 30
0.0
 40
5.0
 41
63.8507
 71
     1
 72
     5
  1
{\fArial|b1|i0|c0|p34;01955\P}Elliptical Top Rail
  7
Arial-Regular
 73
     1
 44
1.0
1001
ACAD
1000
MTEXTBEGIN
1070
    73
1070
     1
1070
    44
1040
1.0
1070
    74
1070
     0
1000
MTEXTEND
  0
INSERT
  5
1EC3
330
1F
100
AcDbEntity
  8
APL Joinery
100
AcDbBlockReference
  2
01953
 10
94.41653373335844
 20
303.6780241261724
 30
0.0
  0
ARC
  5
1EC4
330
1F
100
AcDbEntity
  8
APL Joinery
  6
DASHED
 62
     7
100
AcDbCircle
 10
87.35485814578089
 20
279.5752384477152
 30
0.0
 40
3.067279000000013
100
AcDbArc
 50
0.0
 51
90.0
  0
ARC
  5
1EC6
330
1F
100
AcDbEntity
  8
APL Joinery
  6
DASHED
 62
     7
100
AcDbCircle
 10
87.42213714578088
 20
270.6425174477153
 30
0.0
 40
3.000000000000056
100
AcDbArc
 50
270.0
 51
0.0
  0
LINE
  5
1EC7
330
1F
100
AcDbEntity
  8
APL Joinery
  6
DASHED
 62
     7
100
AcDbLine
 10
71.30867824784019
 20
264.6425174477152
 30
0.0
 11
54.42213714578082
 21
264.6425174477152
 31
0.0
  0
ARC
  5
1EC8
330
1F
100
AcDbEntity
  8
APL Joinery
  6
DASHED
 62
     7
100
AcDbCircle
 10
81.84433200069287
 20
247.6425174477152
 30
0.0
 40
20.00000000000003
100
AcDbArc
 50
90.0
 51
121.7883306170516
  0
LINE
  5
1EC9
330
1F
100
AcDbEntity
  8
APL Joinery
  6
DASHED
 62
     7
100
AcDbLine
 10
81.84433200069287
 20
267.6425174477152
 30
0.0
 11
87.42213714578088
 21
267.6425174477152
 31
0.0
  0
LINE
  5
1ECA
330
1F
100
AcDbEntity
  8
APL Joinery
  6
DASHED
 62
     7
100
AcDbLine
 10
87.35485814578089
 20
282.6425174477153
 30
0.0
 11
86.22213714578084
 21
282.6425174477149
 31
0.0
  0
ARC
  5
1ECB
330
1F
100
AcDbEntity
  8
APL Joinery
  6
DASHED
 62
     7
100
AcDbCircle
 10
106.999942290869
 20
247.6425174477153
 30
0.0
 40
20.0
100
AcDbArc
 50
58.21166938294838
 51
90.0
  0
ARC
  5
1ECC
330
1F
100
AcDbEntity
  8
APL Joinery
  6
DASHED
 62
     7
100
AcDbCircle
 10
101.4894161457809
 20
279.5752384477152
 30
0.0
 40
3.067279000000041
100
AcDbArc
 50
90.0
 51
180.0
  0
LINE
  5
1ECD
330
1F
100
AcDbEntity
  8
APL Joinery
  6
DASHED
 62
     7
100
AcDbLine
 10
101.422137145781
 20
267.6425174477152
 30
0.0
 11
106.999942290869
 21
267.6425174477152
 31
0.0
  0
LINE
  5
1ECE
330
1F
100
AcDbEntity
  8
APL Joinery
  6
DASHED
 62
     7
100
AcDbLine
 10
98.42213714578093
 20
279.5752384477152
 30
0.0
 11
98.42213714578093
 21
270.6425174477153
 31
0.0
  0
LINE
  5
1ECF
330
1F
100
AcDbEntity
  8
APL Joinery
  6
DASHED
 62
     7
100
AcDbLine
 10
90.42213714578094
 20
270.6425174477153
 30
0.0
 11
90.42213714578087
 21
279.5752384477152
 31
0.0
  0
ARC
  5
1ED0
330
1F
100
AcDbEntity
  8
APL Joinery
  6
DASHED
 62
     7
100
AcDbCircle
 10
101.422137145781
 20
270.6425174477153
 30
0.0
 40
3.000000000000056
100
AcDbArc
 50
180.0
 51
270.0
  0
LINE
  5
1ED1
330
1F
100
AcDbEntity
  8
APL Joinery
  6
DASHED
 62
     7
100
AcDbLine
 10
117.5355960437219
 20
264.6425174477152
 30
0.0
 11
135.422137145781
 21
264.6425174477152
 31
0.0
  0
MTEXT
  5
1ED2
330
1F
100
AcDbEntity
  8
APL Notes
100
AcDbMText
 10
284.5102485197902
 20
303.1783715693038
 30
0.0
 40
5.0
 41
46.90059999999999
 71
     1
 72
     5
  1
{\fArial|b1|i0|c0|p34;01953\P}50mm Top Rail
  7
Arial-Regular
 73
     1
 44
1.0
1001
ACAD
1000
MTEXTBEGIN
1070
    73
1070
     1
1070
    44
1040
1.0
1070
    74
1070
     0
1000
MTEXTEND
  0
LINE
  5
1ED3
330
1F
100
AcDbEntity
  8
APL Joinery
  6
DASHED
 62
     7
100
AcDbLine
 10
232.9878248465062
 20
264.6425174477152
 30
0.0
 11
216.1012837444468
 21
264.6425174477152
 31
0.0
  0
ARC
  5
1ED4
330
1F
100
AcDbEntity
  8
APL Joinery
  6
DASHED
 62
     7
100
AcDbCircle
 10
297.1012837444471
 20
262.6425174477152
 30
0.0
 40
2.0
100
AcDbArc
 50
0.0
 51
90.0
  0
LINE
  5
1EDB
330
1F
100
AcDbEntity
  8
APL Joinery
  6
DASHED
 62
     7
100
AcDbLine
 10
299.1012837444472
 20
231.1442877469761
 30
0.0
 11
299.1012837444472
 21
262.6425174477152
 31
0.0
  0
LINE
  5
1EDD
330
1F
100
AcDbEntity
  8
APL Joinery
  6
DASHED
 62
     7
100
AcDbLine
 10
279.2147426423879
 20
264.6425174477152
 30
0.0
 11
297.1012837444471
 21
264.6425174477152
 31
0.0
  0
ARC
  5
1EDE
330
1F
100
AcDbEntity
  8
APL Joinery
  6
DASHED
 62
     7
100
AcDbCircle
 10
263.168562744447
 20
279.5752384477152
 30
0.0
 40
3.067279000000041
100
AcDbArc
 50
90.0
 51
180.0
  0
ARC
  5
1EDF
330
1F
100
AcDbEntity
  8
APL Joinery
  6
DASHED
 62
     7
100
AcDbCircle
 10
263.1012837444469
 20
270.6425174477153
 30
0.0
 40
3.000000000000056
100
AcDbArc
 50
180.0
 51
270.0
  0
ARC
  5
1EE0
330
1F
100
AcDbEntity
  8
APL Joinery
  6
DASHED
 62
     7
100
AcDbCircle
 10
263.1012837444469
 20
270.6425174477153
 30
0.0
 40
3.000000000000056
100
AcDbArc
 50
180.0
 51
270.0
  0
ARC
  5
1EE1
330
1F
100
AcDbEntity
  8
APL Joinery
  6
DASHED
 62
     7
100
AcDbCircle
 10
249.0340047444468
 20
279.5752384477152
 30
0.0
 40
3.067279000000013
100
AcDbArc
 50
0.0
 51
90.0
  0
ARC
  5
1EE2
330
1F
100
AcDbEntity
  8
APL Joinery
  6
DASHED
 62
     7
100
AcDbCircle
 10
249.1012837444469
 20
270.6425174477153
 30
0.0
 40
3.000000000000056
100
AcDbArc
 50
270.0
 51
0.0
  0
ARC
  5
1EE3
330
1F
100
AcDbEntity
  8
APL Joinery
  6
DASHED
 62
     7
100
AcDbCircle
 10
249.1012837444469
 20
270.6425174477153
 30
0.0
 40
3.000000000000056
100
AcDbArc
 50
270.0
 51
0.0
  0
LINE
  5
1EE4
330
1F
100
AcDbEntity
  8
APL Joinery
  6
DASHED
 62
     7
100
AcDbLine
 10
243.5234785993588
 20
267.6425174477152
 30
0.0
 11
249.1012837444469
 21
267.6425174477152
 31
0.0
  0
LINE
  5
1EE5
330
1F
100
AcDbEntity
  8
APL Joinery
  6
DASHED
 62
     7
100
AcDbLine
 10
260.1012837444469
 20
279.5752384477152
 30
0.0
 11
260.1012837444469
 21
270.6425174477153
 31
0.0
  0
LINE
  5
1EE6
330
1F
100
AcDbEntity
  8
APL Joinery
  6
DASHED
 62
     7
100
AcDbLine
 10
252.1012837444469
 20
270.6425174477153
 30
0.0
 11
252.1012837444469
 21
279.5752384477152
 31
0.0
  0
LINE
  5
1EE8
330
1F
100
AcDbEntity
  8
APL Joinery
  6
DASHED
 62
     7
100
AcDbLine
 10
249.0340047444468
 20
282.6425174477153
 30
0.0
 11
247.9012837444468
 21
282.6425174477149
 31
0.0
  0
ARC
  5
1EE9
330
1F
100
AcDbEntity
  8
APL Joinery
  6
DASHED
 62
     7
100
AcDbCircle
 10
268.6790888895351
 20
247.6425174477153
 30
0.0
 40
20.0
100
AcDbArc
 50
58.21166938294838
 51
90.0
  0
LINE
  5
1EEA
330
1F
100
AcDbEntity
  8
APL Joinery
  6
DASHED
 62
     7
100
AcDbLine
 10
263.1012837444469
 20
267.6425174477152
 30
0.0
 11
268.679088889535
 21
267.6425174477152
 31
0.0
  0
LINE
  5
1EFF
330
1F
100
AcDbEntity
  8
APL Joinery
  6
DASHED
 62
     7
100
AcDbLine
 10
299.1012837444472
 20
129.3548963523704
 30
0.0
 11
299.1012837444472
 21
196.8461794770299
 31
0.0
  0
LINE
  5
1F00
330
1F
100
AcDbEntity
  8
APL Joinery
  6
DASHED
 62
     7
100
AcDbLine
 10
214.1012837444468
 20
129.3548963523704
 30
0.0
 11
214.1012837444468
 21
196.8461794770299
 31
0.0
  0
LINE
  5
1F10
330
1F
100
AcDbEntity
  8
APL Joinery
  6
DASHED
 62
     7
100
AcDbLine
 10
52.42213714578082
 20
129.3548963523704
 30
0.0
 11
52.42213714578082
 21
206.0000562243975
 31
0.0
  0
LINE
  5
1F11
330
1F
100
AcDbEntity
  8
APL Joinery
  6
DASHED
 62
     7
100
AcDbLine
 10
137.4221371457811
 20
129.3548963523704
 30
0.0
 11
137.4221371457811
 21
152.3824089914469
 31
0.0
  0
LINE
  5
1F29
330
1F
100
AcDbEntity
  8
APL Joinery
  6
DASHED
 62
     7
100
AcDbLine
 10
137.4221371457811
 20
100.087130401072
 30
0.0
 11
137.4221371457811
 21
62.70546970699502
 31
0.0
  0
LINE
  5
1F2A
330
1F
100
AcDbEntity
  8
APL Joinery
  6
DASHED
 62
     7
100
AcDbLine
 10
52.42213714578082
 20
100.087130401072
 30
0.0
 11
52.42213714578082
 21
27.58790323507401
 31
0.0
  0
INSERT
  5
1F2B
330
1F
100
AcDbEntity
  8
APL Joinery
100
AcDbBlockReference
  2
01964
 10
91.42213714578099
 20
59.36774058771956
 30
0.0
  0
MTEXT
  5
1F3B
330
1F
100
AcDbEntity
  8
APL Notes
100
AcDbMText
 10
67.2449646380811
 20
10.8751865239615
 30
0.0
 40
5.0
 41
92.3639
 71
     7
 72
     5
  1
{\fArial|b1|i0|c0|p34;01964\P}50mm Bottom Rail
  7
Arial-Regular
 73
     1
 44
1.0
1001
ACAD
1000
MTEXTBEGIN
1070
    73
1070
     1
1070
    44
1040
1.0
1070
    74
1070
     0
1000
MTEXTEND
  0
LINE
  5
1F3F
330
1F
100
AcDbEntity
  8
APL Joinery
  6
DASHED
 62
     7
100
AcDbLine
 10
214.1012837444468
 20
95.07918635973345
 30
0.0
 11
214.1012837444468
 21
27.58790323507395
 31
0.0
  0
LINE
  5
1F40
330
1F
100
AcDbEntity
  8
APL Joinery
  6
DASHED
 62
     7
100
AcDbLine
 10
299.1012837444472
 20
95.07918635973345
 30
0.0
 11
299.1012837444471
 21
27.58790323507395
 31
0.0
  0
MTEXT
  5
1F6B
330
1F
100
AcDbEntity
  8
APL Notes
100
AcDbMText
 10
213.3435539863193
 20
125.058117225383
 30
0.0
 40
5.0
 41
118.3724
 71
     1
 72
     5
  1
{\fArial|b1|i0|c0|p34;01951\P}55mm Bottom Rail (as a mid Rail)
  7
Arial-Regular
 73
     1
 44
1.0
1001
ACAD
1000
MTEXTBEGIN
1070
    73
1070
     1
1070
    44
1040
1.0
1070
    74
1070
     0
1000
MTEXTEND
  0
MTEXT
  5
1F6C
330
1F
100
AcDbEntity
  8
APL Notes
100
AcDbMText
 10
220.55966775164
 20
23.29112410808659
 30
0.0
 40
5.0
 41
105.8896
 71
     1
 72
     5
  1
{\fArial|b1|i0|c0|p34;01966\P}55mm Bottom Rail (punched)
  7
Arial-Regular
 73
     1
 44
1.0
1001
ACAD
1000
MTEXTBEGIN
1070
    73
1070
     1
1070
    44
1040
1.0
1070
    74
1070
     0
1000
MTEXTEND
  0
MTEXT
  5
1F70
330
1F
100
AcDbEntity
  8
APL Notes
100
AcDbMText
 10
283.3231310969514
 20
453.0164372061464
 30
0.0
 40
5.0
 41
66.246
 71
     1
 72
     5
  1
{\fArial|b1|i0|c0|p34;01954\P}50mm Top Cap
  7
Arial-Regular
 73
     1
 44
1.0
1001
ACAD
1000
MTEXTBEGIN
1070
    73
1070
     1
1070
    44
1040
1.0
1070
    74
1070
     0
1000
MTEXTEND
  0
MTEXT
  5
1F71
330
1F
100
AcDbEntity
  8
APL Notes
100
AcDbMText
 10
284.0068695829762
 20
431.5974907161129
 30
0.0
 40
5.0
 41
46.90059999999999
 71
     1
 72
     5
  1
{\fArial|b1|i0|c0|p34;01953\P}50mm Top Rail
  7
Arial-Regular
 73
     1
 44
1.0
1001
ACAD
1000
MTEXTBEGIN
1070
    73
1070
     1
1070
    44
1040
1.0
1070
    74
1070
     0
1000
MTEXTEND
  0
MTEXT
  5
1F74
330
1F
100
AcDbEntity
  8
APL Notes
100
AcDbMText
 10
122.6484871426169
 20
300.8256247876949
 30
0.0
 40
5.0
 41
46.90059999999999
 71
     1
 72
     5
  1
{\fArial|b1|i0|c0|p34;01953\P}50mm Top Rail
  7
Arial-Regular
 73
     1
 44
1.0
1001
ACAD
1000
MTEXTBEGIN
1070
    73
1070
     1
1070
    44
1040
1.0
1070
    74
1070
     0
1000
MTEXTEND
  0
MTEXT
  5
1F75
330
1F
100
AcDbEntity
  8
APL Notes
100
AcDbMText
 10
125.4752619722449
 20
431.1443811591401
 30
0.0
 40
5.0
 41
46.90059999999999
 71
     1
 72
     5
  1
{\fArial|b1|i0|c0|p34;01953\P}50mm Top Rail
  7
Arial-Regular
 73
     1
 44
1.0
1001
ACAD
1000
MTEXTBEGIN
1070
    73
1070
     1
1070
    44
1040
1.0
1070
    74
1070
     0
1000
MTEXTEND
  0
MTEXT
  5
1F76
330
1F
100
AcDbEntity
  8
APL Notes
100
AcDbMText
 10
120.5643503609763
 20
472.8575238819881
 30
0.0
 40
5.0
 41
65.7233
 71
     1
 72
     5
  1
{\fArial|b1|i0|c0|p34;01955\P}Elliptical Top Rail
  7
Arial-Regular
 73
     1
 44
1.0
1001
ACAD
1000
MTEXTBEGIN
1070
    73
1070
     1
1070
    44
1040
1.0
1070
    74
1070
     0
1000
MTEXTEND
  0
MTEXT
  5
1F77
330
1F
100
AcDbEntity
  8
APL Notes
100
AcDbMText
 10
113.2604136919125
 20
413.9640703987067
 30
0.0
 40
5.0
 41
91.9758
 71
     1
 72
     5
  1
{\fArial|b1|i0|c0|p34;01956\P}Glazing Infill (unpunched)
  7
Arial-Regular
 73
     1
 44
1.0
1001
ACAD
1000
MTEXTBEGIN
1070
    73
1070
     1
1070
    44
1040
1.0
1070
    74
1070
     0
1000
MTEXTEND
  0
INSERT
  5
1FFF
330
1F
100
AcDbEntity
  8
APL Joinery
100
AcDbBlockReference
  2
01951
 10
253.101283744447
 20
64.48040120790921
 30
0.0
 41
-1.0
 50
180.0
  0
LINE
  5
2003
330
1F
100
AcDbEntity
  8
APL Joinery
 62
     7
100
AcDbLine
 10
243.051283744447
 20
64.48040120790921
 30
0.0
 11
243.051283744447
 21
95.07918635973345
 31
0.0
  0
LINE
  5
2004
330
1F
100
AcDbEntity
  8
APL Joinery
 62
     7
100
AcDbLine
 10
268.0512837444503
 20
64.48040120790921
 30
0.0
 11
268.0512837444503
 21
95.07918635973348
 31
0.0
  0
MTEXT
  5
2039
330
1F
100
AcDbEntity
  8
APL Notes
100
AcDbMText
 10
270.6349859622275
 20
84.11122489672733
 30
0.0
 40
5.0
 41
23.814
 71
     1
 72
     5
  1
{\fArial|b1|i0|c0|p34;01952\P}Baluster
  7
Arial-Regular
 73
     1
 44
1.0
1001
ACAD
1000
MTEXTBEGIN
1070
    73
1070
     1
1070
    44
1040
1.0
1070
    74
1070
     0
1000
MTEXTEND
  0
MTEXT
  5
206B
330
1F
100
AcDbEntity
  8
APL Notes
100
AcDbMText
 10
275.8281434726244
 20
284.7593433393139
 30
0.0
 40
5.0
 41
93.98509999999999
 71
     1
 72
     5
  1
{\fArial|b1|i0|c0|p34;01965\P}Glazing Infill (punched)
  7
Arial-Regular
 73
     1
 44
1.0
1001
ACAD
1000
ACAD_MTEXT_DEFINED_HEIGHT_BEGIN
1070
    46
1040
0.0
1000
ACAD_MTEXT_DEFINED_HEIGHT_END
1000
MTEXTBEGIN
1070
    73
1070
     1
1070
    44
1040
1.0
1070
    74
1070
     0
1000
MTEXTEND
  0
MTEXT
  5
206C
330
1F
100
AcDbEntity
  8
APL Notes
100
AcDbMText
 10
113.5932504018186
 20
282.6938798306036
 30
0.0
 40
5.0
 41
85.7638
 71
     1
 72
     5
  1
{\fArial|b1|i0|c0|p34;01965\P}Glazing Infill (punched)
  7
Arial-Regular
 73
     1
 44
1.0
1001
ACAD
1000
ACAD_MTEXT_DEFINED_HEIGHT_BEGIN
1070
    46
1040
0.0
1000
ACAD_MTEXT_DEFINED_HEIGHT_END
1000
MTEXTBEGIN
1070
    73
1070
     1
1070
    44
1040
1.0
1070
    74
1070
     0
1000
MTEXTEND
  0
INSERT
  5
2070
330
1F
100
AcDbEntity
  8
APL Joinery
100
AcDbBlockReference
  2
01956
 10
86.52213714578079
 20
282.6425174477151
 30
0.0
  0
INSERT
  5
2071
330
1F
100
AcDbEntity
  8
APL Joinery
100
AcDbBlockReference
  2
01956
 10
248.2012837444468
 20
282.6425174477151
 30
0.0
  0
INSERT
  5
2072
330
1F
100
AcDbEntity
  8
APL Joinery
100
AcDbBlockReference
  2
01956
 10
248.2012837444468
 20
40.48040120790801
 30
0.0
  0
MTEXT
  5
2073
330
1F
100
AcDbEntity
  8
APL Notes
100
AcDbMText
 10
252.5280720247142
 20
39.02672725896758
 30
0.0
 40
5.0
 41
107.4585
 71
     1
 72
     5
  1
{\fArial|b1|i0|c0|p34;01956} Glazing Infill(unpunched)
  7
Arial-Regular
 73
     1
 44
1.0
1001
ACAD
1000
MTEXTBEGIN
1070
    73
1070
     1
1070
    44
1040
1.0
1070
    74
1070
     0
1000
MTEXTEND
  0
INSERT
  5
2074
330
1F
100
AcDbEntity
  8
APL Joinery
100
AcDbBlockReference
  2
01956
 10
86.51719530718583
 20
72.30349771145416
 30
0.0
 41
-1.0
 50
180.0
  0
INSERT
  5
2075
330
1F
100
AcDbEntity
  8
APL Joinery
100
AcDbBlockReference
  2
01956
 10
86.5221371457809
 20
159.4294135796145
 30
0.0
  0
INSERT
  5
2076
330
1F
100
AcDbEntity
  8
APL Joinery
100
AcDbBlockReference
  2
01956
 10
248.2012837444469
 20
161.583156718342
 30
0.0
  0
MTEXT
  5
2077
330
1F
100
AcDbEntity
  8
APL Notes
100
AcDbMText
 10
270.6349859622275
 20
150.615195255337
 30
0.0
 40
5.0
 41
23.814
 71
     1
 72
     5
  1
{\fArial|b1|i0|c0|p34;01952\P}Baluster
  7
Arial-Regular
 73
     1
 44
1.0
1001
ACAD
1000
MTEXTBEGIN
1070
    73
1070
     1
1070
    44
1040
1.0
1070
    74
1070
     0
1000
MTEXTEND
  0
LINE
  5
207C
330
1F
100
AcDbEntity
  8
APL Joinery
 62
     7
100
AcDbLine
 10
243.051283744447
 20
129.3548963523704
 30
0.0
 11
243.051283744447
 21
161.5831567183432
 31
0.0
  0
LINE
  5
20A7
330
1F
100
AcDbEntity
  8
APL Joinery
 62
     7
100
AcDbLine
 10
268.0512837444503
 20
129.3548963523704
 30
0.0
 11
268.0512837444503
 21
161.5831567183432
 31
0.0
  0
INSERT
  5
20DD
330
1F
100
AcDbEntity
  8
APL Joinery
100
AcDbBlockReference
  2
baluster
 10
0.0
 20
12.01207777212141
 30
0.0
  0
INSERT
  5
20DE
330
1F
100
AcDbEntity
  8
APL Joinery
100
AcDbBlockReference
  2
baluster
 10
0.0
 20
-56.2394914747606
 30
0.0
  0
MTEXT
  5
20DF
330
1F
100
AcDbEntity
  8
APL Notes
100
AcDbMText
 10
108.9558393635615
 20
148.4614521166096
 30
0.0
 40
5.0
 41
23.814
 71
     1
 72
     5
  1
{\fArial|b1|i0|c0|p34;01952\P}Baluster
  7
Arial-Regular
 73
     1
 44
1.0
1001
ACAD
1000
MTEXTBEGIN
1070
    73
1070
     1
1070
    44
1040
1.0
1070
    74
1070
     0
1000
MTEXTEND
  0
INSERT
  5
20E0
330
1F
100
AcDbEntity
  8
APL Joinery
100
AcDbBlockReference
  2
baluster
 10
-161.679146598666
 20
9.858334633393951
 30
0.0
  0
LINE
  5
20E1
330
1F
100
AcDbEntity
  8
APL Joinery
 62
     7
100
AcDbLine
 10
81.37213714578104
 20
129.3548963523704
 30
0.0
 11
81.37213714578104
 21
159.4294135796157
 31
0.0
  0
LINE
  5
20E2
330
1F
100
AcDbEntity
  8
APL Joinery
 62
     7
100
AcDbLine
 10
106.3721371457843
 20
129.3548963523704
 30
0.0
 11
106.3721371457843
 21
159.4294135796158
 31
0.0
  0
MTEXT
  5
20E3
330
1F
100
AcDbEntity
  8
APL Notes
100
AcDbMText
 10
108.9508975249664
 20
89.15996506491913
 30
0.0
 40
5.0
 41
23.814
 71
     1
 72
     5
  1
{\fArial|b1|i0|c0|p34;01952\P}Baluster
  7
Arial-Regular
 73
     1
 44
1.0
1001
ACAD
1000
MTEXTBEGIN
1070
    73
1070
     1
1070
    44
1040
1.0
1070
    74
1070
     0
1000
MTEXTEND
  0
INSERT
  5
20E4
330
1F
100
AcDbEntity
  8
APL Joinery
100
AcDbBlockReference
  2
baluster
 10
-161.684088437261
 20
-49.44315241829645
 30
0.0
  0
LINE
  5
20E5
330
1F
100
AcDbEntity
  8
APL Joinery
 62
     7
100
AcDbLine
 10
81.36719530718597
 20
72.36774058771937
 30
0.0
 11
81.36719530718597
 21
100.1279265279253
 31
0.0
  0
LINE
  5
20E6
330
1F
100
AcDbEntity
  8
APL Joinery
 62
     7
100
AcDbLine
 10
106.3671953071892
 20
72.36774058771954
 30
0.0
 11
106.3671953071892
 21
100.1279265279253
 31
0.0
  0
MTEXT
  5
20E7
330
1F
100
AcDbEntity
  8
APL Notes
100
AcDbMText
 10
108.8084901950548
 20
251.3523207167813
 30
0.0
 40
5.0
 41
23.814
 71
     1
 72
     5
  1
{\fArial|b1|i0|c0|p34;01952\P}Baluster
  7
Arial-Regular
 73
     1
 44
1.0
1001
ACAD
1000
MTEXTBEGIN
1070
    73
1070
     1
1070
    44
1040
1.0
1070
    74
1070
     0
1000
MTEXTEND
  0
INSERT
  5
20E8
330
1F
100
AcDbEntity
  8
APL Joinery
100
AcDbBlockReference
  2
baluster
 10
-161.6791465986661
 20
111.7183651963765
 30
0.0
  0
LINE
  5
20E9
330
1F
100
AcDbEntity
  8
APL Joinery
 62
     7
100
AcDbLine
 10
106.3721371457842
 20
231.1442877469761
 30
0.0
 11
106.3721371457842
 21
282.6425174477163
 31
0.0
  0
LINE
  5
20EA
330
1F
100
AcDbEntity
  8
APL Joinery
 62
     7
100
AcDbLine
 10
81.37213714578093
 20
231.1442877469761
 30
0.0
 11
81.37213714578093
 21
282.6425174477163
 31
0.0
  0
MTEXT
  5
20EC
330
1F
100
AcDbEntity
  8
APL Notes
100
AcDbMText
 10
270.4876367937209
 20
251.3523207167813
 30
0.0
 40
5.0
 41
23.814
 71
     1
 72
     5
  1
{\fArial|b1|i0|c0|p34;01952\P}Baluster
  7
Arial-Regular
 73
     1
 44
1.0
1001
ACAD
1000
MTEXTBEGIN
1070
    73
1070
     1
1070
    44
1040
1.0
1070
    74
1070
     0
1000
MTEXTEND
  0
INSERT
  5
20ED
330
1F
100
AcDbEntity
  8
APL Joinery
100
AcDbBlockReference
  2
baluster
 10
-0.0000000000001137
 20
111.7183651963765
 30
0.0
  0
LINE
  5
20EE
330
1F
100
AcDbEntity
  8
APL Joinery
 62
     7
100
AcDbLine
 10
268.0512837444502
 20
231.1442877469761
 30
0.0
 11
268.0512837444502
 21
282.6425174477163
 31
0.0
  0
LINE
  5
20EF
330
1F
100
AcDbEntity
  8
APL Joinery
 62
     7
100
AcDbLine
 10
243.0512837444469
 20
231.1442877469761
 30
0.0
 11
243.0512837444469
 21
282.6425174477163
 31
0.0
  0
MTEXT
  5
20F1
330
1F
100
AcDbEntity
  8
APL Notes
100
AcDbMText
 10
117.4276971345473
 20
169.7275142039899
 30
0.0
 40
5.0
 41
88.01871172595285
 71
     1
 72
     5
  1
{\fArial|b1|i0|c0|p34;01965\P}Glazing Infill (punched)
  7
Arial-Regular
 73
     1
 44
1.0
1001
ACAD
1000
ACAD_MTEXT_DEFINED_HEIGHT_BEGIN
1070
    46
1040
0.0
1000
ACAD_MTEXT_DEFINED_HEIGHT_END
1000
MTEXTBEGIN
1070
    73
1070
     1
1070
    44
1040
1.0
1070
    74
1070
     0
1000
MTEXTEND
  0
MTEXT
  5
20F5
330
1F
100
AcDbEntity
  8
APL Notes
100
AcDbMText
 10
117.8274046728913
 20
70.86515843524731
 30
0.0
 40
5.0
 41
80.62000000000001
 71
     1
 72
     5
  1
{\fArial|b1|i0|c0|p34;01965\P}Glazing Infill (punched)
  7
Arial-Regular
 73
     1
 44
1.0
1001
ACAD
1000
ACAD_MTEXT_DEFINED_HEIGHT_BEGIN
1070
    46
1040
0.0
1000
ACAD_MTEXT_DEFINED_HEIGHT_END
1000
MTEXTBEGIN
1070
    73
1070
     1
1070
    44
1040
1.0
1070
    74
1070
     0
1000
MTEXTEND
  0
LINE
  5
20FC
330
1F
100
AcDbEntity
  8
APL Joinery
  6
DASHED
 62
     7
100
AcDbLine
 10
137.4221371457811
 20
56.16118017319696
 30
0.0
 11
137.4221371457811
 21
27.58790323507401
 31
0.0
  0
LINE
  5
20FD
330
1F
100
AcDbEntity
  8
APL Joinery
  6
DASHED
 62
     7
100
AcDbLine
 10
137.4221371457811
 20
165.9118671338257
 30
0.0
 11
137.4221371457811
 21
206.0000562243975
 31
0.0
  0
INSERT
  5
2346
330
1F
100
AcDbEntity
  8
APL Joinery
100
AcDbBlockReference
  2
01954
 10
256.1012837444469
 20
433.2166245480884
 30
0.0
  0
INSERT
  5
2347
330
1F
100
AcDbEntity
  8
APL Joinery
100
AcDbBlockReference
  2
01954
 10
256.1012837444469
 20
303.530288921333
 30
0.0
  0
LWPOLYLINE
  5
240B
330
1F
100
AcDbEntity
  8
APL Joinery
 62
     3
100
AcDbPolyline
 90
        6
 70
     0
 43
0.0
 10
42.00622842100398
 20
360.8306233737315
 10
88.92591656104793
 20
360.8306233737315
 10
91.03627611400094
 20
367.0482328771353
 10
93.72450756652012
 20
355.3622103677174
 10
95.30796978042554
 20
360.8306233737315
 10
145.4668377212243
 20
360.8306233737315
  0
LWPOLYLINE
  5
2412
330
1F
100
AcDbEntity
  8
APL Joinery
 62
     3
100
AcDbPolyline
 90
        6
 70
     0
 43
0.0
 10
203.68537501967
 20
360.8306233737315
 10
250.6050631597139
 20
360.8306233737315
 10
252.7154227126669
 20
367.0482328771353
 10
255.4036541651861
 20
355.3622103677174
 10
256.9871163790915
 20
360.8306233737315
 10
307.1459843198903
 20
360.8306233737315
  0
LWPOLYLINE
  5
2417
330
1F
100
AcDbEntity
  8
APL Joinery
 62
     3
100
AcDbPolyline
 90
        6
 70
     0
 43
0.0
 10
203.68537501967
 20
231.1442877469761
 10
250.6050631597139
 20
231.1442877469761
 10
252.7154227126669
 20
237.3618972503798
 10
255.4036541651861
 20
225.675874740962
 10
256.9871163790915
 20
231.1442877469761
 10
307.1459843198903
 20
231.1442877469761
  0
LWPOLYLINE
  5
241C
330
1F
100
AcDbEntity
  8
APL Joinery
 62
     3
100
AcDbPolyline
 90
        6
 70
     0
 43
0.0
 10
203.68537501967
 20
129.3548963523704
 10
250.6050631597139
 20
129.3548963523704
 10
252.7154227126669
 20
135.5725058557742
 10
255.4036541651861
 20
123.8864833463563
 10
256.9871163790915
 20
129.3548963523704
 10
307.1459843198903
 20
129.3548963523704
  0
LWPOLYLINE
  5
2421
330
1F
100
AcDbEntity
  8
APL Joinery
 62
     3
100
AcDbPolyline
 90
        6
 70
     0
 43
0.0
 10
203.68537501967
 20
196.8461794770299
 10
250.6050631597139
 20
196.8461794770299
 10
252.7154227126669
 20
203.0637889804337
 10
255.4036541651861
 20
191.3777664710158
 10
256.9871163790915
 20
196.8461794770299
 10
307.1459843198903
 20
196.8461794770299
  0
LWPOLYLINE
  5
2426
330
1F
100
AcDbEntity
  8
APL Joinery
 62
     3
100
AcDbPolyline
 90
        6
 70
     0
 43
0.0
 10
42.00622842100398
 20
206.0000562243975
 10
88.92591656104793
 20
206.0000562243975
 10
91.03627611400094
 20
212.2176657278012
 10
93.72450756652012
 20
200.5316432183834
 10
95.30796978042559
 20
206.0000562243975
 10
145.4668377212243
 20
206.0000562243975
  0
LWPOLYLINE
  5
242B
330
1F
100
AcDbEntity
  8
APL Joinery
 62
     3
100
AcDbPolyline
 90
        6
 70
     0
 43
0.0
 10
42.00622842100398
 20
129.3548963523704
 10
88.92591656104793
 20
129.3548963523704
 10
91.03627611400094
 20
135.5725058557742
 10
93.72450756652012
 20
123.8864833463563
 10
95.30796978042559
 20
129.3548963523704
 10
145.4668377212243
 20
129.3548963523704
  0
LWPOLYLINE
  5
2430
330
1F
100
AcDbEntity
  8
APL Joinery
 62
     3
100
AcDbPolyline
 90
        6
 70
     0
 43
0.0
 10
142.3140605244004
 20
100.087130401072
 10
95.39437238435647
 20
100.087130401072
 10
93.28401283140346
 20
93.86952089766827
 10
90.59578137888427
 20
105.5555434070861
 10
89.01231916497881
 20
100.087130401072
 10
38.85345122418011
 20
100.087130401072
  0
LWPOLYLINE
  5
2435
330
1F
100
AcDbEntity
  8
APL Joinery
 62
     3
100
AcDbPolyline
 90
        6
 70
     0
 43
0.0
 10
42.00622842100398
 20
27.58790323507401
 10
88.92591656104793
 20
27.58790323507401
 10
91.03627611400094
 20
21.37029373167024
 10
93.72450756652012
 20
33.0563162410881
 10
95.30796978042559
 20
27.58790323507401
 10
145.4668377212243
 20
27.58790323507401
  0
LWPOLYLINE
  5
243A
330
1F
100
AcDbEntity
  8
APL Joinery
 62
     3
100
AcDbPolyline
 90
        6
 70
     0
 43
0.0
 10
203.68537501967
 20
27.58790323507395
 10
250.6050631597139
 20
27.58790323507395
 10
252.7154227126669
 20
21.37029373167019
 10
255.4036541651861
 20
33.05631624108804
 10
256.9871163790915
 20
27.58790323507395
 10
307.1459843198902
 20
27.58790323507395
  0
LWPOLYLINE
  5
243F
330
1F
100
AcDbEntity
  8
APL Joinery
 62
     3
100
AcDbPolyline
 90
        6
 70
     0
 43
0.0
 10
303.9932071230664
 20
95.07918635973348
 10
257.0735189830224
 20
95.07918635973348
 10
254.9631594300694
 20
88.86157685632971
 10
252.2749279775502
 20
100.5475993657475
 10
250.6914657636448
 20
95.07918635973345
 10
200.5325978228461
 20
95.07918635973345
  0
LWPOLYLINE
  5
2444
330
1F
100
AcDbEntity
  8
APL Joinery
 62
     3
100
AcDbPolyline
 90
        6
 70
     0
 43
0.0
 10
42.00622842100398
 20
231.1442877469761
 10
88.92591656104793
 20
231.1442877469761
 10
91.03627611400094
 20
237.3618972503798
 10
93.72450756652012
 20
225.675874740962
 10
95.30796978042554
 20
231.1442877469761
 10
145.4668377212243
 20
231.1442877469761
  0
MTEXT
  5
2952
330
1F
100
AcDbEntity
  8
APL Notes
100
AcDbMText
 10
280.4386410630522
 20
168.5995822145943
 30
0.0
 40
5.0
 41
93.98509999999999
 71
     1
 72
     5
  1
{\fArial|b1|i0|c0|p34;01965\P}Glazing Infill (punched)
  7
Arial-Regular
 73
     1
 44
1.0
1001
ACAD
1000
ACAD_MTEXT_DEFINED_HEIGHT_BEGIN
1070
    46
1040
0.0
1000
ACAD_MTEXT_DEFINED_HEIGHT_END
1000
MTEXTBEGIN
1070
    73
1070
     1
1070
    44
1040
1.0
1070
    74
1070
     0
1000
MTEXTEND
  0
VIEWPORT
  5
973
102
{ACAD_XDICTIONARY
360
2924
102
}
330
972
100
AcDbEntity
 67
     1
  8
0
100
AcDbViewport
 10
99.91724538803099
 20
143.1184201240539
 30
0.0
 40
430.1964563810208
 41
299.4231128286808
 68
     1
 69
     1
 12
99.91724538803099
 22
143.1184201240539
 13
0.0
 23
0.0
 14
10.0
 24
10.0
 15
10.0
 25
10.0
 16
0.0
 26
0.0
 36
1.0
 17
0.0
 27
0.0
 37
0.0
 42
50.0
 43
0.0
 44
0.0
 45
299.4231128286808
 50
0.0
 51
0.0
 72
 20000
 90
    32800
  1

281
     0
 71
     1
 74
     0
110
0.0
120
0.0
130
0.0
111
1.0
121
0.0
131
0.0
112
0.0
122
1.0
132
0.0
 79
     0
146
0.0
  0
VIEWPORT
  5
974
102
{ACAD_XDICTIONARY
360
2926
102
}
330
972
100
AcDbEntity
 67
     1
  8
0
100
AcDbViewport
 10
100.5953594452218
 20
130.9801171661182
 30
0.0
 40
177.9992811095563
 41
241.5802343322364
 68
     2
 69
     2
 12
177.9992811095563
 22
242.4197656677635
 13
0.0
 23
0.0
 14
10.0
 24
10.0
 15
10.0
 25
10.0
 16
0.0
 26
0.0
 36
1.0
 17
0.0
 27
0.0
 37
0.0
 42
50.0
 43
0.0
 44
0.0
 45
483.1604686644729
 50
0.0
 51
0.0
 72
   100
 90
    32864
  1

281
     0
 71
     1
 74
     0
110
0.0
120
0.0
130
0.0
111
1.0
121
0.0
131
0.0
112
0.0
122
1.0
132
0.0
 79
     0
146
0.0
  0
INSERT
  5
98B
330
972
100
AcDbEntity
 67
     1
  8
APL Border
100
AcDbBlockReference
  2
vantage a4 SM border
 10
0.0
 20
0.0
 30
0.0
  0
INSERT
  5
2268
330
972
100
AcDbEntity
 67
     1
  8
APL Border
100
AcDbBlockReference
 66
     1
  2
vantage a4 SM attributes (3)
 10
0.0
 20
0.0
 30
0.0
  0
ATTRIB
  5
226A
330
2268
100
AcDbEntity
 67
     1
  8
APL Border
100
AcDbText
 10
41.78979785863008
 20
272.19
 30
0.0
 40
3.5
  1
PROFILE BALUSTRADE
  7
Arial-Bold
100
AcDbAttribute
  2
DRAWINGTITLE_1
 70
     0
  0
ATTRIB
  5
226B
330
2268
100
AcDbEntity
 67
     1
  8
APL Border
100
AcDbText
 10
41.78979785863008
 20
266.19
 30
0.0
 40
3.5
  1
RAIL OPTIONS
  7
Arial-Bold
100
AcDbAttribute
  2
DRAWINGTITLE_2
 70
     0
  0
ATTRIB
  5
226C
330
2268
100
AcDbEntity
 67
     1
  8
APL Border
100
AcDbText
 10
41.78979785863008
 20
260.19
 30
0.0
 40
3.0
  1
BALUSTER
  7
Arial-Regular
100
AcDbAttribute
  2
DRAWINGTITLE_3
 70
     0
  0
ATTRIB
  5
226D
330
2268
100
AcDbEntity
 67
     1
  8
APL Border
100
AcDbText
 10
165.845
 20
273.69
 30
0.0
 40
2.5
  1
VPBA06-0
  7
Arial-Regular
100
AcDbAttribute
  2
AW123-456
 70
     0
  0
ATTRIB
  5
226E
330
2268
100
AcDbEntity
 67
     1
  8
APL Border
100
AcDbText
 10
147.5475920873124
 20
257.1899999999999
 30
0.0
 40
2.5
  1
01.06.11
  7
Arial-Regular
 72
     1
 11
154.345
 21
257.1899999999999
 31
0.0
100
AcDbAttribute
  2
24.05.02
 70
     0
  0
ATTRIB
  5
226F
330
2268
100
AcDbEntity
 67
     1
  8
APL Border
100
AcDbText
 10
175.4174761255116
 20
257.1899999999999
 30
0.0
 40
2.5
  1
1:2
  7
Arial-Regular
 72
     1
 11
177.845
 21
257.1899999999999
 31
0.0
100
AcDbAttribute
  2
1:2
 70
     0
  0
ATTRIB
  5
2270
330
2268
100
AcDbEntity
 67
     1
  8
APL Border
100
AcDbText
 10
11.59500000000001
 20
1.189999999999997
 30
0.0
 40
3.75
  1

  7
Arial-Bold
100
AcDbAttribute
  2
1.2.34
 70
     0
  0
ATTRIB
  5
2271
330
2268
100
AcDbEntity
 67
     1
  8
APL Border
100
AcDbText
 10
189.595
 20
1.189999999999997
 30
0.0
 40
3.75
  1

  7
Arial-Bold
 72
     2
 11
189.595
 21
1.189999999999997
 31
0.0
100
AcDbAttribute
  2
1.2.34
 70
     0
  0
SEQEND
  5
2269
330
2268
100
AcDbEntity
 67
     1
  8
APL Border
  0
ENDSEC
  0
SECTION
  2
OBJECTS
  0
DICTIONARY
  5
C
330
0
100
AcDbDictionary
281
     1
  3
ACAD_COLOR
350
2132
  3
ACAD_GROUP
350
D
  3
ACAD_LAYOUT
350
1A
  3
ACAD_MATERIAL
350
2131
  3
ACAD_MLEADERSTYLE
350
21D7
  3
ACAD_MLINESTYLE
350
17
  3
ACAD_PLOTSETTINGS
350
19
  3
ACAD_PLOTSTYLENAME
350
E
  3
ACAD_SCALELIST
350
21B5
  3
ACAD_TABLESTYLE
350
2133
  3
ACAD_VISUALSTYLE
350
21A4
  3
ACDB_RECOMPOSE_DATA
350
2463
  3
ACDBHEADERROUNDTRIPXREC
350
2DBD
  3
AcDbVariableDictionary
350
6D
  3
DWGPROPS
350
2DBC
  0
DICTIONARY
  5
2465
330
8
100
AcDbDictionary
280
     1
281
     1
  3
ACAD_XREC_ROUNDTRIP
360
2918
  0
DICTIONARY
  5
A4F
330
2
100
AcDbDictionary
280
     1
281
     1
  3
ACAD_LAYERFILTERS
360
2384
  3
ACAD_LAYERSTATES
360
C9F
  3
ACLYDICTIONARY
360
2383
  0
DICTIONARY
  5
21E6
330
10
100
AcDbDictionary
280
     1
281
     1
  3
ACAD_XREC_ROUNDTRIP
360
2919
  3
ADSK_XREC_LAYER_RECONCILED
360
21E7
  0
DICTIONARY
  5
21E8
330
41
100
AcDbDictionary
280
     1
281
     1
  3
ACAD_XREC_ROUNDTRIP
360
2921
  3
ADSK_XREC_LAYER_RECONCILED
360
21E9
  0
DICTIONARY
  5
21EA
330
42
100
AcDbDictionary
280
     1
281
     1
  3
ACAD_XREC_ROUNDTRIP
360
2922
  3
ADSK_XREC_LAYER_RECONCILED
360
21EB
  0
DICTIONARY
  5
21EC
330
11C
100
AcDbDictionary
280
     1
281
     1
  3
ACAD_XREC_ROUNDTRIP
360
2923
  3
ADSK_XREC_LAYER_RECONCILED
360
21ED
  0
DICTIONARY
  5
21FC
330
2162
100
AcDbDictionary
280
     1
281
     1
  3
ACAD_XREC_ROUNDTRIP
360
2933
  3
ADSK_XREC_LAYER_RECONCILED
360
21FD
  0
DICTIONARY
  5
240C
330
1F
100
AcDbDictionary
280
     1
281
     1
  3
ACAD_SORTENTS
360
240D
  0
DICTIONARY
  5
2D80
330
1D30
100
AcDbDictionary
280
     1
281
     1
  3
ACAD_SORTENTS
360
2D81
  0
DICTIONARY
  5
2D85
330
1D36
100
AcDbDictionary
280
     1
281
     1
  3
ACAD_SORTENTS
360
2D86
  0
DICTIONARY
  5
2D8A
330
1D3C
100
AcDbDictionary
280
     1
281
     1
  3
ACAD_SORTENTS
360
2D8B
  0
DICTIONARY
  5
2D8F
330
1D42
100
AcDbDictionary
280
     1
281
     1
  3
ACAD_SORTENTS
360
2D90
  0
DICTIONARY
  5
2D95
330
1D48
100
AcDbDictionary
280
     1
281
     1
  3
ACAD_SORTENTS
360
2D96
  0
DICTIONARY
  5
2D9B
330
2341
100
AcDbDictionary
280
     1
281
     1
  3
ACAD_SORTENTS
360
2D9C
  0
DICTIONARY
  5
2C5E
330
2C5D
100
AcDbDictionary
280
     1
281
     1
  3
ACAD_SORTENTS
360
2C5F
  0
DICTIONARY
  5
2C5C
330
2C5B
100
AcDbDictionary
280
     1
281
     1
  0
DICTIONARY
  5
2924
330
973
100
AcDbDictionary
280
     1
281
     1
  3
ACAD_XREC_ROUNDTRIP
360
2925
  0
DICTIONARY
  5
2926
330
974
100
AcDbDictionary
280
     1
281
     1
  3
ACAD_XREC_ROUNDTRIP
360
2927
  0
DICTIONARY
  5
2132
102
{ACAD_REACTORS
330
C
102
}
330
C
100
AcDbDictionary
281
     1
  0
DICTIONARY
  5
D
102
{ACAD_REACTORS
330
C
102
}
330
C
100
AcDbDictionary
281
     1
  3
*A1
350
C3
  3
*A2
350
8E7
  3
*A3
350
94F
  3
*A4
350
950
  0
DICTIONARY
  5
1A
102
{ACAD_REACTORS
330
C
102
}
330
C
100
AcDbDictionary
281
     1
  3
Model
350
22
  3
Vantage A4
350
982
  0
DICTIONARY
  5
2131
102
{ACAD_REACTORS
330
C
102
}
330
C
100
AcDbDictionary
281
     1
  3
ByBlock
350
2194
  3
ByLayer
350
218C
  3
Global
350
219C
  0
DICTIONARY
  5
21D7
102
{ACAD_REACTORS
330
C
102
}
330
C
100
AcDbDictionary
281
     1
  3
Standard
350
2495
  0
DICTIONARY
  5
17
102
{ACAD_REACTORS
330
C
102
}
330
C
100
AcDbDictionary
281
     1
  3
Standard
350
18
  0
DICTIONARY
  5
19
102
{ACAD_REACTORS
330
C
102
}
330
C
100
AcDbDictionary
281
     1
  0
ACDBDICTIONARYWDFLT
  5
E
102
{ACAD_REACTORS
330
C
102
}
330
C
100
AcDbDictionary
281
     1
  3
Normal
350
F
100
AcDbDictionaryWithDefault
340
F
  0
DICTIONARY
  5
21B5
102
{ACAD_REACTORS
330
C
102
}
330
C
100
AcDbDictionary
281
     1
  3
A0
350
21B6
  3
A1
350
21B7
  3
A2
350
21B8
  3
A3
350
21B9
  3
A4
350
21BA
  3
A5
350
21BB
  3
A6
350
21BC
  3
A7
350
21BD
  3
A8
350
21BE
  3
A9
350
21BF
  3
B0
350
21C0
  3
B1
350
21C1
  3
B2
350
21C2
  3
B3
350
21C3
  3
B4
350
21C4
  3
B5
350
21C5
  3
B6
350
21C6
  3
B7
350
21C7
  3
B8
350
21C8
  3
B9
350
21C9
  3
C0
350
21CA
  3
C1
350
21CB
  3
C2
350
21CC
  3
C3
350
21CD
  3
C4
350
21CE
  3
C5
350
21CF
  3
C6
350
21D0
  3
C7
350
21D1
  3
C8
350
21D2
  3
C9
350
21D3
  3
D0
350
21D4
  3
D1
350
21D5
  3
D2
350
21D6
  0
DICTIONARY
  5
2133
102
{ACAD_REACTORS
330
C
102
}
330
C
100
AcDbDictionary
281
     1
  3
Standard
350
2134
  0
DICTIONARY
  5
21A4
102
{ACAD_REACTORS
330
C
102
}
330
C
100
AcDbDictionary
281
     1
  3
2dWireframe
350
21AA
  3
3D Hidden
350
21AC
  3
3dWireframe
350
21AB
  3
Basic
350
21A9
  3
Brighten
350
21B0
  3
ColorChange
350
21B4
  3
Conceptual
350
21AD
  3
Dim
350
21AF
  3
Facepattern
350
21B3
  3
Flat
350
21A5
  3
FlatWithEdges
350
21A6
  3
Gouraud
350
21A7
  3
GouraudWithEdges
350
21A8
  3
Linepattern
350
21B2
  3
Realistic
350
21AE
  3
Thicken
350
21B1
  0
XRECORD
  5
2463
102
{ACAD_REACTORS
330
C
102
}
330
C
100
AcDbXrecord
280
     1
 90
        1
330
2134
  0
DICTIONARY
  5
2DBD
102
{ACAD_REACTORS
330
C
102
}
330
C
100
AcDbDictionary
281
     1
  0
DICTIONARY
  5
6D
102
{ACAD_REACTORS
330
C
102
}
330
C
100
AcDbDictionary
281
     1
  3
CANNOSCALE
350
2491
  3
CMLEADERSTYLE
350
24D0
  3
CTABLESTYLE
350
213E
  3
DIMASSOC
350
6F
  3
HIDETEXT
350
6E
  3
INDEXCTL
350
2493
  3
PROJECTNAME
350
2154
  3
SORTENTS
350
2492
  0
XRECORD
  5
2DBC
102
{ACAD_REACTORS
330
C
102
}
330
C
100
AcDbXrecord
280
     1
  1
DWGPROPS COOKIE
  2

  3

  4

  6

  7

  8
homer
  9

300
=
301
=
302
=
303
=
304
=
305
=
306
=
307
=
308
=
309
=
 40
0.9251051157407406
 41
2452682.337302118
 42
2455660.390849965
  1

 90
        0
  0
XRECORD
  5
2918
102
{ACAD_REACTORS
330
2465
102
}
330
2465
100
AcDbXrecord
280
     1
102
VTR_0.000_0.000_1.000_1.000_VISUALSTYLE
340
21AA
102
VTR_0.000_0.000_1.000_1.000_GRIDDISPLAY
 70
     3
102
VTR_0.000_0.000_1.000_1.000_GRIDMAJOR
 70
     5
102
VTR_0.000_0.000_1.000_1.000_DEFAULTLIGHTING
280
     1
102
VTR_0.000_0.000_1.000_1.000_DEFAULTLIGHTINGTYPE
 70
     1
102
VTR_0.000_0.000_1.000_1.000_BRIGHTNESS
141
0.0
102
VTR_0.000_0.000_1.000_1.000_CONTRAST
142
0.0
  0
DICTIONARY
  5
2384
102
{ACAD_REACTORS
330
A4F
102
}
330
A4F
100
AcDbDictionary
281
     1
  0
DICTIONARY
  5
C9F
102
{ACAD_REACTORS
330
A4F
102
}
330
A4F
100
AcDbDictionary
281
     1
  0
DICTIONARY
  5
2383
102
{ACAD_REACTORS
330
A4F
102
}
330
A4F
100
AcDbDictionary
281
     1
1001
ACAD
1000
<All
  0
XRECORD
  5
2919
102
{ACAD_REACTORS
330
21E6
102
}
330
21E6
100
AcDbXrecord
280
     1
102
MATERIAL
340
219C
  0
XRECORD
  5
21E7
102
{ACAD_REACTORS
330
21E6
102
}
330
21E6
100
AcDbXrecord
280
     1
290
     1
  0
XRECORD
  5
2921
102
{ACAD_REACTORS
330
21E8
102
}
330
21E8
100
AcDbXrecord
280
     1
102
MATERIAL
340
219C
  0
XRECORD
  5
21E9
102
{ACAD_REACTORS
330
21E8
102
}
330
21E8
100
AcDbXrecord
280
     1
290
     1
  0
XRECORD
  5
2922
102
{ACAD_REACTORS
330
21EA
102
}
330
21EA
100
AcDbXrecord
280
     1
102
MATERIAL
340
219C
  0
XRECORD
  5
21EB
102
{ACAD_REACTORS
330
21EA
102
}
330
21EA
100
AcDbXrecord
280
     1
290
     1
  0
XRECORD
  5
2923
102
{ACAD_REACTORS
330
21EC
102
}
330
21EC
100
AcDbXrecord
280
     1
102
MATERIAL
340
219C
  0
XRECORD
  5
21ED
102
{ACAD_REACTORS
330
21EC
102
}
330
21EC
100
AcDbXrecord
280
     1
290
     1
  0
XRECORD
  5
2933
102
{ACAD_REACTORS
330
21FC
102
}
330
21FC
100
AcDbXrecord
280
     1
102
MATERIAL
340
219C
  0
XRECORD
  5
21FD
102
{ACAD_REACTORS
330
21FC
102
}
330
21FC
100
AcDbXrecord
280
     1
290
     1
  0
SORTENTSTABLE
  5
240D
102
{ACAD_REACTORS
330
240C
102
}
330
240C
100
AcDbSortentsTable
330
1F
331
1E30
  5
1E3A
331
1ECF
  5
1EE6
331
1DE1
  5
1DE1
331
1E38
  5
1E42
331
1DE9
  5
1DE9
331
1E40
  5
1EB0
331
2075
  5
242C
331
1EDF
  5
1F0A
331
1E70
  5
1EB3
331
2435
  5
2414
331
2346
  5
2447
331
1DF9
  5
1DF9
331
1EB0
  5
1EBD
331
1E21
  5
1E37
331
1F76
  5
241F
331
1EFF
  5
1F71
331
1EC0
  5
1ED2
331
1DD2
  5
1DD2
331
20E2
  5
2436
331
20EA
  5
243E
331
1E31
  5
1E3B
331
1EC8
  5
1EDA
331
1ED0
  5
1EFF
331
1DE2
  5
1DE2
331
1E39
  5
1E70
331
1DEA
  5
1DEA
331
1E41
  5
1EB1
331
2076
  5
242D
331
1E71
  5
1EB4
331
1F3F
  5
2415
331
1B6
  5
1B6
331
2426
  5
20E6
331
2347
  5
2448
331
1EE0
  5
1F0B
331
1EE8
  5
1F28
331
1EB1
  5
1EBE
331
1EB9
  5
1ECB
331
1F77
  5
2420
331
1FFF
  5
2421
331
1DD3
  5
1DD3
331
1F00
  5
1F77
331
207C
  5
242F
331
20E3
  5
2437
331
2417
  5
1F04
331
1EC9
  5
1EDB
331
1E32
  5
1E3C
331
1F10
  5
20A7
331
1ED1
  5
1F00
331
1DE3
  5
1DE3
331
1E3A
  5
1E71
331
1E42
  5
1EB2
331
1F40
  5
2416
331
2077
  5
242E
331
1EE1
  5
1F0C
331
1F70
  5
241B
331
1EB2
  5
1EBF
331
1EE9
  5
1F3C
331
1EC2
  5
1ED3
331
243F
  5
2418
331
20E4
  5
2438
331
20EC
  5
243F
331
1F11
  5
20DE
331
1E33
  5
1E3D
331
1ECA
  5
1EDD
331
1ED2
  5
1F01
331
1DE4
  5
1DE4
331
1E3B
  5
1E73
331
1F29
  5
20E7
331
1DEC
  5
1DEC
331
2070
  5
2427
331
1E73
  5
1EB7
331
20FC
  5
2445
331
2430
  5
20FC
331
1EE2
  5
1F0D
331
1EAB
  5
1EB8
331
1F71
  5
241C
331
1EB3
  5
1EC0
331
1E04
  5
1E15
331
1EEA
  5
1F4F
331
1EBB
  5
1ECD
331
1EC3
  5
1ED4
331
20DD
  5
2431
331
20E5
  5
2439
331
20ED
  5
2440
331
20F5
  5
2444
331
1ECB
  5
1EDE
331
1DDD
  5
1DDD
331
1E34
  5
1E3E
331
2039
  5
2424
331
1ED3
  5
1F02
331
1DE5
  5
1DE5
331
1E3C
  5
1EAB
331
1F2A
  5
20E8
331
1EDB
  5
1F05
331
2071
  5
2428
331
20FD
  5
2446
331
2421
  5
2075
331
1EE3
  5
1F0F
331
1EB4
  5
1EC2
331
1EC4
  5
1ED7
331
20DE
  5
2432
331
20E6
  5
243A
331
20A7
  5
2430
331
2412
  5
1E35
331
20EE
  5
2441
331
1E35
  5
1E3F
331
1DDE
  5
1DDE
331
A37
  5
A37
331
1ECC
  5
1EDF
331
1ED4
  5
1F03
331
1DE6
  5
1DE6
331
1E3D
  5
1EAC
331
1F2B
  5
20EE
331
1F3B
  5
2413
331
2072
  5
2429
331
1EE4
  5
1F10
331
1EAD
  5
1EBB
331
1F6B
  5
2419
331
1E2E
  5
1E38
331
2003
  5
2422
331
243A
  5
2417
331
20DF
  5
2433
331
240B
  5
1E14
331
20E7
  5
243B
331
20EF
  5
2442
331
1ECD
  5
1EE0
331
1E36
  5
1E40
331
1DDF
  5
1DDF
331
1E3E
  5
1EAD
331
1DE7
  5
1DE7
331
206B
  5
2425
331
2073
  5
242A
331
1DEF
  5
1DEF
331
1EDD
  5
1F08
331
6D3
  5
6D3
331
242B
  5
20E3
331
1F6C
  5
241A
331
1EE5
  5
1F11
331
1E07
  5
1E16
331
1F74
  5
241D
331
1EBE
  5
1ED0
331
1EC6
  5
1ED8
331
1E2F
  5
1E39
331
2004
  5
2423
331
20E0
  5
2434
331
20E8
  5
243C
331
241C
  5
1FFF
331
1DE0
  5
1DE0
331
1E37
  5
1E41
331
1ECE
  5
1EE1
331
206C
  5
2426
331
1DE8
  5
1DE8
331
1E3F
  5
1EAF
331
2074
  5
242B
331
1EDE
  5
1F09
331
1EE6
  5
1F12
331
1EAF
  5
1EBC
331
1E20
  5
1E36
331
1F75
  5
241E
331
1DD1
  5
1DD1
331
1EBF
  5
1ED1
331
1EC7
  5
1ED9
331
20E1
  5
2435
331
2444
  5
1ECF
331
20E9
  5
243D
331
20F1
  5
2443
  0
SORTENTSTABLE
  5
2D81
102
{ACAD_REACTORS
330
2D80
102
}
330
2D80
100
AcDbSortentsTable
330
1D30
  0
SORTENTSTABLE
  5
2D86
102
{ACAD_REACTORS
330
2D85
102
}
330
2D85
100
AcDbSortentsTable
330
1D36
  0
SORTENTSTABLE
  5
2D8B
102
{ACAD_REACTORS
330
2D8A
102
}
330
2D8A
100
AcDbSortentsTable
330
1D3C
  0
SORTENTSTABLE
  5
2D90
102
{ACAD_REACTORS
330
2D8F
102
}
330
2D8F
100
AcDbSortentsTable
330
1D42
  0
SORTENTSTABLE
  5
2D96
102
{ACAD_REACTORS
330
2D95
102
}
330
2D95
100
AcDbSortentsTable
330
1D48
  0
SORTENTSTABLE
  5
2D9C
102
{ACAD_REACTORS
330
2D9B
102
}
330
2D9B
100
AcDbSortentsTable
330
2341
  0
SORTENTSTABLE
  5
2C5F
102
{ACAD_REACTORS
330
2C5E
102
}
330
2C5E
100
AcDbSortentsTable
330
2C5D
  0
XRECORD
  5
2925
102
{ACAD_REACTORS
330
2924
102
}
330
2924
100
AcDbXrecord
280
     1
102
VISUALSTYLE
340
21AA
102
GRIDDISPLAY
 70
     0
102
GRIDMAJOR
 70
     5
102
DEFAULTLIGHTING
280
     1
102
DEFAULTLIGHTINGTYPE
 70
     1
102
BRIGHTNESS
141
0.0
102
CONTRAST
142
0.0
102
SHADEPLOT
 70
     0
  0
XRECORD
  5
2927
102
{ACAD_REACTORS
330
2926
102
}
330
2926
100
AcDbXrecord
280
     1
102
VISUALSTYLE
340
21AA
102
GRIDDISPLAY
 70
     0
102
GRIDMAJOR
 70
     5
102
DEFAULTLIGHTING
280
     1
102
DEFAULTLIGHTINGTYPE
 70
     1
102
BRIGHTNESS
141
0.0
102
CONTRAST
142
0.0
102
SHADEPLOT
 70
     0
  0
GROUP
  5
C3
102
{ACAD_REACTORS
330
D
102
}
330
D
100
AcDbGroup
300

 70
     1
 71
     1
  0
GROUP
  5
8E7
102
{ACAD_REACTORS
330
D
102
}
330
D
100
AcDbGroup
300

 70
     1
 71
     1
  0
GROUP
  5
94F
102
{ACAD_REACTORS
330
D
102
}
330
D
100
AcDbGroup
300

 70
     1
 71
     1
  0
GROUP
  5
950
102
{ACAD_REACTORS
330
D
102
}
330
D
100
AcDbGroup
300

 70
     1
 71
     1
  0
LAYOUT
  5
22
102
{ACAD_XDICTIONARY
360
2DBE
102
}
102
{ACAD_REACTORS
330
1A
102
}
330
1A
100
AcDbPlotSettings
  1

  2
\\apl01\HP LaserJet 4MV
  4
A4
  6

 40
6.805083274841308
 41
5.069413185119628
 42
6.805084228515625
 43
5.027069091796875
 44
209.9733276367187
 45
296.9683227539062
 46
0.0
 47
0.0
 48
0.0
 49
0.0
140
0.0
141
0.0
142
1.0
143
1.0
 70
 11952
 72
     1
 73
     1
 74
     0
  7
A4 Specifier Manual.ctb
 75
     0
147
1.0
148
65.89085317126131
149
1.890852873238117
100
AcDbLayout
  1
Model
 70
     1
 71
     0
 10
0.0
 20
0.0
 11
12.0
 21
9.0
 12
0.0
 22
0.0
 32
0.0
 14
0.0
 24
0.0
 34
0.0
 15
0.0
 25
0.0
 35
0.0
146
0.0
 13
0.0
 23
0.0
 33
0.0
 16
1.0
 26
0.0
 36
0.0
 17
0.0
 27
1.0
 37
0.0
 76
     0
330
1F
  0
LAYOUT
  5
982
102
{ACAD_XDICTIONARY
360
224B
102
}
102
{ACAD_REACTORS
330
1A
102
}
330
1A
100
AcDbPlotSettings
  1

  2
\\Aplfp01\APL Technical HP5100 PSLaser
  4
A4
  6

 40
5.027082920074462
 41
5.408084392547607
 42
5.70440673828125
 43
5.365753173828125
 44
209.8886566162109
 45
297.0530090332031
 46
0.0
 47
0.0
 48
0.0
 49
0.0
140
0.0
141
0.0
142
1.0
143
1.0
 70
   176
 72
     1
 73
     0
 74
     5
  7
A4 Specifier Manual.ctb
 75
    16
147
1.0
148
0.0
149
0.0
100
AcDbLayout
  1
Vantage A4
 70
     1
 71
     1
 10
-5.027082920074462
 20
-5.408084392547607
 11
204.8615736961365
 21
291.6449246406555
 12
0.0
 22
0.0
 32
0.0
 14
11.46014299460751
 24
3.285575844812797
 34
-0.0015258207003583
 15
189.6073677543587
 25
282.2033753668244
 35
0.0000000349246037
146
0.0
 13
0.0
 23
0.0
 33
0.0
 16
1.0
 26
0.0
 36
0.0
 17
0.0
 27
1.0
 37
0.0
 76
     0
330
972
331
973
1001
ACAD_PSEXT
1000
\\Aplfp01\APL Technical HP5100 PSLaser
1000
HP LaserJet 5100 PS
1000
APL Technical Office
1000

1070
     0
  0
MATERIAL
  5
2194
102
{ACAD_XDICTIONARY
360
2195
102
}
102
{ACAD_REACTORS
330
2131
102
}
330
2131
100
AcDbMaterial
  1
ByBlock
 72
     0
 73
     2
 43
0.0008202099737533
 43
0.0
 43
0.0
 43
0.0
 43
0.0
 43
0.0008202099737533
 43
0.0
 43
0.0
 43
0.0
 43
0.0
 43
1.0
 43
0.0
 43
0.0
 43
0.0
 43
0.0
 43
1.0
 77
     0
 78
     2
 47
0.0008202099737533
 47
0.0
 47
0.0
 47
0.0
 47
0.0
 47
0.0008202099737533
 47
0.0
 47
0.0
 47
0.0
 47
0.0
 47
1.0
 47
0.0
 47
0.0
 47
0.0
 47
0.0
 47
1.0
171
     0
172
     2
 49
0.0008202099737533
 49
0.0
 49
0.0
 49
0.0
 49
0.0
 49
0.0008202099737533
 49
0.0
 49
0.0
 49
0.0
 49
0.0
 49
1.0
 49
0.0
 49
0.0
 49
0.0
 49
0.0
 49
1.0
175
     0
176
     2
142
0.0008202099737533
142
0.0
142
0.0
142
0.0
142
0.0
142
0.0008202099737533
142
0.0
142
0.0
142
0.0
142
0.0
142
1.0
142
0.0
142
0.0
142
0.0
142
0.0
142
1.0
179
     0
270
     2
144
0.0008202099737533
144
0.0
144
0.0
144
0.0
144
0.0
144
0.0008202099737533
144
0.0
144
0.0
144
0.0
144
0.0
144
1.0
144
0.0
144
0.0
144
0.0
144
0.0
144
1.0
274
     2
147
0.0008202099737533
147
0.0
147
0.0
147
0.0
147
0.0
147
0.0008202099737533
147
0.0
147
0.0
147
0.0
147
0.0
147
1.0
147
0.0
147
0.0
147
0.0
147
0.0
147
1.0
  0
MATERIAL
  5
218C
102
{ACAD_XDICTIONARY
360
218D
102
}
102
{ACAD_REACTORS
330
2131
102
}
330
2131
100
AcDbMaterial
  1
ByLayer
 72
     0
 73
     2
 43
0.0008202099737533
 43
0.0
 43
0.0
 43
0.0
 43
0.0
 43
0.0008202099737533
 43
0.0
 43
0.0
 43
0.0
 43
0.0
 43
1.0
 43
0.0
 43
0.0
 43
0.0
 43
0.0
 43
1.0
 77
     0
 78
     2
 47
0.0008202099737533
 47
0.0
 47
0.0
 47
0.0
 47
0.0
 47
0.0008202099737533
 47
0.0
 47
0.0
 47
0.0
 47
0.0
 47
1.0
 47
0.0
 47
0.0
 47
0.0
 47
0.0
 47
1.0
171
     0
172
     2
 49
0.0008202099737533
 49
0.0
 49
0.0
 49
0.0
 49
0.0
 49
0.0008202099737533
 49
0.0
 49
0.0
 49
0.0
 49
0.0
 49
1.0
 49
0.0
 49
0.0
 49
0.0
 49
0.0
 49
1.0
175
     0
176
     2
142
0.0008202099737533
142
0.0
142
0.0
142
0.0
142
0.0
142
0.0008202099737533
142
0.0
142
0.0
142
0.0
142
0.0
142
1.0
142
0.0
142
0.0
142
0.0
142
0.0
142
1.0
179
     0
270
     2
144
0.0008202099737533
144
0.0
144
0.0
144
0.0
144
0.0
144
0.0008202099737533
144
0.0
144
0.0
144
0.0
144
0.0
144
1.0
144
0.0
144
0.0
144
0.0
144
0.0
144
1.0
274
     2
147
0.0008202099737533
147
0.0
147
0.0
147
0.0
147
0.0
147
0.0008202099737533
147
0.0
147
0.0
147
0.0
147
0.0
147
1.0
147
0.0
147
0.0
147
0.0
147
0.0
147
1.0
  0
MATERIAL
  5
219C
102
{ACAD_XDICTIONARY
360
219D
102
}
102
{ACAD_REACTORS
330
2131
102
}
330
2131
100
AcDbMaterial
  1
Global
 72
     0
 73
     2
 43
0.0008202099737533
 43
0.0
 43
0.0
 43
0.0
 43
0.0
 43
0.0008202099737533
 43
0.0
 43
0.0
 43
0.0
 43
0.0
 43
1.0
 43
0.0
 43
0.0
 43
0.0
 43
0.0
 43
1.0
 77
     0
 78
     2
 47
0.0008202099737533
 47
0.0
 47
0.0
 47
0.0
 47
0.0
 47
0.0008202099737533
 47
0.0
 47
0.0
 47
0.0
 47
0.0
 47
1.0
 47
0.0
 47
0.0
 47
0.0
 47
0.0
 47
1.0
171
     0
172
     2
 49
0.0008202099737533
 49
0.0
 49
0.0
 49
0.0
 49
0.0
 49
0.0008202099737533
 49
0.0
 49
0.0
 49
0.0
 49
0.0
 49
1.0
 49
0.0
 49
0.0
 49
0.0
 49
0.0
 49
1.0
175
     0
176
     2
142
0.0008202099737533
142
0.0
142
0.0
142
0.0
142
0.0
142
0.0008202099737533
142
0.0
142
0.0
142
0.0
142
0.0
142
1.0
142
0.0
142
0.0
142
0.0
142
0.0
142
1.0
179
     0
270
     2
144
0.0008202099737533
144
0.0
144
0.0
144
0.0
144
0.0
144
0.0008202099737533
144
0.0
144
0.0
144
0.0
144
0.0
144
1.0
144
0.0
144
0.0
144
0.0
144
0.0
144
1.0
274
     2
147
0.0008202099737533
147
0.0
147
0.0
147
0.0
147
0.0
147
0.0008202099737533
147
0.0
147
0.0
147
0.0
147
0.0
147
1.0
147
0.0
147
0.0
147
0.0
147
0.0
147
1.0
  0
ACAD_PROXY_OBJECT
  5
2495
102
{ACAD_REACTORS
330
21D7
102
}
330
21D7
100
AcDbProxyObject
 90
      499
 91
      509
 95
   983063
 70
     0
 93
      618
310
40901902A4063FBFFFFFE000000000000002040AD7A3703D0AD73F4254DD185B99185C99000000000000000104090141901A00000000000004100000000000000041025764000000000000300FC0
340
14
340
0
340
11
340
0
 94
        0
1001
ACAD_MLEADERVER
1070
     2
1001
ACAD
1000
AcRTDxfName
1000
MLEADERSTYLE
1000
AcRTDxfName
1000
MLEADERSTYLE
1000
AcRTDxfName
1000
MLEADERSTYLE
1000
AcRTDxfName
1000
MLEADERSTYLE
  0
MLINESTYLE
  5
18
102
{ACAD_REACTORS
330
17
102
}
330
17
100
AcDbMlineStyle
  2
STANDARD
 70
     0
  3

 62
   256
 51
90.0
 52
90.0
 71
     2
 49
0.5
 62
   256
  6
BYLAYER
 49
-0.5
 62
   256
  6
BYLAYER
  0
ACDBPLACEHOLDER
  5
F
102
{ACAD_REACTORS
330
E
102
}
330
E
  0
ACAD_PROXY_OBJECT
  5
21B6
102
{ACAD_REACTORS
330
21B5
102
}
330
21B5
100
AcDbProxyObject
 90
      499
 91
      508
 95
   983063
 70
     0
 93
       49
310
904313A3100580
 94
        0
1001
ACAD
1000
AcRTDxfName
1000
SCALE
1000
AcRTDxfName
1000
SCALE
1000
AcRTDxfName
1000
SCALE
1000
AcRTDxfName
1000
SCALE
  0
ACAD_PROXY_OBJECT
  5
21B7
102
{ACAD_REACTORS
330
21B5
102
}
330
21B5
100
AcDbProxyObject
 90
      499
 91
      508
 95
   983063
 70
     0
 93
      113
310
904313A32004000000000000004005
 94
        0
1001
ACAD
1000
AcRTDxfName
1000
SCALE
1000
AcRTDxfName
1000
SCALE
1000
AcRTDxfName
1000
SCALE
1000
AcRTDxfName
1000
SCALE
  0
ACAD_PROXY_OBJECT
  5
21B8
102
{ACAD_REACTORS
330
21B5
102
}
330
21B5
100
AcDbProxyObject
 90
      499
 91
      508
 95
   983063
 70
     0
 93
      113
310
904313A34004000000000000104040
 94
        0
1001
ACAD
1000
AcRTDxfName
1000
SCALE
1000
AcRTDxfName
1000
SCALE
1000
AcRTDxfName
1000
SCALE
1000
AcRTDxfName
1000
SCALE
  0
ACAD_PROXY_OBJECT
  5
21B9
102
{ACAD_REACTORS
330
21B5
102
}
330
21B5
100
AcDbProxyObject
 90
      499
 91
      508
 95
   983063
 70
     0
 93
      113
310
904313A35004000000000000144005
 94
        0
1001
ACAD
1000
AcRTDxfName
1000
SCALE
1000
AcRTDxfName
1000
SCALE
1000
AcRTDxfName
1000
SCALE
1000
AcRTDxfName
1000
SCALE
  0
ACAD_PROXY_OBJECT
  5
21BA
102
{ACAD_REACTORS
330
21B5
102
}
330
21B5
100
AcDbProxyObject
 90
      499
 91
      508
 95
   983063
 70
     0
 93
      113
310
904313A38004000000000000204040
 94
        0
1001
ACAD
1000
AcRTDxfName
1000
SCALE
1000
AcRTDxfName
1000
SCALE
1000
AcRTDxfName
1000
SCALE
1000
AcRTDxfName
1000
SCALE
  0
ACAD_PROXY_OBJECT
  5
21BB
102
{ACAD_REACTORS
330
21B5
102
}
330
21B5
100
AcDbProxyObject
 90
      499
 91
      508
 95
   983063
 70
     0
 93
      121
310
905313A3130004000000000000244040
 94
        0
1001
ACAD
1000
AcRTDxfName
1000
SCALE
1000
AcRTDxfName
1000
SCALE
1000
AcRTDxfName
1000
SCALE
1000
AcRTDxfName
1000
SCALE
  0
ACAD_PROXY_OBJECT
  5
21BC
102
{ACAD_REACTORS
330
21B5
102
}
330
21B5
100
AcDbProxyObject
 90
      499
 91
      508
 95
   983063
 70
     0
 93
      121
310
905313A3136004000000000000304001
 94
        0
1001
ACAD
1000
AcRTDxfName
1000
SCALE
1000
AcRTDxfName
1000
SCALE
1000
AcRTDxfName
1000
SCALE
1000
AcRTDxfName
1000
SCALE
  0
ACAD_PROXY_OBJECT
  5
21BD
102
{ACAD_REACTORS
330
21B5
102
}
330
21B5
100
AcDbProxyObject
 90
      499
 91
      508
 95
   983063
 70
     0
 93
      121
310
905313A3230004000000000000344040
 94
        0
1001
ACAD
1000
AcRTDxfName
1000
SCALE
1000
AcRTDxfName
1000
SCALE
1000
AcRTDxfName
1000
SCALE
1000
AcRTDxfName
1000
SCALE
  0
ACAD_PROXY_OBJECT
  5
21BE
102
{ACAD_REACTORS
330
21B5
102
}
330
21B5
100
AcDbProxyObject
 90
      499
 91
      508
 95
   983063
 70
     0
 93
      121
310
905313A33300040000000000003E4001
 94
        0
1001
ACAD
1000
AcRTDxfName
1000
SCALE
1000
AcRTDxfName
1000
SCALE
1000
AcRTDxfName
1000
SCALE
1000
AcRTDxfName
1000
SCALE
  0
ACAD_PROXY_OBJECT
  5
21BF
102
{ACAD_REACTORS
330
21B5
102
}
330
21B5
100
AcDbProxyObject
 90
      499
 91
      508
 95
   983063
 70
     0
 93
      121
310
905313A3430004000000000000444040
 94
        0
1001
ACAD
1000
AcRTDxfName
1000
SCALE
1000
AcRTDxfName
1000
SCALE
1000
AcRTDxfName
1000
SCALE
1000
AcRTDxfName
1000
SCALE
  0
ACAD_PROXY_OBJECT
  5
21C0
102
{ACAD_REACTORS
330
21B5
102
}
330
21B5
100
AcDbProxyObject
 90
      499
 91
      508
 95
   983063
 70
     0
 93
      121
310
905313A3530004000000000000494001
 94
        0
1001
ACAD
1000
AcRTDxfName
1000
SCALE
1000
AcRTDxfName
1000
SCALE
1000
AcRTDxfName
1000
SCALE
1000
AcRTDxfName
1000
SCALE
  0
ACAD_PROXY_OBJECT
  5
21C1
102
{ACAD_REACTORS
330
21B5
102
}
330
21B5
100
AcDbProxyObject
 90
      499
 91
      508
 95
   983063
 70
     0
 93
      129
310
906313A313030004000000000000594000
 94
        0
1001
ACAD
1000
AcRTDxfName
1000
SCALE
1000
AcRTDxfName
1000
SCALE
1000
AcRTDxfName
1000
SCALE
1000
AcRTDxfName
1000
SCALE
  0
ACAD_PROXY_OBJECT
  5
21C2
102
{ACAD_REACTORS
330
21B5
102
}
330
21B5
100
AcDbProxyObject
 90
      499
 91
      508
 95
   983063
 70
     0
 93
      113
310
904323A31000000000000000010165
 94
        0
1001
ACAD
1000
AcRTDxfName
1000
SCALE
1000
AcRTDxfName
1000
SCALE
1000
AcRTDxfName
1000
SCALE
1000
AcRTDxfName
1000
SCALE
  0
ACAD_PROXY_OBJECT
  5
21C3
102
{ACAD_REACTORS
330
21B5
102
}
330
21B5
100
AcDbProxyObject
 90
      499
 91
      508
 95
   983063
 70
     0
 93
      113
310
904343A31000000000000000410101
 94
        0
1001
ACAD
1000
AcRTDxfName
1000
SCALE
1000
AcRTDxfName
1000
SCALE
1000
AcRTDxfName
1000
SCALE
1000
AcRTDxfName
1000
SCALE
  0
ACAD_PROXY_OBJECT
  5
21C4
102
{ACAD_REACTORS
330
21B5
102
}
330
21B5
100
AcDbProxyObject
 90
      499
 91
      508
 95
   983063
 70
     0
 93
      113
310
904383A31000000000000000810165
 94
        0
1001
ACAD
1000
AcRTDxfName
1000
SCALE
1000
AcRTDxfName
1000
SCALE
1000
AcRTDxfName
1000
SCALE
1000
AcRTDxfName
1000
SCALE
  0
ACAD_PROXY_OBJECT
  5
21C5
102
{ACAD_REACTORS
330
21B5
102
}
330
21B5
100
AcDbProxyObject
 90
      499
 91
      508
 95
   983063
 70
     0
 93
      121
310
90531303A31000000000000000910120
 94
        0
1001
ACAD
1000
AcRTDxfName
1000
SCALE
1000
AcRTDxfName
1000
SCALE
1000
AcRTDxfName
1000
SCALE
1000
AcRTDxfName
1000
SCALE
  0
ACAD_PROXY_OBJECT
  5
21C6
102
{ACAD_REACTORS
330
21B5
102
}
330
21B5
100
AcDbProxyObject
 90
      499
 91
      508
 95
   983063
 70
     0
 93
      129
310
9063130303A31000000000000001650100
 94
        0
1001
ACAD
1000
AcRTDxfName
1000
SCALE
1000
AcRTDxfName
1000
SCALE
1000
AcRTDxfName
1000
SCALE
1000
AcRTDxfName
1000
SCALE
  0
ACAD_PROXY_OBJECT
  5
21C7
102
{ACAD_REACTORS
330
21B5
102
}
330
21B5
100
AcDbProxyObject
 90
      499
 91
      508
 95
   983063
 70
     0
 93
      265
310
90F312F31323822203D2031272D302200000000000000200FC000000000000284018
 94
        0
1001
ACAD
1000
AcRTDxfName
1000
SCALE
1000
AcRTDxfName
1000
SCALE
1000
AcRTDxfName
1000
SCALE
1000
AcRTDxfName
1000
SCALE
  0
ACAD_PROXY_OBJECT
  5
21C8
102
{ACAD_REACTORS
330
21B5
102
}
330
21B5
100
AcDbProxyObject
 90
      499
 91
      508
 95
   983063
 70
     0
 93
      257
310
90E312F363422203D2031272D302200000000000000240FC000000000000284001
 94
        0
1001
ACAD
1000
AcRTDxfName
1000
SCALE
1000
AcRTDxfName
1000
SCALE
1000
AcRTDxfName
1000
SCALE
1000
AcRTDxfName
1000
SCALE
  0
ACAD_PROXY_OBJECT
  5
21C9
102
{ACAD_REACTORS
330
21B5
102
}
330
21B5
100
AcDbProxyObject
 90
      499
 91
      508
 95
   983063
 70
     0
 93
      257
310
90E312F333222203D2031272D302200000000000000280FC000000000000284040
 94
        0
1001
ACAD
1000
AcRTDxfName
1000
SCALE
1000
AcRTDxfName
1000
SCALE
1000
AcRTDxfName
1000
SCALE
1000
AcRTDxfName
1000
SCALE
  0
ACAD_PROXY_OBJECT
  5
21CA
102
{ACAD_REACTORS
330
21B5
102
}
330
21B5
100
AcDbProxyObject
 90
      499
 91
      508
 95
   983063
 70
     0
 93
      257
310
90E312F313622203D2031272D3022000000000000002C0FC000000000000284001
 94
        0
1001
ACAD
1000
AcRTDxfName
1000
SCALE
1000
AcRTDxfName
1000
SCALE
1000
AcRTDxfName
1000
SCALE
1000
AcRTDxfName
1000
SCALE
  0
ACAD_PROXY_OBJECT
  5
21CB
102
{ACAD_REACTORS
330
21B5
102
}
330
21B5
100
AcDbProxyObject
 90
      499
 91
      508
 95
   983063
 70
     0
 93
      257
310
90E332F333222203D2031272D3022000000000000002E0FC000000000000284040
 94
        0
1001
ACAD
1000
AcRTDxfName
1000
SCALE
1000
AcRTDxfName
1000
SCALE
1000
AcRTDxfName
1000
SCALE
1000
AcRTDxfName
1000
SCALE
  0
ACAD_PROXY_OBJECT
  5
21CC
102
{ACAD_REACTORS
330
21B5
102
}
330
21B5
100
AcDbProxyObject
 90
      499
 91
      508
 95
   983063
 70
     0
 93
      249
310
90D312F3822203D2031272D302200000000000000300FC000000000000284040
 94
        0
1001
ACAD
1000
AcRTDxfName
1000
SCALE
1000
AcRTDxfName
1000
SCALE
1000
AcRTDxfName
1000
SCALE
1000
AcRTDxfName
1000
SCALE
  0
ACAD_PROXY_OBJECT
  5
21CD
102
{ACAD_REACTORS
330
21B5
102
}
330
21B5
100
AcDbProxyObject
 90
      499
 91
      508
 95
   983063
 70
     0
 93
      257
310
90E332F313622203D2031272D302200000000000000320FC000000000000284040
 94
        0
1001
ACAD
1000
AcRTDxfName
1000
SCALE
1000
AcRTDxfName
1000
SCALE
1000
AcRTDxfName
1000
SCALE
1000
AcRTDxfName
1000
SCALE
  0
ACAD_PROXY_OBJECT
  5
21CE
102
{ACAD_REACTORS
330
21B5
102
}
330
21B5
100
AcDbProxyObject
 90
      499
 91
      508
 95
   983063
 70
     0
 93
      249
310
90D312F3422203D2031272D302200000000000000340FC000000000000284040
 94
        0
1001
ACAD
1000
AcRTDxfName
1000
SCALE
1000
AcRTDxfName
1000
SCALE
1000
AcRTDxfName
1000
SCALE
1000
AcRTDxfName
1000
SCALE
  0
ACAD_PROXY_OBJECT
  5
21CF
102
{ACAD_REACTORS
330
21B5
102
}
330
21B5
100
AcDbProxyObject
 90
      499
 91
      508
 95
   983063
 70
     0
 93
      249
310
90D332F3822203D2031272D302200000000000000360FC000000000000284028
 94
        0
1001
ACAD
1000
AcRTDxfName
1000
SCALE
1000
AcRTDxfName
1000
SCALE
1000
AcRTDxfName
1000
SCALE
1000
AcRTDxfName
1000
SCALE
  0
ACAD_PROXY_OBJECT
  5
21D0
102
{ACAD_REACTORS
330
21B5
102
}
330
21B5
100
AcDbProxyObject
 90
      499
 91
      508
 95
   983063
 70
     0
 93
      249
310
90D312F3222203D2031272D302200000000000000380FC000000000000284040
 94
        0
1001
ACAD
1000
AcRTDxfName
1000
SCALE
1000
AcRTDxfName
1000
SCALE
1000
AcRTDxfName
1000
SCALE
1000
AcRTDxfName
1000
SCALE
  0
ACAD_PROXY_OBJECT
  5
21D1
102
{ACAD_REACTORS
330
21B5
102
}
330
21B5
100
AcDbProxyObject
 90
      499
 91
      508
 95
   983063
 70
     0
 93
      249
310
90D332F3422203D2031272D3022000000000000003A0FC000000000000284028
 94
        0
1001
ACAD
1000
AcRTDxfName
1000
SCALE
1000
AcRTDxfName
1000
SCALE
1000
AcRTDxfName
1000
SCALE
1000
AcRTDxfName
1000
SCALE
  0
ACAD_PROXY_OBJECT
  5
21D2
102
{ACAD_REACTORS
330
21B5
102
}
330
21B5
100
AcDbProxyObject
 90
      499
 91
      508
 95
   983063
 70
     0
 93
      169
310
90B3122203D2031272D3022004000000000000284000
 94
        0
1001
ACAD
1000
AcRTDxfName
1000
SCALE
1000
AcRTDxfName
1000
SCALE
1000
AcRTDxfName
1000
SCALE
1000
AcRTDxfName
1000
SCALE
  0
ACAD_PROXY_OBJECT
  5
21D3
102
{ACAD_REACTORS
330
21B5
102
}
330
21B5
100
AcDbProxyObject
 90
      499
 91
      508
 95
   983063
 70
     0
 93
      265
310
90F312D312F3222203D2031272D3022000000000000003E0FC000000000000284018
 94
        0
1001
ACAD
1000
AcRTDxfName
1000
SCALE
1000
AcRTDxfName
1000
SCALE
1000
AcRTDxfName
1000
SCALE
1000
AcRTDxfName
1000
SCALE
  0
ACAD_PROXY_OBJECT
  5
21D4
102
{ACAD_REACTORS
330
21B5
102
}
330
21B5
100
AcDbProxyObject
 90
      499
 91
      508
 95
   983063
 70
     0
 93
      233
310
90B3322203D2031272D30220000000000000002100000000000000284000
 94
        0
1001
ACAD
1000
AcRTDxfName
1000
SCALE
1000
AcRTDxfName
1000
SCALE
1000
AcRTDxfName
1000
SCALE
1000
AcRTDxfName
1000
SCALE
  0
ACAD_PROXY_OBJECT
  5
21D5
102
{ACAD_REACTORS
330
21B5
102
}
330
21B5
100
AcDbProxyObject
 90
      499
 91
      508
 95
   983063
 70
     0
 93
      233
310
90B3622203D2031272D3022000000000000000610000000000000028405D
 94
        0
1001
ACAD
1000
AcRTDxfName
1000
SCALE
1000
AcRTDxfName
1000
SCALE
1000
AcRTDxfName
1000
SCALE
1000
AcRTDxfName
1000
SCALE
  0
ACAD_PROXY_OBJECT
  5
21D6
102
{ACAD_REACTORS
330
21B5
102
}
330
21B5
100
AcDbProxyObject
 90
      499
 91
      508
 95
   983063
 70
     0
 93
      257
310
90E31272D3022203D2031272D3022000000000000000A100000000000000284001
 94
        0
1001
ACAD
1000
AcRTDxfName
1000
SCALE
1000
AcRTDxfName
1000
SCALE
1000
AcRTDxfName
1000
SCALE
1000
AcRTDxfName
1000
SCALE
  0
TABLESTYLE
  5
2134
102
{ACAD_XDICTIONARY
360
2461
102
}
102
{ACAD_REACTORS
330
2133
102
}
330
2133
100
AcDbTableStyle
  3
Standard
 70
     0
 71
     0
 40
1.5
 41
1.5
280
     0
281
     0
  7
Standard
140
4.5
170
     2
 62
     0
 63
     7
283
     0
274
    -2
284
     1
 64
     0
275
    -2
285
     1
 65
     0
276
    -2
286
     1
 66
     0
277
    -2
287
     1
 67
     0
278
    -2
288
     1
 68
     0
279
    -2
289
     1
 69
     0
  7
Standard
140
6.0
170
     5
 62
     0
 63
     7
283
     0
274
    -2
284
     1
 64
     0
275
    -2
285
     1
 65
     0
276
    -2
286
     1
 66
     0
277
    -2
287
     1
 67
     0
278
    -2
288
     1
 68
     0
279
    -2
289
     1
 69
     0
  7
Standard
140
4.5
170
     5
 62
     0
 63
     7
283
     0
274
    -2
284
     1
 64
     0
275
    -2
285
     1
 65
     0
276
    -2
286
     1
 66
     0
277
    -2
287
     1
 67
     0
278
    -2
288
     1
 68
     0
279
    -2
289
     1
 69
     0
  0
ACAD_PROXY_OBJECT
  5
21AA
102
{ACAD_REACTORS
330
21A4
102
}
330
21A4
100
AcDbProxyObject
 90
      499
 91
      507
 95
   983063
 70
     0
 93
      444
310
430C9915DA5C99599C985B59401049028333333333333E3BF0000000000000FB0107901411070040501600405405064090741402480A0340
 94
        0
1001
ACAD
1000
AcDbSavedByObjectVersion
1070
     0
1000
AcRTDxfName
1000
VISUALSTYLE
1000
AcRTDxfName
1000
VISUALSTYLE
1000
AcRTDxfName
1000
VISUALSTYLE
1000
AcRTDxfName
1000
VISUALSTYLE
  0
ACAD_PROXY_OBJECT
  5
21AC
102
{ACAD_REACTORS
330
21A4
102
}
330
21A4
100
AcDbProxyObject
 90
      499
 91
      507
 95
   983063
 70
     0
 93
      508
310
428CD108121A5919195B8010640502408333333333333E3BF0000000000000FB01079024090700405020000000000001110200405405064090740C02480A0340
 94
        0
1001
ACAD
1000
AcDbSavedByObjectVersion
1070
     0
1000
AcRTDxfName
1000
VISUALSTYLE
1000
AcRTDxfName
1000
VISUALSTYLE
1000
AcRTDxfName
1000
VISUALSTYLE
1000
AcRTDxfName
1000
VISUALSTYLE
  0
ACAD_PROXY_OBJECT
  5
21AB
102
{ACAD_REACTORS
330
21A4
102
}
330
21A4
100
AcDbProxyObject
 90
      499
 91
      507
 95
   983063
 70
     0
 93
      444
310
430CD915DA5C99599C985B59401059028333333333333E3BF0000000000000FB0107901411070040501600405405064090741402480A0340
 94
        0
1001
ACAD
1000
AcDbSavedByObjectVersion
1070
     0
1000
AcRTDxfName
1000
VISUALSTYLE
1000
AcRTDxfName
1000
VISUALSTYLE
1000
AcRTDxfName
1000
VISUALSTYLE
1000
AcRTDxfName
1000
VISUALSTYLE
  0
ACAD_PROXY_OBJECT
  5
21A9
102
{ACAD_REACTORS
330
21A4
102
}
330
21A4
100
AcDbProxyObject
 90
      499
 91
      507
 95
   983063
 70
     0
 93
      396
310
4190985CDA58C0107406404333333333333E3BF0000000000000FB0107A41107004050150841D405064090741402480A0354
 94
        0
1001
ACAD
1000
AcDbSavedByObjectVersion
1070
     0
1000
AcRTDxfName
1000
VISUALSTYLE
1000
AcRTDxfName
1000
VISUALSTYLE
1000
AcRTDxfName
1000
VISUALSTYLE
1000
AcRTDxfName
1000
VISUALSTYLE
  0
ACAD_PROXY_OBJECT
  5
21B0
102
{ACAD_REACTORS
330
21A4
102
}
330
21A4
100
AcDbProxyObject
 90
      499
 91
      507
 95
   983063
 70
     0
 93
      436
310
42509C9A59DA1D195B8010C409028333333333333E3BF0000000000000FB010790141107004050150841D405064090741402480A02995A
 94
        0
1001
ACAD
1000
AcDbSavedByObjectVersion
1070
     0
1000
AcRTDxfName
1000
VISUALSTYLE
1000
AcRTDxfName
1000
VISUALSTYLE
1000
AcRTDxfName
1000
VISUALSTYLE
1000
AcRTDxfName
1000
VISUALSTYLE
  0
ACAD_PROXY_OBJECT
  5
21B4
102
{ACAD_REACTORS
330
21A4
102
}
330
21A4
100
AcDbProxyObject
 90
      499
 91
      507
 95
   983063
 70
     0
 93
      460
310
4310DBDB1BDC90DA185B99D9401104090240C333333333333E3BF0000000000000FB0108901411070040501508421405064090741402480A035E
 94
        0
1001
ACAD
1000
AcDbSavedByObjectVersion
1070
     0
1000
AcRTDxfName
1000
VISUALSTYLE
1000
AcRTDxfName
1000
VISUALSTYLE
1000
AcRTDxfName
1000
VISUALSTYLE
1000
AcRTDxfName
1000
VISUALSTYLE
  0
ACAD_PROXY_OBJECT
  5
21AD
102
{ACAD_REACTORS
330
21A4
102
}
330
21A4
100
AcDbProxyObject
 90
      499
 91
      507
 95
   983063
 70
     0
 93
      508
310
42D0DBDB98D95C1D1D585B0010940D028333333333333E3BF0000000000000FB0107902409070040501000000000000111010841D405064090740C02480A0340
 94
        0
1001
ACAD
1000
AcDbSavedByObjectVersion
1070
     0
1000
AcRTDxfName
1000
VISUALSTYLE
1000
AcRTDxfName
1000
VISUALSTYLE
1000
AcRTDxfName
1000
VISUALSTYLE
1000
AcRTDxfName
1000
VISUALSTYLE
  0
ACAD_PROXY_OBJECT
  5
21AF
102
{ACAD_REACTORS
330
21A4
102
}
330
21A4
100
AcDbProxyObject
 90
      499
 91
      507
 95
   983063
 70
     0
 93
      420
310
41111A5B4010B409028333333333333E3BF0000000000000FB010790141107004050150841D405064090741402480A02677FFFFFD2
 94
        0
1001
ACAD
1000
AcDbSavedByObjectVersion
1070
     0
1000
AcRTDxfName
1000
VISUALSTYLE
1000
AcRTDxfName
1000
VISUALSTYLE
1000
AcRTDxfName
1000
VISUALSTYLE
1000
AcRTDxfName
1000
VISUALSTYLE
  0
ACAD_PROXY_OBJECT
  5
21B3
102
{ACAD_REACTORS
330
21A4
102
}
330
21A4
100
AcDbProxyObject
 90
      499
 91
      507
 95
   983063
 70
     0
 93
      452
310
43119858D95C185D1D195C9B8010F409028333333333333E3BF0000000000000FB010790141107004050150841D405064090741402480A0354
 94
        0
1001
ACAD
1000
AcDbSavedByObjectVersion
1070
     0
1000
AcRTDxfName
1000
VISUALSTYLE
1000
AcRTDxfName
1000
VISUALSTYLE
1000
AcRTDxfName
1000
VISUALSTYLE
1000
AcRTDxfName
1000
VISUALSTYLE
  0
ACAD_PROXY_OBJECT
  5
21A5
102
{ACAD_REACTORS
330
21A4
102
}
330
21A4
100
AcDbProxyObject
 90
      499
 91
      507
 95
   983063
 70
     0
 93
      396
310
41519B185D00240901404333333333333E3BF0000000000000F9010740A41107004050150841D405064090741402480A1B58
 94
        0
1001
ACAD
1000
AcDbSavedByObjectVersion
1070
     0
1000
AcRTDxfName
1000
VISUALSTYLE
1000
AcRTDxfName
1000
VISUALSTYLE
1000
AcRTDxfName
1000
VISUALSTYLE
1000
AcRTDxfName
1000
VISUALSTYLE
  0
ACAD_PROXY_OBJECT
  5
21A6
102
{ACAD_REACTORS
330
21A4
102
}
330
21A4
100
AcDbProxyObject
 90
      499
 91
      507
 95
   983063
 70
     0
 93
      484
310
43919B185D15DA5D1A115919D95CC010140901404333333333333E3BF0000000000000F9010740901411070040501600405405064090741402480A1B58
 94
        0
1001
ACAD
1000
AcDbSavedByObjectVersion
1070
     0
1000
AcRTDxfName
1000
VISUALSTYLE
1000
AcRTDxfName
1000
VISUALSTYLE
1000
AcRTDxfName
1000
VISUALSTYLE
1000
AcRTDxfName
1000
VISUALSTYLE
  0
ACAD_PROXY_OBJECT
  5
21A7
102
{ACAD_REACTORS
330
21A4
102
}
330
21A4
100
AcDbProxyObject
 90
      499
 91
      507
 95
   983063
 70
     0
 93
      420
310
4211DBDD5C985D590010240902404333333333333E3BF0000000000000F9010740A411070040501641D405064090741402480A1B58
 94
        0
1001
ACAD
1000
AcDbSavedByObjectVersion
1070
     0
1000
AcRTDxfName
1000
VISUALSTYLE
1000
AcRTDxfName
1000
VISUALSTYLE
1000
AcRTDxfName
1000
VISUALSTYLE
1000
AcRTDxfName
1000
VISUALSTYLE
  0
ACAD_PROXY_OBJECT
  5
21A8
102
{ACAD_REACTORS
330
21A4
102
}
330
21A4
100
AcDbProxyObject
 90
      499
 91
      507
 95
   983063
 70
     0
 93
      508
310
4451DBDD5C985D5915DA5D1A115919D95CC010340902404333333333333E3BF0000000000000F9010740901411070040501600405405064090741402480A1B50
 94
        0
1001
ACAD
1000
AcDbSavedByObjectVersion
1070
     0
1000
AcRTDxfName
1000
VISUALSTYLE
1000
AcRTDxfName
1000
VISUALSTYLE
1000
AcRTDxfName
1000
VISUALSTYLE
1000
AcRTDxfName
1000
VISUALSTYLE
  0
ACAD_PROXY_OBJECT
  5
21B2
102
{ACAD_REACTORS
330
21A4
102
}
330
21A4
100
AcDbProxyObject
 90
      499
 91
      507
 95
   983063
 70
     0
 93
      452
310
43131A5B995C185D1D195C9B8010E409028333333333333E3BF0000000000000FB010790141107004050750841D405064090741402483A0353
 94
        0
1001
ACAD
1000
AcDbSavedByObjectVersion
1070
     0
1000
AcRTDxfName
1000
VISUALSTYLE
1000
AcRTDxfName
1000
VISUALSTYLE
1000
AcRTDxfName
1000
VISUALSTYLE
1000
AcRTDxfName
1000
VISUALSTYLE
  0
ACAD_PROXY_OBJECT
  5
21AE
102
{ACAD_REACTORS
330
21A4
102
}
330
21A4
100
AcDbProxyObject
 90
      499
 91
      507
 95
   983063
 70
     0
 93
      428
310
429499585B1A5CDD1A58C0108409028333333333333E3BF0000000000000FB01079019070040501508421405064090741402480A1B49
 94
        0
1001
ACAD
1000
AcDbSavedByObjectVersion
1070
     0
1000
AcRTDxfName
1000
VISUALSTYLE
1000
AcRTDxfName
1000
VISUALSTYLE
1000
AcRTDxfName
1000
VISUALSTYLE
1000
AcRTDxfName
1000
VISUALSTYLE
  0
ACAD_PROXY_OBJECT
  5
21B1
102
{ACAD_REACTORS
330
21A4
102
}
330
21A4
100
AcDbProxyObject
 90
      499
 91
      507
 95
   983063
 70
     0
 93
      420
310
42151A1A58DAD95B8010D409028333333333333E3BF0000000000000FB010790141107004050150C41D405064090741402480A0352
 94
        0
1001
ACAD
1000
AcDbSavedByObjectVersion
1070
     0
1000
AcRTDxfName
1000
VISUALSTYLE
1000
AcRTDxfName
1000
VISUALSTYLE
1000
AcRTDxfName
1000
VISUALSTYLE
1000
AcRTDxfName
1000
VISUALSTYLE
  0
DICTIONARYVAR
  5
2491
102
{ACAD_REACTORS
330
6D
102
}
330
6D
100
DictionaryVariables
280
     0
  1
1:1
  0
DICTIONARYVAR
  5
24D0
102
{ACAD_REACTORS
330
6D
102
}
330
6D
100
DictionaryVariables
280
     0
  1
STANDARD
  0
DICTIONARYVAR
  5
213E
102
{ACAD_REACTORS
330
6D
102
}
330
6D
100
DictionaryVariables
280
     0
  1
STANDARD
  0
DICTIONARYVAR
  5
6F
102
{ACAD_REACTORS
330
6D
102
}
330
6D
100
DictionaryVariables
280
     0
  1
2
  0
DICTIONARYVAR
  5
6E
102
{ACAD_REACTORS
330
6D
102
}
330
6D
100
DictionaryVariables
280
     0
  1
1
  0
DICTIONARYVAR
  5
2493
102
{ACAD_REACTORS
330
6D
102
}
330
6D
100
DictionaryVariables
280
     0
  1
0
  0
DICTIONARYVAR
  5
2154
102
{ACAD_REACTORS
330
6D
102
}
330
6D
100
DictionaryVariables
280
     0
  1

  0
DICTIONARYVAR
  5
2492
102
{ACAD_REACTORS
330
6D
102
}
330
6D
100
DictionaryVariables
280
     0
  1
127
  0
DICTIONARY
  5
2DBE
330
22
100
AcDbDictionary
280
     1
281
     1
  3
ACAD_XREC_ROUNDTRIP
360
2DBF
  0
DICTIONARY
  5
224B
330
982
100
AcDbDictionary
280
     1
281
     1
  3
ACAD_XREC_ROUNDTRIP
360
2DC0
  3
ADSK_XREC_LAYOUTTHUMBNAIL
360
224C
  0
DICTIONARY
  5
2195
330
2194
100
AcDbDictionary
280
     1
281
     1
  3
ACAD_XREC_ROUNDTRIP
360
293D
  3
BUMPTILE
360
2197
  3
DIFFUSETILE
360
2196
  3
OPACITYTILE
360
219A
  3
REFLECTIONTILE
360
2199
  3
REFRACTIONTILE
360
219B
  3
SPECULARTILE
360
2198
  0
DICTIONARY
  5
218D
330
218C
100
AcDbDictionary
280
     1
281
     1
  3
ACAD_XREC_ROUNDTRIP
360
293C
  3
BUMPTILE
360
218F
  3
DIFFUSETILE
360
218E
  3
OPACITYTILE
360
2192
  3
REFLECTIONTILE
360
2191
  3
REFRACTIONTILE
360
2193
  3
SPECULARTILE
360
2190
  0
DICTIONARY
  5
219D
330
219C
100
AcDbDictionary
280
     1
281
     1
  3
ACAD_XREC_ROUNDTRIP
360
293E
  3
BUMPTILE
360
219F
  3
DIFFUSETILE
360
219E
  3
OPACITYTILE
360
21A2
  3
REFLECTIONTILE
360
21A1
  3
REFRACTIONTILE
360
21A3
  3
SPECULARTILE
360
21A0
  0
DICTIONARY
  5
2461
330
2134
100
AcDbDictionary
280
     1
281
     1
  3
ACAD_ROUNDTRIP_2008_TABLESTYLE_CELLSTYLEMAP
360
2916
  3
ACAD_XREC_ROUNDTRIP
360
292E
  0
XRECORD
  5
2DBF
102
{ACAD_REACTORS
330
2DBE
102
}
330
2DBE
100
AcDbXrecord
280
     1
102
SHADEPLOT
 70
     0
102
SHADEPLOTRESLEVEL
 70
     2
102
SHADEPLOTCUSTOMDPI
 70
   300
  0
XRECORD
  5
2DC0
102
{ACAD_REACTORS
330
224B
102
}
330
224B
100
AcDbXrecord
280
     1
102
SHADEPLOT
 70
     1
102
SHADEPLOTRESLEVEL
 70
     2
102
SHADEPLOTCUSTOMDPI
 70
   300
  0
XRECORD
  5
224C
102
{ACAD_REACTORS
330
224B
102
}
330
224B
100
AcDbXrecord
280
     1
310
28000000630000008C0000000100080000000000B0360000000000000000000000010000000000000000000000000000FFFFFF000000000000000000000000000000000000000000000000000000000000000000330000006600000099000000CC000000FF00000000330000333300006633000099330000CC330000FF3300
310
0000660000336600006666000099660000CC660000FF66000000990000339900006699000099990000CC990000FF99000000CC000033CC000066CC000099CC0000CCCC0000FFCC000000FF000033FF000066FF000099FF0000CCFF0000FFFF000000003300330033006600330099003300CC003300FF003300003333003333
310
33006633330099333300CC333300FF33330000663300336633006666330099663300CC663300FF66330000993300339933006699330099993300CC993300FF99330000CC330033CC330066CC330099CC3300CCCC3300FFCC330000FF330033FF330066FF330099FF3300CCFF3300FFFF330000006600330066006600660099
310
006600CC006600FF00660000336600333366006633660099336600CC336600FF33660000666600336666006666660099666600CC666600FF66660000996600339966006699660099996600CC996600FF99660000CC660033CC660066CC660099CC6600CCCC6600FFCC660000FF660033FF660066FF660099FF6600CCFF6600
310
FFFF660000009900330099006600990099009900CC009900FF00990000339900333399006633990099339900CC339900FF33990000669900336699006666990099669900CC669900FF66990000999900339999006699990099999900CC999900FF99990000CC990033CC990066CC990099CC9900CCCC9900FFCC990000FF99
310
0033FF990066FF990099FF9900CCFF9900FFFF99000000CC003300CC006600CC009900CC00CC00CC00FF00CC000033CC003333CC006633CC009933CC00CC33CC00FF33CC000066CC003366CC006666CC009966CC00CC66CC00FF66CC000099CC003399CC006699CC009999CC00CC99CC00FF99CC0000CCCC0033CCCC0066CC
310
CC0099CCCC00CCCCCC00FFCCCC0000FFCC0033FFCC0066FFCC0099FFCC00CCFFCC00FFFFCC000000FF003300FF006600FF009900FF00CC00FF00FF00FF000033FF003333FF006633FF009933FF00CC33FF00FF33FF000066FF003366FF006666FF009966FF00CC66FF00FF66FF000099FF003399FF006699FF009999FF00CC
310
99FF00FF99FF0000CCFF0033CCFF0066CCFF0099CCFF00CCCCFF00FFCCFF0000FFFF0033FFFF0066FFFF0099FFFF00CCFFFF00FFFFFF00000000000D0D0D001A1A1A00282828003535350043434300505050005D5D5D006B6B6B00787878008686860093939300A1A1A100AEAEAE00BBBBBB00C9C9C900D6D6D600E4E4E400
310
F1F1F100FFFFFF0000000000000000000000000000000000000000000000000000000000000000000000000000000000F5F5F5F5F5F5F5F5F5F5F5F5F5F5F5F5F5F5F5F5F5F5F5F5F5F5F5F5F5F5F5F5F5F5F5F5F5F5F5F5F5F5F5F5F5F5F5F5F5F5F5F5F5F5F5F5F5F5F5F5F5F5F5F5F5F5F5F5F5F5F5F5F5F5F5F5F5F5F5
310
F5F5F5F5F5F5F5F5F5F5F5F5F5F5F5F5F5F5F5EF00E2E2E2E2E2E2E2E2E2E2E2E2E2E2E2E2E2E2E2E2E2E2E2E2E2E2E2E2E2E2E2E2E2E2E2E2E2E2E2E2E2E2E2E2E2E2E2E2E2E2E2E2E2E2E2E2E2E2E2E2E2E2E2E2E2E2E2E2E2E2E2E2E2E2E2E2E2E2E2E2E2E2E2E2E2E2E2E2E2E2E2E2E2E2E2E2E2F5EF00E2E2E2E2E2E2
310
E2E2E2E2E2E2E2E2E2E2E2E2E2E2E2E2E2E2E2E2E2E2E2E2E2E2E2E2E2E2E2E2E2E2E2E2E2E2E2E2E2E2E2E2E2E2E2E2E2E2E2E2E2E2E2E2E2E2E2E2E2E2E2E2E2E2E2E2E2E2E2E2E2E2E2E2E2E2E2E2E2E2E2E2E2E2E2E2E2E2E2F5EF00E2F5F5F5F5F5F5F5F5E2E2E2E2E2E2E2E2F5F5F5F5F5F5F5F5F5F5F5F5F5F5F5E2
310
E2E2E2E2E2E2E2E2F5F5F5F5F5F5F5F5F5F5F5F5F5F5E2E2E2E2E2E2E2E2E2F5F5F5F5F5F5F5F5F5F5F5F5F5F5F5E2E2E2E2E2E2E2E2F5F5F5F5F5F5F5F5E2E2F5EF00E2F5E2E2E2E2E2E2E2E2E2E2E2E2E2E2E2E2E2E2E2E2E2E2E2E2E2E2F5F5E2E2E2E2E2E2E2E2E2E2E2E2E2E2E2E2E2E2E2E2E2E2E2E2E2E2E2E2E2E2
310
E2E2E2E2E2E2E2E2E2E2E2E2E2E2E2E2E2E2E2E2E2E2E2E2E2E2E2E2E2E2E2E2E2E2F5E2E2F5EF00E2F5E2E2E2E2E2F5F5F5F5F5F5F5F5F5F5F5F5F5F5F5F5F5F5F5F5F5F5F5F5F5F5F5F5F5F5F5F5F5F5F5F5F5F5F5F5F5F5F5F5F5F5F5F5F5F5F5F5F5F5F5F5F5F5F5F5F5F5F5F5F5F5F5F5F5F5F5F5F5F5F5F5F5F5F5F5
310
F5F5F5E2E2E2E2F5E2E2F5EF00E2F5E2E2E2E2E2F5F5F5F5F5F5F5F5F5F5F5F5F5F5F5F5F5F5F5F5F5F5F5F5F5F5F5F5F5F5F5F5F5F5F5F5F5F5F5F5F5F5F5F5F5F5F5F5F5F5F5F5F5F5F5F5F5F5F5F5F5F5F5F5F5F5F5F5F5F5F5F5F5F5F5F5F5F5F5F5F5F5F5F5E2E2E2F5E2E2F5EF00E2F5E2E2E2E2E2E2E2E2E2E2E2E2
310
E2E2E2E2E2E2E2E2E2E2E2E2E2E2E2E2E2E2E2E2E2E2E2E2E2E2E2E2E2E2E2E2E2E2E2E2E2E2E2E2E2E2E2E2E2E2E2E2E2E2E2E2E2E2E2E2E2E2E2E2E2E2E2E2E2E2E2E2E2E2E2E2E2E2E2E2E2E2E2E2F5E2E2F5EF00E2F5E2E2E2E2E2E7E7E7E7E7E7E7E7E7E7E7E7E7E7E7E7E7E7E7E7E7E7E7E7E7E7E7E7E7E7E7E7E7E7
310
E7E7E7E7E7E7E7E7E7E7E7E7E7E7E7E7E7E7E7E7E7E7E7E7E7E7E7E7E7E7E7E7E7E7E7E7E7E7E7E7E7E7E7E7E7E7E7E7E7E7E2E2E2F5E2E2F5EF00E2F5E2E2E2E2E2E7E2E2E2E2E2E2E2E2E2E2E2E2E2E2E2E2E2E2E2E2E2E2E2E2E2E2E2E2E2E2E2E2E2E2E2E2E2E2E2E2E2E2E2E2E2E2E2E2E2E2E2E2E2E2E2E2E2E2E2E2
310
E2E2E2E2E2E2E2E2E2E2E2E2E2E2E2E2E2E2E2E2E2E2E7E2E2E2F5E2E2F5EF00E2F5E2E2E2E2E2E7E2E2E2E2E2E2E2E2E2E2E2E2E2E2F5F5F5F5F5F5F5F5F5F5F5F5F5F5E2E2E2E2E2E2E2E2E2E2E2E2E2E2E2E2E2E2E2E2E2E2F5F5F5F5F5F5F5F5F5F5F5F5F5F5F5F5F5F5F5F5F5F5E2E2E2E2E2E2E2E2E2E2E7E2E2E2F5
310
E2E2F5EF00E2F5E2E2E2E2E2E7E2E2E2E2E2E2E2E2E2E2E2E2E2E2F5F5F5F5F5F5F5F5F5F5F5F5F5F5E2E2E2E2E2E2E2E2E2E2E2E2E2E2E2E2E2E2E2E2E2E2E2E2E2E2E2E2E2E2E2E2E2E2E2E2E2E2E2E2E2E2E2E2E2E2E2E2E2E2E2E2E2E2E7E2E2E2F5E2E2F5EF00E2E2E2E2E2E2E2E7E2E2E2E2E2E2E2E2E2E2E2E2E2E2
310
F5F5F5F5F5E2E2E2E2E2E2E2E2E2E2E2E2E2E2E2E2E2E2E2E2E2E2E2E2E2E2E2E2E2E2E2F5F5F5F5F5E2E2E2E2E2E2E2E2E2E2E2E2E2E2E2E2E2E2E2E2E2E2E2E2E2E2E2E7E2E2E2E2E2E2F5EF00E2E2E2E2E2E2E2E7E2E2E2E2E2E2E2E2E2E2E2E2E2E2F5F5F5F5F5E228E2E2E2E2E2E2E2E2E2E2E2E2E2E2E2E2E2E2E2E2
310
E2E2E2E2E2E2E2E2E2E2E2E2E2E2E2E2E228E2E2E2E2E2E2E2E2E2E2E2E2E2E2E2E2E2E2E2E2E2E2E2E7E2E2E2E2E2E2F5EF00E2E2E2E2E2E2E2E7E2E2E2E2E2E2E2E2E228282828282828282828282828282828282828282828F52828E2E2E2E2E2E2E2E2E2E2E2E2E2282828282828282828282828282828282828282828
310
28282828E2E2E2E2E2E2E2E2E2E2E7E2E2E2E2E2E2F5EF00E2E2E2E2E2E2E2E7E2E2E2E2E2E2E2E2E2E2E2F5E2E2E2E2E2E2E2E2E228E2E2E2E2E2E2E2E2E2F5E2E2E2E2E2E2E2E2E2E2E2E2E2E2E2E2E2F5E2E2E2E2E2E2E2E2F5F5F5F5F5F5F5F5F5F5F5F5F5F5F5F5F5F5F5F5F5F5F5E2E7E2E2E2E2E2E2F5EF00E2E2E2
310
E2E2E2E2E7E2E2E2E2E2E2E2E2E2E2E2F5E2E2E2E2E2E2EFEFEFEFEFEFE2E2E2E2E2E2E2F5E2E2E2E2E2E2E2E2E2E2E2E2E2E2E2E2E2F5E2E2E2E2E2E2E2E2F5F5F5F5F5F5F5F5F5F5F5F5F5F5F5F5F5F5F5F5F5F5F5E2E7E2E2E2E2E2E2F5EF00E2E2E2E2E2E2E2E7E2E2E2E2E2E2E2E2E2E2E2F5E2E2E2E2EFEFEFE2E2E2
310
EFEFEFE2E2E2E2E2E2F5E2E2E2E2E2E2E2E2E2E2E2E2E2E2E2E2E2F5E2E2E2EFEFEFEFEFEFEFEFEFEFEFE2E2E2E2E2F5E2E2E2E2E2E2E2E2E2E2E2E2E7E2E2E2E2E2E2F5EF00E2E2E2E2E2E2E2E7E2E2E2E2E2E2E2E2E2E2E2F5E2E2E2EFEFE2E2E2E2E2E2E2EFEFE2E2E2E2E2F5E2E2E2E2E2E2E2E2E2E2E2E2E2E2E2E2E2
310
F5E2E2EFEFEFEFEFEFE2EFEFEFEFEFEFE2E2E2E2F5E2E2E2E2E2E2E2E2E2E2E2E2E7E2E2E2E2E2E2F5EF00E2E2E2E2E2E2E2E7E2E2E2E2E2E2E2E2E2E2E2F5E2E2E2EFEFEFEFEFEFEFEFEFEFEFEFE2E2E2E2F5E2E2E2E2E2E2E2E2E2E2E2E2E2E2E2E2E2F5E2E2EFEFE2E2E2EFE2EFEFE2E2EFEFDCE2E2E2F5E2E2E2E2E2E2
310
E2E2E2E2E2E2E7E2E2E2E2E2E2F5EF00E2E2E2E2E2E2E2E7E2E2E2E2E2E2E2E2E2E2E2F5E2E2EFEFE2EFE2E2E2E2E2EFEFEFEFE2E2E2E2F5E2E2E2E2E2E2E2E2E2E2E2E2E2E2E2E2E2F5E2E2EFEFE2E2E2E2E2E2E2E2E2E2EFEFE2E2E2F5E2E2E2E2E2E2E2E2E2E2E2E2E7E2E2E2E2E2E2F5EF00E2E2E2E2E2E2E2E7E2E2E2
310
E2E2E2E2E2E2E2E2F5E2E2EFEFE2E2E2E2E2E2E2E2E2E2F5F5F5F5F5F5F5F5F5F5F5F5F5F5F5F5F5E2E2E2E2E2E2F5E2E2EFEFE2EFE2E2E2E2E2EFEFEFEFE2E2E2E2F5E2E2E2E2E2E2E2E2E2E2E2E2E7E2E2E2E2E2E2F5EF00E2F5E2E2E2E2E2E7E2E2E2E2E2E2E2E2E2E2E2F5E2E2E2EFE2E2E2EFE2E2EFE2E2E2EFE2E2E2
310
E2F5E2E2E2E2E2E2E2E2E2E2E2E2E2E2E2E2E2F5E2E2EFEFEFEFEFEFEFEFEFEFEFEFEFE2E2E2E2F5E2E2E2E2E2E2E2E2E2E2E2E2E7E2E2E2F5E2E2F5EF00E2F5E2E2E2E2E2E7E2E2E2E2E2E2E2E2E2E2E2F5E2E2E2EFE2E2EFEFE2E2EFE2E2EFF5F5F5F5F5F5E2E2E2E2E2E2E2E2E2E2E2E2E2E2E2E2E2F5E2E2E2E2EFEFF5
310
EFEFEFEFEFF5E2E2E2E2E2E2F5E2E2E2E2E2E2E2E2E2E2E2E2E7E2E2E2F5E2E2F5EF00E2F5E2E2E2E2E2E7E2E2E2E2E2E2E2E2E2E2E2F5E2E2E2EFEFEFF5EFEFEFEFEFF5EFEFE2E2E2E2F5E2E2E2E2E2E2E2E2E2E2E2E2E2E2E2E2E2F5E2E2E2E2E2E2F5F5F5F5F5E2F5F5F5F5F5F5E2F5E2E2E2E2E2E2E2E2E2E2E2E2E7E2
310
E2E2F5E2E2F5EF00E2F5E2E2E2E2E2E7E2E2E2E2E2E2E2E2E2E2E2F5E2E2E2E2E2E2F5E2E2E2E2E2F5F5F5F5F5F5E2F5E2E2E2E2E2E2E2E2E2E2E2E2E2E2E2E2E2F5E2E2E2E2E2E2F5E2F5F5F5F5F5F5F5F5F5F5E2F5E2E2E2E2E2E2E2E2E2E2E2E2E7E2E2E2F5E2E2F5EF00E2F5E2E2E2E2E2E7E2E2E2E2E2E2E2E2E2E2E2
310
F5E2E2E2E2E2E2F5F5F5F5F5F5F5F5F5F5F5F5E2F5E2E2E2E2E2E2E2E2E2E2E2E2E2E2E2E2E2F5E2E2E2E2E2E2F5E2F5F5E2F5F5F5F5F5F5E2E2F5E2E2E2E2E2E2E2E2E2E2E2E2E7E2E2E2F5E2E2F5EF00E2F5E2E2E2E2E2E7E2E2E2E2E2E2E2E2E2E2E2F5E2E2E2E2E2E2F5E2F5F5E2F5F5F5F5F5F5E2E2F5E2E2E2E2E2E2
310
E2E2E2E2E2E2E2E2E2E2E2F5E2E2E2E2E2E2F5F5F5F5F5F5F5E2E2E2E2E2E2F5E2E2E2E2E2E2E2E2E2E2E2E2E7E2E2E2F5E2E2F5EF00E2F5E2E2E2E2E2E7E2E2E2E2E2E2E2E2E2E2E2F5E2E2E2E2E2E2F5E2F5F5E2F5F5F5F5F5F5E2E2F5E2E2E2E2E2E2E2E2E2E2E2E2E2E2E2E2E2F5E2E2E2E2E2E2F5F5F5F5E2E2F5E2E2
310
E2E2E2E2F5E2E2E2E2E2E2E2E2E2E2E2E2E7E2E2E2F5E2E2F5EF00E2F5E2E2E2E2E2E7E2E2E2E2E2E2E2E2E2E2E2F5E2E2E2E2E2E2F5F5F5F5F5F5F5E2E2E2E2E2E2F5E2E2E2E2E2E2E2E2E2E2E2E2E2E2E2E2E2F5E2E2E2E2E2E2F5E2E228E2E2F5E2E2E2E2E2E2F5E2E2E2E2E2E2E2E2E2E2E2E2E7E2E2E2F5E2E2F5EF00
310
E2F5E2E2E2E2E2E7E2E2E2E2E2E2E2E2E2E2E2F5E2E2E2E2E2E2F5E2E228E2E2F5E2E2E2E2E2E2F5E2E2E2E2E2E2E2E2E2E2E2E2E2E228282828282828282828F52828282828F52828282828282828E2E2E2E2E2E2E2E2E2E2E2E7E2E2E2F5E2E2F5EF00E2F5E2E2E2E2E2E7E2E2E2E2E2E2E2E228282828282828282828F5
310
2828282828F52828282828282828E2E2E2E2E2E2E2E2E2E2E2E2E2E2E2E2E2E2E2E2E2E2E2E2E228E2E2E2E2E2E2E2E2E2E2E2E2E2E2E2E2E2E2E2E2E2E2E2E7E2E2E2F5E2E2F5EF00E2F5E2E2E2E2E2E7E2E2E2E2E2E2E2E2E2E2E2E2E2E2E2E2E2E2E2E228E2E2E2E2E2E2E2E2E2E2E2E2E2E2E2E2E2E2E2E2E2E2E2E2E2
310
E2E2E2E2E2E2E2E2E2E2E2E2E2E2E2E2E2E2E2E2E2E2E2E2E2E2E2E2E2E2E2E2E2E2E2E2E7E2E2E2F5E2E2F5EF00E2F5E2E2E2E2E2E7E2E2E2E2E2E2E2E2E2E2E2F5F5F5F5F5F5F5F5F5F5F5F5F5F5F5F5F5F5F5F5F5F5F5F5E2E2E2E2E2E2E2E2E2E2E2E2E2E2F5F5F5F5F5F5F5F5F5F5F5F5F5F5F5F5F5F5F5F5F5F5F5F5
310
E2E2E2E2E2E2E2E2E2E7E2E2E2F5E2E2F5EF00E2F5E2E2E2E2E2E7E2E2E2E2E2E2E2E2E2E2E2F5F5F5F5F5F5F5F5F5F5F5F5F5F5F5F5F5F5F5F5F5F5F5F5E2E2E2E2E2E2E2E2E2E2E2E2E2E2F5F5F5F5F5F5F5F5F5F5F5F5F5F5F5F5F5F5F5F5F5F5F5F5E2E2E2E2E2E2E2E2E2E7E2E2E2F5E2E2F5EF00E2F5E2E2E2E2E2E7
310
E2E2E2E2E2E2E2E2E2E2E2F5F5F5F5F5E2E2E2E2E2E2E2E2E2E2E2E2E2E2E2E2E2E2E2E2E2E2E2E2E2E2E2E2E2E2E2E2E2F5F5F5F5E2E2E2E2E2E2E2E2E2E2E2E2E2E2E2E2E2E2E2E2E2E2E2E2E2E2E2E2E2E7E2E2E2F5E2E2F5EF00E2F5E2E2E2E2E2E7E2E2E2E2E2E2E2E2E2E2E2F5F5F5F5F5E2E2E2E2E228E2E2E2E2E2
310
E2E2E2E2E2E2E2E2E2E2E2E2E2E2E2E2E2E2E2E2E2E2F5F5F5F5E2E2E2E2E2E228E2E2E2E2E2E2E2E2E2E2E2E2E2E2E2E2E2E2E2E2E2E2E7E2E2E2F5E2E2F5EF00E2F5E2E2E2E2E2E7E2E2E2E2E2E2E2E2E2E2E2E2E2E2E2E2E2E2E2E2E228E2E2E2E2E2E2E2E2E2E2E2E2E2E2E2E2E2E2E2E2E2E2E2E2E2E2E2E2E2E2E2E2
310
E2E2E2E2E228E2E2E2E2E2E2E2E2E2E2E2E2E2E2E2E2E2E2E2E2E2E2E7E2E2E2F5E2E2F5EF00E2F5E2E2E2E2E2E7E2E2E2E2E2E2E2E2E2282828282828282828F52828282828F5282828282828282828E2E2E2E2E2E2E2E2E2E2E2E2E2282828282828282828F52828282828F5282828282828282828E2E2E2E2E2E2E2E2E2
310
E2E7E2E2E2F5E2E2F5EF00E2E2E2E2E2E2E2E7E2E2E2E2E2E2E2E2E2E2E2F5E2E2E2E2E2E2F5E228E2E2E2F5F5F5F5F5F5E2F5E2E2E2E2E2E2E2E2E2E2E2E2E2E2E2E2E2F5E2E2E2E2E2E2F5E228E2E2E2F5F5F5F5F5F5E2F5E2E2E2E2E2E2E2E2E2E2E2E2E7E2E2E2E2E2E2F5EF00E2E2E2E2E2E2E2E7E2E2E2E2E2E2E2E2
310
E2E2E2F5E2E2E2E2E2E2F5F5F5F5F5F5F5F5F5F5F5F5E2F5E2E2E2E2E2E2E2E2E2E2E2E2E2E2E2E2E2F5E2E2E2E2E2E2F5F5F5F5F5F5F5F5F5F5F5F5E2F5E2E2E2E2E2E2E2E2E2E2E2E2E7E2E2E2E2E2E2F5EF00E2E2E2E2E2E2E2E7E2E2E2E2E2E2E2E2E2E2E2F5E2E2E2E2E2E2F5E2F5F5E2F5F5F5F5F5F5E2E2F5E2E2E2
310
E2E2E2E2E2E2E2E2E2E2E2E2E2E2F5E2E2E2E2E2E2F5E2F5F5F5F5F5F5F5F5F5E2E2F5E2E2E2E2E2E2E2E2E2E2E2E2E7E2E2E2E2E2E2F5EF00E2E2E2E2E2E2E2E7E2E2E2E2E2E2E2E2E2E2E2F5E2E2E2E2E2E2F5E2F5F5E2F5F5E2E2E2E2E2E2F5E2E2E2E2E2E2E2E2E2E2E2E2E2E2E2E2E2F5E2E2E2E2E2E2F5E2F5F5E2F5
310
F5F5F5F5F5E2E2F5E2E2E2E2E2E2E2E2E2E2E2E2E7E2E2E2E2E2E2F5EF00E2E2E2E2E2E2E2E7E2E2E2E2E2E2E2E2E2E2E2F5E2E2E2E2E2E2F5F5F5F5F5F5F5E2E2E2E2E2E2F5E2E2E2E2E2E2E2E2E2E2E2E2E2E2E2E2E2F5E2E2E2E2E2E2F5F5F5F5F5F5F5E2E2E2E2E2E2F5E2E2E2E2E2E2E2E2E2E2E2E2E7E2E2E2E2E2E2
310
F5EF00E2E2E2E2E2E2E2E7E2E2E2E2E2E2E2E2E2E2E2F5E2E2E2E2E2E2F5E2E2E2E2E2F5E2F5F5F5F5F5F5F5F5F5F5F5F5F5F5F5F5F5E2E2E2E2E2E2F5E2E2E2E2E2E2F5F5E2E2E2E2F5E2E2E2E2E2E2F5E2E2E2E2E2E2E2E2E2E2E2E2E7E2E2E2E2E2E2F5EF00E2E2E2E2E2E2E2E7E2E2E2E2E2E2E2E2E2E2E2F5E2E2E2EF
310
EFEFF5EFEFEFEFEFF5EFEFE2E2E2E2E2E2E2E2E2E2E2E2E2E2E2E2E2E2E2E2E2E2F5E2E2E2EFEFEFF5EFEFEFEFEFF5EFE2E2E2E2E2F5E2E2E2E2E2E2E2E2E2E2E2E2E7E2E2E2E2E2E2F5EF00E2E2E2E2E2E2E2E7E2E2E2E2E2E2E2E2E2E2E2F5E2E2E2EFEFE2EFEFE2E2EFE2E2EFF5F5F5F5F5F5E2E2E2E2E2E2E2E2E2E2E2
310
E2E2E2E2E2E2F5E2E2EFEFEFEFEFEFEFEFEFEFEFEFEFE2E2E2E2F5E2E2E2E2E2E2E2E2E2E2E2E2E7E2E2E2E2E2E2F5EF00E2E2E2E2E2E2E2E7E2E2E2E2E2E2E2E2E2E2E2F5E2E2E2EFE2E2E2EFE2E2EFE2E2E2EFE2E2E2E2F5E2E2E2E2E2E2E2E2E2E2E2E2E2E2E2E2E2F5E2E2EFEFE2E2EFEFE2EFEFE2E2EFEFE2E2E2E2F5
310
E2E2E2E2E2E2E2E2E2E2E2E2E7E2E2E2E2E2E2F5EF00E2F5E2E2E2E2E2E7E2E2E2E2E2E2E2E2E2E2E2F5E2E2EFEFE2E2E2E2E2E2E2E2E2E2EFE2E2E2E2F5E2E2E2E2E2E2E2E2E2E2E2E2E2E2E2E2E2F5E2E2EFEFE2E2E2EFE2EFEFE2E2E2EFEFE2E2E2F5E2E2E2E2E2E2E2E2E2E2E2E2E7E2E2E2F5E2E2F5EF00E2F5E2E2E2
310
E2E2E7E2E2E2E2E2E2E2E2E2E2E2F5E2E2EFEFE2EFE2E2E2E2E2EFEFEFEFE2E2E2E2F5E2E2E2E2E2E2E2E2E2E2E2E2E2E2E2E2E2F5E2E2EFEFE2EFE2E2E2E2E2EFEFEFEFE2E2E2E2F5E2E2E2E2E2E2E2E2E2E2E2E2E7E2E2E2F5E2E2F5EF00E2F5E2E2E2E2E2E7E2E2E2E2E2E2E2E2E2E2E2F5E2E2E2EFEFEFEFEFEFEFEFEF
310
EFEFEFE2E2E2E2F5E2E2E2E2E2E2E2E2E2E2E2E2E2E2E2E2E2F5E2E2EFEFEFEFEFEFEFEFEFEFEFEFEFE2E2E2E2F5E2E2E2E2E2E2E2E2E2E2E2E2E7E2E2E2F5E2E2F5EF00E2F5E2E2E2E2E2E7E2E2E2E2E2E2E2E2E2E2E2F5E2E2E2EFEFE2E2E2E2E2E2E2EFEFE2E2E2E2E2F5E2E2E2E2E2E2E2E2E2E2E2E2E2E2E2E2E2F5E2
310
E2E2E2EFEFEFEFEFEFEFEFEFE2E2E2E2E2E2F5E2E2E2E2E2E2E2E2E2E2E2E2E7E2E2E2F5E2E2F5EF00E2F5E2E2E2E2E2E7E2E2E2E2E2E2E2E2E2E2E2F5E2E2E2E2EFEFE2E2E2E2E2EFEFDCE2E2E2E2E2F5E2E2E2E2E2E2E2E2E2E2E2E2E2E2E2E2E2F5E2E2E2E2E2E2E2E2E228E2E2E2E2E2E2E2E2E2F5E2E2E2E2E2E2E2E2
310
E2E2E2E2E7E2E2E2F5E2E2F5EF00E2F5E2E2E2E2E2E7E2E2E2E2E2E2E2E2E2E2E2F5E2E2E2E2E2EFEFEFEFEFEFEFEFE2E2E2E2E2E2F5E2E2E2E2E2E2E2E2E2E2E2E2E2E2E228282828282828282828282828282828282828282828282828E2E2E2E2E2E2E2E2E2E2E7E2E2E2F5E2E2F5EF00E2F5E2E2E2E2E2E7E2E2E2E2E2
310
E2E2E2E2E2E2F5E2E2E2E2E2E2E2EFEF28E2E2E2E2E2E2E2E2E2F5E2E2E2E2E2E2E2E2E2E2E2E2E2E2E2E2E2E2E2E2E2E2E2E2E2E228E2E2E2E2E2E2E2E2E2E2E2E2E2E2E2E2E2E2E2E2E2E2E2E7E2E2E2F5E2E2F5EF00E2F5E2E2E2E2E2E7E2E2E2E2E2E2E2E2E2E2E2F5E2E2E2E2E2E2E2E2E228E2E2E2E2E2E2E2E2E2F5
310
E2E2E2E2E2E2E2E2E2E2E2E2E2E2E2E2E2E2E2E2E2E2E2E2E2E228E2E2E2E2E2E2E2E2E2E2E2E2E2E2E2E2E2E2E2E2E2E2E2E7E2E2E2F5E2E2F5EF00E2F5E2E2E2E2E2E7E2E2E2E2E2E2E2E2E228282828282828282828282828282828282828282828F52828E2E2E2E2E2E2E2E2E2E2E2E2E2E2E2E2E2E2E2E2E2E2E2E2E2
310
E2E2E2E2E2E2E2E2E2E2E2E2E2E2E2E2E2E2E2E2E2E2E2E7E2E2E2F5E2E2F5EF00E2F5E2E2E2E2E2E7E2E2E2E2E2E2E2E2E2E2E2E2E2E2E2E2E2E2E2E228E2E2E2E2E2E2E2E2E2E2E2E2E2E2E2E2E2E2E2E2E2E2E2E2E2E2E2E2E2E2E2E2E2E2E2E2E2E2E2E2E2E2E2E2E2E2E2E2E2E2E2E2E2E2E2E2E2E2E2E2E2E7E2E2E2
310
F5E2E2F5EF00E2F5E2E2E2E2E2E7E2E2E2E2E2E2E2E2E2E2E2E2E2E2E2E2E2E2E2E2E2E2E2E2E2E2E2E2E2E2E2E2E2E2E2E2E2E2E2E2E2E2E2E2E2E2E2E2E2E2E2E2E2E2E2E2E2E2E2E2E2E2E2E2E2E2E2E2E2E2E2E2E2E2E2E2E2E2E2E2E2E2E7E2E2E2F5E2E2F5EF00E2F5E2E2E2E2E2E7E2E2E2E2E2E2E2E2E2E2E2E2E2
310
E2E2E2E2E2E2E2E2E2E2E2E2E2E2E2E2E2E2E2E2E2E2E2E2E2E2E2E2E2E2E2E2E2E2E2E2E2E2E2E2E2E2E2E2E2E2E2E2E2E2E2E2E2E2E2E2E2E2E2E2E2E2E2E2E2E2E2E2E2E7E2E2E2F5E2E2F5EF00E2F5E2E2E2E2E2E7E2E2E2E2E2E2E2E2E2E2E2E2E2E2E2E2E2E2E2E2E228E2E2E2E2E2E2E2E2E2E2E2E2E2E2E2E2E2E2
310
E2E2E2E2E2E2E2E2E2E2E2E2E2E2E2E2E2E2E228E2E2E2E2E2E2E2E2E2E2E2E2E2E2E2E2E2E2E2E2E2E2E7E2E2E2F5E2E2F5EF00E2F5E2E2E2E2E2E7E2E2E2E2E2E2E2E2E2282828282828282828F52828282828F5282828282828F52828E2E2E2E2E2E2E2E2E2E2E2E2E2282828282828282828F52828282828F528282828
310
2828F52828E2E2E2E2E2E2E2E2E2E2E7E2E2E2F5E2E2F5EF00E2F5E2E2E2E2E2E7E2E2E2E2E2E2E2E2E2E2E2F5E2E2E2E2E2E2F5E228E2E2E2F5E2E2E2E2E2E2F5E2E2E2E2E2E2E2E2E2E2E2E2E2E2E2E2E2F5E2E2E2E2E2E2F5E228E2E2E2F5E2E2E2E2E2E2F5E2E2E2E2E2E2E2E2E2E2E2E2E7E2E2E2F5E2E2F5EF00E2F5
310
E2E2E2E2E2E7E2E2E2E2E2E2E2E2E2E2E2F5E2E2E2E2E2E2F5F5F5F5F5E2F5F5F5F5F5F5E2F5E2E2E2E2E2E2E2E2E2E2E2E2E2E2E2E2E2F5E2E2E2E2E2E2F5F5F5F5F5E2F5F5F5F5F5F5E2F5E2E2E2E2E2E2E2E2E2E2E2E2E7E2E2E2F5E2E2F5EF00E2F5E2E2E2E2E2E7E2E2E2E2E2E2E2E2E2E2E2F5E2E2E2E2E2E2F5F5F5
310
F5F5F5F5E2E2E2E2E2E2F5E2E2E2E2E2E2E2E2E2E2E2E2E2E2E2E2E2F5E2E2E2E2E2E2F5F5F5F5F5F5F5E2E2E2E2E2E2F5E2E2E2E2E2E2E2E2E2E2E2E2E7E2E2E2F5E2E2F5EF00E2E2E2E2E2E2E2E7E2E2E2E2E2E2E2E2E2E2E2F5E2E2E2E2E2E2F5E2E2E2E2F5F5F5F5F5F5E2E2F5E2E2E2E2E2E2E2E2E2E2E2E2E2E2E2E2
310
E2F5E2E2E2E2E2E2F5E2E2E2E2F5F5F5F5F5F5E2E2F5E2E2E2E2E2E2E2E2E2E2E2E2E7E2E2E2E2E2E2F5EF00E2E2E2E2E2E2E2E7E2E2E2E2E2E2E2E2E2E2E2F5E2E2E2E2E2E2F5E2F5F5F5F5F5E2E2E2E2E2E2F5E2E2E2E2E2E2E2E2E2E2E2E2E2E2E2E2E2F5E2E2E2E2E2E2F5F5F5F5F5F5F5E2E2E2E2E2E2F5E2E2E2E2E2
310
E2E2E2E2E2E2E2E7E2E2E2E2E2E2F5EF00E2E2E2E2E2E2E2E7E2E2E2E2E2E2E2E2E2E2E2F5E2E2E2E2E2E2F5F5F5F5E2E2F5E2E2E2E2E2E2F5E2E2E2E2E2E2E2E2E2E2E2E2E2E2E2E2E2F5E2E2E2E2E2E2F5F5F5F5E2E2F5E2E2E2E2E2E2F5E2E2E2E2E2E2E2E2E2E2E2E2E7E2E2E2E2E2E2F5EF00E2E2E2E2E2E2E2E7E2E2
310
E2E2E2E2E2E2E2E2E2F5F5F5F5F5F5F5F5F5F5F5F5F5F5F5F5F5F5F5F5F5E2E2E2E2E2E2E2E2E2E2E2E2E2E2E2E2E2F5F5F5F5F5F5F5F5F5F5F5F5F5F5F5F5F5F5F5F5F5E2E2E2E2E2E2E2E2E2E2E2E2E7E2E2E2E2E2E2F5EF00E2E2E2E2E2E2E2E7E2E2E2E2E2E2E2E2E2E2E2F5F5F5F5F5F5E2F5E2E2E2E2E2F5F5F5F5F5
310
F5F5F5E2E2E2E2E2E2E2E2E2E2E2E2E2E2E2E2E2F5F5F5F5F5F5E2F5E2E2E2E2E2F5F5F5F5F5F5F5F5E2E2E2E2E2E2E2E2E2E2E2E2E7E2E2E2E2E2E2F5EF00E2E2E2E2E2E2E2E7E2E2E2E2E2E2E2E2E2E2E2E2E2E2E2E2E2F5F5F5F5E2F5F5F5F5F5F5F5F5F5F5F5F5F5F5F5F5F5F5F5F5E2E2E2E2E2E2E2E2E2E2E2E2E2F5
310
F5F5F5E2F5F5F5F5F5F5F5F5F5F5F5F5F5F5F5F5F5F5F5F5E2E2E7E2E2E2E2E2E2F5EF00E2E2E2E2E2E2E2E7E2E2E2E2E2E2E2E2E2E2E2E2E2E2E2E2E2E2F5E2F5E2F5E2F5F5F5F5F5F5F5F5F5F5F5F5F5F5F5F5F5F5E2E2E2E2E2E2E2E2E2E2E2E2E2E2F5E2F5E2F5E2F5F5F5F5F5F5F5F5F5F5F5F5F5F5F5F5F5F5E2E2E7
310
E2E2E2E2E2E2F5EF00E2E2E2E2E2E2E2E7E2E2E2E2E2E2E2E2E2E2E2E2E2E2E2E2E2E2F5E2F5E2F5E2F5F5F5F5F5F5E2E2E2E2E2E2E2E2E2E2E2E2E2E2E2E2E2E2E2E2E2E2E2E2E2E2F5E2F5E2F5E2F5F5F5F5F5F5E2E2E2E2E2E2E2E2E2E2E2E2E2E2E7E2E2E2E2E2E2F5EF00E2E2E2E2E2E2E2E7E2E2E2E2E2E2E2E2E2E2
310
E2E2E2E2E2E2E2E2F5EFEFEFEFF5F5F5F5F5F5F5E2E2E2E2E2E2E2E2E2E2E2E2E2E2E2E2E2E2E2E2E2E2E2E2E2E2F5EFEFEFEFEFF5F5F5F5F5F5E2E2E2E2E2E2E2E2E2E2E2E2E2E2E7E2E2E2E2E2E2F5EF00E2E2E2E2E2E2E2E7E2E2E2E2E2E2E2E2E2E2E2E2E2E2E2E2E2EFEFEFEFEFEFEFEFEFE2F5F5F5F5F5F5F5F5F5F5
310
F5F5E2E2E2E2E2E2E2E2E2E2E2E2E2E2E2EFEFEFEFEFEFEFEFEFEFE2E2E2E2E2E2E2E2E2E2E2E2E2E2E2E2E2E2E7E2E2E2E2E2E2F5EF00E2F5E2E2E2E2E2E7E2E2E2E2E2E2E2E2E2E2E2E2E2E2E2E2EFEFEFEFE2E2EFEFEFEFEFF5F5F5F5F5F5F5F5F5F5F5F5E2E2E2E2E2E2E2E2E2E2E2E2E2E2E2EFEFEFEFE2EFEFEFEFEF
310
EFF5F5F5F5F5F5F5F5F5F5F5E2E2E2E2E2E2E7E2E2E2F5E2E2F5EF00E2F5E2E2E2E2E2E7E2E2E2E2E2E2E2E2E2E2E2E2E2E2E2EFEFE2EFEFE2E2EFEFEFEFEFF5F5F5F5F5E2E2E2E2E2E2E2E2E2E2E2E2E2E2E2E2E2E2E2E2E2EFEFE2EFEFE2EFEFEFEFEFEFE2E2E2E2E2E2E2E2E2E2E2E2E2E2E2E2E2E7E2E2E2F5E2E2F5EF
310
00E2F5E2E2E2E2E2E7E2E2E2E2E2E2E2E2E2E2E2E2E2E2E2EFEFE2EFEFE2E2E2EFEFEFEFF5F5F5F5F5E2E2E2E2E2E2E2E2E2E2E2E2E2E2E2E2E2E2E2E2E2EFEFE2EFE2E2E2E2EFEFEFEFF5F5F5F5F5E2E2E2E2E2E2E2E2E2E2E2E2E7E2E2E2F5E2E2F5EF00E2F5E2E2E2E2E2E7E2E2E2E2E2E2E2E2E2E2E2E2E2E2E2EFEFE2
310
EFEFE2E2E2EFEFEFEFEFEFEFEFE2E2E2E2E2E2E2E2E2E2E2E2E2E2E2E2E2E2E2E2E2E2EFEFE2EFE2E2E2E2EFEFEFEFEFE2E2E2E2E2E2E2E2E2E2E2E2E2E2E2E2E7E2E2E2F5E2E2F5EF00E2F5E2E2E2E2E2E7E2E2E2E2E2E2E2E2E2E2E2E2E2E2E2EFEFEFEFEFEFEFEFEFEFE2EFEFEFEFEFEFE2E2E2E2E2E2E2E2E2E2E2E2E2
310
E2E2E2E2E2E2E2E2EFEFEFEFEFEFEFEFEFEFE2EFEFF5F5F5F5F5F5F5F5F5F5E2E2E2E2E2E2E7E2E2E2F5E2E2F5EF00E2F5E2E2E2E2E2E7E2E2E2E2E2E2E2E2E2E2E2E2EFEFEFEFEFEFEFEFE2E2EFEFEFEFEFEFE2E2E2EFEFE2E2E2E2E2E2E2E2E2E2E2E2E2E2E2E2E2E2E2E2EFEFEFEFEFE2E2EFEFEFEFEFF5F5F5F5F5F5F5
310
F5F5F5F5E2E2E2E2E2E2E7E2E2E2F5E2E2F5EF00E2F5E2E2E2E2E2E7E2E2E2E2E2E2E2E2E2E2E2EFEFEFE2E2EFEFEFEFEFEFEFEFEFEFEFE2E2E2E2EFEFE2E2E2E2E2E2E2E2E2E2E2E2E2E2E2E2E2E2E2E2E2EFEFEFEFEFEFEFEFEFEFEFF5F5F5F5F5E2E2E2E2E2E2E2E2E2E2E2E2E7E2E2E2F5E2E2F5EF00E2F5E2E2E2E2E2
310
E7E2E2E2E2E2E2E2E2E2E2E2EFE2E2E2E2E2E2E2E2EFEFE2E2E2E2E2E2E2EFEFEFE2E2E2E2E2E2E2E2E2E2E2E2E2E2E2E2E2E2E2E2E2E2EFEFE2E2E2E2E2E2EFEFEFF5F5F5F5F5E2E2E2E2E2E2E2E2E2E2E2E2E7E2E2E2F5E2E2F5EF00E2F5E2E2E2E2E2E7E2E2E2E2E2E2E2E2E2E2EFEFE2E2E2E2E2E2E2E2E2E2E2E2E2E2
310
E2EFEFEFE2E2E2E2E2E2E2E2E2E2E2E2E2E2E2E2E2E2E2E2E2E2E2E2E2EFEFEFE2E2E2EFEFDCE2E2E2E2E2E2E2E2E2E2E2E2E2E2E2E2E2E2E7E2E2E2F5E2E2F5EF00E2F5E2E2E2E2E2E7E2E2E2E2E2E2E2E2E2E2E2EFE2E2E2E2E2E2E2E2E2E2EFEFEFEFEFEFF5F5F5F5F5F5F5F5F5F5F5F5F5E2E2E2E2E2E2E2E2E2E2E2E2
310
E2E2E2DCEFEFEFEFEFE2E2E2E2E2E2E2E2E2E2E2E2E2E2E2E2E2E2E2E2E7E2E2E2F5E2E2F5EF00E2F5E2E2E2E2E2E7E2E2E2E2E2E2E2E2E2E2E2EFEFEFEFEFEFEFEFEFEFEFEFEFE2E2E2E2F5F5F5F5F5F5F5F5F5F5F5F5F5E2E2E2E2E2E2E2E2E2E2E2E2E2E2E2E2E2E2E2E2E2E2E2E2E2E2E2E2E2E2E2E2E2E2E2E2E2E2E2
310
E2E2E7E2E2E2F5E2E2F5EF00E2F5E2E2E2E2E2E7E2E2E2E2E2E2E2E2E2E2E2E2E2EFEFEFEFE2E2E2E2E2E2E2E2E2E2E2F5F5F5F5F5E2E2E2E2E2E2E2E2E2E2E2E2E2E2E2E2E2E2E2E2E2E2E2E2E2E2E2E2E2E2E2E2E2E2E2E2E2E2E2E2E2E2E2E2E2E2E2E2E2E7E2E2E2F5E2E2F5EF00E2F5E2E2E2E2E2E7E2E2E2E2E2E2E2
310
E2E2E2E2E2E2E2E2E2E2E2E2E2E2E2E2E2E2E2E2E2F5F5F5F5F5E2E2E2E2E2E2E2E2E2E2E2E2E2E2E2E2E2E2E2E2E2E2E2E2E2E2E2E2E2E2E2E2E2E2E2E2E2E2E2E2E2E2E2E2E2E2E2E2E2E7E2E2E2F5E2E2F5EF00E2F5E2E2E2E2E2E7E2E2E2E2E2E2E2E2E2E2E2E2E2E2E2E2E2E2E2E2E2E2E2E2E2E2E2E2E2E2E2E2E2E2
310
E2E2E2E2E2E2E2E2E2E2E2E2E2E2E2E2E2E2E2E2E2E2E2E2E2E2E2E2E2E2E2E2E2E2E2E2E2E2E2E2E2E2E2E2E2E2E2E2E7E2E2E2F5E2E2F5EF00E2F5E2E2E2E2E2E7E2E2E2E2E2E2E2E2E2E2E2E2E2E2E2E2E2E2E2E2E2E2E2E2E2E2E2E2E2E2E2E2E2E2E2E2E2E2E2E2E2E2E2E2E2E2E2E2E2E2E2E2E2E2E2E2E2E2E2E2E2
310
E2E2E2E2E2E2E2E2E2E2E2E2E2E2E2E2E2E2E2E2E2E7E2E2E2F5E2E2F5EF00E2F5E2E2E2E2E2E7E2E2E2E2E2E2E2E2E2E2E2E2E2E2E2E2E2E2E2E2E228E2E2E2E2E2E2E2E2E2E2E2E2E2E2E2E2E2E2E2E2E2E2E2E2E2E2E2E2E2E2E2E2E2E2E2E2E228E2E2E2E2E2E2E2E2E2E2E2E2E2E2E2E2E2E2E2E2E2E2E7E2E2E2F5E2
310
E2F5EF00E2F5E2E2E2E2E2E7E2E2E2E2E2E2E2E2E2E2E2E2E2E2E2E2E2E2E2E2E228E2E2E2E2E2E2E2E2E2E2E2E2E2E2E2E2E2E2E2E2E2E2E2E2E2E2E2E2E2E2E2E2E2E2E2E2E228E2E2E2E2E2E2E2E2E2E2E2E2E2E2E2E2E2E2E2E2E2E2E7E2E2E2F5E2E2F5EF00E2E2E2E2E2E2E2E7E2E2E2E2E2E2E2E2E22828F5282828
310
28282828282828282828282828282828F52828E2E2E2E2E2E2E2E2E2E2E2E2E22828F528282828282828282828282828282828282828F52828E2E2E2E2E2E2E2E2E2E2E7E2E2E2E2E2E2F5EF00E2E2E2E2E2E2E2E7E2E2E2E2E2E2E2E2E2E2E2F5E2E2E2E2E2E2E2E228E2E2E2E2E2E2E2E2E2E2F5E2E2E2E2E2E2E2E2E2E2
310
E2E2E2E2E2E2E2F5E2E2E2E2E2E2E2E228E2E2E2E2E2E2E2E2E2E2F5E2E2E2E2E2E2E2E2E2E2E2E2E7E2E2E2E2E2E2F5EF00E2E2E2E2E2E2E2E7E2E2E2E2E2E2E2E2E2E2E2F5E2E2E2E2E2E2E2E2E2E2E2E2E2E2E2E2E2E2E2F5E2E2E2E2E2E2E2E2E2E2E2E2E2E2E2E2E2F5E2E2E2E2E2E2E2E2E2E2E2E2E2E2E2E2E2E2E2
310
F5E2E2E2E2E2E2E2E2E2E2E2E2E7E2E2E2E2E2E2F5EF00E2E2E2E2E2E2E2E7E2E2E2E2E2E2E2E2E2E2E2F5E2E2E2E2E2E2E2E2E2E2E2E2E2E2E2E2E2E2E2F5E2E2E2E2E2E2E2E2E2E2E2E2E2E2E2E2E2F5E2E2E2E2E2E2E2E2E2E2E2E2E2E2E2E2E2E2E2F5E2E2E2E2E2E2E2E2E2E2E2E2E7E2E2E2E2E2E2F5EF00E2E2E2E2
310
E2E2E2E7E2E2E2E2E2E2E2E2E2E2E2F5E2E2E2E2E2E2E2E2E2E2E2E2E2E2E2E2E2E2E2F5E2E2E2E2E2E2E2E2E2E2E2E2E2E2E2E2E2F5E2E2E2E2E2E2E2E2E2E2E2E2E2E2E2E2E2E2E2F5E2E2E2E2E2E2E2E2E2E2E2E2E7E2E2E2E2E2E2F5EF00E2E2E2E2E2E2E2E7E2E2E2E2E2E2E2E2E2E2E2F5E2E2E2E2E2E2E2E2E2E2E2
310
E2E2E2E2E2E2E2E2F5E2E2E2E2E2E2E2E2E2E2E2E2E2E2E2E2E2F5E2E2E2E2E2E2E2E2E2E2E2E2E2E2E2E2E2E2E2F5E2E2E2E2E2E2E2E2E2E2E2E2E7E2E2E2E2E2E2F5EF00E2E2E2E2E2E2E2E7E2E2E2E2E2E2E2E2E2E2E2F5F5F5F5F5F5F5F5F5F5F5F5F5F5F5F5F5F5F5F5F5E2E2E2E2E2E2E2E2E2E2E2E2E2E2E2E2E2F5
310
F5F5F5F5F5F5F5F5F5F5F5F5F5F5F5F5F5F5F5F5E2E2E2E2E2E2E2E2E2E2E2E2E7E2E2E2E2E2E2F5EF00E2E2E2E2E2E2E2E7E2E2E2E2E2E2E2E2E2E2E2F5F5F5F5F5F5E2E2E2E2E2E2E2E2E2F5F5F5F5F5F5E2E2E2E2E2E2E2E2E2E2E2E2E2E2E2E2E2F5F5F5F5F5E2E2E2E2E2E2E2E2E2E2F5F5F5F5F5F5E2E2E2E2E2E2E2
310
E2E2E2E2E2E7E2E2E2E2E2E2F5EF00E2E2E2E2E2E2E2E7E2E2E2E2E2E2E2E2E2E2E2E2E2E2E2E2F5F5F5F5F5E2F5F5F5F5F5F5F5F5F5F5F5F5F5F5F5F5F5F5F5F5F5F5E2E2E2E2E2E2E2E2E2E2F5F5F5F5F5E2F5F5F5F5F5F5F5F5F5F5F5F5F5F5F5F5F5F5F5F5F5F5E7E2E2E2E2E2E2F5EF00E2F5E2E2E2E2E2E7E2E2E2E2
310
E2E2E2E2E2E2E2E2E2E2E2E2E2E2E2E2F5E2F5E2E2F5F5F5F5F5F5F5F5F5F5F5F5F5F5F5F5F5F5F5E2E2E2E2E2E2E2E2E2E2E2E2E2E2F5E2F5E2E2F5F5F5F5F5F5F5F5F5F5F5F5F5F5F5F5F5F5F5E7E2E2E2F5E2E2F5EF00E2F5E2E2E2E2E2E7E2E2E2E2E2E2E2E2E2E2E2E2E2E2E2E2E2E2E2E2F5E2F5E2E2F5F5F5F5F5E2
310
E2E2E2E2E2E2E2E2E2E2E2E2E2E2E2E2E2E2E2E2E2E2E2E2E2E2E2F5E2F5E2E2F5F5F5F5F5E2E2E2E2E2E2E2E2E2E2E2E2E2E2E7E2E2E2F5E2E2F5EF00E2F5E2E2E2E2E2E7E2E2E2E2E2E2E2E2E2E2E2E2E2E2E2E2E2E2E2E2F5E2F5E2E2F5F5F5F5F5E2E2E2E2E2E2E2E2E2E2E2E2E2E2E2E2E2E2E2E2E2E2E2E2E2E2E2E2
310
F5E2F5E2E2F5F5F5F5F5E2E2E2E2E2E2E2E2E2E2E2E2E2E2E7E2E2E2F5E2E2F5EF00E2F5E2E2E2E2E2E7E2E2E2E2E2E2E2E2E2E2E2E2E2E2E2E2E2EFEFEFEFEFEFF5EFEFE2E2F5F5F5F5F5F5F5F5F5F5F5E2E2E2E2E2E2E2E2E2E2E2E2E2E2E2E2EFEFF5EFEFF5EFEFEFE2E2E2E2E2E2E2E2E2E2E2E2E2E2E2E2E2E2E7E2E2
310
E2F5E2E2F5EF00E2F5E2E2E2E2E2E7E2E2E2E2E2E2E2E2E2E2E2E2E2E2E2E2EFEFEFEFE2E2EFEFEFEFEFE2F5F5F5F5F5F5F5F5F5F5F5E2E2E2E2E2E2E2E2E2E2E2E2E2E2E2EFEFEFEFE2EFEFEFEFEFEFF5F5F5F5F5F5F5F5F5F5F5E2E2E2E2E2E2E7E2E2E2F5E2E2F5EF00E2F5E2E2E2E2E2E7E2E2E2E2E2E2E2E2E2E2E2E2
310
E2E2E2EFEFE2EFEFE2E2EFEFEFE2EFE2F5F5F5F5F5E2E2E2E2E2E2E2E2E2E2E2E2E2E2E2E2E2E2E2E2EFEFE2EFEFE2EFEFEFEFE2EFF5F5F5F5F5E2E2E2E2E2E2E2E2E2E2E2E2E7E2E2E2F5E2E2F5EF00E2F5E2E2E2E2E2E7E2E2E2E2E2E2E2E2E2E2E2E2E2E2E2EFEFE2EFEFE2E2E2EFEFEFEFE2F5F5F5F5F5E2E2E2E2E2E2
310
E2E2E2E2E2E2E2E2E2E2E2E2E2E2EFEFE2EFE2E2E2E2EFEFEFEFF5F5F5F5F5E2E2E2E2E2E2E2E2E2E2E2E2E7E2E2E2F5E2E2F5EF00E2F5E2E2E2E2E2E7E2E2E2E2E2E2E2E2E2E2E2E2E2E2E2EFEFE2EFEFE2E2E2EFEFEFEFEFEFEFEFE2E2E2E2E2E2E2E2E2E2E2E2E2E2E2E2E2E2E2E2E2E2EFEFE2EFE2E2E2E2EFEFEFEFEF
310
E2E2E2E2E2E2E2E2E2E2E2E2E2E2E2E2E7E2E2E2F5E2E2F5EF00E2F5E2E2E2E2E2E7E2E2E2E2E2E2E2E2E2E2E2E2E2E2E2EFEFEFEFEFEFEFEFEFEFE2EFEFEFEFEFEFE2E2E2E2E2E2E2E2E2E2E2E2E2E2E2E2E2E2E2E2E2EFEFEFEFEFEFEFEFEFEFE2EFEFE2E2E2E2E2E2E2E2E2E2E2E2E2E2E2E2E7E2E2E2F5E2E2F5EF00E2
310
F5E2E2E2E2E2E7E2E2E2E2E2E2E2E2E2E2E2E2E2EFEFEFEFEFEFEFE2E2E2EFEFE2EFEFE2E2E2EFEFE2E2E2E2E2E2E2E2E2E2E2E2E2E2E2E2E2E2E2E2EFEFEFEFE2E2E2E2EFEFE2EFF5F5F5F5F5F5F5F5F5F5F5E2E2E2E2E2E2E7E2E2E2F5E2E2F5EF00E2F5E2E2E2E2E2E7E2E2E2E2E2E2E2E2E2E2E2EFEFEFEFE2EFEFEFEF
310
EFEFEFEFEFEFEFE2E2E2E2EFEFE2E2E2E2E2E2E2E2E2E2E2E2E2E2E2E2E2E2E2E2EFEFEFEFEFEFEFEFEFEFEFEFF5F5F5F5F5E2E2E2E2E2E2E2E2E2E2E2E2E7E2E2E2F5E2E2F5EF00E2F5E2E2E2E2E2E7E2E2E2E2E2E2E2E2E2E2E2EFE2E2E2E2E2E2E2E2EFEFEFE2E2E2E2E2E2EFEFEFE2E2E2E2E2E2E2E2E2E2E2E2E2E2E2
310
E2E2E2E2E2E2E2EFEFE2E2EFEFEFE2E2EFEFF5F5F5F5F5E2E2E2E2E2E2E2E2E2E2E2E2E7E2E2E2F5E2E2F5EF00E2F5E2E2E2E2E2E7E2E2E2E2E2E2E2E2E2E2EFEFE2E2E2E2E2E2E2E2E2E2E2E2E2E2E2EFEFEFE2E2E2E2E2E2E2E2E2E2E2E2E2E2E2E2E2E2E2E2E2E2E2E2E2EFEFE2E2E2E2EFEFEFE2E2E2E2E2E2E2E2E2E2
310
E2E2E2E2E2E2E2E2E7E2E2E2F5E2E2F5EF00E2F5E2E2E2E2E2E7E2E2E2E2E2E2E2E2E2E2E2EFE2E2E2E2E2E2E2E2E2E2EFEFEFEFEFF5F5F5F5F5F5F5F5F5F5F5F5E2E2E2E2E2E2E2E2E2E2E2E2E2E2E2E2E2EFEFEFEFEFEFE2E2E2E2E2E2E2E2E2E2E2E2E2E2E2E2E2E2E2E2E7E2E2E2F5E2E2F5EF00E2F5E2E2E2E2E2E7E2
310
E2E2E2E2E2E2E2E2E2E2EFEFEFEFEFEFEFEFEFEFEFEFEFE2E2E2F5F5F5F5F5F5F5F5F5F5F5F5E2E2E2E2E2E2E2E2E2E2E2E2E2E2E2E2E2E2E2E2E2E2E2E2E2E2E2E2E2E2E2E2E2E2E2E2E2E2E2E2E2E2E2E7E2E2E2F5E2E2F5EF00E2F5E2E2E2E2E2E7E2E2E2E2E2E2E2E2E2E2E2E2EFEFEFEFEFEFEFEFDCE2E2E2E2E2E2F5
310
F5F5F5F5E2E2E2E2E2E2E2E2E2E2E2E2E2E2E2E2E2E2E2E2E2E2E2E2E2E2E2E2E2E2E2E2E2E2E2E2E2E2E2E2E2E2E2E2E2E2E2E2E2E2E7E2E2E2F5E2E2F5EF00E2F5E2E2E2E2E2E7E2E2E2E2E2E2E2E2E2E2E2E2E2E2E2E2E2E2E2E2E2E2E2E2E2E2E2F5F5F5F5F5E2E2E2E2E2E2E2E2E2E2E2E2E2E2E2E2E2E2E2E2E2E2E2
310
E2E2E2E2E2E2E2E2E2E2E2E2E2E2E2E2E2E2E2E2E2E2E2E2E2E2E2E7E2E2E2F5E2E2F5EF00E2E2E2E2E2E2E2E7E2E2E2E2E2E2E2E2E2E2E2E2E2E2E2E2E2E2E2E2E2E2E2E2E2E2E2E2E2E2E2E2E2E2E2E2E2E2E2E2E2E2E2E2E2E2E2E2E2E2E2E2E2E2E2E2E2E2E2E2E2E2E2E2E2E2E2E2E2E2E2E2E2E2E2E2E2E2E2E2E2E2
310
E7E2E2E2E2E2E2F5EF00E2E2E2E2E2E2E2E7E2E2E2E2E2E2E2E2E2E2E2E2E2E2E2E2E2E2E2E2E2E2E2E2E2E2E2E2E2E2E2E2E2E2E2E2E2E2E2E2E2E2E2E2E2E2E2E2E2E2E2E2E2E2E2E2E2E2E2E2E2E2E2E2E2E2E2E2E2E2E2E2E2E2E2E2E2E2E2E2E2E2E7E2E2E2E2E2E2F5EF00E2E2E2E2E2E2E2E7E7E7E7E7E7E7E7E7E7
310
E7E7E7E7E7E7E7E7E7E7E7E7E7E7E7E7E7E7E7E7E7E7E7E7E7E7E7E7E7E7E7E7E7E7E7E7E7E7E7E7E7E7E7E7E7E7E7E7E7E7E7E7E7E7E7E7E7E7E7E7E7E7E7E7E7E7E7E7E7E7E7E7E7E7E2E2E2E2E2E2F5EF00E2E2E2E2E2E2E2E2E2E2E2E2E2F5F5F5F5F5F5F5F5F5F5F5F5F5F5F5F5F5F5F5F5F5F5F5F5F5F5F5F5F5F5F5
310
F5F5F5F5F5F5F5F5F5F5F5F5F5F5F5F5F5F5F5F5F5F5F5F5F5F5F5F5F5F5F5F5F5F5F5F5F5F5F5F5F5F5F5F5F5F5F5E2E2E2E2E2E2F5EF00E2E2E2E2E2E2E2E2E2E2E2E2E2F5E2E2E2E2E2E2E2E2E2E2E2E2E2E2E2E2E2E2E2E2E2E2E2E2E2E2E2E2E2E2E2E2E2E2E2E2E2E2E2E2E2E2E2E2E2E2E2E2E2E2E2E2E2E2F5E2F5
310
F5F5F5F5F5F5E2E2F5E2E2E2F5F5E2E2E2E2E2F5E2E2E2E2E2E2F5EF00E2E2E2E2E2E2E2E2E2E2E2E2ECECECE2E2E2E2E2E2E2E2E2E2E2E2E2E2E2E2E2E2E2E2E2E2E2E2E2E2E2E2E2E2E2E2E2E2E2E2E2E2E2E2E2E2E2E2E2E2E2E2E2E2E2E2E2F5E2F5F5F5F5F5F5F5E2E2F5E2E2E2F5F5E2E2E2E2E2F5E2E2E2E2E2E2F5
310
EF00E2E2E2E2E2E2E2E2E2E2E2E2ECECECECE2E2E2E2E2F5F5F5F5F5F5F5F5F5F5E2E2E2E2E2E2E2E2E2E2E2E2E2E2E2E2E2E2E2E2E2E2E2E2E2E2E2E2E2E2E2E2E2E2E2E2E2F5E2E2E2E2E2E2E2E2E2E2F5E2E2E2E2E2E2E2E2E2E2F5E2E2E2E2E2E2F5EF00E2E2E2E2E2E2E2E2E2E2E2ECECECECECE2E2E2E2E2F5F5F5F5
310
F5F5F5F5F5F5E2E2E2E2E2E2E2E2E2E2E2E2E2E2E2E2E2E2E2E2E2E2E2E2E2E2E2E2E2E2E2E2E2E2E2E2E2F5E2E2F5F5F5F5F5E2E2E2F5E2E2F5F5F5F5F5E2E2E2F5E2E2E2E2E2E2F5EF00E2E2E2E2E2E2E2E2E2E2E2ECECECECECECE2E2E2E2F5F5F5F5F5F5F5F5F5F5F5F5F5F5F5F5E2E2E2E2E2E2E2E2E2E2E2E2E2E2E2
310
E2E2E2E2E2E2E2E2E2E2E2E2E2E2E2E2F5E2E2E2E2E2E2E2E2E2E2F5E2E2E2E2E2E2E2E2E2E2F5E2E2E2E2E2E2F5EF00E2E2E2E2E2E2E2E2E2E2ECECECECECECECE2E2E2E2F5F5F5F5F5F5F5F5F5F5F5F5F5F5F5F5E2E2E2E2E2E2E2E2E2E2E2E2E2E2E2E2E2E2E2E2E2E2E2E2E2E2E2E2E2E2E2F5E2E2E2E2E2E2E2E2E2E2
310
F5E2E2E2E2E2E2E2E2E2E2F5E2E2E2E2E2E2F5EF00E2F5E2E2E2E2E2E2E2E2ECECECECECECECECE2E2E2F5F5F5F5F5F5F5F5F5F5F5F5F5F5F5F5E2E2E2E2E2E2E2E2E2E2E2E2E2E2E2E2E2E2E2E2E2E2E2E2E2E2E2E2E2E2E2F5F5F5F5F5F5F5F5F5F5F5F5F5F5F5F5F5F5F5F5F5F5F5E2E2E2F5E2E2F5EF00E2F5E2E2E2E2
310
E2E2E2ECECECECECECECECECE2E2E2F5F5F5F5F5F5F5F5F5F5F5F5F5F5F5F5F5F5F5F5F5F5F5F5F5F5F5F5F5F5F5F5F5F5F5E2E2E2E2E2E2E2E2E2E2E2E2F5E2E2E2E2E2E2E2E2E2E2E2E2E2E2E2E2E2E2E2E2E2F5E2E2E2F5E2E2F5EF00E2F5E2E2E2E2E2E2ECECECECECECECECECECECE2E2F5F5F5F5F5F5F5F5F5F5F5F5
310
F5F5F5F5F5F5F5F5F5F5F5F5F5F5F5F5F5F5F5F5F5F5F5E2E2E2E2E2E2E2E2E2E2E2E2F5E2F5F5F5F5F5F5F5F5E2F5F5F5F5F5F5F5E2E2E2E2F5E2E2E2F5E2E2F5EF00E2F5E2E2E2E2E2E2ECECECECECECECECECECECE2E2F5F5F5F5F5F5F5F5F5F5F5F5F5F5F5F5F5F5F5F5F5F5F5F5F5F5F5F5F5F5F5F5F5F5F5E2E2E2E2
310
E2E2E2E2E2E2E2E2F5E2F5F5F5F5F5F5F5F5E2F5F5F5F5F5F5F5E2E2E2E2F5E2E2E2F5E2E2F5EF00E2F5E2E2E2E2E2ECECECECECECECECECECECECECE2E2E2E2E2E2E2E2E2E2E2E2E2E2E2E2E2E2E2E2E2E2E2E2E2E2E2E2E2E2E2E2E2E2E2E2E2E2E2E2E2E2E2E2E2E2E2E2F5E2E2E2E2E2E2E2E2E2E2E2E2E2E2E2E2E2E2
310
E2E2E2F5E2E2E2F5E2E2F5EFA7E2F5E2E2E2E2E2ECECECECECECF5ECECECECECECE2E2E2E2E2E2E2E2E2E2E2E2E2E2E2E2E2E2E2E2E2E2E2E2E2E2E2E2E2E2E2E2E2E2E2E2E2E2E2E2E2E2E2E2E2E2E2E2F5E2E2E2E2E2E2E2E2E2E2E2E2E2E2E2E2E2E2E2E2E2F5E2E2E2F5E2E2F5EF40E2F5E2E2E2E2E2E2E2E2E2E2E2F5
310
F5F5F5F5F5F5F5F5F5F5F5F5F5F5F5F5F5F5F5F5F5F5F5F5F5F5F5F5F5F5F5F5F5F5F5F5F5F5F5F5F5F5F5F5F5F5F5F5F5F5F5F5F5F5F5F5F5F5F5F5F5F5F5F5F5F5F5F5F5F5F5F5F5F5F5F5F5E2E2E2F5E2E2F5EF00E2F5E2E2E2E2E2E2E2E2E2E2E2E2E2E2E2E2E2E2E2E2E2E2E2E2E2E2E2E2E2E2E2E2E2E2E2E2E2E2E2
310
E2E2E2E2E2E2E2E2E2E2E2E2E2E2E2E2E2E2E2E2E2E2E2E2E2E2E2E2E2E2E2E2E2E2E2E2E2E2E2E2E2E2E2E2E2E2E2E2E2E2E2E2E2F5E2E2F5EF00E2F5F5F5F5F5F5F5F5E2E2E2E2E2E2E2E2F5F5F5F5F5F5F5F5F5F5F5F5F5F5F5E2E2E2E2E2E2E2E2E2F5F5F5F5F5F5F5F5F5F5F5F5F5F5E2E2E2E2E2E2E2E2E2F5F5F5F5
310
F5F5F5F5F5F5F5F5F5F5F5E2E2E2E2E2E2E2E2F5F5F5F5F5F5F5F5E2E2F5EFD1E2E2E2E2E2E2E2E2E2E2E2E2E2E2E2E2E2E2E2E2E2E2E2E2E2E2E2E2E2E2E2E2E2E2E2E2E2E2E2E2E2E2E2E2E2E2E2E2E2E2E2E2E2E2E2E2E2E2E2E2E2E2E2E2E2E2E2E2E2E2E2E2E2E2E2E2E2E2E2E2E2E2E2E2E2E2E2E2E2E2E2E2E2E2E2
310
E2E2F5EF40E2E2E2E2E2E2E2E2E2E2E2E2E2E2E2E2E2E2E2E2E2E2E2E2E2E2E2E2E2E2E2E2E2E2E2E2E2E2E2E2E2E2E2E2E2E2E2E2E2E2E2E2E2E2E2E2E2E2E2E2E2E2E2E2E2E2E2E2E2E2E2E2E2E2E2E2E2E2E2E2E2E2E2E2E2E2E2E2E2E2E2E2E2E2E2E2E2F5EF4BF5F5F5F5F5F5F5F5F5F5F5F5F5F5F5F5F5F5F5F5F5F5
310
F5F5F5F5F5F5F5F5F5F5F5F5F5F5F5F5F5F5F5F5F5F5F5F5F5F5F5F5F5F5F5F5F5F5F5F5F5F5F5F5F5F5F5F5F5F5F5F5F5F5F5F5F5F5F5F5F5F5F5F5F5F5F5F5F5F5F5F5F5F5F5F5F5F5F5F5EF40
  0
XRECORD
  5
293D
102
{ACAD_REACTORS
330
2195
102
}
330
2195
100
AcDbXrecord
280
     1
102
MATERIAL
148
0.0
149
0.0
149
0.0
 93
        0
 94
      127
282
     0
 72
     0
 77
     0
171
     0
175
     0
179
     0
273
     0
  0
XRECORD
  5
2197
102
{ACAD_REACTORS
330
2195
102
}
330
2195
100
AcDbXrecord
280
     1
270
     1
271
     1
  0
XRECORD
  5
2196
102
{ACAD_REACTORS
330
2195
102
}
330
2195
100
AcDbXrecord
280
     1
270
     1
271
     1
  0
XRECORD
  5
219A
102
{ACAD_REACTORS
330
2195
102
}
330
2195
100
AcDbXrecord
280
     1
270
     1
271
     1
  0
XRECORD
  5
2199
102
{ACAD_REACTORS
330
2195
102
}
330
2195
100
AcDbXrecord
280
     1
270
     1
271
     1
  0
XRECORD
  5
219B
102
{ACAD_REACTORS
330
2195
102
}
330
2195
100
AcDbXrecord
280
     1
270
     1
271
     1
  0
XRECORD
  5
2198
102
{ACAD_REACTORS
330
2195
102
}
330
2195
100
AcDbXrecord
280
     1
270
     1
271
     1
  0
XRECORD
  5
293C
102
{ACAD_REACTORS
330
218D
102
}
330
218D
100
AcDbXrecord
280
     1
102
MATERIAL
148
0.0
149
0.0
149
0.0
 93
        0
 94
      127
282
     0
 72
     0
 77
     0
171
     0
175
     0
179
     0
273
     0
  0
XRECORD
  5
218F
102
{ACAD_REACTORS
330
218D
102
}
330
218D
100
AcDbXrecord
280
     1
270
     1
271
     1
  0
XRECORD
  5
218E
102
{ACAD_REACTORS
330
218D
102
}
330
218D
100
AcDbXrecord
280
     1
270
     1
271
     1
  0
XRECORD
  5
2192
102
{ACAD_REACTORS
330
218D
102
}
330
218D
100
AcDbXrecord
280
     1
270
     1
271
     1
  0
XRECORD
  5
2191
102
{ACAD_REACTORS
330
218D
102
}
330
218D
100
AcDbXrecord
280
     1
270
     1
271
     1
  0
XRECORD
  5
2193
102
{ACAD_REACTORS
330
218D
102
}
330
218D
100
AcDbXrecord
280
     1
270
     1
271
     1
  0
XRECORD
  5
2190
102
{ACAD_REACTORS
330
218D
102
}
330
218D
100
AcDbXrecord
280
     1
270
     1
271
     1
  0
XRECORD
  5
293E
102
{ACAD_REACTORS
330
219D
102
}
330
219D
100
AcDbXrecord
280
     1
102
MATERIAL
148
0.0
149
0.0
149
0.0
 93
        0
 94
      127
282
     0
 72
     0
 77
     0
171
     0
175
     0
179
     0
273
     0
  0
XRECORD
  5
219F
102
{ACAD_REACTORS
330
219D
102
}
330
219D
100
AcDbXrecord
280
     1
270
     1
271
     1
  0
XRECORD
  5
219E
102
{ACAD_REACTORS
330
219D
102
}
330
219D
100
AcDbXrecord
280
     1
270
     1
271
     1
  0
XRECORD
  5
21A2
102
{ACAD_REACTORS
330
219D
102
}
330
219D
100
AcDbXrecord
280
     1
270
     1
271
     1
  0
XRECORD
  5
21A1
102
{ACAD_REACTORS
330
219D
102
}
330
219D
100
AcDbXrecord
280
     1
270
     1
271
     1
  0
XRECORD
  5
21A3
102
{ACAD_REACTORS
330
219D
102
}
330
219D
100
AcDbXrecord
280
     1
270
     1
271
     1
  0
XRECORD
  5
21A0
102
{ACAD_REACTORS
330
219D
102
}
330
219D
100
AcDbXrecord
280
     1
270
     1
271
     1
  0
ACAD_PROXY_OBJECT
  5
2916
102
{ACAD_REACTORS
330
2461
102
}
330
2461
100
AcDbProxyObject
 90
      499
 91
      513
 95
   983063
 70
     0
 93
     5232
310
40D054060020000020000003200101A412A5058000000C10000000000000006101010000000000003E0FC000000000000F83F0000000000003E0FC000000000000F83F02B5E8DC0F42B1CFC0AD7A3703D0AC73F419019018000000C1003FBFFFFFE02B5E8DC0F42A9CFD029018000000C1003FBFFFFFE02B5E8DC0F42A9CFD
310
049018000000C1003FBFFFFFE02B5E8DC0F42A9CFD089018000000C1003FBFFFFFE02B5E8DC0F42A9CFD109018000000C1003FBFFFFFE02B5E8DC0F42A9CFD209018000000C1003FBFFFFFE02B5E8DC0F42A9CFD01405075F5449544C450041501A8000000C800406904A94160000003040000000000000012404040000000
310
00000F83F0000000000003E0FC000000000000F83F0000000000003E0FC0AD7A3703D0AC73F02B5E8DC0F42B1CFD0640640600000030400FEFFFFFF80AD7A3703D0AA73F40A40600000030400FEFFFFFF80AD7A3703D0AA73F41240600000030400FEFFFFFF80AD7A3703D0AA73F42240600000030400FEFFFFFF80AD7A370
310
3D0AA73F44240600000030400FEFFFFFF80AD7A3703D0AA73F48240600000030400FEFFFFFF80AD7A3703D0AA73F409014217D2115051115480105406A0000003200101A412A5028000000C10000000000000004901010000000000003E0FC000000000000F83F0000000000003E0FC000000000000F83F02B5E8DC0F42B1C
310
FC0AD7A3703D0AC73F419019018000000C1003FBFFFFFE02B5E8DC0F42A9CFD029018000000C1003FBFFFFFE02B5E8DC0F42A9CFD049018000000C1003FBFFFFFE02B5E8DC0F42A9CFD089018000000C1003FBFFFFFE02B5E8DC0F42A9CFD109018000000C1003FBFFFFFE02B5E8DC0F42A9CFD209018000000C1003FBFFFF
310
FE02B5E8DC0F42A9CFD03409065F444154410000
340
11
340
0
340
0
340
0
340
0
340
0
340
0
340
11
340
0
340
0
340
0
340
0
340
0
340
0
340
11
340
0
340
0
340
0
340
0
340
0
340
0
 94
        0
1001
ACAD
1000
AcRTDxfName
1000
CELLSTYLEMAP
1000
AcRTDxfName
1000
CELLSTYLEMAP
1000
AcRTDxfName
1000
CELLSTYLEMAP
1000
AcRTDxfName
1000
CELLSTYLEMAP
  0
XRECORD
  5
292E
102
{ACAD_REACTORS
330
2461
102
}
330
2461
100
AcDbXrecord
280
     1
102
ACAD_ROUNDTRIP_PRE2007_TABLESTYLE
 90
        4
 91
        0
  1

 92
        4
 93
        0
  2

 94
        4
 95
        0
  3

  0
ENDSEC
  0
EOF
