  0
SECTION
  2
HEADER
  9
$ACADVER
  1
AC1015
  9
$ACADMAINTVER
 70
    20
  9
$DWGCODEPAGE
  3
ANSI_1252
  9
$INSBASE
 10
0.0
 20
0.0
 30
0.0
  9
$EXTMIN
 10
-0.0000008078504834
 20
0.0000001108869583
 30
0.0
  9
$EXTMAX
 10
354.0617339286445
 20
482.0000001108869
 30
0.0
  9
$LIMMIN
 10
0.0
 20
0.0
  9
$LIMMAX
 10
353.9999991921495
 20
482.0000001108869
  9
$ORTHOMODE
 70
     1
  9
$REGENMODE
 70
     1
  9
$FILLMODE
 70
     1
  9
$QTEXTMODE
 70
     0
  9
$MIRRTEXT
 70
     0
  9
$LTSCALE
 40
1.0
  9
$ATTMODE
 70
     1
  9
$TEXTSIZE
 40
5.0
  9
$TRACEWID
 40
1.0
  9
$TEXTSTYLE
  7
Arial-Bold
  9
$CLAYER
  8
APL Joinery
  9
$CELTYPE
  6
ByLayer
  9
$CECOLOR
 62
   256
  9
$CELTSCALE
 40
3.0
  9
$DISPSILH
 70
     0
  9
$DIMSCALE
 40
1.0
  9
$DIMASZ
 40
3.0
  9
$DIMEXO
 40
1.5
  9
$DIMDLI
 40
3.75
  9
$DIMRND
 40
0.0
  9
$DIMDLE
 40
0.0
  9
$DIMEXE
 40
1.5
  9
$DIMTP
 40
0.0
  9
$DIMTM
 40
0.0
  9
$DIMTXT
 40
2.5
  9
$DIMCEN
 40
-2.5
  9
$DIMTSZ
 40
0.0
  9
$DIMTOL
 70
     0
  9
$DIMLIM
 70
     0
  9
$DIMTIH
 70
     0
  9
$DIMTOH
 70
     0
  9
$DIMSE1
 70
     0
  9
$DIMSE2
 70
     0
  9
$DIMTAD
 70
     1
  9
$DIMZIN
 70
     1
  9
$DIMBLK
  1

  9
$DIMASO
 70
     1
  9
$DIMSHO
 70
     1
  9
$DIMPOST
  1

  9
$DIMAPOST
  1

  9
$DIMALT
 70
     0
  9
$DIMALTD
 70
     3
  9
$DIMALTF
 40
0.03937007874016
  9
$DIMLFAC
 40
1.0
  9
$DIMTOFL
 70
     1
  9
$DIMTVP
 40
0.0
  9
$DIMTIX
 70
     0
  9
$DIMSOXD
 70
     0
  9
$DIMSAH
 70
     0
  9
$DIMBLK1
  1

  9
$DIMBLK2
  1

  9
$DIMSTYLE
  2
Jase 01
  9
$DIMCLRD
 70
     9
  9
$DIMCLRE
 70
     9
  9
$DIMCLRT
 70
     7
  9
$DIMTFAC
 40
1.0
  9
$DIMGAP
 40
1.0
  9
$DIMJUST
 70
     0
  9
$DIMSD1
 70
     0
  9
$DIMSD2
 70
     0
  9
$DIMTOLJ
 70
     0
  9
$DIMTZIN
 70
     8
  9
$DIMALTZ
 70
     0
  9
$DIMALTTZ
 70
     0
  9
$DIMUPT
 70
     0
  9
$DIMDEC
 70
     0
  9
$DIMTDEC
 70
     0
  9
$DIMALTU
 70
     2
  9
$DIMALTTD
 70
     3
  9
$DIMTXSTY
  7
Arial-Regular
  9
$DIMAUNIT
 70
     0
  9
$DIMADEC
 70
     0
  9
$DIMALTRND
 40
0.0
  9
$DIMAZIN
 70
     0
  9
$DIMDSEP
 70
    46
  9
$DIMATFIT
 70
     0
  9
$DIMFRAC
 70
     0
  9
$DIMLDRBLK
  1
Dot
  9
$DIMLUNIT
 70
     2
  9
$DIMLWD
 70
     9
  9
$DIMLWE
 70
     9
  9
$DIMTMOVE
 70
     0
  9
$LUNITS
 70
     2
  9
$LUPREC
 70
     4
  9
$SKETCHINC
 40
1.0
  9
$FILLETRAD
 40
10.0
  9
$AUNITS
 70
     0
  9
$AUPREC
 70
     0
  9
$MENU
  1
.
  9
$ELEVATION
 40
0.0
  9
$PELEVATION
 40
0.0
  9
$THICKNESS
 40
0.0
  9
$LIMCHECK
 70
     0
  9
$CHAMFERA
 40
10.0
  9
$CHAMFERB
 40
10.0
  9
$CHAMFERC
 40
20.0
  9
$CHAMFERD
 40
0.0
  9
$SKPOLY
 70
     0
  9
$TDCREATE
 40
2452286.590325035
  9
$TDUCREATE
 40
2452286.090325035
  9
$TDUPDATE
 40
2455707.395739664
  9
$TDUUPDATE
 40
2455706.895739664
  9
$TDINDWG
 40
4.8381973495
  9
$TDUSRTIMER
 40
4.8381973495
  9
$USRTIMER
 70
     1
  9
$ANGBASE
 50
0.0
  9
$ANGDIR
 70
     0
  9
$PDMODE
 70
     3
  9
$PDSIZE
 40
3.0
  9
$PLINEWID
 40
0.0
  9
$SPLFRAME
 70
     0
  9
$SPLINETYPE
 70
     6
  9
$SPLINESEGS
 70
     8
  9
$HANDSEED
  5
64B4
  9
$SURFTAB1
 70
     6
  9
$SURFTAB2
 70
     6
  9
$SURFTYPE
 70
     6
  9
$SURFU
 70
     6
  9
$SURFV
 70
     6
  9
$UCSBASE
  2

  9
$UCSNAME
  2

  9
$UCSORG
 10
0.0
 20
0.0
 30
0.0
  9
$UCSXDIR
 10
1.0
 20
0.0
 30
0.0
  9
$UCSYDIR
 10
0.0
 20
1.0
 30
0.0
  9
$UCSORTHOREF
  2

  9
$UCSORTHOVIEW
 70
     0
  9
$UCSORGTOP
 10
0.0
 20
0.0
 30
0.0
  9
$UCSORGBOTTOM
 10
0.0
 20
0.0
 30
0.0
  9
$UCSORGLEFT
 10
0.0
 20
0.0
 30
0.0
  9
$UCSORGRIGHT
 10
0.0
 20
0.0
 30
0.0
  9
$UCSORGFRONT
 10
0.0
 20
0.0
 30
0.0
  9
$UCSORGBACK
 10
0.0
 20
0.0
 30
0.0
  9
$PUCSBASE
  2

  9
$PUCSNAME
  2

  9
$PUCSORG
 10
0.0
 20
0.0
 30
0.0
  9
$PUCSXDIR
 10
1.0
 20
0.0
 30
0.0
  9
$PUCSYDIR
 10
0.0
 20
1.0
 30
0.0
  9
$PUCSORTHOREF
  2

  9
$PUCSORTHOVIEW
 70
     0
  9
$PUCSORGTOP
 10
0.0
 20
0.0
 30
0.0
  9
$PUCSORGBOTTOM
 10
0.0
 20
0.0
 30
0.0
  9
$PUCSORGLEFT
 10
0.0
 20
0.0
 30
0.0
  9
$PUCSORGRIGHT
 10
0.0
 20
0.0
 30
0.0
  9
$PUCSORGFRONT
 10
0.0
 20
0.0
 30
0.0
  9
$PUCSORGBACK
 10
0.0
 20
0.0
 30
0.0
  9
$USERI1
 70
     0
  9
$USERI2
 70
     0
  9
$USERI3
 70
     0
  9
$USERI4
 70
     0
  9
$USERI5
 70
     0
  9
$USERR1
 40
0.0
  9
$USERR2
 40
0.0
  9
$USERR3
 40
0.0
  9
$USERR4
 40
0.0
  9
$USERR5
 40
0.0
  9
$WORLDVIEW
 70
     1
  9
$SHADEDGE
 70
     3
  9
$SHADEDIF
 70
    70
  9
$TILEMODE
 70
     0
  9
$MAXACTVP
 70
    64
  9
$PINSBASE
 10
0.0
 20
0.0
 30
0.0
  9
$PLIMCHECK
 70
     0
  9
$PEXTMIN
 10
11.34805035864985
 20
3.285575844812797
 30
-0.0015258207003583
  9
$PEXTMAX
 10
189.6073677543587
 20
282.2033753668244
 30
0.0000000349246037
  9
$PLIMMIN
 10
-5.027082920074462
 20
-5.408084392547607
  9
$PLIMMAX
 10
204.8615736961365
 20
291.6449246406555
  9
$UNITMODE
 70
     0
  9
$VISRETAIN
 70
     1
  9
$PLINEGEN
 70
     0
  9
$PSLTSCALE
 70
     1
  9
$TREEDEPTH
 70
  3020
  9
$CMLSTYLE
  2
Standard
  9
$CMLJUST
 70
     0
  9
$CMLSCALE
 40
20.0
  9
$PROXYGRAPHICS
 70
     1
  9
$MEASUREMENT
 70
     1
  9
$CELWEIGHT
370
    -1
  9
$ENDCAPS
280
     0
  9
$JOINSTYLE
280
     0
  9
$LWDISPLAY
290
     0
  9
$INSUNITS
 70
     4
  9
$HYPERLINKBASE
  1

  9
$STYLESHEET
  1
A4 Specifier Manual.ctb
  9
$XEDIT
290
     1
  9
$CEPSNTYPE
380
     0
  9
$PSTYLEMODE
290
     1
  9
$FINGERPRINTGUID
  2
{D079D194-C9C2-11D5-B123-005004D48FB5}
  9
$VERSIONGUID
  2
{FED8204F-4249-44E2-87D5-9705FF6DD663}
  9
$EXTNAMES
290
     1
  9
$PSVPSCALE
 40
0.0
  9
$OLESTARTUP
290
     0
  0
ENDSEC
  0
SECTION
  2
CLASSES
  0
CLASS
  1
ACDBDICTIONARYWDFLT
  2
AcDbDictionaryWithDefault
  3
ObjectDBX Classes
 90
        0
280
     0
281
     0
  0
CLASS
  1
ACDBPLACEHOLDER
  2
AcDbPlaceHolder
  3
ObjectDBX Classes
 90
        0
280
     0
281
     0
  0
CLASS
  1
LAYOUT
  2
AcDbLayout
  3
ObjectDBX Classes
 90
        0
280
     0
281
     0
  0
CLASS
  1
DICTIONARYVAR
  2
AcDbDictionaryVar
  3
ObjectDBX Classes
 90
        0
280
     0
281
     0
  0
CLASS
  1
PLOTSETTINGS
  2
AcDbPlotSettings
  3
ObjectDBX Classes
 90
        0
280
     0
281
     0
  0
CLASS
  1
DIMASSOC
  2
AcDbDimAssoc
  3
"AcDbDimAssoc|Product Desc:     AcDim ARX App For Dimension|Company:          Autodesk, Inc.|WEB Address:      www.autodesk.com"
 90
    32768
280
     0
281
     0
  0
CLASS
  1
MATERIAL
  2
AcDbMaterial
  3
ObjectDBX Classes
 90
        0
280
     0
281
     0
  0
CLASS
  1
VISUALSTYLE
  2
AcDbVisualStyle
  3
ObjectDBX Classes
 90
     4095
280
     0
281
     0
  0
CLASS
  1
TABLESTYLE
  2
AcDbTableStyle
  3
ObjectDBX Classes
 90
     2047
280
     0
281
     0
  0
CLASS
  1
SCALE
  2
AcDbScale
  3
ObjectDBX Classes
 90
     1153
280
     0
281
     0
  0
CLASS
  1
MLEADERSTYLE
  2
AcDbMLeaderStyle
  3
ACDB_MLEADERSTYLE_CLASS
 90
     4095
280
     0
281
     0
  0
CLASS
  1
EXACTERMXREFMAP
  2
ExAcTermXrefMap
  3
EXAC_SERVICE
 90
    33793
280
     0
281
     0
  0
CLASS
  1
NPOCOLLECTION
  2
AcDbImpNonPersistentObjectsCollection
  3
ObjectDBX Classes
 90
    33921
280
     0
281
     0
  0
CLASS
  1
EXACXREFPANELOBJECT
  2
ExAcXREFPanelObject
  3
EXAC_ESW
 90
    33793
280
     0
281
     0
  0
CLASS
  1
CELLSTYLEMAP
  2
AcDbCellStyleMap
  3
ObjectDBX Classes
 90
     1152
280
     0
281
     0
  0
CLASS
  1
SORTENTSTABLE
  2
AcDbSortentsTable
  3
ObjectDBX Classes
 90
        0
280
     0
281
     0
  0
CLASS
  1
ACAD_EVALUATION_GRAPH
  2
AcDbEvalGraph
  3
ObjectDBX Classes
 90
    33921
280
     0
281
     0
  0
CLASS
  1
ACAECUSTOBJ
  2
AcAeEditorObj
  3
AcAeEditorObj
 90
    33792
280
     0
281
     0
  0
CLASS
  1
ACDB_DYNAMICBLOCKPURGEPREVENTER_VERSION
  2
AcDbDynamicBlockPurgePreventer
  3
ObjectDBX Classes
 90
    33921
280
     0
281
     0
  0
ENDSEC
  0
SECTION
  2
TABLES
  0
TABLE
  2
VPORT
  5
8
102
{ACAD_XDICTIONARY
360
592B
102
}
330
0
100
AcDbSymbolTable
 70
     1
  0
VPORT
  5
6040
330
8
100
AcDbSymbolTableRecord
100
AcDbViewportTableRecord
  2
*Active
 70
     0
 10
0.0
 20
0.0
 11
1.0
 21
1.0
 12
113.9118435247438
 22
242.6424935503924
 13
0.0
 23
0.0
 14
1.0
 24
1.0
 15
1.0
 25
1.0
 16
0.0
 26
0.0
 36
1.0
 17
0.0
 27
0.0
 37
0.0
 40
544.1405818510258
 41
1.55350553505535
 42
50.0
 43
0.0
 44
0.0
 50
0.0
 51
0.0
 71
     0
 72
 20000
 73
     1
 74
     3
 75
     0
 76
     0
 77
     0
 78
     0
281
     0
 65
     1
110
0.0
120
0.0
130
0.0
111
1.0
121
0.0
131
0.0
112
0.0
122
1.0
132
0.0
 79
     0
146
0.0
  0
ENDTAB
  0
TABLE
  2
LTYPE
  5
5
330
0
100
AcDbSymbolTable
 70
     4
  0
LTYPE
  5
14
330
5
100
AcDbSymbolTableRecord
100
AcDbLinetypeTableRecord
  2
ByBlock
 70
     0
  3

 72
    65
 73
     0
 40
0.0
  0
LTYPE
  5
15
330
5
100
AcDbSymbolTableRecord
100
AcDbLinetypeTableRecord
  2
ByLayer
 70
     0
  3

 72
    65
 73
     0
 40
0.0
  0
LTYPE
  5
16
330
5
100
AcDbSymbolTableRecord
100
AcDbLinetypeTableRecord
  2
Continuous
 70
     0
  3
Solid line
 72
    65
 73
     0
 40
0.0
  0
ENDTAB
  0
TABLE
  2
LAYER
  5
2
102
{ACAD_XDICTIONARY
360
574E
102
}
330
0
100
AcDbSymbolTable
 70
     6
  0
LAYER
  5
10
102
{ACAD_XDICTIONARY
360
5772
102
}
330
2
100
AcDbSymbolTableRecord
100
AcDbLayerTableRecord
  2
0
 70
     4
 62
     7
  6
Continuous
290
     0
370
    -3
390
F
  0
LAYER
  5
2B
102
{ACAD_XDICTIONARY
360
5774
102
}
330
2
100
AcDbSymbolTableRecord
100
AcDbLayerTableRecord
  2
APL Joinery
 70
     0
 62
     2
  6
Continuous
370
    -3
390
F
  0
LAYER
  5
75
102
{ACAD_XDICTIONARY
360
5776
102
}
330
2
100
AcDbSymbolTableRecord
100
AcDbLayerTableRecord
  2
APL Notes
 70
     0
 62
     7
  6
Continuous
370
    -3
390
F
  0
LAYER
  5
42F1
102
{ACAD_XDICTIONARY
360
5778
102
}
330
2
100
AcDbSymbolTableRecord
100
AcDbLayerTableRecord
  2
APL Border
 70
     0
 62
     7
  6
Continuous
370
    -3
390
F
  0
LAYER
  5
5741
102
{ACAD_XDICTIONARY
360
579E
102
}
330
2
100
AcDbSymbolTableRecord
100
AcDbLayerTableRecord
  2
APL Hatch
 70
     0
 62
   253
  6
Continuous
370
    -3
390
F
  0
ENDTAB
  0
TABLE
  2
STYLE
  5
3
330
0
100
AcDbSymbolTable
 70
     6
  0
STYLE
  5
11
330
3
100
AcDbSymbolTableRecord
100
AcDbTextStyleTableRecord
  2
Standard
 70
     0
 40
2.0
 41
1.0
 50
0.0
 71
     0
 42
3.0
  3
txt.shx
  4

  0
STYLE
  5
3E99
330
3
100
AcDbSymbolTableRecord
100
AcDbTextStyleTableRecord
  2
Arial-Bold
 70
     0
 40
0.0
 41
1.0
 50
0.0
 71
     0
 42
5.0
  3
ARIALBD.TTF
  4

1001
ACAD
1000
Arial
1071
 33554466
  0
STYLE
  5
4415
330
3
100
AcDbSymbolTableRecord
100
AcDbTextStyleTableRecord
  2
Arial-Regular
 70
     0
 40
0.0
 41
1.0
 50
0.0
 71
     0
 42
2.5
  3
ARIAL.TTF
  4

1001
ACAD
1000
Arial
1071
       34
  0
ENDTAB
  0
TABLE
  2
VIEW
  5
6
330
0
100
AcDbSymbolTable
 70
     1
  0
ENDTAB
  0
TABLE
  2
UCS
  5
7
330
0
100
AcDbSymbolTable
 70
     0
  0
ENDTAB
  0
TABLE
  2
APPID
  5
9
330
0
100
AcDbSymbolTable
 70
    10
  0
APPID
  5
12
330
9
100
AcDbSymbolTableRecord
100
AcDbRegAppTableRecord
  2
ACAD
 70
     0
  0
APPID
  5
56A2
330
9
100
AcDbSymbolTableRecord
100
AcDbRegAppTableRecord
  2
DCO15
 70
     0
  0
APPID
  5
5729
330
9
100
AcDbSymbolTableRecord
100
AcDbRegAppTableRecord
  2
ACAD_MLEADERVER
 70
     0
  0
APPID
  5
5BF3
330
9
100
AcDbSymbolTableRecord
100
AcDbRegAppTableRecord
  2
ACAD_PSEXT
 70
     0
  0
APPID
  5
5CD9
330
9
100
AcDbSymbolTableRecord
100
AcDbRegAppTableRecord
  2
ACAUTHENVIRON
 70
     0
  0
APPID
  5
5CDA
330
9
100
AcDbSymbolTableRecord
100
AcDbRegAppTableRecord
  2
AcDbDynamicBlockTrueName
 70
     0
  0
APPID
  5
5CDB
330
9
100
AcDbSymbolTableRecord
100
AcDbRegAppTableRecord
  2
AcDbDynamicBlockGUID
 70
     0
  0
APPID
  5
5CDC
330
9
100
AcDbSymbolTableRecord
100
AcDbRegAppTableRecord
  2
AcDbBlockRepETag
 70
     0
  0
APPID
  5
5CDD
330
9
100
AcDbSymbolTableRecord
100
AcDbRegAppTableRecord
  2
AcDbBlockRepBTag
 70
     0
  0
APPID
  5
5CDE
330
9
100
AcDbSymbolTableRecord
100
AcDbRegAppTableRecord
  2
ACAD_EXEMPT_FROM_CAD_STANDARDS
 70
     0
  0
ENDTAB
  0
TABLE
  2
DIMSTYLE
  5
A
330
0
100
AcDbSymbolTable
 70
     3
100
AcDbDimStyleTable
 71
     1
340
375D
  0
DIMSTYLE
105
375D
330
A
100
AcDbSymbolTableRecord
100
AcDbDimStyleTableRecord
  2
Jase 01
 70
     0
 41
3.0
 42
1.5
 43
3.75
 44
1.5
 73
     0
 74
     0
 77
     1
 78
     1
140
2.5
141
-2.5
143
0.03937007874016
147
1.0
171
     3
172
     1
176
     9
177
     9
178
     7
271
     0
272
     0
274
     3
283
     0
284
     8
289
     0
340
4415
341
374F
371
     9
372
     9
  0
DIMSTYLE
105
3E5B
330
A
100
AcDbSymbolTableRecord
100
AcDbDimStyleTableRecord
  2
ISO-25
 70
     0
 41
4.0
 42
0.625
 43
3.75
 44
1.25
 73
     0
 74
     0
 77
     1
 78
     8
140
2.5
141
2.5
143
0.03937007874016
147
0.625
171
     3
172
     1
271
     2
272
     2
274
     3
278
    44
283
     0
284
     8
340
11
  0
ENDTAB
  0
TABLE
  2
BLOCK_RECORD
  5
1
330
0
100
AcDbSymbolTable
 70
    24
  0
BLOCK_RECORD
  5
1F
330
1
100
AcDbSymbolTableRecord
100
AcDbBlockTableRecord
  2
*Model_Space
340
22
  0
BLOCK_RECORD
  5
4E45
330
1
100
AcDbSymbolTableRecord
100
AcDbBlockTableRecord
  2
*Paper_Space
340
4E46
  0
BLOCK_RECORD
  5
374F
330
1
100
AcDbSymbolTableRecord
100
AcDbBlockTableRecord
  2
_Dot
340
0
310
2800000020000000200000000100080000000000000400000000000000000000000000000000000000000000000080000080000000808000800000008000800080800000C0C0C000C0DCC000F0CAA6000020400000206000002080000020A0000020C0000020E00000400000004020000040400000406000004080000040A0
310
000040C0000040E00000600000006020000060400000606000006080000060A0000060C0000060E00000800000008020000080400000806000008080000080A0000080C0000080E00000A0000000A0200000A0400000A0600000A0800000A0A00000A0C00000A0E00000C0000000C0200000C0400000C0600000C0800000C0
310
A00000C0C00000C0E00000E0000000E0200000E0400000E0600000E0800000E0A00000E0C00000E0E00040000000400020004000400040006000400080004000A0004000C0004000E00040200000402020004020400040206000402080004020A0004020C0004020E000404000004040200040404000404060004040800040
310
40A0004040C0004040E00040600000406020004060400040606000406080004060A0004060C0004060E00040800000408020004080400040806000408080004080A0004080C0004080E00040A0000040A0200040A0400040A0600040A0800040A0A00040A0C00040A0E00040C0000040C0200040C0400040C0600040C08000
310
40C0A00040C0C00040C0E00040E0000040E0200040E0400040E0600040E0800040E0A00040E0C00040E0E00080000000800020008000400080006000800080008000A0008000C0008000E00080200000802020008020400080206000802080008020A0008020C0008020E00080400000804020008040400080406000804080
310
008040A0008040C0008040E00080600000806020008060400080606000806080008060A0008060C0008060E00080800000808020008080400080806000808080008080A0008080C0008080E00080A0000080A0200080A0400080A0600080A0800080A0A00080A0C00080A0E00080C0000080C0200080C0400080C0600080C0
310
800080C0A00080C0C00080C0E00080E0000080E0200080E0400080E0600080E0800080E0A00080E0C00080E0E000C0000000C0002000C0004000C0006000C0008000C000A000C000C000C000E000C0200000C0202000C0204000C0206000C0208000C020A000C020C000C020E000C0400000C0402000C0404000C0406000C0
310
408000C040A000C040C000C040E000C0600000C0602000C0604000C0606000C0608000C060A000C060C000C060E000C0800000C0802000C0804000C0806000C0808000C080A000C080C000C080E000C0A00000C0A02000C0A04000C0A06000C0A08000C0A0A000C0A0C000C0A0E000C0C00000C0C02000C0C04000C0C06000
310
C0C08000C0C0A000F0FBFF00A4A0A000808080000000FF0000FF000000FFFF00FF000000FF00FF00FFFF0000FFFFFF0000000000000000000000000000000000000000000000000000000000000000000000000000000000000000000000000000000000000000000000000000000000000000000000000000000000000000
310
000000000000000000FF000000000000000000000000000000000000000000000000000000000000FFFFFF00000000000000000000000000000000000000000000000000000000FF00FF00FF0000000000000000000000000000000000000000000000000000FF0000FF0000FF000000000000000000000000000000000000
310
000000000000FF000000FF000000FF00000000000000000000000000000000000000000000FF00000000FF00000000FF0000000000000000000000000000000000000000FF0000000000FF0000000000FF000000000000000000000000000000000000FF000000000000FF000000000000FF00000000000000000000000000
310
000000FF00000000000000FF00000000000000000000000000000000000000000000FF0000000000000000FF000000000000000000000000000000000000000000FF000000000000000000FF0000000000000000000000000000000000000000FF00000000000000000000FF00000000000000000000000000000000000000
310
FF00000000000000000000FFFFFF0000000000000000000000000000000000FF00000000000000000000FFFFFFFFFFFFFFFFFFFF00FFFFFFFFFFFFFFFFFFFFFFFFFFFFFFFFFFFFFFFFFFFFFFFFFFFF00000000000000000000000000000000FF0000000000000000000000FFFFFF0000000000000000000000000000000000
310
00FF0000000000000000000000FF0000000000000000000000000000000000000000FF00000000000000000000FF000000000000000000000000000000000000000000FF000000000000000000FF00000000000000000000000000000000000000000000FF0000000000000000FF0000000000000000000000000000000000
310
000000000000FFFF000000000000FF000000000000FF000000000000000000000000000000000000FF0000000000FF0000000000FF0000000000000000000000000000000000000000FF00000000FF00000000FF00000000000000000000000000000000000000000000FF000000FF000000FF000000000000000000000000
310
000000000000000000000000FF0000FF0000FF0000000000000000000000000000000000000000000000000000FF00FF00FF00000000000000000000000000000000000000000000000000000000FFFFFF000000000000000000000000000000000000000000000000000000000000FF000000000000000000000000000000
310
0000000000000000000000000000000000000000000000000000000000000000000000000000000000000000000000000000000000000000
  0
BLOCK_RECORD
  5
3D9E
330
1
100
AcDbSymbolTableRecord
100
AcDbBlockTableRecord
  2
9010312r
340
0
102
{BLKREFS
331
5EE4
102
}
  0
BLOCK_RECORD
  5
3E9A
330
1
100
AcDbSymbolTableRecord
100
AcDbBlockTableRecord
  2
a4 specifiers manual
340
0
310
2800000020000000200000000100080000000000000400000000000000000000000000000000000000000000000080000080000000808000800000008000800080800000C0C0C000C0DCC000F0CAA6000020400000206000002080000020A0000020C0000020E00000400000004020000040400000406000004080000040A0
310
000040C0000040E00000600000006020000060400000606000006080000060A0000060C0000060E00000800000008020000080400000806000008080000080A0000080C0000080E00000A0000000A0200000A0400000A0600000A0800000A0A00000A0C00000A0E00000C0000000C0200000C0400000C0600000C0800000C0
310
A00000C0C00000C0E00000E0000000E0200000E0400000E0600000E0800000E0A00000E0C00000E0E00040000000400020004000400040006000400080004000A0004000C0004000E00040200000402020004020400040206000402080004020A0004020C0004020E000404000004040200040404000404060004040800040
310
40A0004040C0004040E00040600000406020004060400040606000406080004060A0004060C0004060E00040800000408020004080400040806000408080004080A0004080C0004080E00040A0000040A0200040A0400040A0600040A0800040A0A00040A0C00040A0E00040C0000040C0200040C0400040C0600040C08000
310
40C0A00040C0C00040C0E00040E0000040E0200040E0400040E0600040E0800040E0A00040E0C00040E0E00080000000800020008000400080006000800080008000A0008000C0008000E00080200000802020008020400080206000802080008020A0008020C0008020E00080400000804020008040400080406000804080
310
008040A0008040C0008040E00080600000806020008060400080606000806080008060A0008060C0008060E00080800000808020008080400080806000808080008080A0008080C0008080E00080A0000080A0200080A0400080A0600080A0800080A0A00080A0C00080A0E00080C0000080C0200080C0400080C0600080C0
310
800080C0A00080C0C00080C0E00080E0000080E0200080E0400080E0600080E0800080E0A00080E0C00080E0E000C0000000C0002000C0004000C0006000C0008000C000A000C000C000C000E000C0200000C0202000C0204000C0206000C0208000C020A000C020C000C020E000C0400000C0402000C0404000C0406000C0
310
408000C040A000C040C000C040E000C0600000C0602000C0604000C0606000C0608000C060A000C060C000C060E000C0800000C0802000C0804000C0806000C0808000C080A000C080C000C080E000C0A00000C0A02000C0A04000C0A06000C0A08000C0A0A000C0A0C000C0A0E000C0C00000C0C02000C0C04000C0C06000
310
C0C08000C0C0A000F0FBFF00A4A0A000808080000000FF0000FF000000FFFF00FF000000FF00FF00FFFF0000FFFFFF0000000000000000000000000000000000000000000000000000000000000000000000000000FFFFFFFFFFFFFFFFFFFFFFFFFFFFFFFFFFFFFFFFFFFF00000000000000000000FF000000000000000000
310
0000000000000000000000FF00000000000000000000FF0000000000000000000000000000000000000000FF00000000000000000000FF0000000000000000000000000000000000000000FF00000000000000000000FF0000000000000000000000000000000000000000FF00000000000000000000FF0000000000000000
310
000000000000000000000000FF00000000000000000000FF0000000000000000000000000000000000000000FF00000000000000000000FF0000000000000000000000000000000000000000FF00000000000000000000FF0000000000000000000000000000000000000000FF00000000000000000000FF00000000000000
310
00000000000000000000000000FF00000000000000000000FF0000000000000000000000000000000000000000FF00000000000000000000FF0000000000000000000000000000000000000000FF00000000000000000000FF0000000000000000000000000000000000000000FF00000000000000000000FF000000000000
310
0000000000000000000000000000FF00000000000000000000FF0000000000000000000000000000000000000000FF00000000000000000000FF0000000000000000000000000000000000000000FF00000000000000000000FF0000000000000000000000000000000000000000FF00000000000000000000FF0000000000
310
000000000000000000000000000000FF00000000000000000000FF0000000000000000000000000000000000000000FF00000000000000000000FF0000000000000000000000000000000000000000FF00000000000000000000FF0000000000000000000000000000000000000000FF00000000000000000000FF00000000
310
00000000000000000000000000000000FF00000000000000000000FF0000000000000000000000000000000000000000FF00000000000000000000FF0000000000000000000000000000000000000000FF00000000000000000000FF0000000000000000000000000000000000000000FF00000000000000000000FF000000
310
0000000000000000000000000000000000FF00000000000000000000FF0000000000000000000000000000000000000000FF00000000000000000000FF0000000000000000000000000000000000000000FF00000000000000000000FF0000000000000000000000000000000000000000FF00000000000000000000FFFFFF
310
FFFFFFFFFFFFFFFFFFFFFFFFFFFFFFFFFFFFFF00000000000000000000000000000000000000000000000000000000000000000000000000
102
{BLKREFS
331
3EA1
102
}
1001
ACAD
1000
DesignCenter Data
1002
{
1070
     1
1070
     4
1002
}
  0
BLOCK_RECORD
  5
3F26
330
1
100
AcDbSymbolTableRecord
100
AcDbBlockTableRecord
  2
19mmliner
340
0
102
{BLKREFS
331
55C2
331
5ACC
331
5ACD
102
}
1001
ACAD
1000
DesignCenter Data
1002
{
1070
     1
1070
     4
1002
}
  0
BLOCK_RECORD
  5
3F2E
330
1
100
AcDbSymbolTableRecord
100
AcDbBlockTableRecord
  2
6Glass
340
0
102
{BLKREFS
331
5EE3
331
5EE7
102
}
  0
BLOCK_RECORD
  5
4E54
330
1
100
AcDbSymbolTableRecord
100
AcDbBlockTableRecord
  2
vantage a4 SM border
340
0
102
{BLKREFS
331
4E58
102
}
  0
BLOCK_RECORD
  5
549D
330
1
100
AcDbSymbolTableRecord
100
AcDbBlockTableRecord
  2
vantage a4 SM attributes (4)
340
0
102
{BLKREFS
331
54A9
102
}
1001
ACAD
1000
DesignCenter Data
1002
{
1070
     1
1070
     4
1002
}
  0
BLOCK_RECORD
  5
54EF
330
1
100
AcDbSymbolTableRecord
100
AcDbBlockTableRecord
  2
08653
340
0
102
{BLKREFS
331
55AD
331
55AE
331
55AF
331
55B1
102
}
  0
BLOCK_RECORD
  5
54F5
330
1
100
AcDbSymbolTableRecord
100
AcDbBlockTableRecord
  2
08654
340
0
102
{BLKREFS
331
55AC
331
55B0
102
}
  0
BLOCK_RECORD
  5
54FB
330
1
100
AcDbSymbolTableRecord
100
AcDbBlockTableRecord
  2
08652
340
0
102
{BLKREFS
331
55B6
102
}
  0
BLOCK_RECORD
  5
57F9
330
1
100
AcDbSymbolTableRecord
100
AcDbBlockTableRecord
  2
08638
340
0
102
{BLKREFS
331
5EE5
102
}
1001
ACAD
1000
DesignCenter Data
1002
{
1070
     1
1070
     4
1002
}
  0
BLOCK_RECORD
  5
57FC
330
1
100
AcDbSymbolTableRecord
100
AcDbBlockTableRecord
  2
9010250L
340
0
102
{BLKREFS
331
5EE9
102
}
1001
ACAD
1000
DesignCenter Data
1002
{
1070
     1
1070
     4
1002
}
  0
BLOCK_RECORD
  5
57FF
102
{ACAD_XDICTIONARY
360
5EEA
102
}
330
1
100
AcDbSymbolTableRecord
100
AcDbBlockTableRecord
  2
08638Glaze
340
0
310
2800000020000000200000000100080000000000000400000000000000000000000000000000000000000000000080000080000000808000800000008000800080800000C0C0C000C0DCC000F0CAA6000020400000206000002080000020A0000020C0000020E00000400000004020000040400000406000004080000040A0
310
000040C0000040E00000600000006020000060400000606000006080000060A0000060C0000060E00000800000008020000080400000806000008080000080A0000080C0000080E00000A0000000A0200000A0400000A0600000A0800000A0A00000A0C00000A0E00000C0000000C0200000C0400000C0600000C0800000C0
310
A00000C0C00000C0E00000E0000000E0200000E0400000E0600000E0800000E0A00000E0C00000E0E00040000000400020004000400040006000400080004000A0004000C0004000E00040200000402020004020400040206000402080004020A0004020C0004020E000404000004040200040404000404060004040800040
310
40A0004040C0004040E00040600000406020004060400040606000406080004060A0004060C0004060E00040800000408020004080400040806000408080004080A0004080C0004080E00040A0000040A0200040A0400040A0600040A0800040A0A00040A0C00040A0E00040C0000040C0200040C0400040C0600040C08000
310
40C0A00040C0C00040C0E00040E0000040E0200040E0400040E0600040E0800040E0A00040E0C00040E0E00080000000800020008000400080006000800080008000A0008000C0008000E00080200000802020008020400080206000802080008020A0008020C0008020E00080400000804020008040400080406000804080
310
008040A0008040C0008040E00080600000806020008060400080606000806080008060A0008060C0008060E00080800000808020008080400080806000808080008080A0008080C0008080E00080A0000080A0200080A0400080A0600080A0800080A0A00080A0C00080A0E00080C0000080C0200080C0400080C0600080C0
310
800080C0A00080C0C00080C0E00080E0000080E0200080E0400080E0600080E0800080E0A00080E0C00080E0E000C0000000C0002000C0004000C0006000C0008000C000A000C000C000C000E000C0200000C0202000C0204000C0206000C0208000C020A000C020C000C020E000C0400000C0402000C0404000C0406000C0
310
408000C040A000C040C000C040E000C0600000C0602000C0604000C0606000C0608000C060A000C060C000C060E000C0800000C0802000C0804000C0806000C0808000C080A000C080C000C080E000C0A00000C0A02000C0A04000C0A06000C0A08000C0A0A000C0A0C000C0A0E000C0C00000C0C02000C0C04000C0C06000
310
C0C08000C0C0A000F0FBFF00A4A0A000808080000000FF0000FF000000FFFF00FF000000FF00FF00FFFF0000FFFFFF0000000000000000000000000000000000000000000000000000000000000000000000000000000000000000000000000000000000000000000000000000000000000000000000000000000000000000
310
000000000000000000000000000000000000000000000000000000000000000000000000000000000000000000000000000000000000000000000000000000000000000000000000000000000000000000000000FBFB000000000000000000FBFBFBFB0000000000000000000000000000000000FBFBFBFBFBFBFBFBFBFBFB
310
FBFBFB00000000000000000000000000000000FBFBFB00FBFBFBFBFBFBFBFBFB00000000000000000000000000000000000000FB0000FB00000000000000000000000000000000000000000000000000000000FB00FB0000000000000000000000000000000000000000000000000000000000FB00FB000000000000000000
310
0000000000000000000000000000000000000000FB00FB0000000000000000000000000000000000000000000000000000000000FB00FB000000FFA4FFA4FFFFFFFFFFFFFFFFFFFFFFFFFFFFFF00000000000000FB00FB000000FFA400A4FF0000000000000000FF00A4A400FF00000000000000FB00FB0000A4A4A400A4FF
310
0000000000000000FF00A4A400FF00000000000000FB00FB0000A4A4A400A4FF0000000000000000FF00A4A400FF00A40000000000FB00FBFBFBA4A4A400A4FFFFFFFFFFFFFFFFFFFF00A4A400FFA4A40000000000FB00FBFBFBA4A4A400A4FF0000000000000000FF00A4A400FFA400A400000000FB00FBA4A4A4A4A400A4
310
FF0000000000000000FF00A4A400A400A4A400000000FB00FBA400A4FFA400A4FF0000000000000000FF00A4A400FFA40000A4000000FB00FBFBFBA4A4A400A4FF0000000000000000FF00A4A400A4A4A4A4A4000000FB00FBFBFBA4A4A400A4FF0000000000000000FF00A4A400A4A4A4A400000000FB0000FBFBA4A4A400
310
A4FF0000000000000000FF00A4A400FFA400A4A4000000FBFBFBFB0000A4A400A4FF0000000000000000FF00A4A400A40000A4A4A40000000000A4A4A4A4A400A4FF0000000000000000FF00A4A400A4A4A400000000000000000000A4A4A400A4FF0000000000000000FF00A4A400FF00000000000000000000000000FFA4
310
00A4FF0000000000000000FF00A4A400FF0000000000000000000000000000000000000000000000000000000000000000000000000000000000000000000000000000000000000000000000000000000000000000000000000000000000000000000000000000000000000000000000000000000000000000000000000000
310
0000000000000000000000000000000000000000000000000000000000000000000000000000000000000000000000000000000000000000
102
{BLKREFS
331
5811
331
5813
331
5823
331
5824
331
5826
331
5828
331
58B3
331
58C0
331
58D4
102
}
1001
AcDbDynamicBlockGUID
1000
{1E478F66-BF2C-426F-85D2-8FBCD0C1C58C}
1001
AcDbBlockRepETag
1070
     1
1071
        7
1001
ACAD
1000
DesignCenter Data
1002
{
1070
     1
1070
     4
1002
}
  0
BLOCK_RECORD
  5
601D
102
{ACAD_XDICTIONARY
360
646E
102
}
330
1
100
AcDbSymbolTableRecord
100
AcDbBlockTableRecord
  2
08678
340
0
102
{BLKREFS
331
6025
331
6026
331
6033
102
}
1001
ACAD
1000
DesignCenter Data
1002
{
1070
     1
1070
     4
1002
}
  0
BLOCK_RECORD
  5
641A
102
{ACAD_XDICTIONARY
360
641B
102
}
330
1
100
AcDbSymbolTableRecord
100
AcDbBlockTableRecord
  2
vantage black & white logo
340
0
310
2800000020000000200000000100080000000000000400000000000000000000000000000000000000000000000080000080000000808000800000008000800080800000C0C0C000C0DCC000F0CAA6000020400000206000002080000020A0000020C0000020E00000400000004020000040400000406000004080000040A0
310
000040C0000040E00000600000006020000060400000606000006080000060A0000060C0000060E00000800000008020000080400000806000008080000080A0000080C0000080E00000A0000000A0200000A0400000A0600000A0800000A0A00000A0C00000A0E00000C0000000C0200000C0400000C0600000C0800000C0
310
A00000C0C00000C0E00000E0000000E0200000E0400000E0600000E0800000E0A00000E0C00000E0E00040000000400020004000400040006000400080004000A0004000C0004000E00040200000402020004020400040206000402080004020A0004020C0004020E000404000004040200040404000404060004040800040
310
40A0004040C0004040E00040600000406020004060400040606000406080004060A0004060C0004060E00040800000408020004080400040806000408080004080A0004080C0004080E00040A0000040A0200040A0400040A0600040A0800040A0A00040A0C00040A0E00040C0000040C0200040C0400040C0600040C08000
310
40C0A00040C0C00040C0E00040E0000040E0200040E0400040E0600040E0800040E0A00040E0C00040E0E00080000000800020008000400080006000800080008000A0008000C0008000E00080200000802020008020400080206000802080008020A0008020C0008020E00080400000804020008040400080406000804080
310
008040A0008040C0008040E00080600000806020008060400080606000806080008060A0008060C0008060E00080800000808020008080400080806000808080008080A0008080C0008080E00080A0000080A0200080A0400080A0600080A0800080A0A00080A0C00080A0E00080C0000080C0200080C0400080C0600080C0
310
800080C0A00080C0C00080C0E00080E0000080E0200080E0400080E0600080E0800080E0A00080E0C00080E0E000C0000000C0002000C0004000C0006000C0008000C000A000C000C000C000E000C0200000C0202000C0204000C0206000C0208000C020A000C020C000C020E000C0400000C0402000C0404000C0406000C0
310
408000C040A000C040C000C040E000C0600000C0602000C0604000C0606000C0608000C060A000C060C000C060E000C0800000C0802000C0804000C0806000C0808000C080A000C080C000C080E000C0A00000C0A02000C0A04000C0A06000C0A08000C0A0A000C0A0C000C0A0E000C0C00000C0C02000C0C04000C0C06000
310
C0C08000C0C0A000F0FBFF00A4A0A000808080000000FF0000FF000000FFFF00FF000000FF00FF00FFFF0000FFFFFF0000000000000000000000000000000000000000000000000000000000000000000000000000000000000000000000000000000000000000000000000000000000000000000000000000000000000000
310
0000000000000000000000000000000000000000000000000000000000000000A4A40000000000000000000000000000000000000000000000000000000000A400000700000000000000000000000000000000000000000000000000000000A4000707000000000000000000000000000000000000000000000000000000A4
310
00A4A407070000000000000000000000000000000000000000000000000000A400A400A40700000000000000000000000000000000000000000000000000A400A4A400A407070000000000000000000000000000000000000000000000A40700A4000000A4070000000000000000000000000000000000000000000000A400
310
A4A4000000A40707000000000000000000000000000000000000000000A400A4A4000000A4A4A400070000000000000000000000000000000000000000A400A400000000A400A4070700000000000000000000000000000000000000A400A4A4000000A4A40000A40007000000000000000000000000000000000000A400A4
310
A4A4A4A4A4A4A4A4A407070000000000000000000000000000000000A400A4A4A4A4A4A4A4A4A4A4A4A40007000000000000000000000000000000A40000A4A4A4A4A4A4A4A4A4A4A4A40700070000000000000000000000000000A400A4A400A4A4A4A4A4A4A4A4A4A4A4070700000000000000000000000000A400A4A4A4
310
A4A4A4A4A4A4A4A4A4A4A4A4070007000000000000000000000000A400A4A4A4A4A4A4A4A4A4A4A4A4A4A4A4A407070000000000000000000000A400A4A400A4A4A4A4A4A4A4A4A4A4A4A4A4A4070007000000000000000000A40700A4A400A4A4A4A4A4A4A4A4A4A4A4A4A400A40707000000000000000000A400A4A4A4A4
310
A4A4A4A4A4A4A4A4A4A4A4A4A4A4A407000700000000000000A400A4A4A4A4A4A4A4A4A4A4A4A4A4A4A4A4A4A4A4A4A4070007000000000000A400A4A4A4A4A4A4A4A4A4A4A4A4A4A4A4A4A4A4A4A4A40700070000000000A400A4A400A4A4A4A4A4A4A4A4A4A4A4A4A4A4A4A4A4A4A40007000700000000A400A4A4A400A4
310
A4A4A4A4A4A4A4A4A4A4A4A4A4A4A4A4A4000700070000000700A4A4A4A4A4A4A4A4A4A4A4A4A4A4A4A4A4A4A4A4A4A4A4A4A40700070000A407A4A4A4A4A4A4A4A4A4A4A4A4A4A4A4A4A4A4A4A4A4A4A4A4A4A407A40000000000000000000000000000000000000000000000000000000000000000000000000000000000
310
0000000000000000000000000000000000000000000000000000000000000000000000000000000000000000000000000000000000000000
102
{BLKREFS
331
6418
102
}
1001
AcDbDynamicBlockGUID
1000
{7D04BC3F-8AE2-40EA-A482-CE6E620AF154}
1001
AcDbBlockRepETag
1070
     1
1071
      907
1001
ACAD
1000
DesignCenter Data
1002
{
1070
     1
1070
     4
1002
}
  0
ENDTAB
  0
ENDSEC
  0
SECTION
  2
BLOCKS
  0
BLOCK
  5
20
330
1F
100
AcDbEntity
  8
0
100
AcDbBlockBegin
  2
*Model_Space
 70
     0
 10
0.0
 20
0.0
 30
0.0
  3
*Model_Space
  1

  0
ENDBLK
  5
21
330
1F
100
AcDbEntity
  8
0
100
AcDbBlockEnd
  0
BLOCK
  5
4E47
330
4E45
100
AcDbEntity
 67
     1
  8
0
 48
3.0
100
AcDbBlockBegin
  2
*Paper_Space
 70
     0
 10
0.0
 20
0.0
 30
0.0
  3
*Paper_Space
  1

  0
ENDBLK
  5
4E48
330
4E45
100
AcDbEntity
 67
     1
  8
0
 48
3.0
100
AcDbBlockEnd
  0
BLOCK
  5
3752
330
374F
100
AcDbEntity
  8
0
100
AcDbBlockBegin
  2
_Dot
 70
     0
 10
0.0
 20
0.0
 30
0.0
  3
_Dot
  1

  0
LWPOLYLINE
  5
3750
330
374F
100
AcDbEntity
  8
0
  6
ByBlock
 62
     0
100
AcDbPolyline
 90
        2
 70
     1
 43
0.5
 10
-0.25
 20
0.0
 42
1.0
 10
0.25
 20
0.0
 42
1.0
  0
LINE
  5
3751
330
374F
100
AcDbEntity
  8
0
  6
ByBlock
 62
     0
370
    -2
100
AcDbLine
 10
-0.5
 20
0.0
 30
0.0
 11
-1.0
 21
0.0
 31
0.0
  0
ENDBLK
  5
3753
330
374F
100
AcDbEntity
  8
0
100
AcDbBlockEnd
  0
BLOCK
  5
3D9F
330
3D9E
100
AcDbEntity
  8
0
 48
3.0
100
AcDbBlockBegin
  2
9010312r
 70
     0
 10
399.4634067278245
 20
339.4121540145172
 30
0.0
  3
9010312r
  1
9010312r.dwg
  0
LWPOLYLINE
  5
6075
330
3D9E
100
AcDbEntity
  8
APL Joinery
  6
Continuous
 62
   252
100
AcDbPolyline
 90
       28
 70
   128
 43
0.0
 10
395.7634067278242
 20
336.2999919725366
 10
395.7634067278242
 20
343.1621540145172
 42
-0.7673269879789622
 10
396.2299130787703
 20
343.2871540145172
 10
396.7850145808851
 20
342.3256900094965
 10
399.2931562636775
 20
341.6536354710895
 42
-0.3626955242591878
 10
399.4775957926651
 20
341.3914870691883
 10
399.3134067278246
 20
339.4121540145172
 10
397.7634067278242
 20
339.4121540145172
 10
397.7634067278242
 20
336.5121540145171
 10
399.0135696498364
 20
336.5121540145171
 10
399.2752560951169
 20
337.3376963843301
 42
-0.6640183420487276
 10
399.7341578851304
 20
337.3798010733406
 42
-0.250000000000001
 10
399.7341578851305
 20
333.1445069556935
 42
-0.6640183420487097
 10
399.2752560951171
 20
333.1866116447042
 10
399.0135696498364
 20
334.0121540145171
 10
397.4635696498362
 20
334.0121540145171
 10
397.1898787608678
 20
334.2858449034854
 42
0.6681785464135807
 10
396.7631020655712
 20
334.1090682714504
 10
396.7631016544432
 20
332.4843569389277
 10
396.2607415896308
 20
329.0715154000631
 42
-0.9294717386060577
 10
395.7634067278242
 20
329.1079223518048
 10
395.7634067278242
 20
334.5749919747145
 42
-0.3563939586926081
 10
396.5634067278242
 20
335.5547878718279
 42
0.3563939586925715
 10
396.7634067278242
 20
335.7997368461061
 10
396.7634067278242
 20
339.3871540145172
 42
0.9999999999999998
 10
396.7134067278242
 20
339.3871540145172
 10
396.7134067278242
 20
336.2999919725366
 42
-0.9999999999999998
 10
395.76340673218
 20
336.2999919725366
  0
ENDBLK
  5
3DA0
330
3D9E
100
AcDbEntity
  8
0
 48
3.0
100
AcDbBlockEnd
  0
BLOCK
  5
3E9F
330
3E9A
100
AcDbEntity
  8
0
 48
3.0
100
AcDbBlockBegin
  2
a4 specifiers manual
 70
     0
 10
0.0
 20
0.0
 30
0.0
  3
a4 specifiers manual
  1

  0
LINE
  5
3E9B
330
3E9A
100
AcDbEntity
  8
0
100
AcDbLine
 10
-0.0000008078504834
 20
0.0000001108869583
 30
0.0
 11
353.9999991921495
 21
0.0000001108869583
 31
0.0
  0
LINE
  5
3E9C
330
3E9A
100
AcDbEntity
  8
0
100
AcDbLine
 10
353.9999991921495
 20
482.0000001108869
 30
0.0
 11
-0.0000008078504834
 21
482.0000001108869
 31
0.0
  0
LINE
  5
3E9D
330
3E9A
100
AcDbEntity
  8
0
100
AcDbLine
 10
-0.0000008078504834
 20
482.0000001108869
 30
0.0
 11
-0.0000008078504834
 21
0.0000001108869583
 31
0.0
  0
LINE
  5
3E9E
330
3E9A
100
AcDbEntity
  8
0
100
AcDbLine
 10
353.9999991921495
 20
0.0000001108869583
 30
0.0
 11
353.9999991921495
 21
482.0000001108869
 31
0.0
  0
ENDBLK
  5
3EA0
330
3E9A
100
AcDbEntity
  8
0
 48
3.0
100
AcDbBlockEnd
  0
BLOCK
  5
3F27
330
3F26
100
AcDbEntity
  8
0
 48
3.0
100
AcDbBlockBegin
  2
19mmliner
 70
     0
 10
0.0
 20
0.0
 30
0.0
  3
19mmliner
  1
G:\Blocks\19mmliner.dwg
  0
LINE
  5
5AB5
330
3F26
100
AcDbEntity
  8
APL Joinery
 62
     3
100
AcDbLine
 10
0.0
 20
-19.0
 30
0.0
 11
50.00000000000011
 21
-18.99999999999994
 31
0.0
  0
LINE
  5
5AB6
330
3F26
100
AcDbEntity
  8
APL Joinery
 62
     3
100
AcDbLine
 10
0.0
 20
0.0
 30
0.0
 11
67.00000000000011
 21
0.0
 31
0.0
  0
LINE
  5
5AB7
330
3F26
100
AcDbEntity
  8
APL Joinery
 62
     8
100
AcDbLine
 10
26.19052995370055
 20
-17.24287463278995
 30
0.0
 11
37.41890072467771
 21
-4.997232663758495
 31
0.0
  0
SPLINE
  5
5AB8
330
3F26
100
AcDbEntity
  8
APL Joinery
 62
     8
100
AcDbSpline
210
0.0
220
0.0
230
1.0
 70
     8
 71
     3
 72
    14
 73
    10
 74
     8
 42
0.0000000001
 43
0.0000000001
 44
0.0000000001
 40
0.0
 40
0.0
 40
0.0
 40
0.0
 40
8.267050822299994
 40
20.90203347130239
 40
31.18486054127779
 40
41.04700630219173
 40
47.37085711970707
 40
52.62972264650577
 40
55.04603969815228
 40
55.04603969815228
 40
55.04603969815228
 40
55.04603969815228
 10
2.222073356012998
 20
-3.320714715703502
 30
0.0
 10
4.970483723178076
 20
-3.107580867797102
 30
0.0
 10
11.91943888532578
 20
-2.568702987575286
 30
0.0
 10
22.32039856470623
 20
-2.617741304776982
 30
0.0
 10
33.24312654488595
 20
-2.062251796348859
 30
0.0
 10
42.07306290054178
 20
-3.467477497360955
 30
0.0
 10
48.66231454097202
 20
-6.367996120383915
 30
0.0
 10
52.533089770227
 20
-9.008562173229623
 30
0.0
 10
54.49525529160745
 20
-10.65037801537622
 30
0.0
 10
55.11298834994272
 20
-11.16725791686332
 30
0.0
 11
2.222073356012998
 21
-3.320714715703502
 31
0.0
 11
10.47081087433253
 21
-2.770752305752807
 31
0.0
 11
23.10272799168183
 21
-2.492442261002111
 31
0.0
 11
33.38531872340312
 21
-2.422725728254704
 31
0.0
 11
43.09519545037869
 21
-4.149055058495946
 31
0.0
 11
48.88333732309729
 21
-6.69630903552121
 31
0.0
 11
53.24392656735932
 21
-9.635854590837197
 31
0.0
 11
55.11298834994272
 21
-11.16725791686332
 31
0.0
  0
SPLINE
  5
5AB9
330
3F26
100
AcDbEntity
  8
APL Joinery
 62
     8
100
AcDbSpline
210
0.0
220
0.0
230
1.0
 70
     8
 71
     3
 72
    13
 73
     9
 74
     7
 42
0.0000000001
 43
0.0000000001
 44
0.0000000001
 40
0.0
 40
0.0
 40
0.0
 40
0.0
 40
7.873644080568313
 40
17.07129258656329
 40
24.77081643184663
 40
33.27528257512341
 40
39.90117587444498
 40
45.52268627951728
 40
45.52268627951728
 40
45.52268627951728
 40
45.52268627951728
 10
6.493697879698231
 20
-9.284566935455814
 30
0.0
 10
9.102316295424849
 20
-8.96229737641007
 30
0.0
 10
14.75820926771068
 20
-8.263566537434233
 30
0.0
 10
23.03824475262079
 20
-8.639963248898068
 30
0.0
 10
31.46374499949899
 20
-9.234988696459966
 30
0.0
 10
39.04010949558767
 20
-10.68730139502821
 30
0.0
 10
45.08154669898695
 20
-14.32360645311368
 30
0.0
 10
47.91030228327403
 20
-17.27825344283573
 30
0.0
 10
49.20869003420375
 20
-18.63442485654354
 30
0.0
 11
6.493697879698231
 21
-9.284566935455814
 31
0.0
 11
14.33028626026277
 21
-8.521576987245907
 31
0.0
 11
23.52612693663122
 21
-8.703929104533244
 31
0.0
 11
31.19737654840156
 21
-9.363168695273884
 31
0.0
 11
39.46881806814335
 21
-11.34033828021921
 31
0.0
 11
45.15829991985509
 21
-14.73625616394918
 31
0.0
 11
49.20869003420375
 21
-18.63442485654354
 31
0.0
  0
LINE
  5
5ABA
330
3F26
100
AcDbEntity
  8
APL Joinery
 62
     3
100
AcDbLine
 10
0.0
 20
-19.0
 30
0.0
 11
0.0
 21
0.0
 31
0.0
  0
LINE
  5
5ABB
330
3F26
100
AcDbEntity
  8
APL Joinery
 62
     8
100
AcDbLine
 10
19.45350749111429
 20
-16.68625454328855
 30
0.0
 11
16.9271240676444
 21
-5.553852753259889
 31
0.0
  0
SPLINE
  5
5ABC
330
3F26
100
AcDbEntity
  8
APL Joinery
 62
     8
100
AcDbSpline
210
0.0
220
0.0
230
1.0
 70
     8
 71
     3
 72
    15
 73
    11
 74
     9
 42
0.0000000001
 43
0.0000000001
 44
0.0000000001
 40
0.0
 40
0.0
 40
0.0
 40
0.0
 40
4.844139449286539
 40
10.54193621031332
 40
16.07410556410715
 40
19.51351901015936
 40
22.27929741151003
 40
25.6710732269026
 40
27.95241956603697
 40
30.23778869522836
 40
30.23778869522836
 40
30.23778869522836
 40
30.23778869522836
 10
5.137085484660701
 20
-18.70689500082608
 30
0.0
 10
6.408769628464119
 20
-17.65266297370456
 30
0.0
 10
9.176240149077848
 20
-15.35841713352313
 30
0.0
 10
14.71410953263337
 20
-14.94237354527991
 30
0.0
 10
19.49810311095903
 20
-14.03739412847481
 30
0.0
 10
23.44174822770357
 20
-14.33585034700748
 30
0.0
 10
26.5487421828306
 20
-15.08452990149425
 30
0.0
 10
29.40928533609926
 20
-15.18122233718646
 30
0.0
 10
31.79507091096108
 20
-16.61651298915305
 30
0.0
 10
32.54983695833856
 20
-17.96139266881571
 30
0.0
 10
32.92755241628686
 20
-18.63442485654354
 30
0.0
 11
5.137085484660701
 21
-18.70689500082608
 31
0.0
 11
9.134667024375573
 21
-15.97101692652069
 31
0.0
 11
14.71797854916133
 21
-14.83456615892805
 31
0.0
 11
20.21426360762382
 21
-14.20548085852942
 31
0.0
 11
23.64474276501522
 21
-14.45322589599311
 31
0.0
 11
26.36498939263731
 21
-14.95301430150937
 31
0.0
 11
29.70621307830396
 21
-15.53642450387315
 31
0.0
 11
31.64057597507826
 21
-16.74587946486372
 31
0.0
 11
32.92755241628686
 21
-18.63442485654354
 31
0.0
  0
LINE
  5
5ABD
330
3F26
100
AcDbEntity
  8
APL Joinery
 62
     8
100
AcDbLine
 10
12.15506648997916
 20
-17.52118467754076
 30
0.0
 11
1.705456250879308
 21
-10.57220476035741
 31
0.0
  0
LINE
  5
5ABE
330
3F26
100
AcDbEntity
  8
APL Joinery
 62
     3
100
AcDbLine
 10
67.00000000000014
 20
-18.99999999999994
 30
0.0
 11
60.00000000000011
 21
-18.99999999999994
 31
0.0
  0
SPLINE
  5
5ABF
330
3F26
100
AcDbEntity
  8
APL Joinery
 62
     8
100
AcDbSpline
210
0.0
220
0.0
230
1.0
 70
     8
 71
     3
 72
    11
 73
     7
 74
     5
 42
0.0000000001
 43
0.0000000001
 44
0.0000000001
 40
0.0
 40
0.0
 40
0.0
 40
0.0
 40
4.077163776164723
 40
7.378903861023069
 40
10.95052549711435
 40
14.90356917242528
 40
14.90356917242528
 40
14.90356917242528
 40
14.90356917242528
 10
54.54216615041787
 20
-0.5442719477470064
 30
0.0
 10
55.83273432396572
 20
-0.9804729092120904
 30
0.0
 10
58.1684213361916
 20
-1.769915064455708
 30
0.0
 10
61.32108974775977
 20
-3.672262872840989
 30
0.0
 10
63.94757850421534
 20
-6.177947780904759
 30
0.0
 10
65.51075096213762
 20
-8.140740445773568
 30
0.0
 10
66.33195545994386
 20
-9.171883335019288
 30
0.0
 11
54.54216615041787
 21
-0.5442719477470064
 31
0.0
 11
58.34936223194148
 21
-2.003217613116703
 31
0.0
 11
61.17154119233646
 21
-3.716925144600509
 31
0.0
 11
63.79594686904238
 21
-6.139522089093986
 31
0.0
 11
66.33195545994386
 21
-9.171883335019288
 31
0.0
  0
LINE
  5
5AC0
330
3F26
100
AcDbEntity
  8
APL Joinery
 62
     3
100
AcDbLine
 10
50.00000000000011
 20
-12.0
 30
0.0
 11
60.00000000000011
 21
-12.0
 31
0.0
  0
LINE
  5
5AC1
330
3F26
100
AcDbEntity
  8
APL Joinery
 62
     8
100
AcDbLine
 10
35.17322657048229
 20
-16.12963445378716
 30
0.0
 11
64.36699057502289
 21
-3.049062350503504
 31
0.0
  0
LINE
  5
5AC2
330
3F26
100
AcDbEntity
  8
APL Joinery
 62
     3
100
AcDbLine
 10
50.00000000000011
 20
-18.99999999999994
 30
0.0
 11
50.00000000000011
 21
-12.0
 31
0.0
  0
LINE
  5
5AC3
330
3F26
100
AcDbEntity
  8
APL Joinery
 62
     3
100
AcDbLine
 10
60.00000000000011
 20
-18.99999999999994
 30
0.0
 11
60.00000000000011
 21
-12.0
 31
0.0
  0
LINE
  5
5AC4
330
3F26
100
AcDbEntity
  8
APL Joinery
 62
     3
100
AcDbLine
 10
67.00000000000014
 20
-18.99999999999994
 30
0.0
 11
67.00000000000011
 21
0.0
 31
0.0
  0
ENDBLK
  5
3F28
330
3F26
100
AcDbEntity
  8
0
 48
3.0
100
AcDbBlockEnd
  0
BLOCK
  5
3F2F
330
3F2E
100
AcDbEntity
  8
0
 48
3.0
100
AcDbBlockBegin
  2
6Glass
 70
     0
 10
101.8368839708302
 20
399.4111348733001
 30
0.0
  3
6Glass
  1
6Glass.dwg
  0
LINE
  5
499B
330
3F2E
100
AcDbEntity
  8
APL Joinery
 62
     7
100
AcDbLine
 10
95.33688397083029
 20
412.4111348732999
 30
0.0
 11
95.33688397083029
 21
392.4111348733
 31
0.0
  0
LINE
  5
499C
330
3F2E
100
AcDbEntity
  8
APL Joinery
 62
     7
100
AcDbLine
 10
89.33688397083029
 20
412.4111348732999
 30
0.0
 11
95.33688397083029
 21
412.4111348732999
 31
0.0
  0
LINE
  5
499D
330
3F2E
100
AcDbEntity
  8
APL Joinery
 62
     8
100
AcDbLine
 10
93.33688397083028
 20
412.4111348732999
 30
0.0
 11
93.33688397083028
 21
392.4111348733
 31
0.0
  0
LINE
  5
499E
330
3F2E
100
AcDbEntity
  8
APL Joinery
 62
     7
100
AcDbLine
 10
89.33688397083029
 20
412.4111348732999
 30
0.0
 11
89.33688397083029
 21
392.4111348733
 31
0.0
  0
LINE
  5
499F
330
3F2E
100
AcDbEntity
  8
APL Joinery
 62
     8
100
AcDbLine
 10
91.33688397083028
 20
412.4111348732999
 30
0.0
 11
91.33688397083028
 21
392.4111348733
 31
0.0
  0
ENDBLK
  5
3F30
330
3F2E
100
AcDbEntity
  8
0
 48
3.0
100
AcDbBlockEnd
  0
BLOCK
  5
4E55
330
4E54
100
AcDbEntity
  8
0
 48
3.0
100
AcDbBlockBegin
  2
vantage a4 SM border
 70
     0
 10
0.0
 20
0.0
 30
0.0
  3
vantage a4 SM border
  1
I:\DWG Borders\vantage a4 SM border.dwg
  0
TEXT
  5
640C
330
4E54
100
AcDbEntity
  8
APL Border
100
AcDbText
 10
11.59500000000003
 20
3.979818213543524
 30
0.0
 40
1.5
  1
VANTAGE SPECIFIER'S GUIDE 2011:1     ARCHITECTURAL PROFILES LTD. NB. TECHNICAL SPECIFICATIONS SUBJECT TO CHANGE WITHOUT NOTICE.
 41
1.175568529931163
  7
Arial-Regular
 72
     5
 11
189.595
 21
3.979818213543524
 31
0.0
100
AcDbText
  0
LINE
  5
640D
330
4E54
100
AcDbEntity
  8
APL Border
100
AcDbLine
 10
11.59500000000003
 20
6.189999999999997
 30
0.0
 11
189.595
 21
6.189999999999997
 31
0.0
  0
MTEXT
  5
640E
330
4E54
100
AcDbEntity
  8
APL Border
100
AcDbMText
 10
57.55102029361978
 20
3.879818213543526
 30
0.0
 40
1.5
 41
0.0
 71
     8
 72
     5
  1
{\fCommercialPi BT|b0|i0|c2|p18;a}
  7
Arial-Regular
 73
     1
 44
1.0
1001
ACAD
1000
MTEXTBEGIN
1070
    73
1070
     1
1070
    44
1040
1.0
1070
    74
1070
     0
1000
MTEXTEND
  0
LINE
  5
640F
330
4E54
100
AcDbEntity
  8
APL Border
100
AcDbLine
 10
189.595
 20
268.19
 30
0.0
 11
142.595
 21
268.19
 31
0.0
  0
LINE
  5
6410
330
4E54
100
AcDbEntity
  8
APL Border
100
AcDbLine
 10
189.595
 20
282.19
 30
0.0
 11
189.595
 21
254.19
 31
0.0
  0
LINE
  5
6411
330
4E54
100
AcDbEntity
  8
APL Border
100
AcDbLine
 10
166.095
 20
268.19
 30
0.0
 11
166.095
 21
254.19
 31
0.0
  0
LINE
  5
6412
330
4E54
100
AcDbEntity
  8
APL Border
100
AcDbLine
 10
189.595
 20
254.19
 30
0.0
 11
24.99473224900737
 21
254.19
 31
0.0
  0
LINE
  5
6413
330
4E54
100
AcDbEntity
  8
APL Border
100
AcDbLine
 10
189.595
 20
282.19
 30
0.0
 11
24.99473224900737
 21
282.19
 31
0.0
  0
LINE
  5
6414
330
4E54
100
AcDbEntity
  8
APL Border
100
AcDbLine
 10
142.595
 20
282.19
 30
0.0
 11
142.595
 21
254.19
 31
0.0
  0
TEXT
  5
6415
330
4E54
100
AcDbEntity
  8
APL Border
100
AcDbText
 10
147.845
 20
273.69
 30
0.0
 40
2.5
  1
CAD REF.
  7
Arial-Regular
100
AcDbText
  0
TEXT
  5
6416
330
4E54
100
AcDbEntity
  8
APL Border
100
AcDbText
 10
149.6877694406548
 20
262.19
 30
0.0
 40
2.5
  1
DATE
  7
Arial-Regular
 72
     1
 11
154.345
 21
262.19
 31
0.0
100
AcDbText
  0
TEXT
  5
6417
330
4E54
100
AcDbEntity
  8
APL Border
100
AcDbText
 10
172.1185334242838
 20
262.19
 30
0.0
 40
2.5
  1
SCALE
  7
Arial-Regular
 72
     1
 11
177.845
 21
262.19
 31
0.0
100
AcDbText
  0
INSERT
  5
6418
102
{ACAD_XDICTIONARY
360
6419
102
}
330
4E54
100
AcDbEntity
  8
APL Border
100
AcDbBlockReference
  2
vantage black & white logo
 10
24.99473224900737
 20
256.19
 30
0.0
 41
0.5
 42
0.5
 43
0.5
  0
LINE
  5
645D
330
4E54
100
AcDbEntity
  8
APL Border
100
AcDbLine
 10
24.99473224900737
 20
256.19
 30
0.0
 11
24.99473224900737
 21
254.19
 31
0.0
  0
LINE
  5
645E
330
4E54
100
AcDbEntity
  8
APL Border
100
AcDbLine
 10
24.99473224900716
 20
279.6304177948761
 30
0.0
 11
24.99473224900737
 21
282.19
 31
0.0
  0
ENDBLK
  5
4E56
330
4E54
100
AcDbEntity
  8
0
 48
3.0
100
AcDbBlockEnd
  0
BLOCK
  5
54A7
330
549D
100
AcDbEntity
  8
0
 48
3.0
100
AcDbBlockBegin
  2
vantage a4 SM attributes (4)
 70
     2
 10
0.0
 20
0.0
 30
0.0
  3
vantage a4 SM attributes (4)
  1

  0
ATTDEF
  5
549E
330
549D
100
AcDbEntity
  8
APL Border
100
AcDbText
 10
41.78979785863008
 20
275.28125
 30
0.0
 40
3.5
  1
DRAWING TITLE LINE 1
  7
Arial-Bold
100
AcDbAttributeDefinition
  3
Drawing Title Line 1
  2
DRAWINGTITLE_1
 70
     0
  0
ATTDEF
  5
549F
330
549D
100
AcDbEntity
  8
APL Border
100
AcDbText
 10
41.78979785863008
 20
269.28125
 30
0.0
 40
3.5
  1
DRAWING TITLE LINE 2
  7
Arial-Bold
100
AcDbAttributeDefinition
  3
Drawing Title Line 2
  2
DRAWINGTITLE_2
 70
     0
  0
ATTDEF
  5
54A0
330
549D
100
AcDbEntity
  8
APL Border
100
AcDbText
 10
41.78979785863008
 20
263.28125
 30
0.0
 40
3.5
  1
DRAWING TITLE LINE 3
  7
Arial-Bold
100
AcDbAttributeDefinition
  3
Drawing Title Line 3
  2
DRAWINGTITLE_3
 70
     0
  0
ATTDEF
  5
54A1
330
549D
100
AcDbEntity
  8
APL Border
100
AcDbText
 10
41.78979785863008
 20
257.28125
 30
0.0
 40
3.0
  1
DRAWING TITLE LINE 4
  7
Arial-Regular
100
AcDbAttributeDefinition
  3
Drawing Title Line 4
  2
DRAWINGTITLE_4
 70
     0
  0
ATTDEF
  5
54A2
330
549D
100
AcDbEntity
  8
APL Border
100
AcDbText
 10
165.845
 20
273.69
 30
0.0
 40
2.5
  1
AW123-456
  7
Arial-Regular
100
AcDbAttributeDefinition
  3
CAD Reference
  2
AW123-456
 70
     0
  0
ATTDEF
  5
54A3
330
549D
100
AcDbEntity
  8
APL Border
100
AcDbText
 10
147.5475920873124
 20
257.1899999999999
 30
0.0
 40
2.5
  1
24.05.02
  7
Arial-Regular
 72
     1
 11
154.345
 21
257.1899999999999
 31
0.0
100
AcDbAttributeDefinition
  3
Date
  2
24.05.02
 70
     0
  0
ATTDEF
  5
54A4
330
549D
100
AcDbEntity
  8
APL Border
100
AcDbText
 10
175.4174761255116
 20
257.1899999999999
 30
0.0
 40
2.5
  1
1:2
  7
Arial-Regular
 72
     1
 11
177.845
 21
257.1899999999999
 31
0.0
100
AcDbAttributeDefinition
  3
Scale
  2
1:2
 70
     0
  0
ATTDEF
  5
54A5
330
549D
100
AcDbEntity
  8
APL Border
100
AcDbText
 10
11.59500000000001
 20
1.189999999999997
 30
0.0
 40
3.75
  1
1.2.34
  7
Arial-Bold
100
AcDbAttributeDefinition
  3
Page Number (Left)
  2
1.2.34
 70
     0
  0
ATTDEF
  5
54A6
330
549D
100
AcDbEntity
  8
APL Border
100
AcDbText
 10
175.0298567530696
 20
1.189999999999997
 30
0.0
 40
3.75
  1
1.2.34
  7
Arial-Bold
 72
     2
 11
189.595
 21
1.189999999999997
 31
0.0
100
AcDbAttributeDefinition
  3
Page Number (Right)
  2
1.2.34
 70
     0
  0
ENDBLK
  5
54A8
330
549D
100
AcDbEntity
  8
0
 48
3.0
100
AcDbBlockEnd
  0
BLOCK
  5
54F0
330
54EF
100
AcDbEntity
  8
0
 48
3.0
100
AcDbBlockBegin
  2
08653
 70
     0
 10
372.2831161352452
 20
-83.80054446613575
 30
0.0
  3
08653
  1
I:\DWG Master Blocks\08653.dwg
  0
LWPOLYLINE
  5
645F
102
{ACAD_REACTORS
330
6460
102
}
330
54EF
100
AcDbEntity
  8
APL Joinery
  6
Continuous
100
AcDbPolyline
 90
       86
 70
     1
 43
0.0
 10
355.2269363599626
 20
-69.90497929327332
 42
-0.0052277464714219
 10
355.5212113733389
 20
-69.55138488555625
 42
-1.0
 10
357.0450208971486
 20
-70.84676302924542
 42
0.1210524916957545
 10
352.7769432957384
 20
-79.38362006613569
 42
-0.8944271909996508
 10
352.2831161352444
 20
-79.32840851113565
 10
352.2831161352436
 20
-54.0505444661359
 42
-0.4142135623730617
 10
352.5331161352441
 20
-53.80054446613588
 10
353.3083712638529
 20
-53.8005444661357
 42
-0.3563939586925882
 10
354.7780651095229
 20
-55.00054446613539
 42
-0.4744978678080214
 10
354.5331161352441
 20
-55.30054446613565
 10
353.7831161352442
 20
-55.30054446613565
 10
353.7831161352447
 20
-58.30054446613565
 10
357.4752295823117
 20
-58.30054446613591
 42
0.2989320946561008
 10
357.9340110947133
 20
-57.99933964685856
 42
-0.6565321642986537
 10
364.632221175775
 20
-57.99933964685868
 42
0.2989320946561019
 10
365.0910026881762
 20
-58.30054446613599
 10
366.4831161352437
 20
-58.30054446613565
 10
366.4831161352437
 20
-57.80054446613585
 42
-0.4142135623730617
 10
366.6831161352437
 20
-57.60054446613583
 10
372.7831161352439
 20
-57.60054446613591
 42
0.4142135623730951
 10
373.2831161352438
 20
-57.10054446613594
 10
373.2831161352436
 20
-55.30054446613604
 42
0.4142135623730617
 10
372.7831161352439
 20
-54.80054446613621
 10
370.2831161352439
 20
-54.80054446613618
 42
-1.000000000000056
 10
370.2831161352439
 20
-53.80054446613616
 10
388.2831161352439
 20
-53.80054446613565
 10
388.2831161352438
 20
-52.5005444661359
 42
-0.4142135623730451
 10
388.4831161352438
 20
-52.30054446613587
 10
390.4831161352438
 20
-52.30054446613542
 10
390.4831161352436
 20
-48.30054446613559
 10
388.7831161352439
 20
-48.30054446613559
 42
-0.9999999999999998
 10
388.7831161352439
 20
-47.30054446613576
 10
390.4831161352436
 20
-47.30054446613559
 10
390.4831161352432
 20
-41.90054446613578
 10
388.7831161352438
 20
-41.90054446613558
 42
-0.4142135623730617
 10
388.2831161352439
 20
-41.40054446613561
 10
388.2831161352439
 20
-39.85054446613541
 42
-0.9999999999999714
 10
389.2831161352441
 20
-39.85054446613612
 10
389.2831161352441
 20
-40.6005444661356
 10
390.7831161352437
 20
-40.60054446613583
 10
390.7831161352439
 20
-35.10054446613583
 10
389.2831161352439
 20
-35.10054446613583
 10
389.2831161352442
 20
-35.85054446613586
 42
-1.000000000000028
 10
388.2831161352435
 20
-35.85054446613566
 10
388.2831161352441
 20
-34.30054446613545
 42
-0.4142135623731784
 10
388.7831161352442
 20
-33.80054446613554
 10
389.9831161352435
 20
-33.80054446613542
 10
389.9831161352442
 20
-32.00054446613562
 42
-0.4142135623728786
 10
390.1831161352443
 20
-31.80054446613571
 10
392.0831161352442
 20
-31.80054446613591
 42
-0.4142135623729951
 10
392.2831161352442
 20
-32.00054446613592
 10
392.283116135244
 20
-79.32840851113579
 42
-0.8944271909995935
 10
391.7892889747509
 20
-79.38362006613617
 42
0.1210524916957749
 10
387.5212113733399
 20
-70.84676302924492
 42
-0.9999999999999998
 10
389.0450208971496
 20
-69.55138488555661
 42
-0.0052277464713798
 10
389.3392959105255
 20
-69.9049792932723
 42
0.7056217694413501
 10
389.7831161352442
 20
-69.74707514358101
 10
389.783116135244
 20
-55.6005444661356
 10
387.2073995093135
 20
-55.60054446613609
 42
0.5149445451952346
 10
386.7345942835229
 20
-56.26319506854589
 42
-0.2788550286926799
 10
385.9376615897892
 20
-59.95571680147635
 42
-0.9999999999999998
 10
384.6285706806989
 20
-58.72028934843163
 42
2.318729304408709
 10
381.9376615897899
 20
-58.72028934843156
 42
-1.00000000000008
 10
380.6285706806984
 20
-59.95571680147614
 42
-0.2788550286926469
 10
379.8316379869663
 20
-56.26319506854569
 42
0.5149445451952172
 10
379.3588327611748
 20
-55.60054446613583
 10
376.0831161352435
 20
-55.60054446613566
 42
0.4142135623730617
 10
375.0831161352441
 20
-56.60054446613583
 10
375.0831161352435
 20
-63.76857002525746
 42
-0.4525431742514854
 10
374.8573735609867
 20
-63.96690640586008
 42
0.0174092603861272
 10
373.4712349471261
 20
-63.83586631473929
 42
-0.3969089563095929
 10
373.2831161352449
 20
-63.63621953322535
 10
373.2831161352435
 20
-59.40054446613601
 10
368.283116135244
 20
-59.40054446613601
 10
368.2831161352437
 20
-59.90054446613616
 42
-0.4142135623729286
 10
368.0831161352437
 20
-60.10054446613605
 10
365.2705965427197
 20
-60.10054446613569
 42
0.3341698574915227
 10
364.790177216518
 20
-60.46199024926817
 42
-0.1194820035419355
 10
363.9376615897897
 20
-61.9557168014753
 42
-0.9999999999999998
 10
362.6285706806992
 20
-60.72028934843101
 42
2.318729304408709
 10
359.9376615897891
 20
-60.72028934843135
 42
-0.9999999999999998
 10
358.628570680699
 20
-61.95571680147539
 42
-0.1194820035419389
 10
357.7760550539701
 20
-60.46199024926877
 42
0.3341698574915056
 10
357.295635727769
 20
-60.1005444661356
 10
354.7831161352435
 20
-60.1005444661356
 10
354.7831161352442
 20
-69.74707514358073
 42
0.7056217694414651
  0
HATCH
  5
6460
330
54EF
100
AcDbEntity
  8
APL Hatch
100
AcDbHatch
 10
0.0
 20
0.0
 30
0.0
210
0.0
220
0.0
230
1.0
  2
SOLID
 70
     1
 71
     1
 91
        1
 92
        1
 93
       86
 72
     2
 10
372.28311613518
 20
-83.80054446606552
 40
21.99999999990565
 50
219.1694932217933
 51
220.3675935441527
 73
     0
 72
     2
 10
356.2831161352438
 20
-70.19907395740083
 40
1.000000000000065
 50
220.3675935441852
 51
400.3675935441858
 73
     0
 72
     2
 10
372.2831161352448
 20
-83.80054446613556
 40
20.00000000000029
 50
139.632406455818
 51
167.2412595831137
 73
     1
 72
     2
 10
352.5331161352446
 20
-79.32840851113559
 40
0.2500000000000737
 50
12.75874041690632
 51
179.999999999987
 73
     0
 72
     1
 10
352.2831161352444
 20
-79.32840851113565
 11
352.2831161352436
 21
-54.0505444661359
 72
     2
 10
352.5331161352439
 20
-54.05054446613616
 40
0.2500000000003411
 50
180.0000000000586
 51
270.0000000000391
 73
     0
 72
     1
 10
352.5331161352441
 20
-53.80054446613588
 11
353.3083712638529
 21
-53.8005444661357
 72
     2
 10
353.3083712638531
 20
-55.30054446613561
 40
1.499999999999907
 50
269.9999999999935
 51
348.4630409671751
 73
     0
 72
     2
 10
354.5331161352442
 20
-55.05054446613529
 40
0.2500000000003688
 50
348.4630409672241
 51
450.000000000026
 73
     0
 72
     1
 10
354.5331161352441
 20
-55.30054446613565
 11
353.7831161352442
 21
-55.30054446613565
 72
     1
 10
353.7831161352442
 20
-55.30054446613565
 11
353.7831161352447
 21
-58.30054446613565
 72
     1
 10
353.7831161352447
 20
-58.30054446613565
 11
357.4752295823117
 21
-58.30054446613591
 72
     2
 10
357.4752295823117
 20
-57.80054446613572
 40
0.5000000000001848
 50
270.0000000000065
 51
336.5723734912939
 73
     1
 72
     2
 10
361.2831161352442
 20
-59.45054446613566
 40
3.650000000000349
 50
203.4276265087167
 51
336.5723734912845
 73
     0
 72
     2
 10
365.0910026881765
 20
-57.80054446613612
 40
0.499999999999883
 50
203.4276265086832
 51
269.9999999999674
 73
     1
 72
     1
 10
365.0910026881762
 20
-58.30054446613599
 11
366.4831161352437
 21
-58.30054446613565
 72
     1
 10
366.4831161352437
 20
-58.30054446613565
 11
366.4831161352437
 21
-57.80054446613585
 72
     2
 10
366.6831161352437
 20
-57.80054446613587
 40
0.2000000000000455
 50
180.0000000000061
 51
270.0
 73
     0
 72
     1
 10
366.6831161352437
 20
-57.60054446613583
 11
372.7831161352439
 21
-57.60054446613591
 72
     2
 10
372.7831161352439
 20
-57.10054446613593
 40
0.4999999999999858
 50
270.0
 51
359.9999999999984
 73
     1
 72
     1
 10
373.2831161352438
 20
-57.10054446613594
 11
373.2831161352436
 21
-55.30054446613604
 72
     2
 10
372.7831161352438
 20
-55.30054446613604
 40
0.4999999999998295
 50
0.0
 51
89.99999999999349
 73
     1
 72
     1
 10
372.7831161352439
 20
-54.80054446613621
 11
370.2831161352439
 21
-54.80054446613618
 72
     2
 10
370.2831161352438
 20
-54.30054446613617
 40
0.5000000000000142
 50
89.99999999998697
 51
270.0000000000065
 73
     0
 72
     1
 10
370.2831161352439
 20
-53.80054446613616
 11
388.2831161352439
 21
-53.80054446613565
 72
     1
 10
388.2831161352439
 20
-53.80054446613565
 11
388.2831161352438
 21
-52.5005444661359
 72
     2
 10
388.4831161352438
 20
-52.5005444661359
 40
0.1999999999999886
 50
180.0
 51
270.0
 73
     0
 72
     1
 10
388.4831161352438
 20
-52.30054446613587
 11
390.4831161352438
 21
-52.30054446613542
 72
     1
 10
390.4831161352438
 20
-52.30054446613542
 11
390.4831161352436
 21
-48.30054446613559
 72
     1
 10
390.4831161352436
 20
-48.30054446613559
 11
388.7831161352439
 21
-48.30054446613559
 72
     2
 10
388.7831161352439
 20
-47.80054446613568
 40
0.4999999999999148
 50
90.0
 51
270.0
 73
     0
 72
     1
 10
388.7831161352439
 20
-47.30054446613576
 11
390.4831161352436
 21
-47.30054446613559
 72
     1
 10
390.4831161352436
 20
-47.30054446613559
 11
390.4831161352432
 21
-41.90054446613578
 72
     1
 10
390.4831161352432
 20
-41.90054446613578
 11
388.7831161352438
 21
-41.90054446613558
 72
     2
 10
388.7831161352439
 20
-41.4005444661356
 40
0.4999999999999858
 50
90.00000000000651
 51
179.9999999999984
 73
     0
 72
     1
 10
388.2831161352439
 20
-41.40054446613561
 11
388.2831161352439
 21
-39.85054446613541
 72
     2
 10
388.783116135244
 20
-39.85054446613577
 40
0.5000000000001137
 50
180.0000000000423
 51
360.0000000000391
 73
     0
 72
     1
 10
389.2831161352441
 20
-39.85054446613612
 11
389.2831161352441
 21
-40.6005444661356
 72
     1
 10
389.2831161352441
 20
-40.6005444661356
 11
390.7831161352437
 21
-40.60054446613583
 72
     1
 10
390.7831161352437
 20
-40.60054446613583
 11
390.7831161352439
 21
-35.10054446613583
 72
     1
 10
390.7831161352439
 20
-35.10054446613583
 11
389.2831161352439
 21
-35.10054446613583
 72
     1
 10
389.2831161352439
 20
-35.10054446613583
 11
389.2831161352442
 21
-35.85054446613586
 72
     2
 10
388.7831161352439
 20
-35.85054446613578
 40
0.5000000000003411
 50
0.0000000000097707
 51
180.000000000013
 73
     0
 72
     1
 10
388.2831161352435
 20
-35.85054446613566
 11
388.2831161352441
 21
-34.30054446613545
 72
     2
 10
388.7831161352441
 20
-34.30054446613548
 40
0.4999999999999432
 50
180.0000000000032
 51
270.0000000000196
 73
     0
 72
     1
 10
388.7831161352442
 20
-33.80054446613554
 11
389.9831161352435
 21
-33.80054446613542
 72
     1
 10
389.9831161352435
 20
-33.80054446613542
 11
389.9831161352442
 21
-32.00054446613562
 72
     2
 10
390.1831161352443
 20
-32.00054446613576
 40
0.2000000000000455
 50
180.0000000000407
 51
270.0
 73
     0
 72
     1
 10
390.1831161352443
 20
-31.80054446613571
 11
392.0831161352442
 21
-31.80054446613591
 72
     2
 10
392.0831161352442
 20
-32.00054446613594
 40
0.2000000000000384
 50
270.0000000000163
 51
359.9999999999939
 73
     0
 72
     1
 10
392.2831161352442
 20
-32.00054446613592
 11
392.283116135244
 21
-79.32840851113579
 72
     2
 10
392.0331161352443
 20
-79.32840851113593
 40
0.2499999999996589
 50
359.9999999999675
 51
527.2412595830388
 73
     0
 72
     2
 10
372.2831161352451
 20
-83.8005444661359
 40
19.9999999999997
 50
12.75874041688622
 51
40.36759354418657
 73
     1
 72
     2
 10
388.2831161352447
 20
-70.19907395740077
 40
0.9999999999998321
 50
139.6324064558355
 51
319.6324064558356
 73
     0
 72
     2
 10
372.2831161352389
 20
-83.80054446615936
 40
22.00000000001924
 50
319.6324064557793
 51
320.830506778129
 73
     0
 72
     2
 10
389.5331161352444
 20
-69.74707514358079
 40
0.2499999999997987
 50
219.169493221837
 51
359.9999999999479
 73
     1
 72
     1
 10
389.7831161352442
 20
-69.74707514358101
 11
389.783116135244
 21
-55.6005444661356
 72
     1
 10
389.783116135244
 20
-55.6005444661356
 11
387.2073995093135
 21
-55.60054446613609
 72
     2
 10
387.2073995093141
 20
-56.10054446613583
 40
0.4999999999997442
 50
90.00000000006513
 51
198.9838243851003
 73
     1
 72
     2
 10
383.2831161352443
 20
-57.45054446613562
 40
3.650000000000212
 50
341.0161756149713
 51
403.3417582272383
 73
     0
 72
     2
 10
385.2831161352441
 20
-59.33800307495399
 40
0.8999999999999218
 50
43.34175822724598
 51
223.3417582272432
 73
     0
 72
     2
 10
383.2831161352445
 20
-57.45054446613622
 40
1.849999999999806
 50
316.6582417727775
 51
583.3417582272174
 73
     1
 72
     2
 10
381.2831161352442
 20
-59.3380030749539
 40
0.9000000000003154
 50
316.6582417727802
 51
496.6582417727898
 73
     0
 72
     2
 10
383.2831161352445
 20
-57.45054446613664
 40
3.650000000000239
 50
136.6582417727886
 51
198.9838243850488
 73
     0
 72
     2
 10
379.3588327611747
 20
-56.10054446613594
 40
0.500000000000103
 50
341.0161756149506
 51
449.999999999987
 73
     1
 72
     1
 10
379.3588327611748
 20
-55.60054446613583
 11
376.0831161352435
 21
-55.60054446613566
 72
     2
 10
376.083116135244
 20
-56.60054446613546
 40
0.999999999999801
 50
90.00000000002932
 51
180.0000000000212
 73
     1
 72
     1
 10
375.0831161352441
 20
-56.60054446613583
 11
375.0831161352435
 21
-63.76857002525746
 72
     2
 10
374.8831161352439
 20
-63.76857002525767
 40
0.1999999999996476
 50
359.9999999999389
 51
457.3952204071684
 73
     0
 72
     2
 10
372.2831161352494
 20
-83.80054446612266
 40
19.99999999998649
 50
82.60477959279258
 51
86.5942851540703
 73
     1
 72
     2
 10
373.4831161352449
 20
-63.63621953322528
 40
0.2000000000000358
 50
93.40571484592581
 51
179.9999999999796
 73
     0
 72
     1
 10
373.2831161352449
 20
-63.63621953322535
 11
373.2831161352435
 21
-59.40054446613601
 72
     1
 10
373.2831161352435
 20
-59.40054446613601
 11
368.283116135244
 21
-59.40054446613601
 72
     1
 10
368.283116135244
 20
-59.40054446613601
 11
368.2831161352437
 21
-59.90054446613616
 72
     2
 10
368.0831161352437
 20
-59.90054446613603
 40
0.2000000000000455
 50
0.0000000000386755
 51
90.0
 73
     0
 72
     1
 10
368.0831161352437
 20
-60.10054446613605
 11
365.2705965427197
 21
-60.10054446613569
 72
     2
 10
365.2705965427197
 20
-60.60054446613555
 40
0.4999999999998721
 50
90.0
 51
163.9122974618441
 73
     1
 72
     2
 10
361.2831161352446
 20
-59.45054446613514
 40
3.649999999999942
 50
16.08770253817025
 51
43.34175822722995
 73
     0
 72
     2
 10
363.2831161352444
 20
-61.33800307495316
 40
0.8999999999998944
 50
43.34175822722833
 51
223.3417582272308
 73
     0
 72
     2
 10
361.283116135244
 20
-59.45054446613529
 40
1.850000000000595
 50
316.6582417727875
 51
583.3417582272276
 73
     1
 72
     2
 10
359.2831161352441
 20
-61.33800307495338
 40
0.8999999999995999
 50
316.6582417727652
 51
496.6582417727679
 73
     0
 72
     2
 10
361.2831161352427
 20
-59.45054446613426
 40
3.649999999999583
 50
136.6582417727436
 51
163.9122974618038
 73
     0
 72
     2
 10
357.2956357277683
 20
-60.60054446613546
 40
0.4999999999998374
 50
16.08770253807304
 51
89.99999999991532
 73
     1
 72
     1
 10
357.295635727769
 20
-60.1005444661356
 11
354.7831161352435
 21
-60.1005444661356
 72
     1
 10
354.7831161352435
 20
-60.1005444661356
 11
354.7831161352442
 21
-69.74707514358073
 72
     2
 10
355.033116135244
 20
-69.74707514358124
 40
0.2499999999998295
 50
179.9999999998827
 51
320.8305067780127
 73
     1
 97
        1
330
645F
 75
     0
 76
     1
 98
        1
 10
0.0
 20
0.0
  0
ENDBLK
  5
54F1
330
54EF
100
AcDbEntity
  8
0
 48
3.0
100
AcDbBlockEnd
  0
BLOCK
  5
54F6
330
54F5
100
AcDbEntity
  8
0
 48
3.0
100
AcDbBlockBegin
  2
08654
 70
     0
 10
285.5380701241845
 20
-33.61988893666332
 30
0.0
  3
08654
  1
I:\DWG Master Blocks\08654.dwg
  0
LWPOLYLINE
  5
6461
102
{ACAD_REACTORS
330
6463
102
}
330
54F5
100
AcDbEntity
  8
APL Joinery
  6
Continuous
100
AcDbPolyline
 90
       17
 70
     1
 43
0.0
 10
285.5380701241836
 20
-33.96066860782362
 42
1.09698396122225
 10
281.8617872104062
 20
-73.61988893666342
 10
284.0380701241847
 20
-73.61988893666375
 10
284.0380701241846
 20
-102.1198889366637
 42
-0.4142135623730951
 10
283.5380701241845
 20
-102.6198889366637
 10
283.0380701241845
 20
-102.6198889366632
 42
0.4142135623730951
 10
282.5380701241845
 20
-103.1198889366636
 10
282.5380701241845
 20
-118.1198889366636
 42
0.4142135623730951
 10
283.0380701241845
 20
-118.6198889366636
 10
288.0380701241845
 20
-118.6198889366633
 42
0.4142135623730951
 10
288.5380701241845
 20
-118.1198889366636
 10
288.5380701241845
 20
-103.1198889366637
 42
0.4142135623730951
 10
288.0380701241845
 20
-102.6198889366635
 10
287.5380701241846
 20
-102.6198889366637
 42
-0.4142135623730951
 10
287.0380701241845
 20
-102.1198889366637
 10
287.0380701241845
 20
-73.6198889366633
 10
289.2143530379619
 20
-73.61988893666361
 42
1.09698396122225
  0
LWPOLYLINE
  5
6462
102
{ACAD_REACTORS
330
6463
102
}
330
54F5
100
AcDbEntity
  8
APL Joinery
  6
Continuous
100
AcDbPolyline
 90
        2
 70
     1
 43
0.0
 10
285.5380701241851
 20
-36.51039029006779
 42
1.237691609274153
 10
285.5380701241851
 20
-70.72938758325904
 42
1.237691609274153
  0
HATCH
  5
6463
330
54F5
100
AcDbEntity
  8
APL Hatch
100
AcDbHatch
 10
0.0
 20
0.0
 30
0.0
210
0.0
220
0.0
230
1.0
  2
SOLID
 70
     1
 71
     1
 91
        2
 92
        1
 93
       17
 72
     2
 10
281.8617872104062
 20
-53.61988893666342
 40
19.99999999999998
 50
79.40799763730187
 51
269.9999999999998
 73
     1
 72
     1
 10
281.8617872104062
 20
-73.61988893666342
 11
284.0380701241847
 21
-73.61988893666375
 72
     1
 10
284.0380701241847
 20
-73.61988893666375
 11
284.0380701241846
 21
-102.1198889366637
 72
     2
 10
283.5380701241845
 20
-102.1198889366637
 40
0.5000000000000569
 50
360.0
 51
450.0
 73
     0
 72
     1
 10
283.5380701241845
 20
-102.6198889366637
 11
283.0380701241845
 21
-102.6198889366632
 72
     2
 10
283.0380701241848
 20
-103.1198889366634
 40
0.5000000000002274
 50
90.00000000002605
 51
180.000000000026
 73
     1
 72
     1
 10
282.5380701241845
 20
-103.1198889366636
 11
282.5380701241845
 21
-118.1198889366636
 72
     2
 10
283.0380701241845
 20
-118.1198889366636
 40
0.5
 50
180.0
 51
270.0
 73
     1
 72
     1
 10
283.0380701241845
 20
-118.6198889366636
 11
288.0380701241845
 21
-118.6198889366633
 72
     2
 10
288.0380701241847
 20
-118.1198889366635
 40
0.4999999999998295
 50
269.9999999999935
 51
359.999999999987
 73
     1
 72
     1
 10
288.5380701241845
 20
-118.1198889366636
 11
288.5380701241845
 21
-103.1198889366637
 72
     2
 10
288.0380701241844
 20
-103.1198889366636
 40
0.5000000000001137
 50
359.999999999987
 51
449.999999999987
 73
     1
 72
     1
 10
288.0380701241845
 20
-102.6198889366635
 11
287.5380701241846
 21
-102.6198889366637
 72
     2
 10
287.5380701241845
 20
-102.1198889366637
 40
0.5
 50
89.99999999999349
 51
179.9999999999935
 73
     0
 72
     1
 10
287.0380701241845
 20
-102.1198889366637
 11
287.0380701241845
 21
-73.6198889366633
 72
     1
 10
287.0380701241845
 20
-73.6198889366633
 11
289.2143530379619
 21
-73.61988893666361
 72
     2
 10
289.2143530379615
 20
-53.61988893666348
 40
20.00000000000014
 50
270.0000000000013
 51
460.5920023626998
 73
     1
 97
        1
330
6461
 92
       16
 93
        2
 72
     2
 10
281.8617872104062
 20
-53.61988893666342
 40
17.5
 50
77.8733516063599
 51
282.1266483936401
 73
     1
 72
     2
 10
289.214353037964
 20
-53.61988893666342
 40
17.5
 50
257.8733516063599
 51
462.1266483936401
 73
     1
 97
        1
330
6462
 75
     0
 76
     1
 98
        1
 10
0.0
 20
0.0
  0
ENDBLK
  5
54F7
330
54F5
100
AcDbEntity
  8
0
 48
3.0
100
AcDbBlockEnd
  0
BLOCK
  5
54FC
330
54FB
100
AcDbEntity
  8
0
 48
3.0
100
AcDbBlockBegin
  2
08652
 70
     0
 10
556.8205248231063
 20
-43.82487155856654
 30
0.0
  3
08652
  1
I:\DWG Master Blocks\08652.dwg
  0
LWPOLYLINE
  5
6464
102
{ACAD_REACTORS
330
6466
102
}
330
54FB
100
AcDbEntity
  8
APL Joinery
  6
Continuous
100
AcDbPolyline
 90
       87
 70
     1
 43
0.0
 10
531.2205248231062
 20
-45.62487155856675
 42
0.4142135623729619
 10
531.0205248231063
 20
-45.82487155856671
 10
531.0205248231063
 20
-46.32487155856654
 10
518.3205248231063
 20
-46.32487155856654
 10
518.3205248231063
 20
-43.32487155856654
 10
519.0705248231061
 20
-43.32487155856654
 42
0.4744978678081294
 10
519.3154737973847
 20
-43.02487155856655
 42
0.3563939586926033
 10
517.8457799517148
 20
-41.82487155856654
 10
517.0705248231063
 20
-41.82487155856654
 42
0.4142135623730951
 10
516.8205248231063
 20
-42.07487155856654
 10
516.8205248231063
 20
-83.32487155856654
 42
0.4142135623730951
 10
517.3205248231063
 20
-83.82487155856654
 10
558.5705248231063
 20
-83.82487155856654
 42
0.4142135623730951
 10
558.8205248231063
 20
-83.57487155856654
 10
558.8205248231063
 20
-82.79961642995818
 42
0.3563939586925876
 10
557.6205248231064
 20
-81.32992258428823
 42
0.4744978678081307
 10
557.3205248231063
 20
-81.57487155856655
 10
557.3205248231063
 20
-82.32487155856654
 10
554.3205248231063
 20
-82.32487155856654
 10
554.3205248231063
 20
-69.62487155856639
 10
554.820524823106
 20
-69.62487155856644
 42
0.4142135623730951
 10
555.0205248231061
 20
-69.42487155856645
 10
555.0205248231061
 20
-63.32487155856643
 42
-0.4142135623730951
 10
555.5205248231061
 20
-62.82487155856642
 10
557.3205248231063
 20
-62.82487155856642
 42
-0.4142135623730951
 10
557.8205248231063
 20
-63.32487155856643
 10
557.8205248231063
 20
-65.82487155856643
 42
0.9999999999999998
 10
558.8205248231063
 20
-65.82487155856643
 10
558.8205248231063
 20
-47.82487155856654
 10
560.1205248231064
 20
-47.82487155856654
 42
0.4142135623730951
 10
560.3205248231063
 20
-47.62487155856655
 10
560.3205248231063
 20
-45.6248715585665
 10
564.3205248231063
 20
-45.6248715585665
 10
564.3205248231063
 20
-47.32487155856648
 42
0.9999999999999998
 10
565.3205248231063
 20
-47.32487155856648
 10
565.3205248231063
 20
-45.6248715585665
 10
570.7205248231064
 20
-45.6248715585665
 10
570.7205248231064
 20
-47.32487155856654
 42
0.4142135623730951
 10
571.2205248231064
 20
-47.82487155856654
 10
572.7705248231063
 20
-47.82487155856654
 42
0.9999999999999998
 10
572.7705248231063
 20
-46.82487155856654
 10
572.0205248231064
 20
-46.82487155856654
 10
572.0205248231064
 20
-45.32487155856654
 10
577.5205248231063
 20
-45.32487155856654
 10
577.5205248231063
 20
-46.82487155856654
 10
576.7705248231063
 20
-46.82487155856654
 42
0.9999999999999998
 10
576.7705248231063
 20
-47.82487155856654
 10
578.3205248231062
 20
-47.82487155856654
 42
0.4142135623730951
 10
578.8205248231063
 20
-47.32487155856654
 10
578.8205248231063
 20
-46.1248715585665
 10
580.6205248231064
 20
-46.1248715585665
 42
0.4142135623730951
 10
580.8205248231063
 20
-45.92487155856651
 10
580.8205248231063
 20
-44.02487155856657
 42
0.4142135623729951
 10
580.6205248231062
 20
-43.82487155856654
 10
556.8205248231063
 20
-43.82487155856654
 10
556.8205248231063
 20
-20.02487155856657
 42
0.4142135623729951
 10
556.6205248231063
 20
-19.82487155856654
 10
554.7205248231063
 20
-19.82487155856657
 42
0.4142135623729619
 10
554.5205248231063
 20
-20.02487155856653
 10
554.5205248231063
 20
-21.82487155856654
 10
553.3205248231062
 20
-21.82487155856654
 42
0.4142135623730951
 10
552.8205248231063
 20
-22.32487155856654
 10
552.8205248231063
 20
-23.87487155856655
 42
0.9999999999999998
 10
553.8205248231063
 20
-23.87487155856655
 10
553.8205248231063
 20
-23.12487155856655
 10
555.3205248231063
 20
-23.12487155856655
 10
555.3205248231063
 20
-28.62487155856655
 10
553.8205248231063
 20
-28.62487155856655
 10
553.8205248231063
 20
-27.87487155856656
 42
0.9999999999999998
 10
552.8205248231063
 20
-27.87487155856656
 10
552.8205248231063
 20
-29.42487155856657
 42
0.4142135623730951
 10
553.3205248231062
 20
-29.92487155856657
 10
555.0205248231064
 20
-29.92487155856657
 10
555.0205248231064
 20
-35.32487155856654
 10
553.3205248231062
 20
-35.32487155856654
 42
0.9999999999999998
 10
553.3205248231062
 20
-36.32487155856654
 10
555.0205248231064
 20
-36.32487155856654
 10
555.0205248231064
 20
-40.32487155856654
 10
553.0205248231062
 20
-40.32487155856651
 42
0.4142135623729619
 10
552.8205248231063
 20
-40.52487155856647
 10
552.8205248231063
 20
-41.82487155856654
 10
534.8205248231063
 20
-41.82487155856676
 42
0.9999999999999998
 10
534.8205248231063
 20
-42.82487155856677
 10
537.3205248231063
 20
-42.82487155856677
 42
-0.4142135623730951
 10
537.8205248231063
 20
-43.32487155856677
 10
537.8205248231063
 20
-45.12487155856672
 42
-0.4142135623730951
 10
537.3205248231063
 20
-45.62487155856672
  0
LWPOLYLINE
  5
6465
102
{ACAD_REACTORS
330
6466
102
}
330
54FB
100
AcDbEntity
  8
APL Joinery
  6
Continuous
100
AcDbPolyline
 90
       50
 70
     1
 43
0.0
 10
556.3578742206967
 20
-49.37339341028838
 42
0.2788550286926724
 10
552.6653524877663
 20
-50.17032610402111
 42
0.999999999999939
 10
553.9007799408108
 20
-51.47941701311196
 42
-2.318729304408709
 10
553.9007799408105
 20
-54.17032610402106
 42
0.9999999999999998
 10
552.6653524877663
 20
-55.47941701311203
 42
0.2788550286926612
 10
556.3578742206967
 20
-56.27634970684468
 42
-0.5149445451952551
 10
557.0205248231063
 20
-56.7491549326362
 10
557.0205248231063
 20
-61.02487155856647
 10
555.5205248231061
 20
-61.02487155856647
 42
0.4142135623730951
 10
553.2205248231061
 20
-63.32487155856643
 10
553.2205248231061
 20
-67.82487155856642
 10
552.7205248231062
 20
-67.82487155856654
 42
0.4142135623731617
 10
552.5205248231063
 20
-68.02487155856647
 10
552.5205248231063
 20
-70.90058818449671
 42
-0.5149445451952192
 10
551.8578742206966
 20
-71.37339341028845
 42
0.2788550286926612
 10
548.1653524877663
 20
-72.17032610402114
 42
0.9999999999999998
 10
549.4007799408108
 20
-73.47941701311208
 42
-2.318729304408836
 10
549.4007799408105
 20
-76.17032610402107
 42
0.9999999999999998
 10
548.1653524877664
 20
-77.479417013112
 42
0.2788550286926612
 10
551.8578742206967
 20
-78.27634970684468
 42
-0.5149445451952152
 10
552.5205248231063
 20
-78.7491549326362
 10
552.5205248231063
 20
-82.02487155856658
 10
519.1205248231063
 20
-82.02487155856658
 42
-0.4142135623730951
 10
518.6205248231062
 20
-81.52487155856659
 10
518.6205248231062
 20
-48.1248715585665
 10
521.8962414490367
 20
-48.1248715585665
 42
-0.5149445451952551
 10
522.3690466748283
 20
-48.78752216097617
 42
0.2788550286926612
 10
523.1659793685607
 20
-52.48004389390637
 42
0.9999999999999998
 10
524.4750702776517
 20
-51.24461644086204
 42
-2.318729304408839
 10
527.1659793685607
 20
-51.24461644086211
 42
0.999999999999939
 10
528.4750702776517
 20
-52.48004389390641
 42
0.2788550286926529
 10
529.2720029713846
 20
-48.78752216097627
 42
-0.5149445451951604
 10
529.7448081971761
 20
-48.1248715585665
 10
532.6205248231063
 20
-48.1248715585665
 42
0.4142135623730951
 10
532.8205248231063
 20
-47.9248715585665
 10
532.8205248231063
 20
-47.42487155856679
 10
537.3205248231063
 20
-47.42487155856679
 42
0.4142135623730951
 10
539.6205248231062
 20
-45.12487155856677
 10
539.6205248231062
 20
-43.62487155856655
 10
543.8962414490369
 20
-43.62487155856655
 42
-0.5149445451951964
 10
544.3690466748283
 20
-44.28752216097625
 42
0.2788550286926612
 10
545.1659793685608
 20
-47.98004389390637
 42
0.9999999999999998
 10
546.4750702776517
 20
-46.74461644086204
 42
-2.318729304408839
 10
549.1659793685608
 20
-46.74461644086211
 42
0.9999999999999793
 10
550.4750702776517
 20
-47.98004389390633
 42
0.2788550286926529
 10
551.2720029713845
 20
-44.28752216097626
 42
-0.5149445451951622
 10
551.744808197176
 20
-43.62487155856661
 10
554.0749404108346
 20
-43.62487155856655
 10
557.0205248231063
 20
-46.57045597083822
 10
557.0205248231063
 20
-48.9005881844968
 42
-0.5149445451951653
  0
HATCH
  5
6466
330
54FB
100
AcDbEntity
  8
APL Hatch
100
AcDbHatch
 10
0.0
 20
0.0
 30
0.0
210
0.0
220
0.0
230
1.0
  2
SOLID
 70
     1
 71
     1
 91
        2
 92
        1
 93
       87
 72
     2
 10
531.2205248231062
 20
-45.82487155856674
 40
0.1999999999999886
 50
90.0
 51
179.9999999999918
 73
     1
 72
     1
 10
531.0205248231063
 20
-45.82487155856671
 11
531.0205248231063
 21
-46.32487155856654
 72
     1
 10
531.0205248231063
 20
-46.32487155856654
 11
518.3205248231063
 21
-46.32487155856654
 72
     1
 10
518.3205248231063
 20
-46.32487155856654
 11
518.3205248231063
 21
-43.32487155856654
 72
     1
 10
518.3205248231063
 20
-43.32487155856654
 11
519.0705248231061
 21
-43.32487155856654
 72
     2
 10
519.0705248231063
 20
-43.0748715585665
 40
0.2500000000000426
 50
269.9999999999739
 51
371.5369590327996
 73
     1
 72
     2
 10
517.8457799517148
 20
-43.32487155856653
 40
1.499999999999983
 50
11.53695903281468
 51
90.0
 73
     1
 72
     1
 10
517.8457799517148
 20
-41.82487155856654
 11
517.0705248231063
 21
-41.82487155856654
 72
     2
 10
517.0705248231063
 20
-42.07487155856654
 40
0.25
 50
90.0
 51
180.0
 73
     1
 72
     1
 10
516.8205248231063
 20
-42.07487155856654
 11
516.8205248231063
 21
-83.32487155856654
 72
     2
 10
517.3205248231063
 20
-83.32487155856654
 40
0.5
 50
180.0
 51
270.0
 73
     1
 72
     1
 10
517.3205248231063
 20
-83.82487155856654
 11
558.5705248231063
 21
-83.82487155856654
 72
     2
 10
558.5705248231063
 20
-83.57487155856654
 40
0.25
 50
270.0
 51
360.0
 73
     1
 72
     1
 10
558.8205248231063
 20
-83.57487155856654
 11
558.8205248231063
 21
-82.79961642995818
 72
     2
 10
557.3205248231063
 20
-82.79961642995814
 40
1.5
 50
359.9999999999989
 51
438.463040967182
 73
     1
 72
     2
 10
557.5705248231064
 20
-81.57487155856655
 40
0.2499999999999888
 50
78.46304096719463
 51
180.0
 73
     1
 72
     1
 10
557.3205248231063
 20
-81.57487155856655
 11
557.3205248231063
 21
-82.32487155856654
 72
     1
 10
557.3205248231063
 20
-82.32487155856654
 11
554.3205248231063
 21
-82.32487155856654
 72
     1
 10
554.3205248231063
 20
-82.32487155856654
 11
554.3205248231063
 21
-69.62487155856639
 72
     1
 10
554.3205248231063
 20
-69.62487155856639
 11
554.820524823106
 21
-69.62487155856644
 72
     2
 10
554.820524823106
 20
-69.42487155856642
 40
0.200000000000017
 50
270.0
 51
359.9999999999919
 73
     1
 72
     1
 10
555.0205248231061
 20
-69.42487155856645
 11
555.0205248231061
 21
-63.32487155856643
 72
     2
 10
555.5205248231061
 20
-63.32487155856643
 40
0.5
 50
180.0
 51
270.0
 73
     0
 72
     1
 10
555.5205248231061
 20
-62.82487155856642
 11
557.3205248231063
 21
-62.82487155856642
 72
     2
 10
557.3205248231063
 20
-63.32487155856643
 40
0.5
 50
270.0
 51
360.0
 73
     0
 72
     1
 10
557.8205248231063
 20
-63.32487155856643
 11
557.8205248231063
 21
-65.82487155856643
 72
     2
 10
558.3205248231063
 20
-65.82487155856643
 40
0.5
 50
180.0
 51
360.0
 73
     1
 72
     1
 10
558.8205248231063
 20
-65.82487155856643
 11
558.8205248231063
 21
-47.82487155856654
 72
     1
 10
558.8205248231063
 20
-47.82487155856654
 11
560.1205248231064
 21
-47.82487155856654
 72
     2
 10
560.1205248231064
 20
-47.62487155856658
 40
0.1999999999999602
 50
270.0
 51
360.0000000000081
 73
     1
 72
     1
 10
560.3205248231063
 20
-47.62487155856655
 11
560.3205248231063
 21
-45.6248715585665
 72
     1
 10
560.3205248231063
 20
-45.6248715585665
 11
564.3205248231063
 21
-45.6248715585665
 72
     1
 10
564.3205248231063
 20
-45.6248715585665
 11
564.3205248231063
 21
-47.32487155856648
 72
     2
 10
564.8205248231063
 20
-47.32487155856648
 40
0.5
 50
180.0
 51
360.0
 73
     1
 72
     1
 10
565.3205248231063
 20
-47.32487155856648
 11
565.3205248231063
 21
-45.6248715585665
 72
     1
 10
565.3205248231063
 20
-45.6248715585665
 11
570.7205248231064
 21
-45.6248715585665
 72
     1
 10
570.7205248231064
 20
-45.6248715585665
 11
570.7205248231064
 21
-47.32487155856654
 72
     2
 10
571.2205248231064
 20
-47.32487155856654
 40
0.5
 50
180.0
 51
270.0
 73
     1
 72
     1
 10
571.2205248231064
 20
-47.82487155856654
 11
572.7705248231063
 21
-47.82487155856654
 72
     2
 10
572.7705248231063
 20
-47.32487155856654
 40
0.5
 50
270.0
 51
450.0
 73
     1
 72
     1
 10
572.7705248231063
 20
-46.82487155856654
 11
572.0205248231064
 21
-46.82487155856654
 72
     1
 10
572.0205248231064
 20
-46.82487155856654
 11
572.0205248231064
 21
-45.32487155856654
 72
     1
 10
572.0205248231064
 20
-45.32487155856654
 11
577.5205248231063
 21
-45.32487155856654
 72
     1
 10
577.5205248231063
 20
-45.32487155856654
 11
577.5205248231063
 21
-46.82487155856654
 72
     1
 10
577.5205248231063
 20
-46.82487155856654
 11
576.7705248231063
 21
-46.82487155856654
 72
     2
 10
576.7705248231063
 20
-47.32487155856654
 40
0.5
 50
90.0
 51
270.0
 73
     1
 72
     1
 10
576.7705248231063
 20
-47.82487155856654
 11
578.3205248231062
 21
-47.82487155856654
 72
     2
 10
578.3205248231062
 20
-47.32487155856654
 40
0.5
 50
270.0
 51
360.0
 73
     1
 72
     1
 10
578.8205248231063
 20
-47.32487155856654
 11
578.8205248231063
 21
-46.1248715585665
 72
     1
 10
578.8205248231063
 20
-46.1248715585665
 11
580.6205248231064
 21
-46.1248715585665
 72
     2
 10
580.6205248231064
 20
-45.92487155856654
 40
0.1999999999999602
 50
270.0
 51
360.0000000000081
 73
     1
 72
     1
 10
580.8205248231063
 20
-45.92487155856651
 11
580.8205248231063
 21
-44.02487155856657
 72
     2
 10
580.6205248231062
 20
-44.02487155856661
 40
0.2000000000000455
 50
0.0000000000142489
 51
90.0
 73
     1
 72
     1
 10
580.6205248231062
 20
-43.82487155856654
 11
556.8205248231063
 21
-43.82487155856654
 72
     1
 10
556.8205248231063
 20
-43.82487155856654
 11
556.8205248231063
 21
-20.02487155856657
 72
     2
 10
556.6205248231063
 20
-20.02487155856661
 40
0.2000000000000455
 50
0.0000000000122133
 51
90.0
 73
     1
 72
     1
 10
556.6205248231063
 20
-19.82487155856654
 11
554.7205248231063
 21
-19.82487155856657
 72
     2
 10
554.7205248231063
 20
-20.02487155856656
 40
0.1999999999999922
 50
90.0
 51
179.9999999999908
 73
     1
 72
     1
 10
554.5205248231063
 20
-20.02487155856653
 11
554.5205248231063
 21
-21.82487155856654
 72
     1
 10
554.5205248231063
 20
-21.82487155856654
 11
553.3205248231062
 21
-21.82487155856654
 72
     2
 10
553.3205248231062
 20
-22.32487155856654
 40
0.5
 50
90.0
 51
180.0
 73
     1
 72
     1
 10
552.8205248231063
 20
-22.32487155856654
 11
552.8205248231063
 21
-23.87487155856655
 72
     2
 10
553.3205248231062
 20
-23.87487155856655
 40
0.5
 50
180.0
 51
360.0
 73
     1
 72
     1
 10
553.8205248231063
 20
-23.87487155856655
 11
553.8205248231063
 21
-23.12487155856655
 72
     1
 10
553.8205248231063
 20
-23.12487155856655
 11
555.3205248231063
 21
-23.12487155856655
 72
     1
 10
555.3205248231063
 20
-23.12487155856655
 11
555.3205248231063
 21
-28.62487155856655
 72
     1
 10
555.3205248231063
 20
-28.62487155856655
 11
553.8205248231063
 21
-28.62487155856655
 72
     1
 10
553.8205248231063
 20
-28.62487155856655
 11
553.8205248231063
 21
-27.87487155856656
 72
     2
 10
553.3205248231062
 20
-27.87487155856656
 40
0.5
 50
0.0
 51
180.0
 73
     1
 72
     1
 10
552.8205248231063
 20
-27.87487155856656
 11
552.8205248231063
 21
-29.42487155856657
 72
     2
 10
553.3205248231062
 20
-29.42487155856657
 40
0.5
 50
180.0
 51
270.0
 73
     1
 72
     1
 10
553.3205248231062
 20
-29.92487155856657
 11
555.0205248231064
 21
-29.92487155856657
 72
     1
 10
555.0205248231064
 20
-29.92487155856657
 11
555.0205248231064
 21
-35.32487155856654
 72
     1
 10
555.0205248231064
 20
-35.32487155856654
 11
553.3205248231062
 21
-35.32487155856654
 72
     2
 10
553.3205248231062
 20
-35.82487155856654
 40
0.5
 50
90.0
 51
270.0
 73
     1
 72
     1
 10
553.3205248231062
 20
-36.32487155856654
 11
555.0205248231064
 21
-36.32487155856654
 72
     1
 10
555.0205248231064
 20
-36.32487155856654
 11
555.0205248231064
 21
-40.32487155856654
 72
     1
 10
555.0205248231064
 20
-40.32487155856654
 11
553.0205248231062
 21
-40.32487155856651
 72
     2
 10
553.0205248231062
 20
-40.5248715585665
 40
0.1999999999999886
 50
90.0
 51
179.9999999999918
 73
     1
 72
     1
 10
552.8205248231063
 20
-40.52487155856647
 11
552.8205248231063
 21
-41.82487155856654
 72
     1
 10
552.8205248231063
 20
-41.82487155856654
 11
534.8205248231063
 21
-41.82487155856676
 72
     2
 10
534.8205248231063
 20
-42.32487155856676
 40
0.5
 50
90.0
 51
270.0
 73
     1
 72
     1
 10
534.8205248231063
 20
-42.82487155856677
 11
537.3205248231063
 21
-42.82487155856677
 72
     2
 10
537.3205248231063
 20
-43.32487155856677
 40
0.5
 50
270.0
 51
360.0
 73
     0
 72
     1
 10
537.8205248231063
 20
-43.32487155856677
 11
537.8205248231063
 21
-45.12487155856672
 72
     2
 10
537.3205248231063
 20
-45.12487155856672
 40
0.5
 50
360.0
 51
450.0
 73
     0
 72
     1
 10
537.3205248231063
 20
-45.62487155856672
 11
531.2205248231062
 21
-45.62487155856675
 97
        1
330
6464
 92
       16
 93
       50
 72
     2
 10
555.1705248231062
 20
-52.82487155856664
 40
3.65000000000013
 50
71.01617561495753
 51
133.3417582272225
 73
     1
 72
     2
 10
553.2830662142885
 20
-50.8248715585665
 40
0.8999999999999804
 50
133.3417582272275
 51
313.3417582272293
 73
     1
 72
     2
 10
555.1705248231061
 20
-52.82487155856662
 40
1.849999999999919
 50
226.6582417727853
 51
493.3417582272244
 73
     0
 72
     2
 10
553.2830662142885
 20
-54.82487155856655
 40
0.8999999999999745
 50
46.6582417727821
 51
226.6582417727768
 73
     1
 72
     2
 10
555.1705248231061
 20
-52.82487155856633
 40
3.650000000000159
 50
226.6582417727807
 51
288.9838243850437
 73
     1
 72
     2
 10
556.5205248231064
 20
-56.74915493263618
 40
0.4999999999999973
 50
251.0161756149507
 51
360.0000000000016
 73
     0
 72
     1
 10
557.0205248231063
 20
-56.7491549326362
 11
557.0205248231063
 21
-61.02487155856647
 72
     1
 10
557.0205248231063
 20
-61.02487155856647
 11
555.5205248231061
 21
-61.02487155856647
 72
     2
 10
555.5205248231061
 20
-63.32487155856643
 40
2.299999999999954
 50
90.0
 51
180.0
 73
     1
 72
     1
 10
553.2205248231061
 20
-63.32487155856643
 11
553.2205248231061
 21
-67.82487155856642
 72
     1
 10
553.2205248231061
 20
-67.82487155856642
 11
552.7205248231062
 21
-67.82487155856654
 72
     2
 10
552.7205248231061
 20
-68.02487155856645
 40
0.1999999999999034
 50
89.99999999996743
 51
180.0000000000081
 73
     1
 72
     1
 10
552.5205248231063
 20
-68.02487155856647
 11
552.5205248231063
 21
-70.90058818449671
 72
     2
 10
552.0205248231063
 20
-70.90058818449676
 40
0.5000000000001137
 50
359.9999999999935
 51
468.9838243850306
 73
     0
 72
     2
 10
550.6705248231062
 20
-74.82487155856674
 40
3.650000000000127
 50
71.01617561495941
 51
133.3417582272217
 73
     1
 72
     2
 10
548.7830662142885
 20
-72.82487155856661
 40
0.9000000000000422
 50
133.3417582272238
 51
313.341758227229
 73
     1
 72
     2
 10
550.6705248231062
 20
-74.82487155856668
 40
1.849999999999956
 50
226.6582417727815
 51
493.3417582272281
 73
     0
 72
     2
 10
548.7830662142885
 20
-76.82487155856654
 40
0.8999999999999642
 50
46.65824177278147
 51
226.6582417727808
 73
     1
 72
     2
 10
550.6705248231063
 20
-74.8248715585664
 40
3.65000000000016
 50
226.6582417727782
 51
288.9838243850407
 73
     1
 72
     2
 10
552.0205248231064
 20
-78.74915493263621
 40
0.5000000000000242
 50
251.0161756149518
 51
359.9999999999984
 73
     0
 72
     1
 10
552.5205248231063
 20
-78.7491549326362
 11
552.5205248231063
 21
-82.02487155856658
 72
     1
 10
552.5205248231063
 20
-82.02487155856658
 11
519.1205248231063
 21
-82.02487155856658
 72
     2
 10
519.1205248231063
 20
-81.52487155856659
 40
0.5
 50
90.0
 51
180.0
 73
     0
 72
     1
 10
518.6205248231062
 20
-81.52487155856659
 11
518.6205248231062
 21
-48.1248715585665
 72
     1
 10
518.6205248231062
 20
-48.1248715585665
 11
521.8962414490367
 21
-48.1248715585665
 72
     2
 10
521.8962414490367
 20
-48.62487155856653
 40
0.5000000000000356
 50
270.0
 51
378.9838243850379
 73
     0
 72
     2
 10
525.8205248231064
 20
-49.9748715585668
 40
3.649999999999966
 50
161.0161756149551
 51
223.3417582272172
 73
     1
 72
     2
 10
523.8205248231063
 20
-51.86233016738421
 40
0.9000000000000696
 50
223.341758227219
 51
403.3417582272243
 73
     1
 72
     2
 10
525.8205248231063
 20
-49.97487155856657
 40
1.849999999999974
 50
136.6582417727796
 51
403.3417582272242
 73
     0
 72
     2
 10
527.8205248231063
 20
-51.86233016738422
 40
0.9000000000000355
 50
136.6582417727832
 51
316.6582417727747
 73
     1
 72
     2
 10
525.8205248231063
 20
-49.97487155856648
 40
3.650000000000046
 50
316.6582417727763
 51
378.9838243850374
 73
     1
 72
     2
 10
529.7448081971761
 20
-48.62487155856659
 40
0.5000000000000799
 50
161.0161756149582
 51
269.999999999987
 73
     0
 72
     1
 10
529.7448081971761
 20
-48.1248715585665
 11
532.6205248231063
 21
-48.1248715585665
 72
     2
 10
532.6205248231063
 20
-47.92487155856647
 40
0.200000000000017
 50
270.0
 51
359.9999999999919
 73
     1
 72
     1
 10
532.8205248231063
 20
-47.9248715585665
 11
532.8205248231063
 21
-47.42487155856679
 72
     1
 10
532.8205248231063
 20
-47.42487155856679
 11
537.3205248231063
 21
-47.42487155856679
 72
     2
 10
537.3205248231063
 20
-45.12487155856681
 40
2.299999999999982
 50
270.0
 51
360.0000000000008
 73
     1
 72
     1
 10
539.6205248231062
 20
-45.12487155856677
 11
539.6205248231062
 21
-43.62487155856655
 72
     1
 10
539.6205248231062
 20
-43.62487155856655
 11
543.8962414490369
 21
-43.62487155856655
 72
     2
 10
543.8962414490368
 20
-44.12487155856659
 40
0.5000000000000427
 50
270.000000000013
 51
378.9838243850395
 73
     0
 72
     2
 10
547.8205248231064
 20
-45.47487155856685
 40
3.649999999999954
 50
161.0161756149556
 51
223.3417582272167
 73
     1
 72
     2
 10
545.8205248231063
 20
-47.36233016738421
 40
0.9000000000000696
 50
223.341758227219
 51
403.3417582272243
 73
     1
 72
     2
 10
547.8205248231063
 20
-45.47487155856657
 40
1.849999999999974
 50
136.6582417727796
 51
403.3417582272242
 73
     0
 72
     2
 10
549.8205248231063
 20
-47.36233016738419
 40
0.9000000000000209
 50
136.6582417727842
 51
316.6582417727776
 73
     1
 72
     2
 10
547.8205248231063
 20
-45.47487155856652
 40
3.649999999999958
 50
316.6582417727777
 51
378.9838243850388
 73
     1
 72
     2
 10
551.7448081971762
 20
-44.12487155856668
 40
0.500000000000155
 50
161.0161756149732
 51
269.999999999987
 73
     0
 72
     1
 10
551.744808197176
 20
-43.62487155856661
 11
554.0749404108346
 21
-43.62487155856655
 72
     1
 10
554.0749404108346
 20
-43.62487155856655
 11
557.0205248231063
 21
-46.57045597083822
 72
     1
 10
557.0205248231063
 20
-46.57045597083822
 11
557.0205248231063
 21
-48.9005881844968
 72
     2
 10
556.5205248231063
 20
-48.90058818449677
 40
0.5
 50
0.0000000000024427
 51
108.9838243850333
 73
     0
 97
        1
330
6465
 75
     0
 76
     1
 98
        1
 10
0.0
 20
0.0
  0
ENDBLK
  5
54FD
330
54FB
100
AcDbEntity
  8
0
 48
3.0
100
AcDbBlockEnd
  0
BLOCK
  5
57FA
330
57F9
100
AcDbEntity
  8
0
 48
3.0
100
AcDbBlockBegin
  2
08638
 70
     0
 10
265.902225526263
 20
627.8565575453155
 30
0.0
  3
08638
  1
I:\DWG Master Blocks\08638.dwg
  0
LWPOLYLINE
  5
6467
102
{ACAD_REACTORS
330
6468
102
}
330
57F9
100
AcDbEntity
  8
APL Joinery
  6
Continuous
100
AcDbPolyline
 90
       48
 70
     1
 43
0.0
 10
282.9022255262626
 20
625.1565575453155
 42
-0.4142135623731117
 10
281.8022255262631
 20
626.2565575453159
 42
0.4142135623730951
 10
281.3022255262631
 20
626.7565575453159
 10
269.5022255262632
 20
626.7565575453161
 10
269.5022255262632
 20
624.799450764122
 42
-0.6681786379193133
 10
269.0754488309663
 20
624.6226740688253
 10
267.9754488309681
 20
625.7226740688241
 42
-0.4142135623730951
 10
267.9754488309663
 20
626.0762274594156
 10
268.402225526263
 20
626.5030041547123
 10
268.4022255262632
 20
627.6065575453156
 42
0.4142135623730951
 10
268.152225526263
 20
627.8565575453153
 10
266.1900934919069
 20
627.8565575453155
 42
-0.4142135623730951
 10
265.902225526263
 20
628.1444255109597
 10
265.9022255262628
 20
649.6065575453155
 42
-0.4142135623730951
 10
266.1522255262628
 20
649.8565575453156
 10
268.7022255262629
 20
649.8565575453156
 42
-0.4142135623730951
 10
269.202225526263
 20
649.3565575453158
 10
269.202225526263
 20
647.8565575453156
 10
270.402225526263
 20
647.8565575453155
 42
-0.4142135623730951
 10
270.902225526263
 20
647.3565575453155
 10
270.902225526263
 20
645.8065575453154
 42
-0.9999999999999998
 10
269.902225526263
 20
645.8065575453154
 10
269.902225526263
 20
646.5565575453156
 10
268.4022255262632
 20
646.5565575453156
 10
268.402225526263
 20
645.5565575453154
 42
-0.4142135623730617
 10
268.152225526263
 20
645.3065575453154
 10
267.6522255262628
 20
645.3065575453154
 42
0.4142135623730951
 10
267.4022255262628
 20
645.0565575453154
 10
267.4022255262627
 20
642.5565575453155
 42
0.4142135623730951
 10
267.6522255262628
 20
642.3065575453153
 10
268.152225526263
 20
642.3065575453155
 42
-0.4142135623730951
 10
268.402225526263
 20
642.0565575453155
 10
268.402225526263
 20
641.0565575453156
 10
269.902225526263
 20
641.0565575453155
 10
269.902225526263
 20
641.8065575453155
 42
-0.9999999999999998
 10
270.902225526263
 20
641.8065575453157
 10
270.9022255262632
 20
640.2565575453157
 42
-0.4142135623730951
 10
270.4022255262632
 20
639.7565575453157
 10
268.1422839132624
 20
639.7565575453154
 42
0.4216277665658041
 10
267.6424432595641
 20
639.2439353065858
 10
267.852995449367
 20
630.9060685903965
 42
0.3742242816206427
 10
269.6264661042266
 20
628.9693552852431
 42
-0.3814371313443093
 10
270.602225526263
 20
627.8763940422031
 10
270.602225526263
 20
627.856557545316
 10
281.3022255262634
 20
627.8565575453154
 42
-0.4142135623730284
 10
282.9022255262632
 20
626.2565575453156
 10
284.0422750324269
 20
626.2565575453156
 42
-3.927182716064489
 10
284.0422750324274
 20
625.1565575453152
  0
HATCH
  5
6468
330
57F9
100
AcDbEntity
  8
APL Hatch
100
AcDbHatch
 10
0.0
 20
0.0
 30
0.0
210
0.0
220
0.0
230
1.0
  2
SOLID
 70
     1
 71
     1
 91
        1
 92
        1
 93
       48
 72
     2
 10
282.9022255262629
 20
626.2565575453154
 40
1.099999999999909
 50
90.00000000001776
 51
180.0000000000236
 73
     0
 72
     2
 10
281.3022255262631
 20
626.2565575453159
 40
0.5
 50
0.0
 51
90.0
 73
     1
 72
     1
 10
281.3022255262631
 20
626.7565575453159
 11
269.5022255262632
 21
626.7565575453161
 72
     1
 10
269.5022255262632
 20
626.7565575453161
 11
269.5022255262632
 21
624.799450764122
 72
     2
 10
269.252225526263
 20
624.799450764122
 40
0.2500000000001705
 50
360.0
 51
494.9999999999907
 73
     0
 72
     1
 10
269.0754488309663
 20
624.6226740688253
 11
267.9754488309681
 21
625.7226740688241
 72
     2
 10
268.152225526263
 20
625.8994507641208
 40
0.249999999998756
 50
134.9999999997052
 51
224.9999999997053
 73
     0
 72
     1
 10
267.9754488309663
 20
626.0762274594156
 11
268.402225526263
 21
626.5030041547123
 72
     1
 10
268.402225526263
 20
626.5030041547123
 11
268.4022255262632
 21
627.6065575453156
 72
     2
 10
268.1522255262632
 20
627.6065575453153
 40
0.25
 50
0.0000000000521102
 51
90.00000000005213
 73
     1
 72
     1
 10
268.152225526263
 20
627.8565575453153
 11
266.1900934919069
 21
627.8565575453155
 72
     2
 10
266.190093491907
 20
628.1444255109595
 40
0.2878679656439544
 50
90.00000000002259
 51
180.0000000000226
 73
     0
 72
     1
 10
265.902225526263
 20
628.1444255109597
 11
265.9022255262628
 21
649.6065575453155
 72
     2
 10
266.1522255262628
 20
649.6065575453155
 40
0.25
 50
180.0
 51
270.0
 73
     0
 72
     1
 10
266.1522255262628
 20
649.8565575453156
 11
268.7022255262629
 21
649.8565575453156
 72
     2
 10
268.7022255262631
 20
649.3565575453157
 40
0.4999999999998864
 50
269.999999999987
 51
359.999999999987
 73
     0
 72
     1
 10
269.202225526263
 20
649.3565575453158
 11
269.202225526263
 21
647.8565575453156
 72
     1
 10
269.202225526263
 20
647.8565575453156
 11
270.402225526263
 21
647.8565575453155
 72
     2
 10
270.402225526263
 20
647.3565575453155
 40
0.5
 50
270.0
 51
360.0
 73
     0
 72
     1
 10
270.902225526263
 20
647.3565575453155
 11
270.902225526263
 21
645.8065575453154
 72
     2
 10
270.402225526263
 20
645.8065575453154
 40
0.5
 50
360.0
 51
540.0
 73
     0
 72
     1
 10
269.902225526263
 20
645.8065575453154
 11
269.902225526263
 21
646.5565575453156
 72
     1
 10
269.902225526263
 20
646.5565575453156
 11
268.4022255262632
 21
646.5565575453156
 72
     1
 10
268.4022255262632
 20
646.5565575453156
 11
268.402225526263
 21
645.5565575453154
 72
     2
 10
268.152225526263
 20
645.5565575453154
 40
0.25
 50
360.0
 51
450.0
 73
     0
 72
     1
 10
268.152225526263
 20
645.3065575453154
 11
267.6522255262628
 21
645.3065575453154
 72
     2
 10
267.6522255262628
 20
645.0565575453154
 40
0.25
 50
90.0
 51
180.0
 73
     1
 72
     1
 10
267.4022255262628
 20
645.0565575453154
 11
267.4022255262627
 21
642.5565575453155
 72
     2
 10
267.6522255262629
 20
642.5565575453154
 40
0.2500000000001137
 50
179.9999999999739
 51
269.999999999987
 73
     1
 72
     1
 10
267.6522255262628
 20
642.3065575453153
 11
268.152225526263
 21
642.3065575453155
 72
     2
 10
268.152225526263
 20
642.0565575453155
 40
0.25
 50
270.0
 51
360.0
 73
     0
 72
     1
 10
268.402225526263
 20
642.0565575453155
 11
268.402225526263
 21
641.0565575453156
 72
     1
 10
268.402225526263
 20
641.0565575453156
 11
269.902225526263
 21
641.0565575453155
 72
     1
 10
269.902225526263
 20
641.0565575453155
 11
269.902225526263
 21
641.8065575453155
 72
     2
 10
270.402225526263
 20
641.8065575453156
 40
0.5
 50
179.999999999987
 51
359.999999999987
 73
     0
 72
     1
 10
270.902225526263
 20
641.8065575453157
 11
270.9022255262632
 21
640.2565575453157
 72
     2
 10
270.4022255262632
 20
640.2565575453157
 40
0.5
 50
360.0
 51
450.0
 73
     0
 72
     1
 10
270.4022255262632
 20
639.7565575453157
 11
268.1422839132624
 21
639.7565575453154
 72
     2
 10
268.1422839132622
 20
639.2565575453154
 40
0.5
 50
89.99999999998046
 51
181.4465556865554
 73
     1
 72
     1
 10
267.6424432595641
 20
639.2439353065858
 11
267.852995449367
 21
630.9060685903965
 72
     2
 10
269.8523580641601
 20
630.9565575453157
 40
2.000000000000211
 50
181.446555686578
 51
263.5148335461263
 73
     1
 72
     2
 10
269.5022255262632
 20
627.8763940422031
 40
1.099999999999996
 50
276.4851664538729
 51
360.0
 73
     0
 72
     1
 10
270.602225526263
 20
627.8763940422031
 11
270.602225526263
 21
627.856557545316
 72
     1
 10
270.602225526263
 20
627.856557545316
 11
281.3022255262634
 21
627.8565575453154
 72
     2
 10
281.3022255262632
 20
626.2565575453154
 40
1.600000000000022
 50
270.0000000000061
 51
359.9999999999919
 73
     0
 72
     1
 10
282.9022255262632
 20
626.2565575453156
 11
284.0422750324269
 21
626.2565575453156
 72
     2
 10
285.0522255262633
 20
625.7065575453159
 40
1.15
 50
208.5718781422934
 51
511.428121857656
 73
     0
 72
     1
 10
284.0422750324274
 20
625.1565575453152
 11
282.9022255262626
 21
625.1565575453155
 97
        1
330
6467
 75
     0
 76
     1
 98
        1
 10
0.0
 20
0.0
  0
ENDBLK
  5
57FB
330
57F9
100
AcDbEntity
  8
0
 48
3.0
100
AcDbBlockEnd
  0
BLOCK
  5
57FD
330
57FC
100
AcDbEntity
  8
0
 48
3.0
100
AcDbBlockBegin
  2
9010250L
 70
     0
 10
121.7743665915091
 20
118.4609762649905
 30
0.0
  3
9010250L
  1
I:\DWG Master Blocks\9010250L.dwg
  0
LWPOLYLINE
  5
6469
330
57FC
100
AcDbEntity
  8
APL Joinery
  6
Continuous
 62
   252
100
AcDbPolyline
 90
       35
 70
   129
 43
0.0
 10
128.2214041892004
 20
113.237162025908
 42
0.4340964952257526
 10
127.8564264353586
 20
113.2516672307586
 42
-0.1536145893906839
 10
126.1665848234194
 20
112.3836279395214
 42
-0.4648333009751577
 10
125.8743665871533
 20
112.6300373965773
 10
125.8743665871533
 20
113.8094047359767
 42
-0.2915390373815183
 10
126.1631670868723
 20
114.2626097349353
 42
0.122912838877769
 10
128.3370962921861
 20
116.0230618678046
 42
0.3152263475814818
 10
128.3643015296608
 20
116.8050726870086
 10
128.3054542116656
 20
116.895689610204
 42
0.3630140704661038
 10
127.9375672903661
 20
117.0088437804028
 42
-0.1219902707494916
 10
126.1935750224063
 20
116.0026940736885
 42
-0.4989702342470917
 10
125.8743665871533
 20
116.2429235316861
 10
125.8743665871534
 20
117.2881686513476
 42
-0.3136800272017972
 10
126.2005910348754
 20
117.7569991723576
 42
0.1785411124350255
 10
128.4109533989318
 20
119.6504102703136
 42
0.1279718777770435
 10
128.4743665871533
 20
119.8941149189789
 10
128.4743665871533
 20
121.1878456480732
 42
0.4607623830565047
 10
128.1854567012142
 20
121.4347991270448
 10
121.9854567055696
 20
120.4579297439621
 42
0.3941429072290372
 10
121.7753179169858
 20
120.1891873293035
 10
121.9265167932934
 20
118.4609762649903
 10
123.4743665871533
 20
118.4609762649903
 10
123.4743665871533
 20
115.5609762649902
 10
122.9743665871533
 20
115.5609762649902
 42
0.5486826681767417
 10
122.7478103958356
 20
115.2052772007768
 10
123.9743665871533
 20
112.5762671786926
 10
123.9743665871533
 20
112.0965836934555
 10
123.710969127532
 20
112.0965836934555
 42
0.5773502691896264
 10
123.5060653169642
 20
111.7416798828875
 10
124.600199612073
 20
109.8465836934555
 42
0.2487009021145858
 10
124.997156080752
 20
109.597885439953
 42
0.3109226116934106
 10
125.8972608716131
 20
110.2877394163853
 42
-0.2088596723963019
 10
126.1629196373118
 20
110.5871267326566
 42
0.1426663047989766
 10
128.4040654372803
 20
112.5394783919284
 42
0.3321417186747404
 10
128.3666167137426
 20
113.0688908313857
  0
ENDBLK
  5
57FE
330
57FC
100
AcDbEntity
  8
0
 48
3.0
100
AcDbBlockEnd
  0
BLOCK
  5
5800
330
57FF
100
AcDbEntity
  8
0
 48
3.0
100
AcDbBlockBegin
  2
08638Glaze
 70
     0
 10
0.0
 20
0.0
 30
0.0
  3
08638Glaze
  1

  0
INSERT
  5
5EE3
330
57FF
100
AcDbEntity
  8
APL Joinery
 48
3.0
100
AcDbBlockReference
  2
6Glass
 10
-21.50000000435564
 20
19.00000000000028
 30
0.0
 41
-1.0
 43
-1.0
 50
180.0
210
0.0
220
0.0
230
-1.0
1001
AcDbBlockRepETag
1070
     1
1071
        0
1005
5EE3
  0
INSERT
  5
5EE4
330
57FF
100
AcDbEntity
  8
APL Notes
 48
3.0
100
AcDbBlockReference
  2
9010312r
 10
-37.70000000435586
 20
20.00000000000011
 30
0.0
 41
-1.0
 43
-1.0
210
0.0
220
0.0
230
-1.0
1001
AcDbBlockRepETag
1070
     1
1071
        1
1005
5EE4
  0
INSERT
  5
5EE5
330
57FF
100
AcDbEntity
  8
APL Joinery
 48
3.0
100
AcDbBlockReference
  2
08638
 10
0.0
 20
0.0
 30
0.0
1001
AcDbBlockRepETag
1070
     1
1071
        2
1005
5EE5
  0
LINE
  5
5EE6
330
57FF
100
AcDbEntity
  8
APL Joinery
 62
     7
 48
3.0
100
AcDbLine
 10
16.00000000435558
 20
12.00000000000045
 30
0.0
 11
28.00000000435558
 21
12.00000000000045
 31
0.0
1001
AcDbBlockRepETag
1070
     1
1071
        3
1005
5EE6
  0
INSERT
  5
5EE7
330
57FF
100
AcDbEntity
  8
APL Joinery
 48
3.0
100
AcDbBlockReference
  2
6Glass
 10
-3.500000004355641
 20
19.00000000000028
 30
0.0
 41
-1.0
 43
-1.0
 50
180.0
210
0.0
220
0.0
230
-1.0
1001
AcDbBlockRepETag
1070
     1
1071
        4
1005
5EE7
  0
LINE
  5
5EE8
330
57FF
100
AcDbEntity
  8
APL Joinery
 62
     7
 48
3.0
100
AcDbLine
 10
28.0000000043556
 20
6.000000000000454
 30
0.0
 11
16.0000000043556
 21
6.000000000000454
 31
0.0
1001
AcDbBlockRepETag
1070
     1
1071
        5
1005
5EE8
  0
INSERT
  5
5EE9
330
57FF
100
AcDbEntity
  8
APL Joinery
 48
3.0
100
AcDbBlockReference
  2
9010250L
 10
-3.300000004355752
 20
20.00000000000046
 30
0.0
 41
-1.0
 43
-1.0
210
0.0
220
0.0
230
-1.0
1001
AcDbBlockRepETag
1070
     1
1071
        6
1005
5EE9
  0
ENDBLK
  5
5808
330
57FF
100
AcDbEntity
  8
0
 48
3.0
100
AcDbBlockEnd
  0
BLOCK
  5
601E
330
601D
100
AcDbEntity
  8
0
 48
3.0
100
AcDbBlockBegin
  2
08678
 70
     0
 10
0.0
 20
0.0
 30
0.0
  3
08678
  1
I:\DWG Master Blocks\08678.dwg
  0
LWPOLYLINE
  5
646C
102
{ACAD_REACTORS
330
646D
102
}
330
601D
100
AcDbEntity
  8
APL Joinery
  6
Continuous
370
     0
100
AcDbPolyline
 90
      126
 70
     1
 43
0.0
 10
41.66194517346911
 20
16.5483739142212
 42
0.3440117692688345
 10
43.53835963593655
 20
16.54837391422308
 42
-0.5143431142500389
 10
44.8450295195862
 20
16.16207008739172
 42
0.3196562203749147
 10
45.31752455849505
 20
15.82561958511831
 10
46.00000000117188
 20
15.82561958511826
 42
-0.4142135623730951
 10
48.00000000117188
 20
13.82561958511826
 10
48.00000000117188
 20
6.400000000000147
 10
57.29999700265569
 20
6.400000000000261
 42
-1.000000000000081
 10
57.2999970026558
 20
5.000000000000056
 10
46.99999999999977
 20
5.0
 42
-0.4142135623730617
 10
46.49999999999965
 20
5.500000000000056
 10
46.49999999999965
 20
13.72499618775754
 42
0.4142135623730951
 10
45.99999999999965
 20
14.22499618775754
 10
39.8001524040385
 20
14.22499618775754
 42
-0.4142135623730951
 10
38.8001524040385
 20
15.22499618775754
 10
38.8001524040385
 20
18.20000000000209
 42
0.4142135623730951
 10
38.3001524040385
 20
18.70000000000209
 10
17.8159913281554
 20
18.70000000000209
 42
0.4142135623730951
 10
17.3159913281554
 20
18.20000000000209
 10
17.3159913281554
 20
15.2249961877576
 42
-0.4142135623730951
 10
16.3159913281554
 20
14.22499618775759
 10
9.221595303580102
 20
14.22499618775754
 10
9.221595303580215
 20
13.70000000000215
 42
-0.4322173332770392
 10
6.032537624680117
 20
10.70000000000215
 10
-6.499999999999772
 20
10.7000000000022
 42
0.4142135623730951
 10
-7.499999999999772
 20
9.700000000002205
 10
-7.5
 20
1.600000000002069
 10
-5.600000000000022
 20
1.600000000002069
 42
-0.4142135623730118
 10
-5.399999999999977
 20
1.40000000000208
 10
-5.399999999999863
 20
-0.7999999999979082
 42
-0.9999999999999998
 10
-6.200000000000045
 20
-0.7999999999979082
 10
-6.200000000000045
 20
0.1000000000020691
 10
-7.5
 20
0.1000000000020691
 10
-7.5
 20
-13.59999999999792
 10
-5.200000000000272
 20
-13.59999999999792
 10
-5.200000000000272
 20
-12.79999999999791
 42
-0.4142135623730951
 10
-5.000000000000227
 20
-12.59999999999792
 10
-3.900000000000204
 20
-12.59999999999797
 42
-0.4142135623730951
 10
-3.700000000000272
 20
-12.79999999999791
 10
-3.700000000000272
 20
-13.89999999999793
 10
-0.2000000000000455
 20
-13.89999999999787
 42
-0.4142135623730951
 10
0.0
 20
-14.09999999999792
 10
0.0
 20
-14.89999999999793
 42
-0.4142135623730951
 10
-0.2000000000000455
 20
-15.09999999999792
 10
-7.800000000000068
 20
-15.09999999999792
 42
-0.4142135623730951
 10
-9.300000000000068
 20
-13.59999999999792
 10
-9.300000000000068
 20
20.65000000000208
 42
-0.4142135623730951
 10
-9.050000000000068
 20
20.90000000000208
 10
-8.27474487139159
 20
20.90000000000214
 42
-0.356393958692598
 10
-6.805051025721695
 20
19.70000000000215
 42
-0.4744978678079126
 10
-7.050000000000068
 20
19.40000000000202
 10
-7.800000000000068
 20
19.40000000000208
 10
-7.800000000000068
 20
16.40000000000208
 10
-7.699999999999818
 20
16.40000000000213
 42
-0.4142135623730951
 10
-7.499999999999772
 20
16.20000000000209
 10
-7.5
 20
13.70000000000215
 42
0.4142135623730951
 10
-6.5
 20
12.70000000000215
 10
-0.7000000000000455
 20
12.70000000000215
 10
-0.3000000000000682
 20
12.30000000000206
 10
0.1000000000000227
 20
12.70000000000215
 10
6.215991327492247
 20
12.70000000000215
 42
0.4142135623730951
 10
7.215991327492247
 20
13.70000000000215
 10
7.215991327492247
 20
16.10000000028026
 42
-0.4142135623730951
 10
8.215991327492247
 20
17.10000000028026
 10
11.68057184447843
 20
17.10000000028026
 42
-0.226172756148961
 10
12.33122118996744
 20
16.7898144197157
 42
0.3440117692688793
 10
14.15947212126491
 20
16.36740494164036
 42
-0.1139152748892414
 10
14.52802058052998
 20
16.44547537635316
 42
0.2345456279508703
 10
14.92979703857918
 20
16.63592934978021
 42
0.2237853363051945
 10
15.27521639374697
 20
18.13095559931617
 42
0.2345456279510232
 10
14.99770869000019
 20
18.47835524323994
 42
-0.1139152748892648
 10
14.7007614650156
 20
18.71018558029016
 42
0.3440117692689895
 10
12.8725105337171
 20
19.13259505836254
 42
-0.5515352456530599
 10
11.68166644581129
 20
19.90000000000174
 10
8.699999999999931
 20
19.90000000000179
 42
-1.000000000000113
 10
8.700000000000272
 20
20.90000000000214
 10
21.29999999999995
 20
20.90000000000208
 10
21.69999999999993
 20
20.50000000000199
 10
22.10000000000014
 20
20.90000000000208
 10
26.69999999999993
 20
20.90000000000208
 10
26.70000000000005
 20
22.20000000000215
 42
-0.4142135623731782
 10
26.89999999999998
 20
22.40000000000214
 10
28.9000000000002
 20
22.40000000000208
 10
28.9000000000002
 20
26.40000000000208
 10
27.20000000000005
 20
26.40000000000208
 42
-0.9999999999999998
 10
27.20000000000005
 20
27.40000000000208
 10
28.9000000000002
 20
27.40000000000208
 10
28.9000000000002
 20
32.80000000000206
 10
27.19999999999993
 20
32.80000000000206
 42
-0.4142135623730951
 10
26.69999999999993
 20
33.30000000000206
 10
26.69999999999993
 20
34.85000000000201
 42
-0.9999999999999998
 10
27.69999999999993
 20
34.85000000000201
 10
27.69999999999993
 20
34.10000000000201
 10
29.19999999999993
 20
34.10000000000201
 10
29.19999999999993
 20
39.60000000000298
 10
27.70000000000016
 20
39.60000000000298
 10
27.69999999999993
 20
38.85000000000207
 42
-0.9999999999999998
 10
26.69999999999993
 20
38.85000000000207
 10
26.69999999999993
 20
40.40000000000214
 42
-0.4142135623730951
 10
27.19999999999993
 20
40.90000000000213
 10
28.40000000000021
 20
40.90000000000208
 10
28.40000000000032
 20
42.70000000000215
 42
-0.4142135623730118
 10
28.60000000000037
 20
42.90000000000219
 10
30.5
 20
42.90000000000214
 42
-0.4142135623729286
 10
30.69999999999993
 20
42.70000000000209
 10
30.70000000000005
 20
22.0000000000021
 42
0.4142135623730785
 10
31.70000000000005
 20
21.00000000000211
 10
36.95421535940443
 20
21.00000000000216
 42
0.1270166537925872
 10
45.66842788837152
 20
23.25000000000233
 42
0.2728421326631841
 10
46.70018205181941
 20
25.00000000000216
 10
46.70018205181918
 20
25.70845599941816
 42
-0.3888043079714917
 10
47.88654469403787
 20
27.00347976403282
 10
51.23908461236033
 20
27.29766261116208
 42
-1.044748832512541
 10
51.30027395885815
 20
25.90034212252329
 10
48.00018205181936
 20
25.90034212252329
 10
48.0001820518089
 20
24.25166852264647
 42
-0.1313259594335767
 10
47.73351538514305
 20
23.25389321951127
 42
-0.136620875811071
 10
46.39461226577862
 20
21.93750000001512
 42
-0.024170952955879
 10
44.70376152560937
 20
21.10601960944905
 42
0.5472548167821746
 10
44.56884659778928
 20
20.2733685641623
 42
-0.9999985058097129
 10
43.53835963593667
 20
18.9528728795949
 42
0.3440117692690878
 10
41.66194517346844
 20
18.9528728795965
 42
-0.1139152748891516
 10
41.32043140605889
 20
18.79384047323702
 42
0.2345456279507033
 10
40.97184177771566
 20
18.51782904367621
 42
0.2237853363052803
 10
40.97184177771589
 20
16.98341775014131
 42
0.2345456279508953
 10
41.32043140605936
 20
16.7074063205805
 42
-0.1139152748892422
  0
HATCH
  5
646D
330
601D
100
AcDbEntity
  8
APL Hatch
100
AcDbHatch
 10
0.0
 20
0.0
 30
0.0
210
0.0
220
0.0
230
1.0
  2
SOLID
 70
     1
 71
     1
 91
        1
 92
        1
 93
      126
 72
     2
 10
42.60015240470163
 20
17.75062339690923
 40
1.52500381224462
 50
232.0323599345711
 51
307.9676400655434
 73
     1
 72
     2
 10
44.05360213032579
 20
15.88812530206742
 40
0.837498094253304
 50
232.0323599344506
 51
340.9072094075262
 73
     0
 72
     2
 10
45.31752455849506
 20
16.32561958511848
 40
0.5000000000001585
 50
199.0927905924803
 51
269.9999999999984
 73
     1
 72
     1
 10
45.31752455849505
 20
15.82561958511831
 11
46.00000000117188
 21
15.82561958511826
 72
     2
 10
46.00000000117188
 20
13.82561958511826
 40
2.0
 50
270.0
 51
360.0
 73
     0
 72
     1
 10
48.00000000117188
 20
13.82561958511826
 11
48.00000000117188
 21
6.400000000000147
 72
     1
 10
48.00000000117188
 20
6.400000000000147
 11
57.29999700265569
 21
6.400000000000261
 72
     2
 10
57.2999970026558
 20
5.700000000000159
 40
0.7000000000001024
 50
269.9999999999907
 51
450.0
 73
     0
 72
     1
 10
57.2999970026558
 20
5.000000000000056
 11
46.99999999999977
 21
5.0
 72
     2
 10
46.99999999999977
 20
5.500000000000113
 40
0.5000000000001137
 50
90.0
 51
179.9999999999935
 73
     0
 72
     1
 10
46.49999999999965
 20
5.500000000000056
 11
46.49999999999965
 21
13.72499618775754
 72
     2
 10
45.99999999999965
 20
13.72499618775754
 40
0.5
 50
0.0
 51
90.0
 73
     1
 72
     1
 10
45.99999999999965
 20
14.22499618775754
 11
39.8001524040385
 21
14.22499618775754
 72
     2
 10
39.8001524040385
 20
15.22499618775754
 40
1.0
 50
90.0
 51
180.0
 73
     0
 72
     1
 10
38.8001524040385
 20
15.22499618775754
 11
38.8001524040385
 21
18.20000000000209
 72
     2
 10
38.3001524040385
 20
18.20000000000209
 40
0.5
 50
0.0
 51
90.0
 73
     1
 72
     1
 10
38.3001524040385
 20
18.70000000000209
 11
17.8159913281554
 21
18.70000000000209
 72
     2
 10
17.8159913281554
 20
18.20000000000209
 40
0.5
 50
90.0
 51
180.0
 73
     1
 72
     1
 10
17.3159913281554
 20
18.20000000000209
 11
17.3159913281554
 21
15.2249961877576
 72
     2
 10
16.3159913281554
 20
15.2249961877576
 40
1.0
 50
360.0
 51
450.0
 73
     0
 72
     1
 10
16.3159913281554
 20
14.22499618775759
 11
9.221595303580102
 21
14.22499618775754
 72
     1
 10
9.221595303580102
 20
14.22499618775754
 11
9.221595303580215
 21
13.70000000000215
 72
     2
 10
6.215991327492274
 20
13.70000000000217
 40
3.005603976087941
 50
0.000000000000458
 51
93.4993500679994
 73
     0
 72
     1
 10
6.032537624680117
 20
10.70000000000215
 11
-6.499999999999772
 21
10.7000000000022
 72
     2
 10
-6.499999999999772
 20
9.700000000002205
 40
1.0
 50
90.0
 51
180.0
 73
     1
 72
     1
 10
-7.499999999999772
 20
9.700000000002205
 11
-7.5
 21
1.600000000002069
 72
     1
 10
-7.5
 20
1.600000000002069
 11
-5.600000000000022
 21
1.600000000002069
 72
     2
 10
-5.600000000000022
 20
1.400000000002023
 40
0.2000000000000455
 50
270.0
 51
359.9999999999837
 73
     0
 72
     1
 10
-5.399999999999977
 20
1.40000000000208
 11
-5.399999999999863
 21
-0.7999999999979082
 72
     2
 10
-5.799999999999954
 20
-0.7999999999979082
 40
0.400000000000091
 50
360.0
 51
540.0
 73
     0
 72
     1
 10
-6.200000000000045
 20
-0.7999999999979082
 11
-6.200000000000045
 21
0.1000000000020691
 72
     1
 10
-6.200000000000045
 20
0.1000000000020691
 11
-7.5
 21
0.1000000000020691
 72
     1
 10
-7.5
 20
0.1000000000020691
 11
-7.5
 21
-13.59999999999792
 72
     1
 10
-7.5
 20
-13.59999999999792
 11
-5.200000000000272
 21
-13.59999999999792
 72
     1
 10
-5.200000000000272
 20
-13.59999999999792
 11
-5.200000000000272
 21
-12.79999999999791
 72
     2
 10
-5.000000000000255
 20
-12.79999999999793
 40
0.200000000000017
 50
180.0000000000081
 51
270.0000000000081
 73
     0
 72
     1
 10
-5.000000000000227
 20
-12.59999999999792
 11
-3.900000000000204
 21
-12.59999999999797
 72
     2
 10
-3.900000000000204
 20
-12.79999999999791
 40
0.1999999999999318
 50
270.0
 51
360.0
 73
     0
 72
     1
 10
-3.700000000000272
 20
-12.79999999999791
 11
-3.700000000000272
 21
-13.89999999999793
 72
     1
 10
-3.700000000000272
 20
-13.89999999999793
 11
-0.2000000000000455
 21
-13.89999999999787
 72
     2
 10
-0.2000000000000455
 20
-14.09999999999792
 40
0.2000000000000455
 50
270.0
 51
360.0
 73
     0
 72
     1
 10
0.0
 20
-14.09999999999792
 11
0.0
 21
-14.89999999999793
 72
     2
 10
-0.200000000000017
 20
-14.8999999999979
 40
0.200000000000017
 50
0.0000000000081422
 51
90.00000000000815
 73
     0
 72
     1
 10
-0.2000000000000455
 20
-15.09999999999792
 11
-7.800000000000068
 21
-15.09999999999792
 72
     2
 10
-7.800000000000068
 20
-13.59999999999792
 40
1.5
 50
90.0
 51
180.0
 73
     0
 72
     1
 10
-9.300000000000068
 20
-13.59999999999792
 11
-9.300000000000068
 21
20.65000000000208
 72
     2
 10
-9.050000000000068
 20
20.65000000000208
 40
0.25
 50
180.0
 51
270.0
 73
     0
 72
     1
 10
-9.050000000000068
 20
20.90000000000208
 11
-8.27474487139159
 21
20.90000000000214
 72
     2
 10
-8.274744871391595
 20
19.40000000000214
 40
1.499999999999992
 50
270.0000000000002
 51
348.4630409671843
 73
     0
 72
     2
 10
-7.050000000000159
 20
19.65000000000216
 40
0.2500000000001399
 50
348.463040967195
 51
449.999999999979
 73
     0
 72
     1
 10
-7.050000000000068
 20
19.40000000000202
 11
-7.800000000000068
 21
19.40000000000208
 72
     1
 10
-7.800000000000068
 20
19.40000000000208
 11
-7.800000000000068
 21
16.40000000000208
 72
     1
 10
-7.800000000000068
 20
16.40000000000208
 11
-7.699999999999818
 21
16.40000000000213
 72
     2
 10
-7.699999999999818
 20
16.20000000000209
 40
0.2000000000000455
 50
270.0
 51
360.0
 73
     0
 72
     1
 10
-7.499999999999772
 20
16.20000000000209
 11
-7.5
 21
13.70000000000215
 72
     2
 10
-6.5
 20
13.70000000000215
 40
1.0
 50
180.0
 51
270.0
 73
     1
 72
     1
 10
-6.5
 20
12.70000000000215
 11
-0.7000000000000455
 21
12.70000000000215
 72
     1
 10
-0.7000000000000455
 20
12.70000000000215
 11
-0.3000000000000682
 21
12.30000000000206
 72
     1
 10
-0.3000000000000682
 20
12.30000000000206
 11
0.1000000000000227
 21
12.70000000000215
 72
     1
 10
0.1000000000000227
 20
12.70000000000215
 11
6.215991327492247
 21
12.70000000000215
 72
     2
 10
6.215991327492247
 20
13.70000000000215
 40
1.0
 50
270.0
 51
360.0
 73
     1
 72
     1
 10
7.215991327492247
 20
13.70000000000215
 11
7.215991327492247
 21
16.10000000028026
 72
     2
 10
8.215991327492247
 20
16.10000000028026
 40
1.0
 50
180.0
 51
270.0
 73
     0
 72
     1
 10
8.215991327492247
 20
17.10000000028026
 11
11.68057184447843
 21
17.10000000028026
 72
     2
 10
11.68057184447851
 20
16.26250190602697
 40
0.8374980942532843
 50
269.9999999999949
 51
320.9772944068379
 73
     0
 72
     2
 10
13.5159913274923
 20
17.7500000000022
 40
1.525003812244683
 50
219.022705593151
 51
294.9579857241323
 73
     1
 72
     2
 10
14.51285742702345
 20
15.6081145600658
 40
0.8374980942531708
 50
245.0420142758706
 51
271.037413909203
 73
     0
 72
     2
 10
14.53707323008847
 20
16.94539341917231
 40
0.5000000000001656
 50
268.9625860908094
 51
321.7620963301682
 73
     1
 72
     2
 10
13.5159913274922
 20
17.75000000000205
 40
1.800000000663297
 50
321.762096330164
 51
372.2185949871879
 73
     1
 72
     2
 10
14.78654276441137
 20
18.02513459954564
 40
0.5000000000004628
 50
12.21859498718127
 51
65.01810522657336
 73
     1
 72
     2
 10
15.35141081050377
 20
19.23749809397918
 40
0.8374980942528914
 50
114.9818947734514
 51
140.9772944067891
 73
     0
 72
     2
 10
13.51599132749223
 20
17.750000000002
 40
1.525003812244566
 50
39.02270559323466
 51
114.9579857242386
 73
     1
 72
     2
 10
12.51912522795702
 20
19.89188543993662
 40
0.8374980942533928
 50
65.04201427576081
 51
180.5551503009488
 73
     0
 72
     1
 10
11.68166644581129
 20
19.90000000000174
 11
8.699999999999931
 21
19.90000000000179
 72
     2
 10
8.700000000000045
 20
20.40000000000197
 40
0.5000000000001706
 50
90.00000000001303
 51
270.000000000026
 73
     0
 72
     1
 10
8.700000000000272
 20
20.90000000000214
 11
21.29999999999995
 21
20.90000000000208
 72
     1
 10
21.29999999999995
 20
20.90000000000208
 11
21.69999999999993
 21
20.50000000000199
 72
     1
 10
21.69999999999993
 20
20.50000000000199
 11
22.10000000000014
 21
20.90000000000208
 72
     1
 10
22.10000000000014
 20
20.90000000000208
 11
26.69999999999993
 21
20.90000000000208
 72
     1
 10
26.69999999999993
 20
20.90000000000208
 11
26.70000000000005
 21
22.20000000000215
 72
     2
 10
26.89999999999998
 20
22.2000000000022
 40
0.1999999999999318
 50
179.9999999999837
 51
270.0
 73
     0
 72
     1
 10
26.89999999999998
 20
22.40000000000214
 11
28.9000000000002
 21
22.40000000000208
 72
     1
 10
28.9000000000002
 20
22.40000000000208
 11
28.9000000000002
 21
26.40000000000208
 72
     1
 10
28.9000000000002
 20
26.40000000000208
 11
27.20000000000005
 21
26.40000000000208
 72
     2
 10
27.20000000000005
 20
26.90000000000208
 40
0.5
 50
90.0
 51
270.0
 73
     0
 72
     1
 10
27.20000000000005
 20
27.40000000000208
 11
28.9000000000002
 21
27.40000000000208
 72
     1
 10
28.9000000000002
 20
27.40000000000208
 11
28.9000000000002
 21
32.80000000000206
 72
     1
 10
28.9000000000002
 20
32.80000000000206
 11
27.19999999999993
 21
32.80000000000206
 72
     2
 10
27.19999999999993
 20
33.30000000000206
 40
0.5
 50
90.0
 51
180.0
 73
     0
 72
     1
 10
26.69999999999993
 20
33.30000000000206
 11
26.69999999999993
 21
34.85000000000201
 72
     2
 10
27.19999999999993
 20
34.85000000000201
 40
0.5
 50
180.0
 51
360.0
 73
     0
 72
     1
 10
27.69999999999993
 20
34.85000000000201
 11
27.69999999999993
 21
34.10000000000201
 72
     1
 10
27.69999999999993
 20
34.10000000000201
 11
29.19999999999993
 21
34.10000000000201
 72
     1
 10
29.19999999999993
 20
34.10000000000201
 11
29.19999999999993
 21
39.60000000000298
 72
     1
 10
29.19999999999993
 20
39.60000000000298
 11
27.70000000000016
 21
39.60000000000298
 72
     1
 10
27.70000000000016
 20
39.60000000000298
 11
27.69999999999993
 21
38.85000000000207
 72
     2
 10
27.19999999999993
 20
38.85000000000207
 40
0.5
 50
360.0
 51
540.0
 73
     0
 72
     1
 10
26.69999999999993
 20
38.85000000000207
 11
26.69999999999993
 21
40.40000000000214
 72
     2
 10
27.19999999999993
 20
40.40000000000214
 40
0.5
 50
180.0
 51
270.0
 73
     0
 72
     1
 10
27.19999999999993
 20
40.90000000000213
 11
28.40000000000021
 21
40.90000000000208
 72
     1
 10
28.40000000000021
 20
40.90000000000208
 11
28.40000000000032
 21
42.70000000000215
 72
     2
 10
28.60000000000039
 20
42.70000000000211
 40
0.2000000000000739
 50
180.0000000000081
 51
269.9999999999919
 73
     0
 72
     1
 10
28.60000000000037
 20
42.90000000000219
 11
30.5
 21
42.90000000000214
 72
     2
 10
30.49999999999989
 20
42.70000000000209
 40
0.2000000000000455
 50
270.0000000000326
 51
360.0
 73
     0
 72
     1
 10
30.69999999999993
 20
42.70000000000209
 11
30.70000000000005
 21
22.0000000000021
 72
     2
 10
31.70000000000007
 20
22.00000000000213
 40
1.000000000000028
 50
180.0000000000016
 51
269.9999999999984
 73
     1
 72
     1
 10
31.70000000000005
 20
21.00000000000211
 11
36.95421535940443
 21
21.00000000000216
 72
     2
 10
36.95421535940445
 20
39.00000000000247
 40
18.0000000000003
 50
269.9999999999999
 51
298.9550243718607
 73
     1
 72
     2
 10
44.70018205181985
 20
25.00000000000192
 40
1.999999999999551
 50
298.9550243718607
 51
360.0000000000068
 73
     1
 72
     1
 10
46.70018205181941
 20
25.00000000000216
 11
46.70018205181918
 21
25.70845599941816
 72
     2
 10
48.00018205181927
 20
25.70845599941818
 40
1.300000000000082
 50
179.9999999999994
 51
264.9851835207734
 73
     0
 72
     1
 10
47.88654469403787
 20
27.00347976403282
 11
51.23908461236033
 21
27.29766261116208
 72
     2
 10
51.30027395885815
 20
26.60034212252339
 40
0.7000000000000999
 50
264.9851835207615
 51
450.0
 73
     0
 72
     1
 10
51.30027395885815
 20
25.90034212252329
 11
48.00018205181936
 21
25.90034212252329
 72
     1
 10
48.00018205181936
 20
25.90034212252329
 11
48.0001820518089
 21
24.25166852264647
 72
     2
 10
46.00018205181925
 20
24.25166852264681
 40
1.999999999989654
 50
0.0000000000098724
 51
29.92643486664687
 73
     0
 72
     2
 10
44.70018205182532
 20
25.00000000000757
 40
3.499999999987365
 50
29.92643486676722
 51
61.0449756282587
 73
     0
 72
     2
 10
36.95421535935685
 20
38.99999999997638
 40
19.49999999998605
 50
61.04497562797912
 51
66.58347156636269
 73
     0
 72
     2
 10
44.9027622859853
 20
20.6465197074542
 40
0.5007409136105031
 50
113.416528433458
 51
228.1761111843648
 73
     1
 72
     2
 10
44.05360213032632
 20
19.61312149175098
 40
0.8374980942538865
 50
307.9678112872761
 51
487.9676400655539
 73
     0
 72
     2
 10
42.60015240470153
 20
17.75062339690922
 40
1.525003812244385
 50
52.03235993443925
 51
127.9676400654633
 73
     1
 72
     2
 10
41.14670267907999
 20
19.6131214917528
 40
0.8374980942533314
 50
52.03235993452046
 51
78.02775956783261
 73
     0
 72
     2
 10
41.42415028504548
 20
18.30471636409681
 40
0.5000000000004378
 50
101.9722404321425
 51
154.771750671465
 73
     1
 72
     2
 10
42.60015240470181
 20
17.750623396909
 40
1.800000000663199
 50
154.7717506714871
 51
205.2282493285298
 73
     1
 72
     2
 10
41.42415028504557
 20
17.19653042972062
 40
0.5000000000002732
 50
205.2282493285327
 51
258.0277595678968
 73
     1
 72
     2
 10
41.14670267908119
 20
15.88812530206492
 40
0.837498094252982
 50
281.9722404321193
 51
307.9676400654519
 73
     0
 97
        1
330
646C
 75
     0
 76
     1
 98
        1
 10
0.0
 20
0.0
1001
ACAD
1010
0.0
1020
0.0
1030
0.0
  0
ENDBLK
  5
601F
330
601D
100
AcDbEntity
  8
0
 48
3.0
100
AcDbBlockEnd
  0
BLOCK
  5
641D
330
641A
100
AcDbEntity
  8
0
 62
     9
100
AcDbBlockBegin
  2
vantage black & white logo
 70
     0
 10
0.0
 20
0.0
 30
0.0
  3
vantage black & white logo
  1

  0
SPLINE
  5
641E
102
{ACAD_REACTORS
330
644E
102
}
330
641A
100
AcDbEntity
  8
APL Border
 62
     8
100
AcDbSpline
210
0.0
220
0.0
230
1.0
 70
     8
 71
     3
 72
    16
 73
    12
 74
    10
 42
0.0000000001
 43
0.0000000001
 44
0.0000000001
 40
0.0
 40
0.0
 40
0.0
 40
0.0
 40
0.1978277931646383
 40
0.361463118001824
 40
0.5540499897785108
 40
0.7796220130725381
 40
0.979106605438038
 40
1.222151590302332
 40
1.40748727220097
 40
1.607226525619232
 40
1.815049166761618
 40
1.815049166761618
 40
1.815049166761618
 40
1.815049166761618
 10
-6.679452083611295
 20
24.89125032803118
 30
0.0
 10
-6.685371732996674
 20
24.82559351525051
 30
0.0
 10
-6.696187882184245
 20
24.70562798418881
 30
0.0
 10
-6.721757155054659
 20
24.52229576436942
 30
0.0
 10
-6.768469983285688
 20
24.33480615160983
 30
0.0
 10
-6.86071972339088
 20
24.14153771241002
 30
0.0
 10
-7.051789745146238
 20
24.01851519430105
 30
0.0
 10
-7.233921808197289
 20
23.91285203345822
 30
0.0
 10
-7.443451931375125
 20
23.87675735439051
 30
0.0
 10
-7.641222718647389
 20
23.88093312949101
 30
0.0
 10
-7.776581895343343
 20
23.89281010788354
 30
0.0
 10
-7.845603808282817
 20
23.89886637823479
 30
0.0
 11
-6.679452083611295
 21
24.89125032803118
 31
0.0
 11
-6.698967886443824
 21
24.69438750983487
 31
0.0
 11
-6.7229873764864
 21
24.53252465544059
 31
0.0
 11
-6.771947617386814
 21
24.34626516442952
 31
0.0
 11
-6.880972027936735
 21
24.14879006322128
 31
0.0
 11
-7.039699899396197
 21
24.02796140183178
 31
0.0
 11
-7.25666078222261
 21
23.91842218515177
 31
0.0
 11
-7.438645676318543
 21
23.88333923622035
 31
0.0
 11
-7.638384704687155
 21
23.88303939885124
 31
0.0
 11
-7.845603808282817
 21
23.89886637823479
 31
0.0
1001
AcDbBlockRepETag
1070
     1
1071
      590
1005
641E
  0
SPLINE
  5
641F
102
{ACAD_REACTORS
330
644E
102
}
330
641A
100
AcDbEntity
  8
APL Border
 62
     8
100
AcDbSpline
210
0.0
220
0.0
230
1.0
 70
     8
 71
     3
 72
    11
 73
     7
 74
     5
 42
0.0000000001
 43
0.0000000001
 44
0.0000000001
 40
0.0
 40
0.0
 40
0.0
 40
0.0
 40
0.0680840587483313
 40
0.1752723045973904
 40
0.2784233367375334
 40
0.4826852714337078
 40
0.4826852714337078
 40
0.4826852714337078
 40
0.4826852714337078
 10
-7.465264214605014
 20
24.80065518845331
 30
0.0
 10
-7.468646137215252
 20
24.77808681972154
 30
0.0
 10
-7.47735239504952
 20
24.719987903891
 30
0.0
 10
-7.524447891091254
 20
24.63752792323728
 30
0.0
 10
-7.635129760920157
 20
24.54333837224584
 30
0.0
 10
-7.743266182308203
 20
24.55714977626708
 30
0.0
 10
-7.815117916056323
 20
24.56632682606847
 30
0.0
 11
-7.465264214605014
 21
24.80065518845331
 31
0.0
 11
-7.478569823577657
 21
24.73388393846117
 31
0.0
 11
-7.530473398252325
 21
24.64010046985295
 31
0.0
 11
-7.611072397370236
 21
24.57572705319073
 31
0.0
 11
-7.815117916056323
 21
24.56632682606847
 31
0.0
1001
AcDbBlockRepETag
1070
     1
1071
      593
1005
641F
  0
SPLINE
  5
6420
102
{ACAD_REACTORS
330
644E
102
}
330
641A
100
AcDbEntity
  8
APL Border
 62
     8
100
AcDbSpline
210
0.0
220
0.0
230
1.0
 70
     8
 71
     3
 72
    20
 73
    16
 74
     0
 42
0.0000000001
 43
0.0000000001
 40
0.0
 40
0.0
 40
0.0
 40
0.0
 40
0.1774120264923274
 40
0.3258093286713144
 40
0.4834060703451958
 40
0.6311237014699663
 40
0.811161917566129
 40
0.9605198197290178
 40
1.289502400757101
 40
1.459697744220917
 40
1.604754171475458
 40
1.794797311213428
 40
2.030760379210173
 40
2.301729078160567
 40
2.393267743077617
 40
2.393267743077617
 40
2.393267743077617
 40
2.393267743077617
 10
5.780015564168593
 20
26.87985997284487
 30
0.0
 10
5.839056126904296
 20
26.87337384475878
 30
0.0
 10
5.947481505327601
 20
26.86146235781404
 30
0.0
 10
6.098807931884806
 20
26.80185114122353
 30
0.0
 10
6.227972759762906
 20
26.72168911843352
 30
0.0
 10
6.347510602881385
 20
26.61140356622764
 30
0.0
 10
6.442310149474394
 20
26.48207375794227
 30
0.0
 10
6.536759215535255
 20
26.28338234239492
 30
0.0
 10
6.578465181725675
 20
26.06469589684353
 30
0.0
 10
6.553150099427256
 20
25.85079503063701
 30
0.0
 10
6.524121382020268
 20
25.68499989147718
 30
0.0
 10
6.464236525716046
 20
25.50199988960434
 30
0.0
 10
6.327150620479812
 20
25.31187331731421
 30
0.0
 10
6.179477266233362
 20
25.17172660684537
 30
0.0
 10
6.072729148555964
 20
25.11631253421805
 30
0.0
 10
6.045077525535504
 20
25.10350570839811
 30
0.0
1001
AcDbBlockRepETag
1070
     1
1071
      594
1005
6420
  0
SPLINE
  5
6421
102
{ACAD_REACTORS
330
644E
102
}
330
641A
100
AcDbEntity
  8
APL Border
 62
     8
100
AcDbSpline
210
0.0
220
0.0
230
1.0
 70
     8
 71
     3
 72
    17
 73
    13
 74
    11
 42
0.0000000001
 43
0.0000000001
 44
0.0000000001
 40
0.0
 40
0.0
 40
0.0
 40
0.0
 40
0.0975027714782739
 40
0.2117924486065133
 40
0.317678689712162
 40
0.4843960423119905
 40
0.5983164751676271
 40
0.7475672999664091
 40
0.8854036234346642
 40
1.040732215041493
 40
1.197661337444246
 40
1.243973057737614
 40
1.243973057737614
 40
1.243973057737614
 40
1.243973057737614
 10
5.580769717272147
 20
26.18861664944085
 30
0.0
 10
5.613502616848285
 20
26.1875961553427
 30
0.0
 10
5.684603990133519
 20
26.18537947021098
 30
0.0
 10
5.781919321100519
 20
26.1258482190374
 30
0.0
 10
5.832561030472812
 20
26.0011917111029
 30
0.0
 10
5.820388894698232
 20
25.86817511516085
 30
0.0
 10
5.765298612935113
 20
25.7349784962169
 30
0.0
 10
5.67725421213275
 20
25.62965962372396
 30
0.0
 10
5.546675458142082
 20
25.55725132865025
 30
0.0
 10
5.401760839408257
 20
25.51345804330555
 30
0.0
 10
5.281860155064943
 20
25.50729075876586
 30
0.0
 10
5.21427201805345
 20
25.50302975767877
 30
0.0
 10
5.198870965514487
 20
25.50205881951548
 30
0.0
 11
5.580769717272147
 21
26.18861664944085
 31
0.0
 11
5.67764963039707
 21
26.17761333726443
 31
0.0
 11
5.774085473546278
 21
26.11627608549865
 31
0.0
 11
5.81791994770495
 21
26.01988918322082
 31
0.0
 11
5.809153052873227
 21
25.85340249542595
 31
0.0
 11
5.765318578714499
 21
25.74825305939683
 31
0.0
 11
5.668882735565347
 21
25.63434108961652
 31
0.0
 11
5.55010046754208
 21
25.56441523695462
 31
0.0
 11
5.401316428353624
 21
25.51980267086244
 31
0.0
 11
5.245093480229996
 21
25.50493189624708
 31
0.0
 11
5.198870965514487
 21
25.50205881951548
 31
0.0
1001
AcDbBlockRepETag
1070
     1
1071
      595
1005
6421
  0
SPLINE
  5
6422
102
{ACAD_REACTORS
330
6458
330
6459
102
}
330
641A
100
AcDbEntity
  8
APL Border
 62
     8
100
AcDbSpline
210
0.0
220
0.0
230
1.0
 70
     8
 71
     3
 72
    25
 73
    21
 74
     0
 42
0.0000000001
 43
0.0000000001
 40
0.0289432764998855
 40
0.0289432764998855
 40
0.0289432764998855
 40
0.0289432764998855
 40
0.7134165119202287
 40
1.411731005087882
 40
2.041147618059464
 40
3.036171077105474
 40
3.957911241576911
 40
4.83592253147705
 40
5.676684481733094
 40
6.271141751551381
 40
6.974058201941041
 40
7.825808739104269
 40
8.5265481701528
 40
9.125733480364379
 40
9.891766509798275
 40
10.6767880070383
 40
11.66821110410527
 40
12.42950909475574
 40
13.09855121203093
 40
13.70132750762923
 40
13.70132750762923
 40
13.70132750762923
 40
13.70132750762923
 10
13.141643811855
 20
43.40554077871886
 30
0.0
 10
12.91988216430481
 20
43.459256627421
 30
0.0
 10
12.47168844867874
 20
43.5669624691983
 30
0.0
 10
11.80600758681791
 20
43.66484839798013
 30
0.0
 10
11.02988777388427
 20
43.6649333207477
 30
0.0
 10
10.1361516270939
 20
43.55263717791944
 30
0.0
 10
9.306733533720876
 20
43.19741938393827
 30
0.0
 10
8.599762003673276
 20
42.45478219212527
 30
0.0
 10
8.236440109363229
 20
41.77191325718488
 30
0.0
 10
8.073464067873601
 20
41.07996170309042
 30
0.0
 10
8.007035995439764
 20
40.3638923215899
 30
0.0
 10
7.98103501985804
 20
39.60493317412716
 30
0.0
 10
8.107710769833204
 20
38.92055182387923
 30
0.0
 10
8.442098079777224
 20
38.21445924826959
 30
0.0
 10
9.036296716232907
 20
37.66873436641545
 30
0.0
 10
9.909689132144507
 20
37.42421376773082
 30
0.0
 10
10.75775873959412
 20
37.35554609345542
 30
0.0
 10
11.56487972715851
 20
37.38454149767491
 30
0.0
 10
12.23983007222788
 20
37.44815687239099
 30
0.0
 10
12.66077873273661
 20
37.49837935861893
 30
0.0
 10
12.86026661033734
 20
37.52234731786496
 30
0.0
1001
AcDbBlockRepETag
1070
     1
1071
      596
1005
6422
  0
SPLINE
  5
6423
102
{ACAD_REACTORS
330
6458
330
6459
102
}
330
641A
100
AcDbEntity
  8
APL Border
 62
     8
100
AcDbSpline
210
0.0
220
0.0
230
1.0
 70
     8
 71
     3
 72
    19
 73
    15
 74
     0
 42
0.0000000001
 43
0.0000000001
 40
1.529304964685563
 40
1.529304964685563
 40
1.529304964685563
 40
1.529304965389289
 40
2.032016958536417
 40
2.556791262130423
 40
2.964493033520332
 40
3.465275586793771
 40
4.160836826595903
 40
4.71800698457321
 40
5.304510401169525
 40
5.733359288828643
 40
6.099728421126306
 40
6.422629926283571
 40
6.722447272622213
 40
6.957123473755099
 40
6.957123473755099
 40
6.957123473755099
 40
6.957123473755099
 10
11.64369617822672
 20
42.03297741382947
 30
0.0
 10
11.47589856643677
 20
42.04574754506741
 30
0.0
 10
11.13485165915975
 20
42.01473204050012
 30
0.0
 10
10.65553906793815
 20
41.91613810684326
 30
0.0
 10
10.23036575101369
 20
41.67654609785123
 30
0.0
 10
9.854221329784113
 20
41.27113304911427
 30
0.0
 10
9.717431528044755
 20
40.66388266631498
 30
0.0
 10
9.641062203095145
 20
40.05806431643046
 30
0.0
 10
9.716968816830743
 20
39.48770259248511
 30
0.0
 10
10.00680770225198
 20
39.09661486818469
 30
0.0
 10
10.3797311442331
 20
38.98358798973799
 30
0.0
 10
10.70216182646531
 20
38.92661434152812
 30
0.0
 10
10.99026249243499
 20
38.92783484269152
 30
0.0
 10
11.24302802126629
 20
38.95177692242413
 30
0.0
 10
11.33360452536307
 20
38.96406177273881
 30
0.0
1001
AcDbBlockRepETag
1070
     1
1071
      597
1005
6423
  0
LWPOLYLINE
  5
6424
102
{ACAD_REACTORS
330
6455
102
}
330
641A
100
AcDbEntity
  8
APL Border
 62
     8
100
AcDbPolyline
 90
       12
 70
     1
 43
0.0
 10
14.13627631352983
 20
43.61979184908029
 10
18.38986203356285
 20
43.61979184908029
 10
18.21321428445671
 20
41.9726305274507
 10
15.84058876400877
 20
41.9726305274507
 10
15.75340373709809
 20
41.15966911198297
 10
17.71732334684157
 20
41.15966911198297
 10
17.56969663746741
 20
39.57967635988449
 10
15.58395939694927
 20
39.57967635988449
 10
15.5052467299167
 20
38.84571591422678
 10
17.87787225036464
 20
38.84571591422678
 10
17.72077299807506
 20
37.38083558975206
 10
13.46718727804204
 20
37.38083558975206
1001
AcDbBlockRepETag
1070
     1
1071
      599
1005
6424
  0
LWPOLYLINE
  5
6425
102
{ACAD_REACTORS
330
6458
330
6459
102
}
330
641A
100
AcDbEntity
  8
APL Border
 62
     8
100
AcDbPolyline
 90
        2
 70
     0
 43
0.0
 10
13.141643811855
 20
43.40554077871887
 10
13.141643811855
 20
41.76981947766621
1001
AcDbBlockRepETag
1070
     1
1071
      600
1005
6425
  0
LWPOLYLINE
  5
6426
102
{ACAD_REACTORS
330
6458
330
6459
102
}
330
641A
100
AcDbEntity
  8
APL Border
 62
     8
100
AcDbPolyline
 90
        6
 70
     0
 43
0.0
 10
11.33358781659778
 20
38.96390597096916
 10
11.39962533929804
 20
39.57967635988449
 10
10.96889270630695
 20
39.57967635988449
 10
11.12639005748273
 20
41.04826877857415
 10
13.23839963312048
 20
41.04826877857415
 10
12.86026661033734
 20
37.52234731786496
1001
AcDbBlockRepETag
1070
     1
1071
      601
1005
6426
  0
LWPOLYLINE
  5
6427
102
{ACAD_REACTORS
330
6452
102
}
330
641A
100
AcDbEntity
  8
APL Border
 62
     8
100
AcDbPolyline
 90
        8
 70
     1
 43
0.0
 10
3.105743226874893
 20
43.61998313276061
 10
2.929095477768755
 20
41.97282181113101
 10
1.466301152475638
 20
41.97282181113101
 10
0.9741138955425029
 20
37.38339558452146
 10
-0.867968570535281
 20
37.38102687343238
 10
-0.3755272841536326
 20
41.97282181113101
 10
-1.891167362926863
 20
41.97282181113101
 10
-1.725754035154749
 20
43.61998313276061
1001
AcDbBlockRepETag
1070
     1
1071
      604
1005
6427
  0
LWPOLYLINE
  5
6428
102
{ACAD_REACTORS
330
6451
102
}
330
641A
100
AcDbEntity
  8
APL Border
 62
     8
100
AcDbPolyline
 90
       10
 70
     1
 43
0.0
 10
-4.228474015381578
 20
40.14164596649268
 10
-3.855464624526035
 20
43.61979184908029
 10
-2.181839912298443
 20
43.61979184908029
 10
-2.850928947786229
 20
37.38083558975206
 10
-5.032306754624556
 20
37.38083558975206
 10
-6.131920885667284
 20
40.6246666384634
 10
-6.479801476178323
 20
37.38083558975206
 10
-8.135186891292875
 20
37.38083558975206
 10
-7.466097855805088
 20
43.61979184908029
 10
-5.40751765387219
 20
43.61979184908029
1001
AcDbBlockRepETag
1070
     1
1071
      605
1005
6428
  0
LWPOLYLINE
  5
6429
102
{ACAD_REACTORS
330
6458
102
}
330
641A
100
AcDbEntity
  8
APL Border
  6
Continuous
 62
     8
100
AcDbPolyline
 90
        8
 70
     1
 43
0.0
 10
-8.449177928734428
 20
37.38083558975206
 10
-9.847253547555595
 20
43.61979184908029
 10
-12.02298966350147
 20
43.61979184908029
 10
-14.82679588919473
 20
37.38083558975206
 10
-12.95240022532295
 20
37.38083558975206
 10
-12.35252874042399
 20
38.71565392391761
 10
-10.64639685172309
 20
38.71565392391761
 10
-10.34727999772013
 20
37.38083558975206
1001
AcDbBlockRepETag
1070
     1
1071
      606
1005
6429
  0
LWPOLYLINE
  5
642A
330
641A
100
AcDbEntity
  8
APL Border
  6
Continuous
 62
     8
100
AcDbPolyline
 90
        7
 70
     1
 43
0.0
 10
-18.99614352503855
 20
43.61979184908029
 10
-17.7875751270476
 20
37.38083558975206
 10
-15.77022638070494
 20
37.38083558975206
 10
-12.96642015501169
 20
43.61979184908029
 10
-14.7664201550117
 20
43.61979184908029
 10
-16.54136876356097
 20
39.42215966960597
 10
-17.19614352503853
 20
43.61979184908029
1001
AcDbBlockRepETag
1070
     1
1071
      608
1005
642A
  0
LWPOLYLINE
  5
642B
102
{ACAD_REACTORS
330
645B
102
}
330
641A
100
AcDbEntity
  8
APL Border
  6
Continuous
 62
     8
100
AcDbPolyline
 90
        4
 70
     1
 43
0.0
 10
16.33779773177886
 20
35.29789574745093
 10
-16.33747952551644
 20
35.29789574745093
 10
-12.98884796421711
 20
29.49789574745094
 10
12.98916617047902
 20
29.49789574745094
1001
AcDbBlockRepETag
1070
     1
1071
      609
1005
642B
  0
LWPOLYLINE
  5
642C
102
{ACAD_REACTORS
330
644E
102
}
330
641A
100
AcDbEntity
  8
APL Border
 62
     8
100
AcDbPolyline
 90
        9
 70
     1
 43
0.0
 10
7.455500104221528
 20
25.00957443408062
 10
6.800478684667126
 20
26.87985997284487
 10
7.607536311785906
 20
26.87985997284487
 10
7.963471882016364
 20
25.86355557445326
 10
8.538893993587493
 20
26.87985997284487
 10
9.414203966725494
 20
26.87985997284487
 10
8.232331174709315
 20
25.00957443408062
 10
8.120338037129926
 20
23.87985997284487
 10
7.343506966642138
 20
23.87985997284487
1001
AcDbBlockRepETag
1070
     1
1071
      611
1005
642C
  0
LWPOLYLINE
  5
642D
102
{ACAD_REACTORS
330
644E
102
}
330
641A
100
AcDbEntity
  8
APL Border
 62
     8
100
AcDbPolyline
 90
        4
 70
     1
 43
0.0
 10
12.20974330707307
 20
28.14789574745094
 10
8.850698786449385
 20
22.32985997284487
 10
-8.850380580188158
 20
22.32985997284487
 10
-12.20942510081127
 20
28.14789574745094
1001
AcDbBlockRepETag
1070
     1
1071
      613
1005
642D
  0
LWPOLYLINE
  5
642E
102
{ACAD_REACTORS
330
644E
102
}
330
641A
100
AcDbEntity
  8
APL Border
 62
     8
100
AcDbPolyline
 90
        6
 70
     0
 43
0.0
 10
5.580769717272147
 20
26.18861664944085
 10
5.137953374950967
 20
26.18861664944085
 10
4.909077041159065
 20
23.87985997284487
 10
4.132245970671277
 20
23.87985997284487
 10
4.429648034880159
 20
26.87985997284487
 10
5.793677369303878
 20
26.87985997284487
1001
AcDbBlockRepETag
1070
     1
1071
      614
1005
642E
  0
LWPOLYLINE
  5
642F
102
{ACAD_REACTORS
330
645B
102
}
330
641A
100
AcDbEntity
  8
APL Border
  6
Continuous
 62
     8
100
AcDbPolyline
 90
        4
 70
     1
 43
0.0
 10
1.119422795136273
 20
34.02289574745092
 10
0.3425917246484857
 20
34.02289574745092
 10
0.0451896604396041
 20
31.02289574745093
 10
0.8220207309273916
 20
31.02289574745093
1001
AcDbBlockRepETag
1070
     1
1071
      620
1005
642F
  0
LWPOLYLINE
  5
6430
102
{ACAD_REACTORS
330
644E
102
}
330
641A
100
AcDbEntity
  8
APL Border
 62
     8
100
AcDbPolyline
 90
        4
 70
     0
 43
0.0
 10
6.045077525535504
 20
25.1035057083981
 10
6.339444173005233
 20
23.87985997284487
 10
5.532386545886623
 20
23.87985997284487
 10
5.142141867913778
 20
25.50205881951548
1001
AcDbBlockRepETag
1070
     1
1071
      621
1005
6430
  0
LWPOLYLINE
  5
6431
102
{ACAD_REACTORS
330
644F
102
}
330
641A
100
AcDbEntity
  8
APL Border
 62
     8
100
AcDbPolyline
 90
        4
 70
     1
 43
0.0
 10
0.0001591031300165
 20
7.000275566930961
 10
3.563095122801513
 20
13.17146177711931
 10
-0.9450856774407441
 20
20.97985997284487
 10
-8.070957716782203
 20
20.97985997284487
1001
AcDbBlockRepETag
1070
     1
1071
      622
1005
6431
  0
LWPOLYLINE
  5
6432
102
{ACAD_REACTORS
330
6453
102
}
330
641A
100
AcDbEntity
  8
APL Border
 62
     8
100
AcDbPolyline
 90
        3
 70
     1
 43
0.0
 10
0.8484489512626112
 20
20.97985997284487
 10
4.459862437153191
 20
14.72470832814346
 10
8.071275923043373
 20
20.97985997284487
1001
AcDbBlockRepETag
1070
     1
1071
      623
1005
6432
  0
LWPOLYLINE
  5
6433
102
{ACAD_REACTORS
330
644E
102
}
330
641A
100
AcDbEntity
  8
APL Border
 62
     8
100
AcDbPolyline
 90
        4
 70
     0
 43
0.0
 10
-7.465264214605014
 20
24.80065518845331
 10
-7.259144283007998
 20
26.87985997284487
 10
-6.48231321252021
 20
26.87985997284487
 10
-6.679452083611295
 20
24.89125032803118
1001
AcDbBlockRepETag
1070
     1
1071
      626
1005
6433
  0
LWPOLYLINE
  5
6434
102
{ACAD_REACTORS
330
644E
102
}
330
641A
100
AcDbEntity
  8
APL Border
 62
     8
100
AcDbPolyline
 90
        4
 70
     0
 43
0.0
 10
-7.845603808282817
 20
23.89886637823479
 10
-8.399876560405061
 20
23.98304774476413
 10
-8.399876560405061
 20
24.64579492155148
 10
-7.81511791605564
 20
24.56632682606838
1001
AcDbBlockRepETag
1070
     1
1071
      627
1005
6434
  0
LWPOLYLINE
  5
6435
102
{ACAD_REACTORS
330
645B
102
}
330
641A
100
AcDbEntity
  8
APL Border
  6
Continuous
 62
     8
100
AcDbPolyline
 90
        6
 70
     1
 43
0.0
 10
-7.549934049473819
 20
34.02289574745092
 10
-8.326765119961606
 20
34.02289574745092
 10
-8.624167184170488
 20
31.02289574745093
 10
-6.770246795158442
 20
31.02289574745093
 10
-6.700109532938455
 20
31.73039516316516
 10
-7.777198851462713
 20
31.73039516316516
1001
AcDbBlockRepETag
1070
     1
1071
      628
1005
6435
  0
LWPOLYLINE
  5
6436
102
{ACAD_REACTORS
330
645B
102
}
330
641A
100
AcDbEntity
  8
APL Border
  6
Continuous
 62
     8
100
AcDbPolyline
 90
        3
 70
     1
 43
0.0
 10
-10.14693849009504
 20
33.12550842600547
 10
-10.00044093617224
 20
32.51653621849665
 10
-10.45444607654239
 20
32.51653621849665
1001
AcDbBlockRepETag
1070
     1
1071
      629
1005
6436
  0
LWPOLYLINE
  5
6437
102
{ACAD_REACTORS
330
645B
102
}
330
641A
100
AcDbEntity
  8
APL Border
  6
Continuous
 62
     8
100
AcDbPolyline
 90
        8
 70
     1
 43
0.0
 10
-8.834065309397374
 20
31.02289574745093
 10
-9.555761072109191
 20
34.02289574745092
 10
-10.50084997043805
 20
34.02289574745092
 10
-12.01573480092304
 20
31.02289574745093
 10
-11.20867717380426
 20
31.02289574745093
 10
-10.74455961985978
 20
31.94201027933759
 10
-9.862229957552528
 20
31.94201027933759
 10
-9.641122936515984
 20
31.02289574745093
1001
AcDbBlockRepETag
1070
     1
1071
      630
1005
6437
  0
LWPOLYLINE
  5
6438
102
{ACAD_REACTORS
330
6454
102
}
330
641A
100
AcDbEntity
  8
APL Border
 62
     8
100
AcDbPolyline
 90
        3
 70
     1
 43
0.0
 10
0.0000000003145431
 20
4.000000000000009
 10
23.60256143704041
 20
44.88083558975217
 10
-23.60256142783933
 20
44.88083558975206
1001
AcDbBlockRepETag
1070
     1
1071
      631
1005
6438
  0
LWPOLYLINE
  5
6439
102
{ACAD_REACTORS
330
6454
102
}
330
641A
100
AcDbEntity
  8
APL Border
 62
     8
100
AcDbPolyline
 90
        3
 70
     1
 43
0.0
 10
27.06666305249243
 20
46.88083558975206
 10
-27.06666304266244
 20
46.88083558975206
 10
-0.0000000000000284
 20
0.0000000000000238
1001
AcDbBlockRepETag
1070
     1
1071
      703
1005
6439
  0
LWPOLYLINE
  5
643A
102
{ACAD_REACTORS
330
6458
330
645A
102
}
330
641A
100
AcDbEntity
  8
APL Border
  6
Continuous
 62
     8
100
AcDbPolyline
 90
        8
 70
     1
 43
0.0
 10
7.980630193374565
 20
37.38083558975206
 10
6.582554574553398
 20
43.61979184908029
 10
4.406818458607517
 20
43.61979184908029
 10
1.603012232914267
 20
37.38083558975206
 10
3.477407896786047
 20
37.38083558975206
 10
4.077279381685002
 20
38.71565392391761
 10
5.783411270385897
 20
38.71565392391761
 10
6.082528124388858
 20
37.38083558975206
1001
AcDbBlockRepETag
1070
     1
1071
      760
1005
643A
  0
LWPOLYLINE
  5
643B
102
{ACAD_REACTORS
330
6458
330
645A
102
}
330
641A
100
AcDbEntity
  8
APL Border
  6
Continuous
 62
     8
100
AcDbPolyline
 90
        3
 70
     1
 43
0.0
 10
5.206046831612667
 20
41.69367581194667
 10
5.552066120962537
 20
40.14955389030274
 10
4.512113667606024
 20
40.14955389030274
1001
AcDbBlockRepETag
1070
     1
1071
      761
1005
643B
  0
LWPOLYLINE
  5
643C
102
{ACAD_REACTORS
330
645B
102
}
330
641A
100
AcDbEntity
  8
APL Border
  6
Continuous
 62
     8
100
AcDbPolyline
 90
        4
 70
     1
 43
0.0
 10
5.615530392135354
 20
34.02289574745092
 10
4.838699321647567
 20
34.02289574745092
 10
4.541297257438685
 20
31.02289574745093
 10
5.318128327926473
 20
31.02289574745093
1001
AcDbBlockRepETag
1070
     1
1071
      785
1005
643C
  0
LWPOLYLINE
  5
643D
102
{ACAD_REACTORS
330
645B
102
}
330
641A
100
AcDbEntity
  8
APL Border
 62
     8
100
AcDbPolyline
 90
       13
 70
     0
 43
0.0
 10
-5.535628094882099
 20
32.1870929174454
 10
-5.353790768486447
 20
34.02289574745092
 10
-6.130425112774389
 20
34.0248801943346
 10
-6.333826921263238
 20
31.9730940808461
 42
0.1695250701542156
 10
-6.106840682758871
 20
31.39301551086222
 42
0.0826087127293405
 10
-5.813961912619959
 20
31.13108995311734
 42
0.1017056431856583
 10
-5.510404689928634
 20
31.02488019433462
 10
-4.760057203160528
 20
31.0248801943346
 42
0.1918846087154957
 10
-4.136172756560569
 20
31.41919793838074
 42
0.1021851328841131
 10
-3.889225876952792
 20
31.97309408084612
 10
-3.685824068463887
 20
34.0248801943346
 10
-4.462655138951674
 20
34.0248801943346
 10
-4.65073703420694
 20
32.12763147393075
1001
AcDbBlockRepETag
1070
     1
1071
      866
1005
643D
  0
SPLINE
  5
643E
102
{ACAD_REACTORS
330
645B
102
}
330
641A
100
AcDbEntity
  8
APL Border
 62
     8
100
AcDbSpline
210
0.0
220
0.0
230
1.0
 70
     8
 71
     3
 72
    24
 73
    20
 74
    18
 42
0.0000000001
 43
0.0000000001
 44
0.0000000001
 40
0.0
 40
0.0
 40
0.0
 40
0.0
 40
0.1612668085855933
 40
0.2532303870616441
 40
0.3214574742553387
 40
0.4101806452459026
 40
0.5031588697521256
 40
0.5664511009171887
 40
0.624871878778038
 40
0.6731644290699905
 40
0.7797386132933425
 40
0.9206747739903356
 40
1.025058962643435
 40
1.116412352300609
 40
1.212929457806147
 40
1.276240530363035
 40
1.339961572016457
 40
1.386280507025952
 40
1.435584820291647
 40
1.435584820291647
 40
1.435584820291647
 40
1.435584820291647
 10
-5.535628094882099
 20
32.1870929174454
 30
0.0
 10
-5.53213414748617
 20
32.13312332644234
 30
0.0
 10
-5.526647751003197
 20
32.04837718097616
 30
0.0
 10
-5.488860432547518
 20
31.94683424540268
 30
0.0
 10
-5.447171648840961
 20
31.8753242559261
 30
0.0
 10
-5.395818187958767
 20
31.80737001333622
 30
0.0
 10
-5.320761662408248
 20
31.77062767698265
 30
0.0
 10
-5.254477128417399
 20
31.74466351916423
 30
0.0
 10
-5.200112096792143
 20
31.72723210184819
 30
0.0
 10
-5.128888988289486
 20
31.72198763189771
 30
0.0
 10
-5.030042811850907
 20
31.72786870372271
 30
0.0
 10
-4.915707066470194
 20
31.75812586881066
 30
0.0
 10
-4.815771266393483
 20
31.81405298527761
 30
0.0
 10
-4.754740567305573
 20
31.89193427605802
 30
0.0
 10
-4.714673995441981
 20
31.96546823314959
 30
0.0
 10
-4.683526695854578
 20
32.03313813212702
 30
0.0
 10
-4.662006183068958
 20
32.08703079743258
 30
0.0
 10
-4.651792807669443
 20
32.13930455656534
 30
0.0
 10
-4.647206914869654
 20
32.17083533130903
 30
0.0
 10
-4.644842382192905
 20
32.1870929174454
 30
0.0
 11
-5.535628094882099
 21
32.1870929174454
 31
0.0
 11
-5.515298846223288
 21
32.02711258990369
 31
0.0
 11
-5.483433995220536
 21
31.94084596230824
 31
0.0
 11
-5.44947766231354
 21
31.88166908437061
 31
0.0
 11
-5.392321718875223
 21
31.8138089399536
 31
0.0
 11
-5.311535231450477
 21
31.76778184269665
 31
0.0
 11
-5.252609732475718
 21
31.74468006578604
 31
0.0
 11
-5.196420818688864
 21
31.72868652792477
 31
0.0
 11
-5.148347479287053
 21
31.72409039341204
 31
0.0
 11
-5.041949649235618
 21
31.73021889267523
 31
0.0
 11
-4.906104524581394
 21
31.76775692005663
 31
0.0
 11
-4.816802280674096
 21
31.82180475140893
 31
0.0
 11
-4.758009512288197
 21
31.89172507883507
 31
0.0
 11
-4.710553499371997
 21
31.97576958188711
 31
0.0
 11
-4.684063009443377
 21
32.03327215445256
 31
0.0
 11
-4.662061522518769
 21
32.09307437617135
 31
0.0
 11
-4.652346246099511
 21
32.13836297456555
 31
0.0
 11
-4.644842382192905
 21
32.1870929174454
 31
0.0
1001
AcDbBlockRepETag
1070
     1
1071
      827
1005
643E
  0
LWPOLYLINE
  5
643F
102
{ACAD_REACTORS
330
645B
102
}
330
641A
100
AcDbEntity
  8
APL Border
 62
     8
100
AcDbPolyline
 90
       13
 70
     0
 43
0.0
 10
6.787553510813182
 20
32.18510847056172
 10
6.969390837208834
 20
34.02091130056725
 10
6.192756492920892
 20
34.02289574745092
 10
5.989354684432043
 20
31.97110963396243
 42
0.1695250701542156
 10
6.21634092293641
 20
31.39103106397854
 42
0.0826087127293405
 10
6.509219693075323
 20
31.12910550623367
 42
0.1017056431856583
 10
6.812776915766647
 20
31.02289574745094
 10
7.563124402534754
 20
31.02289574745093
 42
0.1918846087154957
 10
8.187008849134713
 20
31.41721349149707
 42
0.1021851328841131
 10
8.433955728742489
 20
31.97110963396244
 10
8.637357537231395
 20
34.02289574745092
 10
7.860526466743607
 20
34.02289574745092
 10
7.672444571488341
 20
32.12564702704707
1001
AcDbBlockRepETag
1070
     1
1071
      837
1005
643F
  0
LWPOLYLINE
  5
6440
102
{ACAD_REACTORS
330
645B
102
}
330
641A
100
AcDbEntity
  8
APL Border
  6
Continuous
 62
     8
100
AcDbPolyline
 90
       13
 70
     1
 43
0.0
 10
-1.295012624591635
 20
34.02807364104484
 10
-0.1975458970834154
 20
34.0280551402308
 10
-0.4949479612922972
 20
31.0280551402308
 10
-1.115886909891884
 20
31.0280551402308
 10
-0.9222174129992311
 20
32.98166797820307
 10
-1.611942464131544
 20
31.0280551402308
 10
-2.344230471214956
 20
31.0280551402308
 10
-2.63016252924163
 20
32.98166797820306
 10
-2.823832026134283
 20
31.0280551402308
 10
-3.44477097473387
 20
31.0280551402308
 10
-3.147349004861581
 20
34.02825593571061
 10
-2.047349004861558
 20
34.02825593571061
 10
-1.8272453185659
 20
32.52441131541936
1001
AcDbBlockRepETag
1070
     1
1071
      867
1005
6440
  0
LWPOLYLINE
  5
6441
102
{ACAD_REACTORS
330
645B
102
}
330
641A
100
AcDbEntity
  8
APL Border
  6
Continuous
 62
     8
100
AcDbPolyline
 90
       10
 70
     1
 43
0.0
 10
1.724974710806094
 20
34.02289574745092
 10
1.427552740933805
 20
31.02269495197112
 10
2.048491689533392
 20
31.02269495197112
 10
2.231899581960561
 20
32.87279534971117
 10
3.051434648859952
 20
31.02269495197112
 10
3.902826396438257
 20
31.02269495197112
 10
4.200228460647139
 20
34.02269495197112
 10
3.580266230192904
 20
34.02269495197112
 10
3.395920304875374
 20
32.17298478610545
 10
2.576558098165463
 20
34.02269495197112
1001
AcDbBlockRepETag
1070
     1
1071
      616
1005
6441
  0
LWPOLYLINE
  5
6442
102
{ACAD_REACTORS
330
645B
102
}
330
641A
100
AcDbEntity
  8
APL Border
  6
Continuous
 62
     8
100
AcDbPolyline
 90
       13
 70
     1
 43
0.0
 10
11.01183437133605
 20
34.02271345278515
 10
12.10930109884427
 20
34.02269495197111
 10
11.81189903463539
 20
31.02269495197111
 10
11.1909600860358
 20
31.02269495197111
 10
11.38462958292845
 20
32.97630778994339
 10
10.69490453179614
 20
31.02269495197111
 10
9.962616524712728
 20
31.02269495197111
 10
9.676684466686054
 20
32.97630778994338
 10
9.483014969793401
 20
31.02269495197111
 10
8.862076021193814
 20
31.02269495197111
 10
9.159497991066103
 20
34.02289574745092
 10
10.25949799106612
 20
34.02289574745092
 10
10.47960167736178
 20
32.51905112715967
1001
AcDbBlockRepETag
1070
     1
1071
      847
1005
6442
  0
SPLINE
  5
6443
102
{ACAD_REACTORS
330
645B
102
}
330
641A
100
AcDbEntity
  8
APL Border
 62
     8
100
AcDbSpline
210
0.0
220
0.0
230
1.0
 70
     8
 71
     3
 72
    24
 73
    20
 74
    18
 42
0.0000000001
 43
0.0000000001
 44
0.0000000001
 40
0.0
 40
0.0
 40
0.0
 40
0.0
 40
0.1612668085856004
 40
0.2532303870616512
 40
0.3214574742553458
 40
0.4101806452458731
 40
0.5031588697521455
 40
0.5664511009172086
 40
0.6248718787780579
 40
0.6731644290699537
 40
0.7797386132933625
 40
0.9206747739903555
 40
1.025058962643406
 40
1.116412352300617
 40
1.212929457806155
 40
1.276240530363043
 40
1.339961572016455
 40
1.386280507025956
 40
1.435584820291643
 40
1.435584820291643
 40
1.435584820291643
 40
1.435584820291643
 10
6.787553510813182
 20
32.18510847056172
 30
0.0
 10
6.791047458209138
 20
32.13113887955867
 30
0.0
 10
6.796533854692151
 20
32.04639273409249
 30
0.0
 10
6.834321173147815
 20
31.94484979851901
 30
0.0
 10
6.876009956854381
 20
31.87333980904243
 30
0.0
 10
6.927363417736518
 20
31.80538556645249
 30
0.0
 10
7.002419943287081
 20
31.76864323009899
 30
0.0
 10
7.068704477277941
 20
31.74267907228054
 30
0.0
 10
7.123069508903178
 20
31.72524765496453
 30
0.0
 10
7.194292617405833
 20
31.72000318501402
 30
0.0
 10
7.293138793844411
 20
31.72588425683905
 30
0.0
 10
7.407474539225143
 20
31.75614142192696
 30
0.0
 10
7.507410339301799
 20
31.81206853839397
 30
0.0
 10
7.568441038389779
 20
31.88994982917432
 30
0.0
 10
7.608507610253345
 20
31.96348378626594
 30
0.0
 10
7.639654909840773
 20
32.03115368524333
 30
0.0
 10
7.661175422626328
 20
32.08504635054892
 30
0.0
 10
7.671388798025919
 20
32.13732010968165
 30
0.0
 10
7.675974690825655
 20
32.16885088442535
 30
0.0
 10
7.678339223502376
 20
32.18510847056172
 30
0.0
 11
6.787553510813182
 21
32.18510847056172
 31
0.0
 11
6.80788275947205
 21
32.02512814302002
 31
0.0
 11
6.839747610474802
 21
31.93886151542456
 31
0.0
 11
6.873703943381798
 21
31.87968463748693
 31
0.0
 11
6.930859886820059
 21
31.81182449306993
 31
0.0
 11
7.011646374244861
 21
31.76579739581298
 31
0.0
 11
7.07057187321962
 21
31.74269561890237
 31
0.0
 11
7.126760787006475
 21
31.72670208104109
 31
0.0
 11
7.174834126408228
 21
31.72210594652836
 31
0.0
 11
7.28123195645972
 21
31.72823444579155
 31
0.0
 11
7.417077081113944
 21
31.76577247317295
 31
0.0
 11
7.506379325021185
 21
31.81982030452526
 31
0.0
 11
7.565172093407142
 21
31.88974063195139
 31
0.0
 11
7.612628106323342
 21
31.97378513500343
 31
0.0
 11
7.639118596251961
 21
32.03128770756889
 31
0.0
 11
7.661120083176541
 21
32.09108992928768
 31
0.0
 11
7.670835359595827
 21
32.13637852768188
 31
0.0
 11
7.678339223502376
 21
32.18510847056172
 31
0.0
1001
AcDbBlockRepETag
1070
     1
1071
      848
1005
6443
  0
LWPOLYLINE
  5
6444
102
{ACAD_REACTORS
330
644E
102
}
330
641A
100
AcDbEntity
  8
APL Border
  6
Continuous
 62
     8
100
AcDbPolyline
 90
        4
 70
     1
 43
0.0
 10
-1.87552020613694
 20
26.87985997284487
 10
-2.652351276624727
 20
26.87985997284487
 10
-2.949753340833609
 20
23.87985997284487
 10
-2.172922270345821
 20
23.87985997284487
1001
AcDbBlockRepETag
1070
     1
1071
      851
1005
6444
  0
LWPOLYLINE
  5
6445
102
{ACAD_REACTORS
330
644E
102
}
330
641A
100
AcDbEntity
  8
APL Border
  6
Continuous
 62
     8
100
AcDbPolyline
 90
       10
 70
     1
 43
0.0
 10
-1.269968290467119
 20
26.87985997284487
 10
-1.567390260339408
 20
23.87965917736506
 10
-0.9464513117398212
 20
23.87965917736506
 10
-0.7630434193126519
 20
25.72975957510511
 10
0.0564916475867392
 20
23.87965917736506
 10
0.9078833951650437
 20
23.87965917736506
 10
1.205285459373925
 20
26.87965917736506
 10
0.5853232289196911
 20
26.87965917736506
 10
0.4009773036021614
 20
25.0299490114994
 10
-0.41838490310775
 20
26.87965917736506
1001
AcDbBlockRepETag
1070
     1
1071
      852
1005
6445
  0
LWPOLYLINE
  5
6446
102
{ACAD_REACTORS
330
644E
102
}
330
641A
100
AcDbEntity
  8
APL Border
 62
     8
100
AcDbPolyline
 90
       13
 70
     0
 43
0.0
 10
1.882971499788112
 20
26.87985997284487
 10
3.847979515363789
 20
26.87985997284487
 10
3.788499102522024
 20
26.27985997284487
 10
2.600322157434135
 20
26.27985997284487
 10
2.540562294183217
 20
25.67704105755032
 10
3.542578834455781
 20
25.67704105755032
 10
3.476410183919
 20
25.07985997284487
 10
2.474393643646379
 20
25.07985997284487
 10
2.421932428393546
 20
24.48037956726917
 10
3.610109373481435
 20
24.48037956726917
 10
3.550577451154907
 20
23.87985997284487
 10
1.58556943557923
 20
23.87985997284487
 10
1.882971499788112
 20
26.87985997284487
1001
AcDbBlockRepETag
1070
     1
1071
      864
1005
6446
  0
LINE
  5
6447
102
{ACAD_REACTORS
330
644E
102
}
330
641A
100
AcDbEntity
  8
APL Border
 62
     8
100
AcDbLine
 10
5.198870965514487
 20
25.50205881951548
 30
0.0
 11
5.142141867913778
 21
25.50205881951548
 31
0.0
1001
AcDbBlockRepETag
1070
     1
1071
      865
1005
6447
  0
SPLINE
  5
6448
102
{ACAD_REACTORS
330
644E
102
}
330
641A
100
AcDbEntity
  8
APL Border
 62
     8
100
AcDbSpline
210
0.0
220
0.0
230
1.0
 70
     8
 71
     3
 72
    25
 73
    21
 74
     0
 42
0.0000000001
 43
0.0000000001
 40
0.0
 40
0.0
 40
0.0
 40
0.0
 40
0.3463130802699203
 40
0.6043703055549736
 40
0.8524756959462802
 40
1.099102870182333
 40
1.318598063912852
 40
1.521064627602771
 40
1.694788988362445
 40
1.912615757663666
 40
2.142780600046976
 40
2.483378398179008
 40
2.873129106540456
 40
3.09179617846886
 40
3.322387155839943
 40
3.509181810940893
 40
3.69147909649244
 40
3.927844502409028
 40
4.143063657146388
 40
4.406491840702669
 40
4.406491840702669
 40
4.406491840702669
 40
4.406491840702669
 10
-5.114032196843737
 20
23.8798599728377
 30
0.0
 10
-5.228982970363915
 20
23.89503832123493
 30
0.0
 10
-5.429589987754155
 20
23.92152690506636
 30
0.0
 10
-5.693675021857103
 20
24.03567408988205
 30
0.0
 10
-5.892941488864977
 20
24.19306688135278
 30
0.0
 10
-6.036314150572081
 20
24.38541826526996
 30
0.0
 10
-6.137502326421099
 20
24.58575647986304
 30
0.0
 10
-6.184089306330008
 20
24.77995730666768
 30
0.0
 10
-6.209030826709039
 20
24.97670983726675
 30
0.0
 10
-6.206060891535827
 20
25.18442176502657
 30
0.0
 10
-6.186178297010457
 20
25.44676950423098
 30
0.0
 10
-6.128537036390639
 20
25.76177491648128
 30
0.0
 10
-6.024273636684796
 20
26.06592307272473
 30
0.0
 10
-5.858617591962229
 20
26.29271170654482
 30
0.0
 10
-5.725334295882049
 20
26.45803039682342
 30
0.0
 10
-5.575727893531166
 20
26.59168695454355
 30
0.0
 10
-5.409633372236157
 20
26.70740493083671
 30
0.0
 10
-5.217340570729675
 20
26.79721770551459
 30
0.0
 10
-4.988026372094168
 20
26.86731869684436
 30
0.0
 10
-4.849424991220388
 20
26.87777876054341
 30
0.0
 10
-4.7645039250757
 20
26.87985997283595
 30
0.0
1001
AcDbBlockRepETag
1070
     1
1071
      875
1005
6448
  0
ELLIPSE
  5
6449
102
{ACAD_REACTORS
330
644D
330
644E
102
}
330
641A
100
AcDbEntity
  8
APL Border
 62
     8
100
AcDbEllipse
 10
-4.728528852722632
 20
25.3825150979867
 30
0.0
 11
-0.2732326585474372
 21
-0.8283682112856686
 31
0.0
210
0.0
220
0.0
230
-1.0
 40
0.767138872147242
 41
0.0
 42
6.283185307179586
1001
AcDbBlockRepETag
1070
     1
1071
      876
1005
6449
  0
SPLINE
  5
644A
102
{ACAD_REACTORS
330
644E
102
}
330
641A
100
AcDbEntity
  8
APL Border
 62
     8
100
AcDbSpline
210
0.0
220
0.0
230
1.0
 70
     8
 71
     3
 72
    26
 73
    22
 74
     0
 42
0.0000000001
 43
0.0000000001
 40
4.60284491300692
 40
4.60284491300692
 40
4.60284491300692
 40
4.60284491300692
 40
4.695921259854779
 40
4.963507654731998
 40
5.182979392648435
 40
5.397234555269768
 40
5.619529682274728
 40
5.869260387557257
 40
6.093250787730498
 40
6.263427758207029
 40
6.582064557968705
 40
6.800458868269094
 40
7.179401531729983
 40
7.575889850719137
 40
7.787844664578662
 40
8.01909420716162
 40
8.205730502580088
 40
8.387453763945252
 40
8.621856230932909
 40
8.833419194479944
 40
8.988019761194074
 40
8.988019761194074
 40
8.988019761194074
 40
8.988019761194074
 10
-4.486699891621668
 20
26.8798599728377
 30
0.0
 10
-4.440001835107608
 20
26.87954742494388
 30
0.0
 10
-4.335540249228728
 20
26.87475925711838
 30
0.0
 10
-4.164200665084621
 20
26.85307202884131
 30
0.0
 10
-3.96932086400659
 20
26.77880589501945
 30
0.0
 10
-3.766465201232762
 20
26.6658847706859
 30
0.0
 10
-3.60114437794968
 20
26.50570040783856
 30
0.0
 10
-3.471205788265336
 20
26.31143584383913
 30
0.0
 10
-3.381388817883674
 20
26.11392472080339
 30
0.0
 10
-3.317144182132551
 20
25.88552622199355
 30
0.0
 10
-3.281793375658168
 20
25.65006475492956
 30
0.0
 10
-3.30137826591374
 20
25.34538614523087
 30
0.0
 10
-3.327064239225308
 20
25.0112478652753
 30
0.0
 10
-3.471288581215731
 20
24.71021445059323
 30
0.0
 10
-3.60460091530777
 20
24.4641890220082
 30
0.0
 10
-3.737092402415015
 20
24.29954990084814
 30
0.0
 10
-3.882945983371143
 20
24.16225529150343
 30
0.0
 10
-4.046861838463826
 20
24.04508050911121
 30
0.0
 10
-4.233796525969012
 20
23.94884265716423
 30
0.0
 10
-4.427631511903911
 20
23.89220734010023
 30
0.0
 10
-4.549580407823555
 20
23.882511578974
 30
0.0
 10
-4.601116794093542
 20
23.87985997285202
 30
0.0
1001
AcDbBlockRepETag
1070
     1
1071
      877
1005
644A
  0
LWPOLYLINE
  5
644B
102
{ACAD_REACTORS
330
644E
102
}
330
641A
100
AcDbEntity
  8
APL Border
 62
     8
100
AcDbPolyline
 90
        2
 70
     0
 43
0.0
 10
-4.764503925211641
 20
26.8798599728377
 10
-4.486699891621924
 20
26.8798599728377
1001
AcDbBlockRepETag
1070
     1
1071
      878
1005
644B
  0
LWPOLYLINE
  5
644C
102
{ACAD_REACTORS
330
644E
102
}
330
641A
100
AcDbEntity
  8
APL Border
 62
     8
100
AcDbPolyline
 90
        2
 70
     0
 43
0.0
 10
-5.114032196843737
 20
23.8798599728377
 10
-4.601116794093513
 20
23.87985997285202
1001
AcDbBlockRepETag
1070
     1
1071
      879
1005
644C
  0
HATCH
  5
644D
330
641A
100
AcDbEntity
  8
APL Border
 62
     8
100
AcDbHatch
 10
0.0
 20
0.0
 30
0.0
210
0.0
220
0.0
230
1.0
  2
SOLID
 70
     1
 71
     1
 91
        1
 92
        5
 93
        1
 72
     3
 10
-4.728528852722632
 20
25.3825150979867
 11
-0.2732326585474372
 21
-0.8283682112856686
 40
0.767138872147242
 50
0.0
 51
360.0
 73
     0
 97
        1
330
6449
 75
     0
 76
     1
 47
0.0172809346375552
 98
        1
 10
-4.520972790815363
 20
25.15086651129009
1001
ACAD
1010
0.0
1020
0.0
1030
0.0
1001
AcDbBlockRepETag
1070
     1
1071
      880
1005
644D
  0
HATCH
  5
644E
330
641A
100
AcDbEntity
  8
APL Border
 62
     8
100
AcDbHatch
 10
0.0
 20
0.0
 30
0.0
210
0.0
220
0.0
230
1.0
  2
SOLID
 70
     1
 71
     1
 91
        9
 92
        7
 72
     0
 73
     1
 93
        4
 10
-12.20942510081127
 20
28.14789574745095
 10
-8.85038058018816
 20
22.32985997284487
 10
8.850698786449385
 20
22.32985997284487
 10
12.20974330707306
 20
28.14789574745094
 97
        1
330
642D
 92
       20
 93
        4
 72
     4
 94
        3
 73
     0
 74
     0
 95
       25
 96
       21
 40
0.0
 40
0.0
 40
0.0
 40
0.0
 40
0.3463130802699203
 40
0.6043703055549736
 40
0.8524756959462802
 40
1.099102870182333
 40
1.318598063912852
 40
1.521064627602771
 40
1.694788988362445
 40
1.912615757663666
 40
2.142780600046976
 40
2.483378398179008
 40
2.873129106540456
 40
3.09179617846886
 40
3.322387155839943
 40
3.509181810940893
 40
3.69147909649244
 40
3.927844502409028
 40
4.143063657146388
 40
4.406491840702669
 40
4.406491840702669
 40
4.406491840702669
 40
4.406491840702669
 10
-5.114032196843737
 20
23.8798599728377
 10
-5.228982970363915
 20
23.89503832123493
 10
-5.429589987754155
 20
23.92152690506636
 10
-5.693675021857103
 20
24.03567408988205
 10
-5.892941488864977
 20
24.19306688135278
 10
-6.036314150572081
 20
24.38541826526996
 10
-6.137502326421099
 20
24.58575647986304
 10
-6.184089306330008
 20
24.77995730666768
 10
-6.209030826709039
 20
24.97670983726675
 10
-6.206060891535827
 20
25.18442176502657
 10
-6.186178297010457
 20
25.44676950423098
 10
-6.128537036390639
 20
25.76177491648128
 10
-6.024273636684796
 20
26.06592307272473
 10
-5.858617591962229
 20
26.29271170654482
 10
-5.725334295882049
 20
26.45803039682342
 10
-5.575727893531166
 20
26.59168695454355
 10
-5.409633372236157
 20
26.70740493083671
 10
-5.217340570729675
 20
26.79721770551459
 10
-4.988026372094168
 20
26.86731869684436
 10
-4.849424991220388
 20
26.87777876054341
 10
-4.7645039250757
 20
26.87985997283595
 72
     1
 10
-4.764503925020689
 20
26.87985997283771
 11
-4.486699891621347
 21
26.8798599728377
 72
     4
 94
        3
 73
     0
 74
     0
 95
       26
 96
       22
 40
4.60284491300692
 40
4.60284491300692
 40
4.60284491300692
 40
4.60284491300692
 40
4.695921259854779
 40
4.963507654731998
 40
5.182979392648435
 40
5.397234555269768
 40
5.619529682274728
 40
5.869260387557257
 40
6.093250787730498
 40
6.263427758207029
 40
6.582064557968705
 40
6.800458868269094
 40
7.179401531729983
 40
7.575889850719137
 40
7.787844664578662
 40
8.01909420716162
 40
8.205730502580088
 40
8.387453763945252
 40
8.621856230932909
 40
8.833419194479944
 40
8.988019761194074
 40
8.988019761194074
 40
8.988019761194074
 40
8.988019761194074
 10
-4.486699891621668
 20
26.8798599728377
 10
-4.440001835107608
 20
26.87954742494388
 10
-4.335540249228728
 20
26.87475925711838
 10
-4.164200665084621
 20
26.85307202884131
 10
-3.96932086400659
 20
26.77880589501945
 10
-3.766465201232762
 20
26.6658847706859
 10
-3.60114437794968
 20
26.50570040783856
 10
-3.471205788265336
 20
26.31143584383913
 10
-3.381388817883674
 20
26.11392472080339
 10
-3.317144182132551
 20
25.88552622199355
 10
-3.281793375658168
 20
25.65006475492956
 10
-3.30137826591374
 20
25.34538614523087
 10
-3.327064239225308
 20
25.0112478652753
 10
-3.471288581215731
 20
24.71021445059323
 10
-3.60460091530777
 20
24.4641890220082
 10
-3.737092402415015
 20
24.29954990084814
 10
-3.882945983371143
 20
24.16225529150343
 10
-4.046861838463826
 20
24.04508050911121
 10
-4.233796525969012
 20
23.94884265716423
 10
-4.427631511903911
 20
23.89220734010023
 10
-4.549580407823555
 20
23.882511578974
 10
-4.601116794093542
 20
23.87985997285202
 72
     1
 10
-4.601116794093525
 20
23.87985997285202
 11
-5.114032196843729
 21
23.8798599728377
 97
        4
330
6448
330
644B
330
644A
330
644C
 92
        4
 93
        1
 72
     3
 10
-4.728528852722632
 20
25.3825150979867
 11
-0.2732326585474372
 21
-0.8283682112856686
 40
0.767138872147242
 50
0.0
 51
360.0
 73
     0
 97
        1
330
6449
 92
       20
 93
        8
 72
     1
 10
-6.482313212520211
 20
26.87985997284487
 11
-6.679452083611267
 21
24.89125032803125
 72
     4
 94
        3
 73
     0
 74
     0
 95
       16
 96
       12
 40
0.0
 40
0.0
 40
0.0
 40
0.0
 40
0.1978277931646383
 40
0.361463118001824
 40
0.5540499897785108
 40
0.7796220130725381
 40
0.979106605438038
 40
1.222151590302332
 40
1.40748727220097
 40
1.607226525619232
 40
1.815049166761618
 40
1.815049166761618
 40
1.815049166761618
 40
1.815049166761618
 10
-6.679452083611295
 20
24.89125032803118
 10
-6.685371732996685
 20
24.82559351525052
 10
-6.696187882184318
 20
24.70562798418881
 10
-6.721757155054632
 20
24.52229576436942
 10
-6.768469983285655
 20
24.33480615160982
 10
-6.860719723390843
 20
24.14153771241002
 10
-7.051789745146265
 20
24.01851519430106
 10
-7.233921808197266
 20
23.91285203345821
 10
-7.443451931375136
 20
23.87675735439051
 10
-7.641222718647384
 20
23.88093312949101
 10
-7.776581895343355
 20
23.89281010788354
 10
-7.845603808282817
 20
23.89886637823479
 72
     1
 10
-7.845603808282787
 20
23.89886637823479
 11
-8.399876560405061
 21
23.98304774476413
 72
     1
 10
-8.399876560405061
 20
23.98304774476413
 11
-8.399876560405061
 21
24.64579492155148
 72
     1
 10
-8.399876560405061
 20
24.64579492155148
 11
-7.815117916056302
 21
24.56632682606845
 72
     4
 94
        3
 73
     0
 74
     0
 95
       11
 96
        7
 40
0.0
 40
0.0
 40
0.0
 40
0.0
 40
0.2042619346961744
 40
0.3074129668363174
 40
0.4146012126853764
 40
0.4826852714337078
 40
0.4826852714337078
 40
0.4826852714337078
 40
0.4826852714337078
 10
-7.815117916056323
 20
24.56632682606847
 10
-7.743266182308218
 20
24.55714977626708
 10
-7.635129760920136
 20
24.54333837224583
 10
-7.524447891091284
 20
24.63752792323729
 10
-7.477352395049535
 20
24.71998790389099
 10
-7.468646137215245
 20
24.77808681972154
 10
-7.465264214605014
 20
24.80065518845331
 72
     1
 10
-7.465264214605014
 20
24.80065518845333
 11
-7.259144283007996
 21
26.87985997284487
 72
     1
 10
-7.259144283007996
 20
26.87985997284487
 11
-6.482313212520211
 21
26.87985997284487
 97
        4
330
6433
330
641E
330
6434
330
641F
 92
       22
 72
     0
 73
     1
 93
        4
 10
-2.652351276624725
 20
26.87985997284486
 10
-1.87552020613694
 20
26.87985997284486
 10
-2.172922270345821
 20
23.87985997284487
 10
-2.949753340833609
 20
23.87985997284487
 97
        1
330
6444
 92
       22
 72
     0
 73
     1
 93
       10
 10
-1.269968290467114
 20
26.87985997284487
 10
-0.4183849031077484
 20
26.87965917736506
 10
0.4009773036021615
 20
25.0299490114994
 10
0.5853232289196909
 20
26.87965917736506
 10
1.205285459373925
 20
26.87965917736506
 10
0.9078833951650439
 20
23.87965917736506
 10
0.056491647586738
 20
23.87965917736506
 10
-0.7630434193126518
 20
25.72975957510511
 10
-0.946451311739821
 20
23.87965917736506
 10
-1.567390260339408
 20
23.87965917736506
 97
        1
330
6445
 92
       22
 72
     0
 73
     1
 93
       12
 10
1.882971499788112
 20
26.87985997284486
 10
3.847979515363789
 20
26.87985997284486
 10
3.788499102522024
 20
26.27985997284486
 10
2.600322157434135
 20
26.27985997284487
 10
2.540562294183218
 20
25.67704105755032
 10
3.542578834455781
 20
25.67704105755032
 10
3.476410183919
 20
25.07985997284487
 10
2.47439364364638
 20
25.07985997284487
 10
2.421932428393546
 20
24.48037956726917
 10
3.610109373481436
 20
24.48037956726917
 10
3.550577451154907
 20
23.87985997284487
 10
1.585569435579231
 20
23.87985997284487
 97
        1
330
6446
 92
       20
 93
       11
 72
     1
 10
4.429648034880159
 20
26.87985997284486
 11
5.780015564168562
 21
26.87985997284487
 72
     4
 94
        3
 73
     0
 74
     0
 95
       20
 96
       16
 40
0.0
 40
0.0
 40
0.0
 40
0.0
 40
0.1774120264923274
 40
0.3258093286713144
 40
0.4834060703451958
 40
0.6311237014699663
 40
0.811161917566129
 40
0.9605198197290178
 40
1.289502400757101
 40
1.459697744220917
 40
1.604754171475458
 40
1.794797311213428
 40
2.030760379210173
 40
2.301729078160567
 40
2.393267743077617
 40
2.393267743077617
 40
2.393267743077617
 40
2.393267743077617
 10
5.780015564168593
 20
26.87985997284487
 10
5.839056126904296
 20
26.87337384475878
 10
5.947481505327601
 20
26.86146235781404
 10
6.098807931884806
 20
26.80185114122353
 10
6.227972759762906
 20
26.72168911843352
 10
6.347510602881385
 20
26.61140356622764
 10
6.442310149474394
 20
26.48207375794227
 10
6.536759215535255
 20
26.28338234239492
 10
6.578465181725675
 20
26.06469589684353
 10
6.553150099427256
 20
25.85079503063701
 10
6.524121382020268
 20
25.68499989147718
 10
6.464236525716046
 20
25.50199988960434
 10
6.327150620479812
 20
25.31187331731421
 10
6.179477266233362
 20
25.17172660684537
 10
6.072729148555964
 20
25.11631253421805
 10
6.045077525535504
 20
25.10350570839811
 72
     1
 10
6.045077525535502
 20
25.1035057083981
 11
6.339444173005232
 21
23.87985997284487
 72
     1
 10
6.339444173005232
 20
23.87985997284487
 11
5.532386545886621
 21
23.87985997284487
 72
     1
 10
5.532386545886621
 20
23.87985997284487
 11
5.142141867913776
 21
25.50205881951548
 72
     1
 10
5.142141867913776
 20
25.50205881951548
 11
5.19887096551445
 21
25.50205881951548
 72
     4
 94
        3
 73
     0
 74
     0
 95
       17
 96
       13
 40
0.0
 40
0.0
 40
0.0
 40
0.0
 40
0.0463117202933683
 40
0.2032408426961212
 40
0.3585694343029505
 40
0.4964057577712057
 40
0.6456565825699876
 40
0.7595770154256244
 40
0.9262943680254526
 40
1.032180609131101
 40
1.14647028625934
 40
1.243973057737614
 40
1.243973057737614
 40
1.243973057737614
 40
1.243973057737614
 10
5.198870965514487
 20
25.50205881951548
 10
5.214272018053407
 20
25.50302975767877
 10
5.28186015506489
 20
25.50729075876586
 10
5.40176083940824
 20
25.51345804330556
 10
5.546675458142118
 20
25.55725132865025
 10
5.67725421213268
 20
25.62965962372397
 10
5.765298612935083
 20
25.7349784962169
 10
5.820388894698254
 20
25.86817511516085
 10
5.832561030472788
 20
26.0011917111029
 10
5.781919321100474
 20
26.1258482190374
 10
5.684603990133524
 20
26.18537947021099
 10
5.613502616848251
 20
26.1875961553427
 10
5.580769717272147
 20
26.18861664944085
 72
     1
 10
5.580769717272125
 20
26.18861664944085
 11
5.137953374950967
 21
26.18861664944085
 72
     1
 10
5.137953374950967
 20
26.18861664944085
 11
4.909077041159065
 21
23.87985997284487
 72
     1
 10
4.909077041159065
 20
23.87985997284487
 11
4.132245970671278
 21
23.87985997284487
 72
     1
 10
4.132245970671278
 20
23.87985997284487
 11
4.429648034880159
 21
26.87985997284486
 97
        5
330
642E
330
6420
330
6430
330
6447
330
6421
 92
       22
 72
     0
 73
     1
 93
        9
 10
6.800478684667179
 20
26.87985997284487
 10
7.607536311785904
 20
26.87985997284487
 10
7.963471882016363
 20
25.86355557445326
 10
8.538893993587493
 20
26.87985997284487
 10
9.414203966725493
 20
26.87985997284487
 10
8.232331174709315
 20
25.00957443408062
 10
8.120338037129924
 20
23.87985997284486
 10
7.343506966642139
 20
23.87985997284486
 10
7.455500104221528
 20
25.00957443408062
 97
        1
330
642C
 75
     0
 76
     1
 47
0.0276408434878157
 98
        9
 10
-5.110068937762804
 20
27.30829258594788
 10
-5.110068937762804
 20
27.30829258594788
 10
-5.110068937762804
 20
27.30829258594788
 10
-5.110068937762804
 20
27.30829258594788
 10
-5.110068937762804
 20
27.30829258594788
 10
-5.110068937762804
 20
27.30829258594788
 10
-5.110068937762804
 20
27.30829258594788
 10
-5.110068937762804
 20
27.30829258594788
 10
-5.110068937762804
 20
27.30829258594788
1001
ACAD
1010
0.0
1020
0.0
1030
0.0
1001
AcDbBlockRepETag
1070
     1
1071
      881
1005
644E
  0
HATCH
  5
644F
330
641A
100
AcDbEntity
  8
APL Border
 62
     8
100
AcDbHatch
 10
0.0
 20
0.0
 30
0.0
210
0.0
220
0.0
230
1.0
  2
SOLID
 70
     1
 71
     1
 91
        1
 92
        7
 72
     0
 73
     1
 93
        4
 10
0.0001591031300169
 20
7.000275566930961
 10
3.563095122801513
 20
13.17146177711931
 10
-0.9450856774407473
 20
20.97985997284487
 10
-8.070957716782199
 20
20.97985997284487
 97
        1
330
6431
 75
     0
 76
     1
 47
0.0707162833847576
 98
        3
 10
-2.675438732228172
 20
16.47794635472378
 10
6.312751868664321
 20
42.28939048605213
 10
-9.894301834166896
 20
39.60217176706084
1001
ACAD
1010
0.0
1020
0.0
1030
0.0
1001
AcDbBlockRepETag
1070
     1
1071
      883
1005
644F
  0
HATCH
  5
6450
330
641A
100
AcDbEntity
  8
APL Border
 62
     8
100
AcDbHatch
 10
0.0
 20
0.0
 30
0.0
210
0.0
220
0.0
230
1.0
  2
SOLID
 70
     1
 71
     0
 91
        1
 92
        7
 72
     0
 73
     1
 93
        7
 10
-12.96642015501169
 20
43.61979184908029
 10
-14.7664201550117
 20
43.61979184908029
 10
-16.54136876356097
 20
39.42215966960598
 10
-17.19614352503853
 20
43.61979184908029
 10
-18.99614352503854
 20
43.61979184908029
 10
-17.7875751270476
 20
37.38083558975206
 10
-15.77022638070493
 20
37.38083558975206
 97
        0
 75
     0
 76
     1
 47
0.0707162833847576
 98
        3
 10
6.249678794057444
 20
42.28939048605213
 10
-9.957374908773772
 20
39.60217176706084
 10
-16.39773218462096
 20
38.68285940442952
1001
ACAD
1010
0.0
1020
0.0
1030
0.0
1001
AcDbBlockRepETag
1070
     1
1071
      884
1005
6450
  0
HATCH
  5
6451
330
641A
100
AcDbEntity
  8
APL Border
 62
     8
100
AcDbHatch
 10
0.0
 20
0.0
 30
0.0
210
0.0
220
0.0
230
1.0
  2
SOLID
 70
     1
 71
     1
 91
        1
 92
        7
 72
     0
 73
     1
 93
       10
 10
-2.850928947786229
 20
37.38083558975206
 10
-2.181839912298442
 20
43.6197918490803
 10
-3.855464624526036
 20
43.61979184908029
 10
-4.228474015381578
 20
40.14164596649268
 10
-5.40751765387219
 20
43.61979184908029
 10
-7.466097855805088
 20
43.61979184908029
 10
-8.135186891292875
 20
37.38083558975206
 10
-6.479801476178323
 20
37.38083558975206
 10
-6.131920885667285
 20
40.6246666384634
 10
-5.032306754624555
 20
37.38083558975206
 97
        1
330
6428
 75
     0
 76
     1
 47
0.0707162833847576
 98
        3
 10
6.312751868664321
 20
42.28939048605213
 10
-5.364819983741796
 20
40.80434854252457
 10
-9.894301834166896
 20
39.60217176706084
1001
ACAD
1010
0.0
1020
0.0
1030
0.0
1001
AcDbBlockRepETag
1070
     1
1071
      886
1005
6451
  0
HATCH
  5
6452
330
641A
100
AcDbEntity
  8
APL Border
 62
     8
100
AcDbHatch
 10
0.0
 20
0.0
 30
0.0
210
0.0
220
0.0
230
1.0
  2
SOLID
 70
     1
 71
     1
 91
        1
 92
        7
 72
     0
 73
     1
 93
        8
 10
2.929095477768755
 20
41.97282181113101
 10
3.105743226874893
 20
43.6199831327606
 10
-1.725754035154748
 20
43.61998313276061
 10
-1.891167362926863
 20
41.97282181113101
 10
-0.3755272841536335
 20
41.97282181113101
 10
-0.8679685705352806
 20
37.38102687343239
 10
0.9741138955425025
 20
37.38339558452146
 10
1.466301152475638
 20
41.97282181113101
 97
        1
330
6427
 75
     0
 76
     1
 47
0.0707162833847576
 98
        3
 10
6.461508006627583
 20
42.28958176973246
 10
0.3042431306128051
 20
42.36029787294049
 10
-9.745545696203633
 20
39.60236305074117
1001
ACAD
1010
0.0
1020
0.0
1030
0.0
1001
AcDbBlockRepETag
1070
     1
1071
      887
1005
6452
  0
HATCH
  5
6453
330
641A
100
AcDbEntity
  8
APL Border
 62
     8
100
AcDbHatch
 10
0.0
 20
0.0
 30
0.0
210
0.0
220
0.0
230
1.0
  2
SOLID
 70
     1
 71
     1
 91
        1
 92
        7
 72
     0
 73
     1
 93
        3
 10
8.071275923043375
 20
20.97985997284487
 10
0.8484489512626126
 20
20.97985997284487
 10
4.459862437153192
 20
14.72470832814346
 97
        1
330
6432
 75
     0
 76
     1
 47
0.0707162833847576
 98
        3
 10
4.897289869501349
 20
18.17513736310713
 10
6.312751868664321
 20
42.28939048605213
 10
-9.894301834166896
 20
39.60217176706084
1001
ACAD
1010
0.0
1020
0.0
1030
0.0
1001
AcDbBlockRepETag
1070
     1
1071
      891
1005
6453
  0
HATCH
  5
6454
330
641A
100
AcDbEntity
  8
APL Border
 62
     8
100
AcDbHatch
 10
0.0
 20
0.0
 30
0.0
210
0.0
220
0.0
230
1.0
  2
SOLID
 70
     1
 71
     1
 91
        2
 92
       16
 93
        3
 72
     1
 10
0.0000000003145431
 20
4.000000000000009
 11
23.60256143704041
 21
44.88083558975217
 72
     1
 10
23.60256143704041
 20
44.88083558975217
 11
-23.60256142783933
 21
44.88083558975206
 72
     1
 10
-23.60256142783933
 20
44.88083558975206
 11
0.0000000003145431
 21
4.000000000000007
 97
        1
330
6438
 92
        1
 93
        3
 72
     1
 10
27.06666305249243
 20
46.88083558975206
 11
-27.06666304266244
 21
46.88083558975206
 72
     1
 10
-27.06666304266244
 20
46.88083558975206
 11
-0.0000000000000284
 21
0.0000000000000213
 72
     1
 10
-0.0000000000000284
 20
0.0000000000000238
 11
27.06666305249243
 21
46.88083558975206
 97
        1
330
6439
 75
     0
 76
     1
 98
        1
 10
-236.5641112216887
 20
1.231020082252661
1001
ACAD
1010
0.0
1020
0.0
1030
0.0
1001
AcDbBlockRepETag
1070
     1
1071
      892
1005
6454
  0
HATCH
  5
6455
330
641A
100
AcDbEntity
  8
APL Border
 62
     8
100
AcDbHatch
 10
0.0
 20
0.0
 30
0.0
210
0.0
220
0.0
230
1.0
  2
SOLID
 70
     1
 71
     1
 91
        1
 92
        7
 72
     0
 73
     1
 93
       12
 10
15.84058876400877
 20
41.9726305274507
 10
18.21321428445671
 20
41.9726305274507
 10
18.38986203356285
 20
43.61979184908029
 10
14.13627631352983
 20
43.61979184908029
 10
13.46718727804204
 20
37.38083558975206
 10
17.72077299807506
 20
37.38083558975207
 10
17.87787225036464
 20
38.84571591422678
 10
15.50524672991671
 20
38.84571591422678
 10
15.58395939694927
 20
39.5796763598845
 10
17.56969663746741
 20
39.57967635988449
 10
17.71732334684157
 20
41.15966911198297
 10
15.75340373709809
 20
41.15966911198297
 97
        1
330
6424
 75
     0
 76
     1
 47
0.0265225354961204
 98
        1
 10
15.74642260871314
 20
42.54140343148856
1001
ACAD
1010
0.0
1020
0.0
1030
0.0
1001
AcDbBlockRepETag
1070
     1
1071
      895
1005
6455
  0
SPLINE
  5
6456
102
{ACAD_REACTORS
330
6458
330
6459
102
}
330
641A
100
AcDbEntity
  8
APL Border
 62
     8
100
AcDbSpline
210
0.0
220
0.0
230
1.0
 70
     8
 71
     3
 72
    12
 73
     8
 74
     0
 42
0.0000000001
 43
0.0000000001
 40
0.0
 40
0.0
 40
0.0
 40
0.0
 40
0.6153828260925694
 40
0.6153828260925694
 40
1.184895113366773
 40
1.184895113366773
 40
1.406874102447421
 40
1.406874102447421
 40
1.406874102447421
 40
1.406874102447421
 10
13.141643811855
 20
41.76981947766621
 30
0.0
 10
12.65093549588437
 20
41.90084145687704
 30
0.0
 10
12.40139116615246
 20
41.94113120867605
 30
0.0
 10
12.08548087756223
 20
41.99544455363318
 30
0.0
 10
11.92864742837253
 20
42.01465504085827
 30
0.0
 10
11.75444086026641
 20
42.02973960983341
 30
0.0
 10
11.75444086026641
 20
42.02973960983341
 30
0.0
 10
11.64369617822672
 20
42.03297741382947
 30
0.0
1001
AcDbBlockRepETag
1070
     1
1071
      898
1005
6456
  0
LWPOLYLINE
  5
6457
102
{ACAD_REACTORS
330
6458
102
}
330
641A
100
AcDbEntity
  8
APL Border
  6
Continuous
 62
     8
100
AcDbPolyline
 90
        3
 70
     1
 43
0.0
 10
-11.22376129049633
 20
41.69367581194667
 10
-10.87774200114645
 20
40.14955389030274
 10
-11.91769445450297
 20
40.14955389030274
1001
AcDbBlockRepETag
1070
     1
1071
      902
1005
6457
  0
HATCH
  5
6458
330
641A
100
AcDbEntity
  8
APL Border
 62
     8
100
AcDbHatch
 10
0.0
 20
0.0
 30
0.0
210
0.0
220
0.0
230
1.0
  2
SOLID
 70
     1
 71
     1
 91
        2
 92
        7
 72
     0
 73
     1
 93
        8
 10
-9.847253547555595
 20
43.61979184908029
 10
-12.02298966350147
 20
43.61979184908029
 10
-14.82679588919472
 20
37.38083558975206
 10
-12.95240022532295
 20
37.38083558975206
 10
-12.352528740424
 20
38.71565392391761
 10
-10.64639685172309
 20
38.71565392391761
 10
-10.34727999772013
 20
37.38083558975206
 10
-8.449177928734428
 20
37.38083558975207
 97
        1
330
6429
 92
       22
 72
     0
 73
     1
 93
        3
 10
-11.22376129049633
 20
41.69367581194668
 10
-10.87774200114645
 20
40.14955389030274
 10
-11.91769445450297
 20
40.14955389030274
 97
        1
330
6457
 75
     0
 76
     1
 47
0.0464409783890934
 98
        3
 10
-10.7866676671747
 20
42.18285929720354
 10
-10.7866676671747
 20
42.18285929720354
 10
4.318789658947025
 20
41.34692151769582
1001
ACAD
1010
0.0
1020
0.0
1030
0.0
1001
AcDbBlockRepETag
1070
     1
1071
      903
1005
6458
  0
HATCH
  5
6459
330
641A
100
AcDbEntity
  8
APL Border
 62
     8
100
AcDbHatch
 10
0.0
 20
0.0
 30
0.0
210
0.0
220
0.0
230
1.0
  2
SOLID
 70
     1
 71
     1
 91
        1
 92
        5
 93
        9
 72
     4
 94
        3
 73
     0
 74
     0
 95
       25
 96
       21
 40
0.0289432764998855
 40
0.0289432764998855
 40
0.0289432764998855
 40
0.0289432764998855
 40
0.7134165119202287
 40
1.411731005087882
 40
2.041147618059464
 40
3.036171077105474
 40
3.957911241576911
 40
4.83592253147705
 40
5.676684481733094
 40
6.271141751551381
 40
6.974058201941041
 40
7.825808739104269
 40
8.5265481701528
 40
9.125733480364379
 40
9.891766509798275
 40
10.6767880070383
 40
11.66821110410527
 40
12.42950909475574
 40
13.09855121203093
 40
13.70132750762923
 40
13.70132750762923
 40
13.70132750762923
 40
13.70132750762923
 10
13.141643811855
 20
43.40554077871886
 10
12.91988216430481
 20
43.459256627421
 10
12.47168844867874
 20
43.5669624691983
 10
11.80600758681791
 20
43.66484839798013
 10
11.02988777388427
 20
43.6649333207477
 10
10.1361516270939
 20
43.55263717791944
 10
9.306733533720876
 20
43.19741938393827
 10
8.599762003673276
 20
42.45478219212527
 10
8.236440109363229
 20
41.77191325718488
 10
8.073464067873601
 20
41.07996170309042
 10
8.007035995439764
 20
40.3638923215899
 10
7.98103501985804
 20
39.60493317412716
 10
8.107710769833204
 20
38.92055182387923
 10
8.442098079777224
 20
38.21445924826959
 10
9.036296716232907
 20
37.66873436641545
 10
9.909689132144507
 20
37.42421376773082
 10
10.75775873959412
 20
37.35554609345542
 10
11.56487972715851
 20
37.38454149767491
 10
12.23983007222788
 20
37.44815687239099
 10
12.66077873273661
 20
37.49837935861893
 10
12.86026661033734
 20
37.52234731786496
 72
     1
 10
12.86026661033734
 20
37.52234731786496
 11
13.23839963312048
 21
41.04826877857415
 72
     1
 10
13.23839963312048
 20
41.04826877857415
 11
11.12639005748273
 21
41.04826877857415
 72
     1
 10
11.12639005748273
 20
41.04826877857415
 11
10.96889270630695
 21
39.57967635988449
 72
     1
 10
10.96889270630695
 20
39.57967635988449
 11
11.39962533929804
 21
39.57967635988449
 72
     1
 10
11.39962533929804
 20
39.57967635988449
 11
11.33360452536307
 21
38.96406177273883
 72
     4
 94
        3
 73
     0
 74
     0
 95
       19
 96
       15
 40
1.529304964685562
 40
1.529304964685562
 40
1.529304964685562
 40
1.529304964685562
 40
1.763981165818448
 40
2.06379851215709
 40
2.386700017314354
 40
2.753069149612017
 40
3.181918037271135
 40
3.768421453867451
 40
4.325591611844758
 40
5.021152851646889
 40
5.521935404920329
 40
5.929637176310238
 40
6.454411479904243
 40
6.957123473051371
 40
6.957123473755098
 40
6.957123473755098
 40
6.957123473755098
 10
11.33360452536307
 20
38.96406177273881
 10
11.24302802126629
 20
38.95177692242413
 10
10.99026249243499
 20
38.92783484269152
 10
10.70216182646531
 20
38.92661434152812
 10
10.3797311442331
 20
38.98358798973799
 10
10.00680770225198
 20
39.09661486818469
 10
9.716968816830743
 20
39.48770259248511
 10
9.641062203095145
 20
40.05806431643046
 10
9.717431528044755
 20
40.66388266631498
 10
9.854221329784113
 20
41.27113304911427
 10
10.23036575101369
 20
41.67654609785123
 10
10.65553906793815
 20
41.91613810684326
 10
11.13485165915975
 20
42.01473204050012
 10
11.47589856643677
 20
42.04574754506741
 10
11.64369617822672
 20
42.03297741382947
 72
     4
 94
        3
 73
     0
 74
     0
 95
       12
 96
        8
 40
0.0
 40
0.0
 40
0.0
 40
0.0
 40
0.2219789890806476
 40
0.2219789890806476
 40
0.7914912763548521
 40
0.7914912763548521
 40
1.406874102447421
 40
1.406874102447421
 40
1.406874102447421
 40
1.406874102447421
 10
11.64369617822672
 20
42.03297741382947
 10
11.75444086026641
 20
42.02973960983341
 10
11.75444086026641
 20
42.02973960983341
 10
11.92864742837253
 20
42.01465504085827
 10
12.08548087756223
 20
41.99544455363318
 10
12.40139116615246
 20
41.94113120867605
 10
12.65093549588437
 20
41.90084145687704
 10
13.141643811855
 20
41.76981947766621
 72
     1
 10
13.14164381185501
 20
41.76981947766621
 11
13.141643811855
 21
43.40554077871886
 97
        5
330
6422
330
6426
330
6423
330
6456
330
6425
 75
     0
 76
     1
 47
0.0464409783890934
 98
        3
 10
-10.7866676671747
 20
42.18285929720354
 10
4.318789658947025
 20
41.34692151769582
 10
10.26801654887663
 20
42.50794595375691
1001
ACAD
1010
0.0
1020
0.0
1030
0.0
1001
AcDbBlockRepETag
1070
     1
1071
      904
1005
6459
  0
HATCH
  5
645A
330
641A
100
AcDbEntity
  8
APL Border
 62
     8
100
AcDbHatch
 10
0.0
 20
0.0
 30
0.0
210
0.0
220
0.0
230
1.0
  2
SOLID
 70
     1
 71
     1
 91
        2
 92
        7
 72
     0
 73
     1
 93
        8
 10
6.582554574553399
 20
43.61979184908029
 10
4.406818458607519
 20
43.6197918490803
 10
1.603012232914266
 20
37.38083558975206
 10
3.477407896786048
 20
37.38083558975206
 10
4.077279381684999
 20
38.71565392391761
 10
5.783411270385895
 20
38.71565392391761
 10
6.082528124388858
 20
37.38083558975206
 10
7.980630193374566
 20
37.38083558975207
 97
        1
330
643A
 92
       22
 72
     0
 73
     1
 93
        3
 10
5.206046831612668
 20
41.69367581194667
 10
5.552066120962536
 20
40.14955389030274
 10
4.512113667606024
 20
40.14955389030274
 97
        1
330
643B
 75
     0
 76
     1
 47
0.0464409783890934
 98
        3
 10
-10.7866676671747
 20
42.18285929720354
 10
4.318789658947025
 20
41.34692151769582
 10
4.318789658947025
 20
41.34692151769582
1001
ACAD
1010
0.0
1020
0.0
1030
0.0
1001
AcDbBlockRepETag
1070
     1
1071
      905
1005
645A
  0
HATCH
  5
645B
330
641A
100
AcDbEntity
  8
APL Border
 62
     8
100
AcDbHatch
 10
0.0
 20
0.0
 30
0.0
210
0.0
220
0.0
230
1.0
  2
SOLID
 70
     1
 71
     1
 91
       11
 92
        7
 72
     0
 73
     1
 93
        4
 10
-16.33747952551644
 20
35.29789574745092
 10
-12.98884796421712
 20
29.49789574745095
 10
12.98916617047902
 20
29.49789574745094
 10
16.33779773177886
 20
35.29789574745093
 97
        1
330
642B
 92
       22
 72
     0
 73
     1
 93
        8
 10
-10.50084997043805
 20
34.02289574745092
 10
-9.555761072109191
 20
34.02289574745092
 10
-8.834065309397374
 20
31.02289574745093
 10
-9.641122936515984
 20
31.02289574745093
 10
-9.86222995755253
 20
31.94201027933759
 10
-10.74455961985978
 20
31.94201027933758
 10
-11.20867717380426
 20
31.02289574745093
 10
-12.01573480092304
 20
31.02289574745093
 97
        1
330
6437
 92
        6
 72
     0
 73
     1
 93
        3
 10
-10.14693849009504
 20
33.12550842600547
 10
-10.00044093617224
 20
32.51653621849666
 10
-10.45444607654239
 20
32.51653621849665
 97
        1
330
6436
 92
       22
 72
     0
 73
     1
 93
        6
 10
-8.326765119961606
 20
34.02289574745092
 10
-7.549934049473819
 20
34.02289574745092
 10
-7.777198851462713
 20
31.73039516316516
 10
-6.700109532938454
 20
31.73039516316516
 10
-6.770246795158442
 20
31.02289574745093
 10
-8.624167184170486
 20
31.02289574745092
 97
        1
330
6435
 92
       20
 93
       13
 72
     1
 10
-6.13042511277439
 20
34.02488019433461
 11
-5.353790768486449
 21
34.02289574745093
 72
     1
 10
-5.353790768486449
 20
34.02289574745093
 11
-5.5356280948821
 21
32.18709291744541
 72
     4
 94
        3
 73
     0
 74
     0
 95
       24
 96
       20
 40
0.0
 40
0.0
 40
0.0
 40
0.0
 40
0.1612668085855933
 40
0.2532303870616441
 40
0.3214574742553387
 40
0.4101806452459026
 40
0.5031588697521256
 40
0.5664511009171887
 40
0.624871878778038
 40
0.6731644290699905
 40
0.7797386132933425
 40
0.9206747739903356
 40
1.025058962643435
 40
1.116412352300609
 40
1.212929457806147
 40
1.276240530363035
 40
1.339961572016457
 40
1.386280507025952
 40
1.435584820291647
 40
1.435584820291647
 40
1.435584820291647
 40
1.435584820291647
 10
-5.535628094882099
 20
32.1870929174454
 10
-5.53213414748617
 20
32.13312332644234
 10
-5.526647751003197
 20
32.04837718097616
 10
-5.488860432547518
 20
31.94683424540268
 10
-5.447171648840961
 20
31.8753242559261
 10
-5.395818187958767
 20
31.80737001333622
 10
-5.320761662408248
 20
31.77062767698265
 10
-5.254477128417399
 20
31.74466351916423
 10
-5.200112096792143
 20
31.72723210184819
 10
-5.128888988289486
 20
31.72198763189771
 10
-5.030042811850907
 20
31.72786870372271
 10
-4.915707066470194
 20
31.75812586881066
 10
-4.815771266393483
 20
31.81405298527762
 10
-4.754740567305573
 20
31.89193427605802
 10
-4.71467399544198
 20
31.96546823314959
 10
-4.683526695854578
 20
32.03313813212702
 10
-4.662006183068958
 20
32.08703079743258
 10
-4.651792807669443
 20
32.13930455656534
 10
-4.647206914869654
 20
32.17083533130903
 10
-4.644842382192905
 20
32.1870929174454
 72
     1
 10
-4.644842382192908
 20
32.18709291744538
 11
-4.462655138951674
 21
34.0248801943346
 72
     1
 10
-4.462655138951674
 20
34.0248801943346
 11
-3.685824068463886
 21
34.0248801943346
 72
     1
 10
-3.685824068463886
 20
34.0248801943346
 11
-3.889225876952792
 21
31.97309408084612
 72
     2
 10
-5.35367831607159
 20
32.29400281725688
 40
1.499200908332752
 50
12.35998596222624
 51
34.57361697223234
 73
     0
 72
     2
 10
-4.942942423735221
 20
32.00494866311196
 40
0.9969860617863467
 50
34.29038331790704
 51
79.42991665428312
 73
     0
 72
     1
 10
-4.760057203160528
 20
31.0248801943346
 11
-5.510404689928634
 21
31.02488019433462
 72
     2
 10
-5.403812384664131
 20
31.8164328281441
 40
0.7986973717449786
 50
97.66944495435136
 51
120.898786067779
 73
     0
 72
     2
 10
-5.173141343771899
 20
32.14234761068797
 40
1.197202176515717
 50
122.3618931068037
 51
141.2515245137382
 73
     0
 72
     2
 10
-5.389471681131198
 20
32.00817328375058
 40
0.9450065449727091
 50
139.3862736078239
 51
177.8726579657922
 73
     0
 72
     1
 10
-6.333826921263238
 20
31.9730940808461
 11
-6.13042511277439
 21
34.02488019433461
 97
        2
330
643D
330
643E
 92
       22
 72
     0
 73
     1
 93
       13
 10
-3.14734900486158
 20
34.02825593571061
 10
-2.047349004861559
 20
34.02825593571061
 10
-1.827245318565901
 20
32.52441131541936
 10
-1.295012624591634
 20
34.02807364104484
 10
-0.1975458970834157
 20
34.0280551402308
 10
-0.4949479612922965
 20
31.0280551402308
 10
-1.115886909891883
 20
31.02805514023081
 10
-0.9222174129992312
 20
32.98166797820307
 10
-1.611942464131546
 20
31.02805514023081
 10
-2.344230471214956
 20
31.0280551402308
 10
-2.630162529241629
 20
32.98166797820306
 10
-2.823832026134283
 20
31.02805514023081
 10
-3.444770974733871
 20
31.0280551402308
 97
        1
330
6440
 92
       22
 72
     0
 73
     1
 93
        4
 10
0.342591724648486
 20
34.02289574745092
 10
1.119422795136273
 20
34.02289574745092
 10
0.822020730927392
 20
31.02289574745093
 10
0.045189660439604
 20
31.02289574745093
 97
        1
330
642F
 92
       22
 72
     0
 73
     1
 93
       10
 10
1.724974710806094
 20
34.02289574745093
 10
2.57655809816546
 20
34.02269495197112
 10
3.395920304875375
 20
32.17298478610545
 10
3.580266230192904
 20
34.02269495197112
 10
4.200228460647139
 20
34.02269495197112
 10
3.902826396438257
 20
31.02269495197112
 10
3.051434648859951
 20
31.02269495197112
 10
2.231899581960561
 20
32.87279534971117
 10
2.048491689533392
 20
31.02269495197111
 10
1.427552740933804
 20
31.02269495197111
 97
        1
330
6441
 92
       22
 72
     0
 73
     1
 93
        4
 10
4.838699321647566
 20
34.02289574745092
 10
5.615530392135354
 20
34.02289574745092
 10
5.318128327926473
 20
31.02289574745093
 10
4.541297257438685
 20
31.02289574745093
 97
        1
330
643C
 92
       20
 93
       13
 72
     1
 10
6.192756492920892
 20
34.02289574745092
 11
6.969390837208833
 21
34.02091130056725
 72
     1
 10
6.969390837208833
 20
34.02091130056725
 11
6.787553510813181
 21
32.18510847056173
 72
     4
 94
        3
 73
     0
 74
     0
 95
       24
 96
       20
 40
0.0
 40
0.0
 40
0.0
 40
0.0
 40
0.1612668085856004
 40
0.2532303870616512
 40
0.3214574742553458
 40
0.4101806452458731
 40
0.5031588697521455
 40
0.5664511009172086
 40
0.6248718787780579
 40
0.6731644290699537
 40
0.7797386132933625
 40
0.9206747739903555
 40
1.025058962643406
 40
1.116412352300617
 40
1.212929457806155
 40
1.276240530363043
 40
1.339961572016455
 40
1.386280507025956
 40
1.435584820291643
 40
1.435584820291643
 40
1.435584820291643
 40
1.435584820291643
 10
6.787553510813182
 20
32.18510847056172
 10
6.791047458209138
 20
32.13113887955868
 10
6.796533854692151
 20
32.04639273409249
 10
6.834321173147815
 20
31.944849798519
 10
6.876009956854381
 20
31.87333980904244
 10
6.927363417736517
 20
31.80538556645249
 10
7.002419943287081
 20
31.76864323009899
 10
7.068704477277941
 20
31.74267907228055
 10
7.123069508903178
 20
31.72524765496452
 10
7.194292617405833
 20
31.72000318501404
 10
7.293138793844411
 20
31.72588425683904
 10
7.407474539225143
 20
31.75614142192696
 10
7.507410339301799
 20
31.81206853839398
 10
7.568441038389779
 20
31.88994982917431
 10
7.608507610253345
 20
31.96348378626593
 10
7.639654909840775
 20
32.03115368524333
 10
7.661175422626328
 20
32.08504635054892
 10
7.671388798025919
 20
32.13732010968165
 10
7.675974690825655
 20
32.16885088442535
 10
7.678339223502376
 20
32.18510847056172
 72
     1
 10
7.678339223502373
 20
32.1851084705617
 11
7.860526466743608
 21
34.02289574745092
 72
     1
 10
7.860526466743608
 20
34.02289574745092
 11
8.637357537231395
 21
34.02289574745092
 72
     1
 10
8.637357537231395
 20
34.02289574745092
 11
8.433955728742489
 21
31.97110963396244
 72
     2
 10
6.969503289623695
 20
32.29201837037321
 40
1.499200908332751
 50
12.35998596222655
 51
34.57361697220028
 73
     0
 72
     2
 10
7.38023918196006
 20
32.00296421622829
 40
0.9969860617863467
 50
34.2903833178587
 51
79.42991665428322
 73
     0
 72
     1
 10
7.563124402534754
 20
31.02289574745093
 11
6.812776915766647
 21
31.02289574745094
 72
     2
 10
6.919369221031151
 20
31.81444838126043
 40
0.7986973717449786
 50
97.66944495435136
 51
120.898786067779
 73
     0
 72
     2
 10
7.150040261923383
 20
32.14036316380429
 40
1.197202176515717
 50
122.3618931068037
 51
141.2515245137382
 73
     0
 72
     2
 10
6.933709924564084
 20
32.0061888368669
 40
0.9450065449727091
 50
139.3862736078239
 51
177.8726579657922
 73
     0
 72
     1
 10
5.989354684432043
 20
31.97110963396243
 11
6.192756492920892
 21
34.02289574745092
 97
        2
330
643F
330
6443
 92
       22
 72
     0
 73
     1
 93
       13
 10
9.159497991066102
 20
34.02289574745092
 10
10.25949799106612
 20
34.02289574745092
 10
10.47960167736178
 20
32.51905112715967
 10
11.01183437133604
 20
34.02271345278515
 10
12.10930109884427
 20
34.02269495197111
 10
11.81189903463539
 20
31.02269495197112
 10
11.1909600860358
 20
31.02269495197111
 10
11.38462958292845
 20
32.97630778994339
 10
10.69490453179614
 20
31.02269495197111
 10
9.962616524712728
 20
31.02269495197112
 10
9.676684466686056
 20
32.97630778994339
 10
9.4830149697934
 20
31.02269495197111
 10
8.862076021193814
 20
31.02269495197111
 97
        1
330
6442
 75
     0
 76
     1
 47
0.0356978143457059
 98
       11
 10
-12.74387987022192
 20
34.13164800304253
 10
-12.74387987022192
 20
34.13164800304253
 10
-12.74387987022192
 20
34.13164800304253
 10
-12.74387987022192
 20
34.13164800304253
 10
-12.74387987022192
 20
34.13164800304253
 10
-12.74387987022192
 20
34.13164800304253
 10
-12.74387987022192
 20
34.13164800304253
 10
-12.74387987022192
 20
34.13164800304253
 10
-12.74387987022192
 20
34.13164800304253
 10
-12.74387987022192
 20
34.13164800304253
 10
-12.74387987022192
 20
34.13164800304253
1001
ACAD
1010
0.0
1020
0.0
1030
0.0
1001
AcDbBlockRepETag
1070
     1
1071
      906
1005
645B
  0
ENDBLK
  5
645C
330
641A
100
AcDbEntity
  8
0
 62
     9
100
AcDbBlockEnd
  0
ENDSEC
  0
SECTION
  2
ENTITIES
  0
INSERT
  5
3EA1
330
1F
100
AcDbEntity
  8
0
100
AcDbBlockReference
  2
a4 specifiers manual
 10
0.0
 20
0.0
 30
0.0
  0
INSERT
  5
55AC
330
1F
100
AcDbEntity
  8
APL Joinery
 48
3.0
100
AcDbBlockReference
  2
08654
 10
150.5191071103604
 20
106.1791705719046
 30
0.0
 50
10.00000000000001
  0
INSERT
  5
55AD
330
1F
100
AcDbEntity
  8
APL Joinery
 48
3.0
100
AcDbBlockReference
  2
08653
 10
150.3716387479429
 20
85.84463568309244
 30
0.0
 50
90.0
  0
INSERT
  5
55AE
330
1F
100
AcDbEntity
  8
APL Joinery
 48
3.0
100
AcDbBlockReference
  2
08653
 10
157.6125025794533
 20
87.12139534022378
 30
0.0
 41
-1.0
 50
290.0
  0
INSERT
  5
55AF
330
1F
100
AcDbEntity
  8
APL Joinery
 48
3.0
100
AcDbBlockReference
  2
08653
 10
290.9542053964606
 20
137.0125053998995
 30
0.0
 41
-1.0
 50
309.9999999999998
  0
INSERT
  5
55B0
330
1F
100
AcDbEntity
  8
APL Joinery
 48
3.0
100
AcDbBlockReference
  2
08654
 10
277.7704510016299
 20
152.4948720187016
 30
0.0
 50
30.00000000000055
  0
INSERT
  5
55B1
330
1F
100
AcDbEntity
  8
APL Joinery
 48
3.0
100
AcDbBlockReference
  2
08653
 10
284.5866966067991
 20
133.3362224861211
 30
0.0
 50
110.0
  0
INSERT
  5
55B6
330
1F
100
AcDbEntity
  8
APL Joinery
 48
3.0
100
AcDbBlockReference
  2
08652
 10
158.1439985683608
 20
316.4581557287962
 30
0.0
 50
90.0
  0
INSERT
  5
55C2
330
1F
100
AcDbEntity
  8
APL Joinery
 48
3.0
100
AcDbBlockReference
  2
19mmliner
 10
140.8436535945262
 20
420.7029138514254
 30
0.0
 50
180.0
  0
LINE
  5
55E3
330
1F
100
AcDbEntity
  8
APL Notes
 62
     2
100
AcDbLine
 10
320.1980237184173
 20
419.116162632584
 30
0.0
 11
320.1980237184173
 21
369.4837959768525
 31
0.0
  0
LINE
  5
55E4
330
1F
100
AcDbEntity
  8
APL Notes
 62
     2
100
AcDbLine
 10
318.1355237184173
 20
416.1706073686785
 30
0.0
 11
318.1355237184173
 21
370.9279740244101
 31
0.0
  0
LINE
  5
55E5
330
1F
100
AcDbEntity
  8
APL Notes
 62
     2
100
AcDbLine
 10
282.4660870687406
 20
403.1879941551521
 30
0.0
 11
282.4660870687405
 21
357.9453608108837
 31
0.0
  0
LINE
  5
55E6
330
1F
100
AcDbEntity
  8
APL Notes
 62
     2
100
AcDbLine
 10
230.9035870687406
 20
404.4998055469779
 30
0.0
 11
230.9035870687406
 21
355.1321722027097
 31
0.0
  0
LINE
  5
55E7
330
1F
100
AcDbEntity
  8
APL Notes
 62
     2
100
AcDbLine
 10
232.9660870687405
 20
402.437305546978
 30
0.0
 11
232.9660870687405
 21
357.1946722027097
 31
0.0
  0
LINE
  5
55E8
330
1F
100
AcDbEntity
  8
APL Notes
 62
     2
100
AcDbLine
 10
278.3410870687407
 20
402.437305546978
 30
0.0
 11
278.3410870687405
 21
357.1946722027097
 31
0.0
  0
LINE
  5
55E9
330
1F
100
AcDbEntity
  8
APL Notes
 62
     2
100
AcDbLine
 10
280.7672614664515
 20
355.1321722027095
 30
0.0
 11
320.1980237184173
 21
369.4837959768525
 31
0.0
  0
LINE
  5
55EA
330
1F
100
AcDbEntity
  8
APL Notes
 62
     2
100
AcDbLine
 10
280.4035870687403
 20
357.1946722027095
 30
0.0
 11
318.1355237184173
 21
370.9279740244101
 31
0.0
  0
LINE
  5
55EB
330
1F
100
AcDbEntity
  8
APL Notes
 62
     2
100
AcDbLine
 10
230.9035870687406
 20
355.1321722027097
 30
0.0
 11
280.7672614664517
 21
355.1321722027097
 31
0.0
  0
LINE
  5
55EC
330
1F
100
AcDbEntity
  8
APL Notes
 62
     2
100
AcDbLine
 10
232.9660870687405
 20
357.1946722027097
 30
0.0
 11
280.4035870687405
 21
357.1946722027097
 31
0.0
  0
LINE
  5
55ED
330
1F
100
AcDbEntity
  8
APL Notes
 62
     2
100
AcDbLine
 10
232.9660870687405
 20
357.1946722027097
 30
0.0
 11
230.9035870687406
 21
355.1321722027097
 31
0.0
  0
LINE
  5
55EE
330
1F
100
AcDbEntity
  8
APL Notes
 62
     8
100
AcDbLine
 10
269.0598370687407
 20
379.2341805469779
 30
0.0
 11
280.4035870687408
 21
379.2341805469779
 31
0.0
  0
LINE
  5
55EF
330
1F
100
AcDbEntity
  8
APL Notes
 62
     2
100
AcDbLine
 10
318.1355237184173
 20
370.9279740244101
 30
0.0
 11
320.1980237184173
 21
369.4837959768525
 31
0.0
  0
LINE
  5
55F0
330
1F
100
AcDbEntity
  8
APL Notes
 62
     2
100
AcDbLine
 10
280.0399126710292
 20
404.499805546978
 30
0.0
 11
320.1980237184173
 21
419.116162632584
 31
0.0
  0
LINE
  5
55F1
330
1F
100
AcDbEntity
  8
APL Notes
 62
     2
100
AcDbLine
 10
280.4035870687406
 20
402.437305546978
 30
0.0
 11
318.1355237184173
 21
416.1706073686785
 31
0.0
  0
LINE
  5
55F2
330
1F
100
AcDbEntity
  8
APL Notes
 62
     2
100
AcDbLine
 10
232.9660870687405
 20
402.437305546978
 30
0.0
 11
280.4035870687408
 21
402.4373055469781
 31
0.0
  0
LINE
  5
55F3
330
1F
100
AcDbEntity
  8
APL Notes
 62
     2
100
AcDbLine
 10
230.9035870687406
 20
404.499805546978
 30
0.0
 11
280.0399126710295
 21
404.4998055469781
 31
0.0
  0
LINE
  5
55F4
330
1F
100
AcDbEntity
  8
APL Notes
 62
     3
100
AcDbLine
 10
232.9660870687405
 20
402.437305546978
 30
0.0
 11
230.9035870687406
 21
404.4998055469779
 31
0.0
  0
LINE
  5
55F5
330
1F
100
AcDbEntity
  8
APL Notes
 62
     2
100
AcDbLine
 10
318.1355237184173
 20
416.1706073686785
 30
0.0
 11
320.1980237184173
 21
419.116162632584
 31
0.0
  0
LINE
  5
55F6
330
1F
100
AcDbEntity
  8
APL Notes
 62
     2
100
AcDbLine
 10
280.4035870687408
 20
402.4373055469781
 30
0.0
 11
280.4035870687408
 21
357.1946722027097
 31
0.0
  0
LINE
  5
55F7
330
1F
100
AcDbEntity
  8
APL Notes
 62
     8
100
AcDbLine
 10
280.4035870687408
 20
379.2341805469779
 30
0.0
 11
290.1136109591159
 21
382.7683402170881
 31
0.0
  0
LEADER
  5
55F8
330
1F
100
AcDbEntity
  8
APL Notes
 62
     8
100
AcDbLeader
  3
ISO-25
 76
     2
 10
221.3410870687405
 20
364.234180546978
 30
0.0
 10
221.3410870687405
 20
379.234180546978
 30
0.0
1001
ACAD
1000
DSTYLE
1002
{
1070
   147
1040
0.625
1070
    77
1070
     0
1002
}
  0
LINE
  5
55F9
330
1F
100
AcDbEntity
  8
APL Notes
 62
     8
100
AcDbLine
 10
250.4973370687405
 20
379.2341805469779
 30
0.0
 11
221.3410870687405
 21
379.2341805469779
 31
0.0
  0
LEADER
  5
55FA
330
1F
100
AcDbEntity
  8
APL Notes
 62
     8
100
AcDbLeader
  3
ISO-25
 76
     2
 10
331.5566988031313
 20
382.8523906083892
 30
0.0
 10
331.5566988031313
 20
397.8523906083891
 30
0.0
211
-1.0
221
0.0
231
0.0
210
0.0
220
0.0
230
-1.0
1001
ACAD
1000
DSTYLE
1002
{
1070
   147
1040
0.625
1070
    77
1070
     0
1002
}
  0
LINE
  5
55FB
330
1F
100
AcDbEntity
  8
APL Notes
 62
     8
100
AcDbLine
 10
331.5566988031313
 20
397.8523906083891
 30
0.0
 11
303.7240374602643
 21
387.7221303391741
 31
0.0
  0
LINE
  5
55FC
330
1F
100
AcDbEntity
  8
APL Notes
 62
     2
100
AcDbLine
 10
197.6059475328677
 20
161.4790875488235
 30
0.0
 11
236.8645308181909
 21
175.7680433041418
 31
0.0
  0
LINE
  5
55FD
330
1F
100
AcDbEntity
  8
APL Notes
 62
     2
100
AcDbLine
 10
234.8020308181909
 20
177.2122213516994
 30
0.0
 11
236.8645308181909
 21
175.7680433041418
 31
0.0
  0
LINE
  5
55FE
330
1F
100
AcDbEntity
  8
APL Notes
 62
     2
100
AcDbLine
 10
196.5342408041601
 20
210.7213848554426
 30
0.0
 11
236.8645308181909
 21
225.4004099598734
 31
0.0
  0
LINE
  5
55FF
330
1F
100
AcDbEntity
  8
APL Notes
 62
     2
100
AcDbLine
 10
234.8020308181909
 20
222.4548546959677
 30
0.0
 11
236.8645308181909
 21
225.4004099598734
 31
0.0
  0
LINE
  5
5600
330
1F
100
AcDbEntity
  8
APL Notes
 62
     2
100
AcDbLine
 10
158.8888534712736
 20
201.9891699824197
 30
0.0
 11
158.8888534712735
 21
156.7465366381514
 31
0.0
  0
LINE
  5
5601
330
1F
100
AcDbEntity
  8
APL Notes
 62
     2
100
AcDbLine
 10
107.3263534712736
 20
203.6879955847084
 30
0.0
 11
107.3263534712736
 21
154.3203622404402
 31
0.0
  0
LINE
  5
5602
330
1F
100
AcDbEntity
  8
APL Notes
 62
     2
100
AcDbLine
 10
234.8020308181909
 20
222.4548546959677
 30
0.0
 11
234.8020308181909
 21
177.2122213516994
 31
0.0
  0
LINE
  5
5603
330
1F
100
AcDbEntity
  8
APL Notes
 62
     2
100
AcDbLine
 10
197.0700941685143
 20
208.7215528742674
 30
0.0
 11
234.8020308181909
 21
222.4548546959677
 31
0.0
  0
LINE
  5
5604
330
1F
100
AcDbEntity
  8
APL Notes
 62
     2
100
AcDbLine
 10
109.3888534712734
 20
201.6254955847085
 30
0.0
 11
107.3263534712736
 21
203.6879955847084
 31
0.0
  0
LINE
  5
5605
330
1F
100
AcDbEntity
  8
APL Notes
 62
     2
100
AcDbLine
 10
107.3263534712736
 20
154.3203622404402
 30
0.0
 11
157.0067988397957
 21
154.3203622404402
 31
0.0
  0
LINE
  5
5606
330
1F
100
AcDbEntity
  8
APL Notes
 62
     2
100
AcDbLine
 10
109.3888534712734
 20
156.3828622404402
 30
0.0
 11
156.8263534712734
 21
156.3828622404402
 31
0.0
  0
LINE
  5
5607
330
1F
100
AcDbEntity
  8
APL Notes
 62
     2
100
AcDbLine
 10
109.3888534712734
 20
201.6254955847085
 30
0.0
 11
156.8263534712737
 21
201.6254955847087
 31
0.0
  0
LINE
  5
5608
330
1F
100
AcDbEntity
  8
APL Notes
 62
     8
100
AcDbLine
 10
126.9201034712734
 20
185.6083134635247
 30
0.0
 11
98.84490670472088
 21
185.6083134635247
 31
0.0
  0
LINE
  5
5609
330
1F
100
AcDbEntity
  8
APL Notes
 62
     2
100
AcDbLine
 10
109.3888534712734
 20
201.6254955847085
 30
0.0
 11
109.3888534712734
 21
156.3828622404402
 31
0.0
  0
LINE
  5
560A
330
1F
100
AcDbEntity
  8
APL Notes
 62
     2
100
AcDbLine
 10
109.3888534712734
 20
156.3828622404402
 30
0.0
 11
107.3263534712736
 21
154.3203622404402
 31
0.0
  0
LEADER
  5
560B
330
1F
100
AcDbEntity
  8
APL Notes
 62
     8
100
AcDbLeader
  3
ISO-25
 76
     2
 10
98.84490670472088
 20
170.6083134635247
 30
0.0
 10
98.84490670472088
 20
185.6083134635247
 30
0.0
1001
ACAD
1000
DSTYLE
1002
{
1070
   147
1040
0.625
1070
    77
1070
     0
1002
}
  0
LINE
  5
560C
330
1F
100
AcDbEntity
  8
APL Notes
 62
     2
100
AcDbLine
 10
154.7638534712736
 20
201.6254955847085
 30
0.0
 11
154.7638534712735
 21
156.3828622404402
 31
0.0
  0
LINE
  5
560D
330
1F
100
AcDbEntity
  8
APL Notes
 62
     2
100
AcDbLine
 10
156.8263534712737
 20
201.6254955847087
 30
0.0
 11
156.8263534712737
 21
156.3828622404402
 31
0.0
  0
LINE
  5
560E
330
1F
100
AcDbEntity
  8
APL Notes
 62
     2
100
AcDbLine
 10
197.0700941685138
 20
163.4789195299988
 30
0.0
 11
234.8020308181909
 21
177.2122213516994
 31
0.0
  0
LINE
  5
560F
330
1F
100
AcDbEntity
  8
APL Notes
 62
     8
100
AcDbLine
 10
197.0700941685143
 20
192.7043707530835
 30
0.0
 11
206.7801180588892
 21
196.2385304231937
 31
0.0
  0
LINE
  5
5610
330
1F
100
AcDbEntity
  8
APL Notes
 62
     8
100
AcDbLine
 10
145.4826034712737
 20
185.6083134635247
 30
0.0
 11
156.8263534712737
 21
185.6083134635247
 31
0.0
  0
LINE
  5
5611
330
1F
100
AcDbEntity
  8
APL Notes
 62
     2
100
AcDbLine
 10
107.3263534712736
 20
203.6879955847085
 30
0.0
 11
156.645908102752
 21
203.6879955847087
 31
0.0
  0
LINE
  5
5612
330
1F
100
AcDbEntity
  8
APL Notes
 62
     2
100
AcDbLine
 10
236.8645308181909
 20
225.4004099598734
 30
0.0
 11
236.8645308181909
 21
175.7680433041418
 31
0.0
  0
LEADER
  5
5613
330
1F
100
AcDbEntity
  8
APL Notes
 62
     8
100
AcDbLeader
  3
ISO-25
 76
     2
 10
206.7801180588892
 20
181.2385304231937
 30
0.0
 10
206.7801180588892
 20
196.2385304231937
 30
0.0
211
-1.0
221
0.0
231
0.0
210
0.0
220
0.0
230
-1.0
1001
ACAD
1000
DSTYLE
1002
{
1070
   147
1040
0.625
1070
    77
1070
     0
1002
}
  0
LINE
  5
5614
330
1F
100
AcDbEntity
  8
APL Notes
 62
     2
100
AcDbLine
 10
197.0700941685143
 20
208.7215528742674
 30
0.0
 11
197.0700941685142
 21
163.4789195299989
 31
0.0
  0
LINE
  5
5615
330
1F
100
AcDbEntity
  8
APL Notes
 62
     2
100
AcDbLine
 10
195.0075941685143
 20
208.3578784765562
 30
0.0
 11
195.0075941685142
 21
163.1152451322877
 31
0.0
  0
LINE
  5
5616
330
1F
100
AcDbEntity
  8
APL Notes
 62
     2
100
AcDbLine
 10
199.1325941685143
 20
209.4722414824414
 30
0.0
 11
199.1325941685142
 21
164.229608138173
 31
0.0
  0
LINE
  5
5617
330
1F
100
AcDbEntity
  8
APL Notes
 62
     2
100
AcDbLine
 10
197.0700941685143
 20
208.7215528742674
 30
0.0
 11
156.8263534712739
 21
201.6254955847087
 31
0.0
  0
LINE
  5
5618
330
1F
100
AcDbEntity
  8
APL Notes
 62
     2
100
AcDbLine
 10
156.8263534712734
 20
156.3828622404402
 30
0.0
 11
197.0700941685138
 21
163.4789195299988
 31
0.0
  0
LINE
  5
5619
330
1F
100
AcDbEntity
  8
APL Notes
 62
     2
100
AcDbLine
 10
157.0067988397957
 20
154.3203622404402
 30
0.0
 11
197.6059475328681
 21
161.4790875488235
 31
0.0
  0
LINE
  5
561A
330
1F
100
AcDbEntity
  8
APL Notes
 62
     2
100
AcDbLine
 10
196.5342408041604
 20
210.7213848554426
 30
0.0
 11
156.6459081027519
 21
203.6879955847087
 31
0.0
  0
LINE
  5
561B
330
1F
100
AcDbEntity
  8
APL Notes
 62
     8
100
AcDbLine
 10
156.8263534712737
 20
185.6083134635247
 30
0.0
 11
166.7624941181668
 21
187.360323143686
 31
0.0
  0
LINE
  5
561C
330
1F
100
AcDbEntity
  8
APL Notes
 62
     8
100
AcDbLine
 10
197.0700941685143
 20
192.7043707530835
 30
0.0
 11
186.800876093576
 21
190.8936305356928
 31
0.0
  0
MTEXT
  5
561D
330
1F
100
AcDbEntity
  8
APL Notes
100
AcDbMText
 10
240.4055283351091
 20
347.1157539423174
 30
0.0
 40
5.0
 41
76.62608147261801
 71
     1
 72
     5
  1
90º CORNER OPTION
  7
Arial-Bold
 73
     1
 44
1.0
1001
ACAD
1000
MTEXTBEGIN
1070
    73
1070
     1
1070
    44
1040
1.0
1070
    74
1070
     0
1000
MTEXTEND
  0
MTEXT
  5
561E
330
1F
100
AcDbEntity
  8
APL Notes
100
AcDbMText
 10
152.3075480604898
 20
148.7156328219205
 30
0.0
 40
5.0
 41
54.50694705746702
 71
     1
 72
     5
  1
FACET OPTION
  7
Arial-Bold
 73
     1
 44
1.0
1001
ACAD
1000
MTEXTBEGIN
1070
    73
1070
     1
1070
    44
1040
1.0
1070
    74
1070
     0
1000
MTEXTEND
  0
TEXT
  5
561F
330
1F
100
AcDbEntity
  8
APL Notes
100
AcDbText
 10
96.7984603537991
 20
163.4816062727598
 30
0.0
 40
5.0
  1
B
  7
Arial-Bold
100
AcDbText
  0
TEXT
  5
5620
330
1F
100
AcDbEntity
  8
APL Notes
100
AcDbText
 10
204.9631239899556
 20
174.7743096777207
 30
0.0
 40
5.0
  1
B
  7
Arial-Bold
100
AcDbText
  0
TEXT
  5
5621
330
1F
100
AcDbEntity
  8
APL Notes
100
AcDbText
 10
218.7143083839345
 20
357.7976518732012
 30
0.0
 40
5.0
  1
A
  7
Arial-Bold
100
AcDbText
  0
TEXT
  5
5622
330
1F
100
AcDbEntity
  8
APL Notes
100
AcDbText
 10
329.0612408711688
 20
376.3914850797196
 30
0.0
 40
5.0
  1
A
  7
Arial-Bold
100
AcDbText
  0
TEXT
  5
562E
330
1F
100
AcDbEntity
  8
APL Notes
100
AcDbText
 10
200.4268486147936
 20
280.2235363210269
 30
0.0
 40
5.0
  1
span requirements
  7
Arial-Regular
100
AcDbText
  0
TEXT
  5
562F
330
1F
100
AcDbEntity
  8
APL Notes
100
AcDbText
 10
200.1439985683609
 20
287.677250150516
 30
0.0
 40
5.0
  1
Refer to tables for
  7
Arial-Regular
100
AcDbText
  0
TEXT
  5
5630
330
1F
100
AcDbEntity
  8
APL Notes
100
AcDbText
 10
200.4232757919875
 20
295.6770147794742
 30
0.0
 40
5.0
  1
08652 90%%D Corner Post
  7
Arial-Bold
100
AcDbText
  0
LWPOLYLINE
  5
5631
330
1F
100
AcDbEntity
  8
APL Notes
100
AcDbPolyline
 90
        4
 70
     1
 43
0.3
 10
132.3470148473523
 20
360.1219550634925
 10
132.3470148473523
 20
371.1219550634925
 10
81.34701484735234
 20
371.1219550634925
 10
81.34701484735234
 20
360.1219550634925
  0
TEXT
  5
5632
330
1F
100
AcDbEntity
  8
APL Notes
100
AcDbText
 10
84.34701484735233
 20
363.1219550634925
 30
0.0
 40
5.0
  1
SECTION A-A
  7
Arial-Bold
100
AcDbText
  0
LWPOLYLINE
  5
5633
330
1F
100
AcDbEntity
  8
APL Notes
100
AcDbPolyline
 90
        4
 70
     1
 43
0.3
 10
275.5908918550602
 20
53.97870359313387
 10
275.5908918550602
 20
64.97870359313387
 10
224.5908918550601
 20
64.97870359313387
 10
224.5908918550601
 20
53.97870359313387
  0
TEXT
  5
5634
330
1F
100
AcDbEntity
  8
APL Notes
100
AcDbText
 10
227.5908918550602
 20
56.97870359313384
 30
0.0
 40
5.0
  1
SECTION B-B
  7
Arial-Bold
100
AcDbText
  0
TEXT
  5
5635
330
1F
100
AcDbEntity
  8
APL Notes
100
AcDbText
 10
172.465870890973
 20
22.18357313932825
 30
0.0
 40
5.0
  1
span requirements
  7
Arial-Regular
100
AcDbText
  0
TEXT
  5
5636
330
1F
100
AcDbEntity
  8
APL Notes
100
AcDbText
 10
172.6566679401983
 20
29.63728696881731
 30
0.0
 40
5.0
  1
Refer to tables for
  7
Arial-Regular
100
AcDbText
  0
TEXT
  5
5637
330
1F
100
AcDbEntity
  8
APL Notes
100
AcDbText
 10
172.8474649894235
 20
37.09100079830637
 30
0.0
 40
5.0
  1
08654 Pipe
  7
Arial-Bold
100
AcDbText
  0
TEXT
  5
5644
330
1F
100
AcDbEntity
  8
APL Notes
100
AcDbText
 10
247.4575606820849
 20
90.69212510881152
 30
0.0
 40
5.0
  1
08638
  7
Arial-Bold
100
AcDbText
  0
TEXT
  5
5645
330
1F
100
AcDbEntity
  8
APL Notes
100
AcDbText
 10
180.5320497581899
 20
67.17987284662422
 30
0.0
 40
5.0
  1
08653
  7
Arial-Bold
 11
180.5320497581899
 21
72.17987284662422
 31
0.0
100
AcDbText
 73
     3
  0
TEXT
  5
5646
330
1F
100
AcDbEntity
  8
APL Notes
100
AcDbText
 10
180.5320497581899
 20
60.17987284662422
 30
0.0
 40
5.0
  1
Pipe Chair
  7
Arial-Regular
 11
180.5320497581899
 21
65.17987284662422
 31
0.0
100
AcDbText
 73
     3
  0
TEXT
  5
5647
330
1F
100
AcDbEntity
  8
APL Notes
100
AcDbText
 10
128.2605707704429
 20
58.8446356830911
 30
0.0
 40
5.0
  1
08653
  7
Arial-Bold
 11
128.2605707704429
 21
63.8446356830911
 31
0.0
100
AcDbText
 73
     3
  0
TEXT
  5
5648
330
1F
100
AcDbEntity
  8
APL Notes
100
AcDbText
 10
208.3083539250699
 20
76.67756873148997
 30
0.0
 40
5.0
  1
08638
  7
Arial-Bold
100
AcDbText
  0
TEXT
  5
5649
330
1F
100
AcDbEntity
  8
APL Notes
100
AcDbText
 10
275.3479551610901
 20
101.690040148282
 30
0.0
 40
5.0
  1
08653
  7
Arial-Bold
 11
275.3479551610901
 21
106.690040148282
 31
0.0
100
AcDbText
 73
     3
  0
TEXT
  5
564A
330
1F
100
AcDbEntity
  8
APL Notes
100
AcDbText
 10
316.9177961301871
 20
125.6903990219601
 30
0.0
 40
5.0
  1
08653
  7
Arial-Bold
 11
316.9177961301871
 21
130.69039902196
 31
0.0
100
AcDbText
 73
     3
  0
TEXT
  5
564B
330
1F
100
AcDbEntity
  8
APL Notes
100
AcDbText
 10
334.6381322915367
 20
140.6050683879764
 30
0.0
 40
5.0
  1
08638
  7
Arial-Bold
100
AcDbText
  0
TEXT
  5
564C
330
1F
100
AcDbEntity
  8
APL Notes
100
AcDbText
 10
320.8685272129833
 20
87.31091592729944
 30
0.0
 40
5.0
  1
08654
  7
Arial-Bold
100
AcDbText
  0
TEXT
  5
564E
330
1F
100
AcDbEntity
  8
APL Notes
100
AcDbText
 10
9.626859901241687
 20
78.4015793334371
 30
0.0
 40
5.0
  1
08678
  7
Arial-Bold
100
AcDbText
  0
TEXT
  5
565A
330
1F
100
AcDbEntity
  8
APL Notes
100
AcDbText
 10
13.39946003820285
 20
287.8508853934846
 30
0.0
 40
5.0
  1
08678
  7
Arial-Bold
100
AcDbText
  0
TEXT
  5
565C
330
1F
100
AcDbEntity
  8
APL Notes
100
AcDbText
 10
169.5698182070881
 20
441.8986491517413
 30
0.0
 40
5.0
  1
08678
  7
Arial-Bold
100
AcDbText
  0
TEXT
  5
565F
330
1F
100
AcDbEntity
  8
APL Notes
100
AcDbText
 10
52.19309843598631
 20
267.9805380275435
 30
0.0
 40
5.0
  1
08638
  7
Arial-Bold
100
AcDbText
  0
TEXT
  5
566F
330
1F
100
AcDbEntity
  8
APL Notes
100
AcDbText
 10
200.4048491250701
 20
328.910325174647
 30
0.0
 40
5.0
  1
08638
  7
Arial-Bold
100
AcDbText
  0
TEXT
  5
5670
330
1F
100
AcDbEntity
  8
APL Notes
100
AcDbText
 10
200.4048491250701
 20
413.273158316652
 30
0.0
 40
5.0
  1
08638
  7
Arial-Bold
100
AcDbText
  0
INSERT
  5
5811
330
1F
100
AcDbEntity
  8
APL Joinery
 48
3.0
100
AcDbBlockReference
  2
08638Glaze
 10
49.04423888490383
 20
276.458155724442
 30
0.0
 41
-1.0
 50
270.0
  0
TEXT
  5
5812
330
1F
100
AcDbEntity
  8
APL Notes
100
AcDbText
 10
133.5920012273742
 20
267.9805380275435
 30
0.0
 40
5.0
  1
08638
  7
Arial-Bold
100
AcDbText
  0
INSERT
  5
5813
330
1F
100
AcDbEntity
  8
APL Joinery
 48
3.0
100
AcDbBlockReference
  2
08638Glaze
 10
156.1439985683611
 20
276.458155724442
 30
0.0
 50
90.0
  0
INSERT
  5
5823
330
1F
100
AcDbEntity
  8
APL Joinery
 48
3.0
100
AcDbBlockReference
  2
08638Glaze
 10
198.1439985727141
 20
425.5579154122529
 30
0.0
 50
180.0
  0
INSERT
  5
5824
330
1F
100
AcDbEntity
  8
APL Joinery
 48
3.0
100
AcDbBlockReference
  2
08638Glaze
 10
198.1439985727141
 20
318.4581557287958
 30
0.0
 41
-1.0
  0
TEXT
  5
5825
330
1F
100
AcDbEntity
  8
APL Notes
100
AcDbText
 10
48.42049829902515
 20
57.36701798183634
 30
0.0
 40
5.0
  1
08638
  7
Arial-Bold
100
AcDbText
  0
INSERT
  5
5826
330
1F
100
AcDbEntity
  8
APL Joinery
 48
3.0
100
AcDbBlockReference
  2
08638Glaze
 10
45.27163874794267
 20
65.84463567873484
 30
0.0
 41
-1.0
 50
270.0
  0
TEXT
  5
5827
330
1F
100
AcDbEntity
  8
APL Notes
100
AcDbText
 10
97.81964140695635
 20
57.36701798183822
 30
0.0
 40
5.0
  1
08638
  7
Arial-Bold
100
AcDbText
  0
INSERT
  5
5828
330
1F
100
AcDbEntity
  8
APL Joinery
 48
3.0
100
AcDbBlockReference
  2
08638Glaze
 10
120.3716387479432
 20
65.84463567873672
 30
0.0
 50
90.0
  0
INSERT
  5
58B3
330
1F
100
AcDbEntity
  8
APL Joinery
 48
3.0
100
AcDbBlockReference
  2
08638Glaze
 10
192.6436840695429
 20
78.58814722427337
 30
0.0
 41
-1.0
 50
290.0
  0
INSERT
  5
58C0
330
1F
100
AcDbEntity
  8
APL Joinery
 48
3.0
100
AcDbBlockReference
  2
08638Glaze
 10
263.2363208512253
 20
104.2817657665386
 30
0.0
 50
110.0000000000001
  0
INSERT
  5
58D4
330
1F
100
AcDbEntity
  8
APL Joinery
 48
3.0
100
AcDbBlockReference
  2
08638Glaze
 10
326.7912908865632
 20
140.9752448247779
 30
0.0
 41
-1.0
 50
310.0000000000041
  0
INSERT
  5
5ACC
330
1F
100
AcDbEntity
  8
APL Joinery
 48
3.0
100
AcDbBlockReference
  2
19mmliner
 10
53.79458102397405
 20
333.7583186508104
 30
0.0
 41
-1.0
 50
270.0
  0
INSERT
  5
5ACD
330
1F
100
AcDbEntity
  8
APL Joinery
 48
3.0
100
AcDbBlockReference
  2
19mmliner
 10
50.02198088701289
 20
123.1449806569226
 30
0.0
 41
-1.0
 50
270.0
  0
INSERT
  5
6025
330
1F
100
AcDbEntity
  8
APL Joinery
 48
3.0
100
AcDbBlockReference
  2
08678
 10
28.144238884902
 20
285.7583186508104
 30
0.0
 41
-1.0
 50
270.0
  0
INSERT
  5
6026
330
1F
100
AcDbEntity
  8
APL Joinery
 48
3.0
100
AcDbBlockReference
  2
08678
 10
188.8438356463457
 20
446.4579154122552
 30
0.0
 50
180.0
  0
INSERT
  5
6033
330
1F
100
AcDbEntity
  8
APL Joinery
 48
3.0
100
AcDbBlockReference
  2
08678
 10
24.37163874793982
 20
75.14479860510324
 30
0.0
 41
-1.0
 50
270.0
  0
VIEWPORT
  5
4E4C
102
{ACAD_XDICTIONARY
360
5F58
102
}
330
4E45
100
AcDbEntity
 67
     1
  8
0
 48
3.0
100
AcDbViewport
 10
99.91724538803101
 20
143.1184201240539
 30
0.0
 40
351.5521214087597
 41
299.2892926645698
 68
     1
 69
     1
 12
99.91724538803101
 22
143.1184201240539
 13
0.0
 23
0.0
 14
10.0
 24
10.0
 15
10.0
 25
10.0
 16
0.0
 26
0.0
 36
1.0
 17
0.0
 27
0.0
 37
0.0
 42
50.0
 43
0.0
 44
0.0
 45
299.2892926645698
 50
0.0
 51
0.0
 72
 20000
 90
    32800
  1

281
     0
 71
     1
 74
     0
110
0.0
120
0.0
130
0.0
111
1.0
121
0.0
131
0.0
112
0.0
122
1.0
132
0.0
 79
     0
146
0.0
  0
VIEWPORT
  5
4E4E
102
{ACAD_XDICTIONARY
360
5F5A
102
}
330
4E45
100
AcDbEntity
 67
     1
  8
0
 48
3.0
100
AcDbViewport
 10
100.4570370940474
 20
131.4038712335108
 30
0.0
 40
178.2080727669216
 41
242.1086483400559
 68
     2
 69
     2
 12
176.4335396610122
 22
242.538932857793
 13
0.0
 23
0.0
 14
1.0
 24
1.0
 15
1.0
 25
1.0
 16
0.0
 26
0.0
 36
1.0
 17
0.0
 27
0.0
 37
0.0
 42
50.0
 43
0.0
 44
0.0
 45
484.2173155717454
 50
0.0
 51
0.0
 72
 20000
 90
    32864
  1

281
     0
 71
     1
 74
     0
110
0.0
120
0.0
130
0.0
111
1.0
121
0.0
131
0.0
112
0.0
122
1.0
132
0.0
 79
     0
146
0.0
  0
INSERT
  5
4E58
330
4E45
100
AcDbEntity
 67
     1
  8
APL Border
 48
3.0
100
AcDbBlockReference
  2
vantage a4 SM border
 10
0.0
 20
0.0
 30
0.0
  0
INSERT
  5
54A9
330
4E45
100
AcDbEntity
 67
     1
  8
APL Border
100
AcDbBlockReference
 66
     1
  2
vantage a4 SM attributes (4)
 10
0.0
 20
0.0
 30
0.0
  0
ATTRIB
  5
54AB
330
54A9
100
AcDbEntity
 67
     1
  8
APL Border
100
AcDbText
 10
41.78979785863008
 20
275.28125
 30
0.0
 40
3.5
  1
METRO SERIES
  7
Arial-Bold
100
AcDbAttribute
  2
DRAWINGTITLE_1
 70
     0
  0
ATTRIB
  5
54AC
330
54A9
100
AcDbEntity
 67
     1
  8
APL Border
100
AcDbText
 10
41.78979785863008
 20
269.28125
 30
0.0
 40
3.5
  1
AWNING WINDOW
  7
Arial-Bold
100
AcDbAttribute
  2
DRAWINGTITLE_2
 70
     0
  0
ATTRIB
  5
54AD
330
54A9
100
AcDbEntity
 67
     1
  8
APL Border
100
AcDbText
 10
41.78979785863008
 20
263.28125
 30
0.0
 40
3.5
  1
90º CORNER WINDOW, FACET WINDOW
  7
Arial-Bold
100
AcDbAttribute
  2
DRAWINGTITLE_3
 70
     0
  0
ATTRIB
  5
54AE
330
54A9
100
AcDbEntity
 67
     1
  8
APL Border
100
AcDbText
 10
41.78979785863008
 20
257.28125
 30
0.0
 40
3.0
  1
CROSS SECTION
  7
Arial-Regular
100
AcDbAttribute
  2
DRAWINGTITLE_4
 70
     0
  0
ATTRIB
  5
54AF
330
54A9
100
AcDbEntity
 67
     1
  8
APL Border
100
AcDbText
 10
165.845
 20
273.69
 30
0.0
 40
2.5
  1
VMAW04-0
  7
Arial-Regular
100
AcDbAttribute
  2
AW123-456
 70
     0
  0
ATTRIB
  5
54B0
330
54A9
100
AcDbEntity
 67
     1
  8
APL Border
100
AcDbText
 10
147.5475920873124
 20
257.1899999999999
 30
0.0
 40
2.5
  1
01.06.11
  7
Arial-Regular
 72
     1
 11
154.345
 21
257.1899999999999
 31
0.0
100
AcDbAttribute
  2
24.05.02
 70
     0
  0
ATTRIB
  5
54B1
330
54A9
100
AcDbEntity
 67
     1
  8
APL Border
100
AcDbText
 10
175.4174761255116
 20
257.1899999999999
 30
0.0
 40
2.5
  1
1:2
  7
Arial-Regular
 72
     1
 11
177.845
 21
257.1899999999999
 31
0.0
100
AcDbAttribute
  2
1:2
 70
     0
  0
ATTRIB
  5
54B2
330
54A9
100
AcDbEntity
 67
     1
  8
APL Border
100
AcDbText
 10
11.59500000000001
 20
1.189999999999997
 30
0.0
 40
3.75
  1

  7
Arial-Bold
100
AcDbAttribute
  2
1.2.34
 70
     0
  0
ATTRIB
  5
54B3
330
54A9
100
AcDbEntity
 67
     1
  8
APL Border
100
AcDbText
 10
189.595
 20
1.189999999999997
 30
0.0
 40
3.75
  1

  7
Arial-Bold
 72
     2
 11
189.595
 21
1.189999999999997
 31
0.0
100
AcDbAttribute
  2
1.2.34
 70
     0
  0
SEQEND
  5
54AA
330
54A9
100
AcDbEntity
 67
     1
  8
APL Border
  0
ENDSEC
  0
SECTION
  2
OBJECTS
  0
DICTIONARY
  5
C
330
0
100
AcDbDictionary
281
     1
  3
ACAD_COLOR
350
5702
  3
ACAD_GROUP
350
D
  3
ACAD_LAYOUT
350
1A
  3
ACAD_MATERIAL
350
56D8
  3
ACAD_MLEADERSTYLE
350
5727
  3
ACAD_MLINESTYLE
350
17
  3
ACAD_PLOTSETTINGS
350
19
  3
ACAD_PLOTSTYLENAME
350
E
  3
ACAD_SCALELIST
350
5705
  3
ACAD_TABLESTYLE
350
5703
  3
ACAD_VISUALSTYLE
350
56F1
  3
AcadDim
350
86
  3
ACDB_RECOMPOSE_DATA
350
5929
  3
ACDBHEADERROUNDTRIPXREC
350
64AB
  3
AcDbVariableDictionary
350
3B
  3
DWGPROPS
350
64AA
  0
DICTIONARY
  5
592B
330
8
100
AcDbDictionary
280
     1
281
     1
  3
ACAD_XREC_ROUNDTRIP
360
5F42
  0
DICTIONARY
  5
574E
330
2
100
AcDbDictionary
280
     1
281
     1
  3
ACAD_LAYERFILTERS
360
5A2B
  3
ACAD_LAYERSTATES
360
574F
  3
ACLYDICTIONARY
360
5A2A
  0
DICTIONARY
  5
5772
330
10
100
AcDbDictionary
280
     1
281
     1
  3
ACAD_XREC_ROUNDTRIP
360
5F43
  3
ADSK_XREC_LAYER_RECONCILED
360
5773
  0
DICTIONARY
  5
5774
330
2B
100
AcDbDictionary
280
     1
281
     1
  3
ACAD_XREC_ROUNDTRIP
360
5F46
  3
ADSK_XREC_LAYER_RECONCILED
360
5775
  0
DICTIONARY
  5
5776
330
75
100
AcDbDictionary
280
     1
281
     1
  3
ACAD_XREC_ROUNDTRIP
360
5F47
  3
ADSK_XREC_LAYER_RECONCILED
360
5777
  0
DICTIONARY
  5
5778
330
42F1
100
AcDbDictionary
280
     1
281
     1
  3
ACAD_XREC_ROUNDTRIP
360
5F48
  3
ADSK_XREC_LAYER_RECONCILED
360
5779
  0
DICTIONARY
  5
579E
330
5741
100
AcDbDictionary
280
     1
281
     1
  3
ACAD_XREC_ROUNDTRIP
360
5F65
  3
ADSK_XREC_LAYER_RECONCILED
360
579F
  0
DICTIONARY
  5
5EEA
330
57FF
100
AcDbDictionary
280
     1
281
     1
  0
DICTIONARY
  5
646E
330
601D
100
AcDbDictionary
280
     1
281
     1
  3
ACAD_SORTENTS
360
646F
  0
DICTIONARY
  5
641B
330
641A
100
AcDbDictionary
280
     1
281
     1
  3
ACAD_SORTENTS
360
641C
  0
DICTIONARY
  5
6419
330
6418
100
AcDbDictionary
280
     1
281
     1
  0
DICTIONARY
  5
5F58
330
4E4C
100
AcDbDictionary
280
     1
281
     1
  3
ACAD_XREC_ROUNDTRIP
360
5F59
  0
DICTIONARY
  5
5F5A
330
4E4E
100
AcDbDictionary
280
     1
281
     1
  3
ACAD_XREC_ROUNDTRIP
360
5F5B
  0
DICTIONARY
  5
5702
102
{ACAD_REACTORS
330
C
102
}
330
C
100
AcDbDictionary
281
     1
  0
DICTIONARY
  5
D
102
{ACAD_REACTORS
330
C
102
}
330
C
100
AcDbDictionary
281
     1
  0
DICTIONARY
  5
1A
102
{ACAD_REACTORS
330
C
102
}
330
C
100
AcDbDictionary
281
     1
  3
Model
350
22
  3
Vantage A4
350
4E46
  0
DICTIONARY
  5
56D8
102
{ACAD_REACTORS
330
C
102
}
330
C
100
AcDbDictionary
281
     1
  3
ByBlock
350
56E1
  3
ByLayer
350
56D9
  3
Global
350
56E9
  0
DICTIONARY
  5
5727
102
{ACAD_REACTORS
330
C
102
}
330
C
100
AcDbDictionary
281
     1
  3
Standard
350
5AB4
  0
DICTIONARY
  5
17
102
{ACAD_REACTORS
330
C
102
}
330
C
100
AcDbDictionary
281
     1
  3
Standard
350
18
  0
DICTIONARY
  5
19
102
{ACAD_REACTORS
330
C
102
}
330
C
100
AcDbDictionary
281
     1
  3
A4 Specifier Manual Hardcopy
350
4441
  3
A4 Specifier Manual PDF
350
4442
  0
ACDBDICTIONARYWDFLT
  5
E
102
{ACAD_REACTORS
330
C
102
}
330
C
100
AcDbDictionary
281
     1
  3
Normal
350
F
100
AcDbDictionaryWithDefault
340
F
  0
DICTIONARY
  5
5705
102
{ACAD_REACTORS
330
C
102
}
330
C
100
AcDbDictionary
281
     1
  3
A0
350
5706
  3
A1
350
5707
  3
A2
350
5708
  3
A3
350
5709
  3
A4
350
570A
  3
A5
350
570B
  3
A6
350
570C
  3
A7
350
570D
  3
A8
350
570E
  3
A9
350
570F
  3
B0
350
5710
  3
B1
350
5711
  3
B2
350
5712
  3
B3
350
5713
  3
B4
350
5714
  3
B5
350
5715
  3
B6
350
5716
  3
B7
350
5717
  3
B8
350
5718
  3
B9
350
5719
  3
C0
350
571A
  3
C1
350
571B
  3
C2
350
571C
  3
C3
350
571D
  3
C4
350
571E
  3
C5
350
571F
  3
C6
350
5720
  3
C7
350
5721
  3
C8
350
5722
  3
C9
350
5723
  3
D0
350
5724
  3
D1
350
5725
  3
D2
350
5726
  0
DICTIONARY
  5
5703
102
{ACAD_REACTORS
330
C
102
}
330
C
100
AcDbDictionary
281
     1
  3
Standard
350
5704
  0
DICTIONARY
  5
56F1
102
{ACAD_REACTORS
330
C
102
}
330
C
100
AcDbDictionary
281
     1
  3
2dWireframe
350
56F7
  3
3D Hidden
350
56F9
  3
3dWireframe
350
56F8
  3
Basic
350
56F6
  3
Brighten
350
56FD
  3
ColorChange
350
5701
  3
Conceptual
350
56FA
  3
Dim
350
56FC
  3
Facepattern
350
5700
  3
Flat
350
56F2
  3
FlatWithEdges
350
56F3
  3
Gouraud
350
56F4
  3
GouraudWithEdges
350
56F5
  3
Linepattern
350
56FF
  3
Realistic
350
56FB
  3
Thicken
350
56FE
  0
XRECORD
  5
86
102
{ACAD_REACTORS
330
C
102
}
330
C
100
AcDbXrecord
280
     1
 90
   990106
  3

 60
     0
 61
     0
 62
     1
 63
     3
 64
     0
 65
     0
 66
     0
 67
     3
 68
     1
 69
     0
 70
     0
 71
     0
 72
     0
 40
8.188652110585962
170
     0
  0
XRECORD
  5
5929
102
{ACAD_REACTORS
330
C
102
}
330
C
100
AcDbXrecord
280
     1
 90
        1
330
5704
  0
DICTIONARY
  5
64AB
102
{ACAD_REACTORS
330
C
102
}
330
C
100
AcDbDictionary
281
     1
  0
DICTIONARY
  5
3B
102
{ACAD_REACTORS
330
C
102
}
330
C
100
AcDbDictionary
281
     1
  3
CANNOSCALE
350
5968
  3
CMLEADERSTYLE
350
5967
  3
CTABLESTYLE
350
5966
  3
DIMASSOC
350
3D
  3
HIDETEXT
350
3C
  3
INDEXCTL
350
596A
  3
PROJECTNAME
350
5FB6
  3
SORTENTS
350
5969
  0
XRECORD
  5
64AA
102
{ACAD_REACTORS
330
C
102
}
330
C
100
AcDbXrecord
280
     1
  1
DWGPROPS COOKIE
  2

  3

  4

  6

  7

  8
homer
  9

300
=
301
=
302
=
303
=
304
=
305
=
306
=
307
=
308
=
309
=
 40
4.838197164351852
 41
2452286.590325035
 42
2455707.395739664
  1

 90
        0
  0
XRECORD
  5
5F42
102
{ACAD_REACTORS
330
592B
102
}
330
592B
100
AcDbXrecord
280
     1
102
VTR_0.000_0.000_1.000_1.000_VISUALSTYLE
340
56F7
102
VTR_0.000_0.000_1.000_1.000_GRIDDISPLAY
 70
     3
102
VTR_0.000_0.000_1.000_1.000_GRIDMAJOR
 70
     5
102
VTR_0.000_0.000_1.000_1.000_DEFAULTLIGHTING
280
     1
102
VTR_0.000_0.000_1.000_1.000_DEFAULTLIGHTINGTYPE
 70
     1
102
VTR_0.000_0.000_1.000_1.000_BRIGHTNESS
141
0.0
102
VTR_0.000_0.000_1.000_1.000_CONTRAST
142
0.0
  0
DICTIONARY
  5
5A2B
102
{ACAD_REACTORS
330
574E
102
}
330
574E
100
AcDbDictionary
281
     1
  0
DICTIONARY
  5
574F
102
{ACAD_REACTORS
330
574E
102
}
330
574E
100
AcDbDictionary
281
     1
  0
DICTIONARY
  5
5A2A
102
{ACAD_REACTORS
330
574E
102
}
330
574E
100
AcDbDictionary
281
     1
1001
ACAD
1000
<All
  0
XRECORD
  5
5F43
102
{ACAD_REACTORS
330
5772
102
}
330
5772
100
AcDbXrecord
280
     1
102
MATERIAL
340
56E9
  0
XRECORD
  5
5773
102
{ACAD_REACTORS
330
5772
102
}
330
5772
100
AcDbXrecord
280
     1
290
     1
  0
XRECORD
  5
5F46
102
{ACAD_REACTORS
330
5774
102
}
330
5774
100
AcDbXrecord
280
     1
102
MATERIAL
340
56E9
  0
XRECORD
  5
5775
102
{ACAD_REACTORS
330
5774
102
}
330
5774
100
AcDbXrecord
280
     1
290
     1
  0
XRECORD
  5
5F47
102
{ACAD_REACTORS
330
5776
102
}
330
5776
100
AcDbXrecord
280
     1
102
MATERIAL
340
56E9
  0
XRECORD
  5
5777
102
{ACAD_REACTORS
330
5776
102
}
330
5776
100
AcDbXrecord
280
     1
290
     1
  0
XRECORD
  5
5F48
102
{ACAD_REACTORS
330
5778
102
}
330
5778
100
AcDbXrecord
280
     1
102
MATERIAL
340
56E9
  0
XRECORD
  5
5779
102
{ACAD_REACTORS
330
5778
102
}
330
5778
100
AcDbXrecord
280
     1
290
     1
  0
XRECORD
  5
5F65
102
{ACAD_REACTORS
330
579E
102
}
330
579E
100
AcDbXrecord
280
     1
102
MATERIAL
340
56E9
  0
XRECORD
  5
579F
102
{ACAD_REACTORS
330
579E
102
}
330
579E
100
AcDbXrecord
280
     1
290
     1
  0
SORTENTSTABLE
  5
646F
102
{ACAD_REACTORS
330
646E
102
}
330
646E
100
AcDbSortentsTable
330
601D
  0
SORTENTSTABLE
  5
641C
102
{ACAD_REACTORS
330
641B
102
}
330
641B
100
AcDbSortentsTable
330
641A
  0
XRECORD
  5
5F59
102
{ACAD_REACTORS
330
5F58
102
}
330
5F58
100
AcDbXrecord
280
     1
102
VISUALSTYLE
340
56F7
102
GRIDDISPLAY
 70
     0
102
GRIDMAJOR
 70
     5
102
DEFAULTLIGHTING
280
     1
102
DEFAULTLIGHTINGTYPE
 70
     1
102
BRIGHTNESS
141
0.0
102
CONTRAST
142
0.0
102
SHADEPLOT
 70
     0
  0
XRECORD
  5
5F5B
102
{ACAD_REACTORS
330
5F5A
102
}
330
5F5A
100
AcDbXrecord
280
     1
102
VISUALSTYLE
340
56F7
102
GRIDDISPLAY
 70
     0
102
GRIDMAJOR
 70
     5
102
DEFAULTLIGHTING
280
     1
102
DEFAULTLIGHTINGTYPE
 70
     1
102
BRIGHTNESS
141
0.0
102
CONTRAST
142
0.0
102
SHADEPLOT
 70
     0
  0
LAYOUT
  5
22
102
{ACAD_XDICTIONARY
360
64AC
102
}
102
{ACAD_REACTORS
330
1A
102
}
330
1A
100
AcDbPlotSettings
  1

  2
A4 Specifier Manual.pc3
  4
A4
  6

 40
6.0
 41
5.0
 42
6.97332763671875
 43
5.96832275390625
 44
209.9733276367187
 45
296.9683227539062
 46
10.5
 47
1.0
 48
55.19893561856474
 49
77.41415496436935
140
329.6878846931311
141
251.7976535946928
142
1.0
143
2.0
 70
 11952
 72
     1
 73
     0
 74
     1
  7
A4 Specifier Manual.ctb
 75
    17
147
0.5
148
2.773644345846719
149
26.16512822630762
100
AcDbLayout
  1
Model
 70
     1
 71
     0
 10
0.0
 20
0.0
 11
12.0
 21
9.0
 12
0.0
 22
0.0
 32
0.0
 14
0.0
 24
0.0
 34
0.0
 15
0.0
 25
0.0
 35
0.0
146
0.0
 13
0.0
 23
0.0
 33
0.0
 16
1.0
 26
0.0
 36
0.0
 17
0.0
 27
1.0
 37
0.0
 76
     0
330
1F
  0
LAYOUT
  5
4E46
102
{ACAD_XDICTIONARY
360
5753
102
}
102
{ACAD_REACTORS
330
1A
102
}
330
1A
100
AcDbPlotSettings
  1

  2
\\Aplfp01\APL Technical HP5100 PSLaser
  4
A4
  6

 40
5.027082920074462
 41
5.408084392547607
 42
5.70440673828125
 43
5.365753173828125
 44
209.8886566162109
 45
297.0530090332031
 46
0.0
 47
0.0
 48
0.0
 49
0.0
140
0.0
141
0.0
142
1.0
143
1.0
 70
   176
 72
     1
 73
     0
 74
     5
  7
A4 Specifier Manual.ctb
 75
    16
147
1.0
148
0.0
149
0.0
100
AcDbLayout
  1
Vantage A4
 70
     1
 71
     1
 10
-5.027082920074462
 20
-5.408084392547607
 11
204.8615736961365
 21
291.6449246406555
 12
0.0
 22
0.0
 32
0.0
 14
11.34805035864985
 24
3.285575844812797
 34
-0.0015258207003583
 15
189.6073677543587
 25
282.2033753668244
 35
0.0000000349246037
146
0.0
 13
0.0
 23
0.0
 33
0.0
 16
1.0
 26
0.0
 36
0.0
 17
0.0
 27
1.0
 37
0.0
 76
     0
330
4E45
331
4E4C
1001
ACAD_PSEXT
1000
\\Aplfp01\APL Technical HP5100 PSLaser
1000
HP LaserJet 5100 PS
1000
APL Technical Office
1000

1070
     0
  0
MATERIAL
  5
56E1
102
{ACAD_XDICTIONARY
360
56E2
102
}
102
{ACAD_REACTORS
330
56D8
102
}
330
56D8
100
AcDbMaterial
  1
ByBlock
 72
     0
 73
     2
 43
0.0008202099737533
 43
0.0
 43
0.0
 43
0.0
 43
0.0
 43
0.0008202099737533
 43
0.0
 43
0.0
 43
0.0
 43
0.0
 43
1.0
 43
0.0
 43
0.0
 43
0.0
 43
0.0
 43
1.0
 77
     0
 78
     2
 47
0.0008202099737533
 47
0.0
 47
0.0
 47
0.0
 47
0.0
 47
0.0008202099737533
 47
0.0
 47
0.0
 47
0.0
 47
0.0
 47
1.0
 47
0.0
 47
0.0
 47
0.0
 47
0.0
 47
1.0
171
     0
172
     2
 49
0.0008202099737533
 49
0.0
 49
0.0
 49
0.0
 49
0.0
 49
0.0008202099737533
 49
0.0
 49
0.0
 49
0.0
 49
0.0
 49
1.0
 49
0.0
 49
0.0
 49
0.0
 49
0.0
 49
1.0
175
     0
176
     2
142
0.0008202099737533
142
0.0
142
0.0
142
0.0
142
0.0
142
0.0008202099737533
142
0.0
142
0.0
142
0.0
142
0.0
142
1.0
142
0.0
142
0.0
142
0.0
142
0.0
142
1.0
179
     0
270
     2
144
0.0008202099737533
144
0.0
144
0.0
144
0.0
144
0.0
144
0.0008202099737533
144
0.0
144
0.0
144
0.0
144
0.0
144
1.0
144
0.0
144
0.0
144
0.0
144
0.0
144
1.0
274
     2
147
0.0008202099737533
147
0.0
147
0.0
147
0.0
147
0.0
147
0.0008202099737533
147
0.0
147
0.0
147
0.0
147
0.0
147
1.0
147
0.0
147
0.0
147
0.0
147
0.0
147
1.0
  0
MATERIAL
  5
56D9
102
{ACAD_XDICTIONARY
360
56DA
102
}
102
{ACAD_REACTORS
330
56D8
102
}
330
56D8
100
AcDbMaterial
  1
ByLayer
 72
     0
 73
     2
 43
0.0008202099737533
 43
0.0
 43
0.0
 43
0.0
 43
0.0
 43
0.0008202099737533
 43
0.0
 43
0.0
 43
0.0
 43
0.0
 43
1.0
 43
0.0
 43
0.0
 43
0.0
 43
0.0
 43
1.0
 77
     0
 78
     2
 47
0.0008202099737533
 47
0.0
 47
0.0
 47
0.0
 47
0.0
 47
0.0008202099737533
 47
0.0
 47
0.0
 47
0.0
 47
0.0
 47
1.0
 47
0.0
 47
0.0
 47
0.0
 47
0.0
 47
1.0
171
     0
172
     2
 49
0.0008202099737533
 49
0.0
 49
0.0
 49
0.0
 49
0.0
 49
0.0008202099737533
 49
0.0
 49
0.0
 49
0.0
 49
0.0
 49
1.0
 49
0.0
 49
0.0
 49
0.0
 49
0.0
 49
1.0
175
     0
176
     2
142
0.0008202099737533
142
0.0
142
0.0
142
0.0
142
0.0
142
0.0008202099737533
142
0.0
142
0.0
142
0.0
142
0.0
142
1.0
142
0.0
142
0.0
142
0.0
142
0.0
142
1.0
179
     0
270
     2
144
0.0008202099737533
144
0.0
144
0.0
144
0.0
144
0.0
144
0.0008202099737533
144
0.0
144
0.0
144
0.0
144
0.0
144
1.0
144
0.0
144
0.0
144
0.0
144
0.0
144
1.0
274
     2
147
0.0008202099737533
147
0.0
147
0.0
147
0.0
147
0.0
147
0.0008202099737533
147
0.0
147
0.0
147
0.0
147
0.0
147
1.0
147
0.0
147
0.0
147
0.0
147
0.0
147
1.0
  0
MATERIAL
  5
56E9
102
{ACAD_XDICTIONARY
360
56EA
102
}
102
{ACAD_REACTORS
330
56D8
102
}
330
56D8
100
AcDbMaterial
  1
Global
 72
     0
 73
     2
 43
0.0008202099737533
 43
0.0
 43
0.0
 43
0.0
 43
0.0
 43
0.0008202099737533
 43
0.0
 43
0.0
 43
0.0
 43
0.0
 43
1.0
 43
0.0
 43
0.0
 43
0.0
 43
0.0
 43
1.0
 77
     0
 78
     2
 47
0.0008202099737533
 47
0.0
 47
0.0
 47
0.0
 47
0.0
 47
0.0008202099737533
 47
0.0
 47
0.0
 47
0.0
 47
0.0
 47
1.0
 47
0.0
 47
0.0
 47
0.0
 47
0.0
 47
1.0
171
     0
172
     2
 49
0.0008202099737533
 49
0.0
 49
0.0
 49
0.0
 49
0.0
 49
0.0008202099737533
 49
0.0
 49
0.0
 49
0.0
 49
0.0
 49
1.0
 49
0.0
 49
0.0
 49
0.0
 49
0.0
 49
1.0
175
     0
176
     2
142
0.0008202099737533
142
0.0
142
0.0
142
0.0
142
0.0
142
0.0008202099737533
142
0.0
142
0.0
142
0.0
142
0.0
142
1.0
142
0.0
142
0.0
142
0.0
142
0.0
142
1.0
179
     0
270
     2
144
0.0008202099737533
144
0.0
144
0.0
144
0.0
144
0.0
144
0.0008202099737533
144
0.0
144
0.0
144
0.0
144
0.0
144
1.0
144
0.0
144
0.0
144
0.0
144
0.0
144
1.0
274
     2
147
0.0008202099737533
147
0.0
147
0.0
147
0.0
147
0.0
147
0.0008202099737533
147
0.0
147
0.0
147
0.0
147
0.0
147
1.0
147
0.0
147
0.0
147
0.0
147
0.0
147
1.0
  0
ACAD_PROXY_OBJECT
  5
5AB4
102
{ACAD_REACTORS
330
5727
102
}
330
5727
100
AcDbProxyObject
 90
      499
 91
      510
 95
   983063
 70
     0
 93
      618
310
40901902A4063FBFFFFFE000000000000002040AD7A3703D0AD73F4254DD185B99185C99000000000000000104090141901A00000000000004100000000000000041025764000000000000300FD0
340
14
340
0
340
11
340
0
 94
        0
1001
ACAD_MLEADERVER
1070
     2
1001
ACAD
1000
AcRTDxfName
1000
MLEADERSTYLE
1000
AcRTDxfName
1000
MLEADERSTYLE
1000
AcRTDxfName
1000
MLEADERSTYLE
1000
AcRTDxfName
1000
MLEADERSTYLE
1000
AcRTDxfName
1000
MLEADERSTYLE
  0
MLINESTYLE
  5
18
102
{ACAD_REACTORS
330
17
102
}
330
17
100
AcDbMlineStyle
  2
STANDARD
 70
     0
  3

 62
   256
 51
90.0
 52
90.0
 71
     2
 49
0.5
 62
   256
  6
BYLAYER
 49
-0.5
 62
   256
  6
BYLAYER
  0
PLOTSETTINGS
  5
4441
102
{ACAD_XDICTIONARY
360
64AE
102
}
102
{ACAD_REACTORS
330
19
102
}
330
19
100
AcDbPlotSettings
  1
A4 Specifier Manual Hardcopy
  2
A4 Specifier Manual.pc3
  4
A4
  6

 40
6.0
 41
5.0
 42
6.97332763671875
 43
5.96832275390625
 44
209.9733276367187
 45
296.9683227539062
 46
10.5
 47
-1.0
 48
55.19893561856474
 49
77.41415496436935
140
329.6878846931311
141
251.7976535946928
142
1.0
143
2.0
 70
  1712
 72
     1
 73
     0
 74
     1
  7
A4 specifier manual.ctb
 75
    17
147
0.5
148
2.225667800726114
149
26.13925412475783
  0
PLOTSETTINGS
  5
4442
102
{ACAD_XDICTIONARY
360
64B0
102
}
102
{ACAD_REACTORS
330
19
102
}
330
19
100
AcDbPlotSettings
  1
A4 Specifier Manual PDF
  2
Acrobat Distiller.pc3
  4
A4
  6

 40
3.174999952316284
 41
3.174999952316284
 42
3.175003051757812
 43
3.17498779296875
 44
209.9098358154297
 45
297.0318298339844
 46
12.0
 47
3.0
 48
55.19893561856474
 49
77.41415496436935
140
329.6878846931311
141
251.7976535946928
142
1.0
143
2.0
 70
  1712
 72
     1
 73
     0
 74
     1
  7
A4 Specifier Manual.ctb
 75
    17
147
0.5
148
2.231438335389952
149
26.15846035871732
  0
ACDBPLACEHOLDER
  5
F
102
{ACAD_REACTORS
330
E
102
}
330
E
  0
ACAD_PROXY_OBJECT
  5
5706
102
{ACAD_REACTORS
330
5705
102
}
330
5705
100
AcDbProxyObject
 90
      499
 91
      509
 95
   983063
 70
     0
 93
       49
310
904313A3100580
 94
        0
1001
ACAD
1000
AcRTDxfName
1000
SCALE
1000
AcRTDxfName
1000
SCALE
1000
AcRTDxfName
1000
SCALE
1000
AcRTDxfName
1000
SCALE
1000
AcRTDxfName
1000
SCALE
  0
ACAD_PROXY_OBJECT
  5
5707
102
{ACAD_REACTORS
330
5705
102
}
330
5705
100
AcDbProxyObject
 90
      499
 91
      509
 95
   983063
 70
     0
 93
      113
310
904313A32004000000000000004040
 94
        0
1001
ACAD
1000
AcRTDxfName
1000
SCALE
1000
AcRTDxfName
1000
SCALE
1000
AcRTDxfName
1000
SCALE
1000
AcRTDxfName
1000
SCALE
1000
AcRTDxfName
1000
SCALE
  0
ACAD_PROXY_OBJECT
  5
5708
102
{ACAD_REACTORS
330
5705
102
}
330
5705
100
AcDbProxyObject
 90
      499
 91
      509
 95
   983063
 70
     0
 93
      113
310
904313A34004000000000000104040
 94
        0
1001
ACAD
1000
AcRTDxfName
1000
SCALE
1000
AcRTDxfName
1000
SCALE
1000
AcRTDxfName
1000
SCALE
1000
AcRTDxfName
1000
SCALE
1000
AcRTDxfName
1000
SCALE
  0
ACAD_PROXY_OBJECT
  5
5709
102
{ACAD_REACTORS
330
5705
102
}
330
5705
100
AcDbProxyObject
 90
      499
 91
      509
 95
   983063
 70
     0
 93
      113
310
904313A35004000000000000144040
 94
        0
1001
ACAD
1000
AcRTDxfName
1000
SCALE
1000
AcRTDxfName
1000
SCALE
1000
AcRTDxfName
1000
SCALE
1000
AcRTDxfName
1000
SCALE
1000
AcRTDxfName
1000
SCALE
  0
ACAD_PROXY_OBJECT
  5
570A
102
{ACAD_REACTORS
330
5705
102
}
330
5705
100
AcDbProxyObject
 90
      499
 91
      509
 95
   983063
 70
     0
 93
      113
310
904313A38004000000000000204040
 94
        0
1001
ACAD
1000
AcRTDxfName
1000
SCALE
1000
AcRTDxfName
1000
SCALE
1000
AcRTDxfName
1000
SCALE
1000
AcRTDxfName
1000
SCALE
1000
AcRTDxfName
1000
SCALE
  0
ACAD_PROXY_OBJECT
  5
570B
102
{ACAD_REACTORS
330
5705
102
}
330
5705
100
AcDbProxyObject
 90
      499
 91
      509
 95
   983063
 70
     0
 93
      121
310
905313A3130004000000000000244040
 94
        0
1001
ACAD
1000
AcRTDxfName
1000
SCALE
1000
AcRTDxfName
1000
SCALE
1000
AcRTDxfName
1000
SCALE
1000
AcRTDxfName
1000
SCALE
1000
AcRTDxfName
1000
SCALE
  0
ACAD_PROXY_OBJECT
  5
570C
102
{ACAD_REACTORS
330
5705
102
}
330
5705
100
AcDbProxyObject
 90
      499
 91
      509
 95
   983063
 70
     0
 93
      121
310
905313A3136004000000000000304001
 94
        0
1001
ACAD
1000
AcRTDxfName
1000
SCALE
1000
AcRTDxfName
1000
SCALE
1000
AcRTDxfName
1000
SCALE
1000
AcRTDxfName
1000
SCALE
1000
AcRTDxfName
1000
SCALE
  0
ACAD_PROXY_OBJECT
  5
570D
102
{ACAD_REACTORS
330
5705
102
}
330
5705
100
AcDbProxyObject
 90
      499
 91
      509
 95
   983063
 70
     0
 93
      121
310
905313A3230004000000000000344040
 94
        0
1001
ACAD
1000
AcRTDxfName
1000
SCALE
1000
AcRTDxfName
1000
SCALE
1000
AcRTDxfName
1000
SCALE
1000
AcRTDxfName
1000
SCALE
1000
AcRTDxfName
1000
SCALE
  0
ACAD_PROXY_OBJECT
  5
570E
102
{ACAD_REACTORS
330
5705
102
}
330
5705
100
AcDbProxyObject
 90
      499
 91
      509
 95
   983063
 70
     0
 93
      121
310
905313A33300040000000000003E4001
 94
        0
1001
ACAD
1000
AcRTDxfName
1000
SCALE
1000
AcRTDxfName
1000
SCALE
1000
AcRTDxfName
1000
SCALE
1000
AcRTDxfName
1000
SCALE
1000
AcRTDxfName
1000
SCALE
  0
ACAD_PROXY_OBJECT
  5
570F
102
{ACAD_REACTORS
330
5705
102
}
330
5705
100
AcDbProxyObject
 90
      499
 91
      509
 95
   983063
 70
     0
 93
      121
310
905313A3430004000000000000444040
 94
        0
1001
ACAD
1000
AcRTDxfName
1000
SCALE
1000
AcRTDxfName
1000
SCALE
1000
AcRTDxfName
1000
SCALE
1000
AcRTDxfName
1000
SCALE
1000
AcRTDxfName
1000
SCALE
  0
ACAD_PROXY_OBJECT
  5
5710
102
{ACAD_REACTORS
330
5705
102
}
330
5705
100
AcDbProxyObject
 90
      499
 91
      509
 95
   983063
 70
     0
 93
      121
310
905313A3530004000000000000494001
 94
        0
1001
ACAD
1000
AcRTDxfName
1000
SCALE
1000
AcRTDxfName
1000
SCALE
1000
AcRTDxfName
1000
SCALE
1000
AcRTDxfName
1000
SCALE
1000
AcRTDxfName
1000
SCALE
  0
ACAD_PROXY_OBJECT
  5
5711
102
{ACAD_REACTORS
330
5705
102
}
330
5705
100
AcDbProxyObject
 90
      499
 91
      509
 95
   983063
 70
     0
 93
      129
310
906313A313030004000000000000594000
 94
        0
1001
ACAD
1000
AcRTDxfName
1000
SCALE
1000
AcRTDxfName
1000
SCALE
1000
AcRTDxfName
1000
SCALE
1000
AcRTDxfName
1000
SCALE
1000
AcRTDxfName
1000
SCALE
  0
ACAD_PROXY_OBJECT
  5
5712
102
{ACAD_REACTORS
330
5705
102
}
330
5705
100
AcDbProxyObject
 90
      499
 91
      509
 95
   983063
 70
     0
 93
      113
310
904323A31000000000000000010165
 94
        0
1001
ACAD
1000
AcRTDxfName
1000
SCALE
1000
AcRTDxfName
1000
SCALE
1000
AcRTDxfName
1000
SCALE
1000
AcRTDxfName
1000
SCALE
1000
AcRTDxfName
1000
SCALE
  0
ACAD_PROXY_OBJECT
  5
5713
102
{ACAD_REACTORS
330
5705
102
}
330
5705
100
AcDbProxyObject
 90
      499
 91
      509
 95
   983063
 70
     0
 93
      113
310
904343A31000000000000000410101
 94
        0
1001
ACAD
1000
AcRTDxfName
1000
SCALE
1000
AcRTDxfName
1000
SCALE
1000
AcRTDxfName
1000
SCALE
1000
AcRTDxfName
1000
SCALE
1000
AcRTDxfName
1000
SCALE
  0
ACAD_PROXY_OBJECT
  5
5714
102
{ACAD_REACTORS
330
5705
102
}
330
5705
100
AcDbProxyObject
 90
      499
 91
      509
 95
   983063
 70
     0
 93
      113
310
904383A31000000000000000810165
 94
        0
1001
ACAD
1000
AcRTDxfName
1000
SCALE
1000
AcRTDxfName
1000
SCALE
1000
AcRTDxfName
1000
SCALE
1000
AcRTDxfName
1000
SCALE
1000
AcRTDxfName
1000
SCALE
  0
ACAD_PROXY_OBJECT
  5
5715
102
{ACAD_REACTORS
330
5705
102
}
330
5705
100
AcDbProxyObject
 90
      499
 91
      509
 95
   983063
 70
     0
 93
      121
310
90531303A31000000000000000910120
 94
        0
1001
ACAD
1000
AcRTDxfName
1000
SCALE
1000
AcRTDxfName
1000
SCALE
1000
AcRTDxfName
1000
SCALE
1000
AcRTDxfName
1000
SCALE
1000
AcRTDxfName
1000
SCALE
  0
ACAD_PROXY_OBJECT
  5
5716
102
{ACAD_REACTORS
330
5705
102
}
330
5705
100
AcDbProxyObject
 90
      499
 91
      509
 95
   983063
 70
     0
 93
      129
310
9063130303A31000000000000001650100
 94
        0
1001
ACAD
1000
AcRTDxfName
1000
SCALE
1000
AcRTDxfName
1000
SCALE
1000
AcRTDxfName
1000
SCALE
1000
AcRTDxfName
1000
SCALE
1000
AcRTDxfName
1000
SCALE
  0
ACAD_PROXY_OBJECT
  5
5717
102
{ACAD_REACTORS
330
5705
102
}
330
5705
100
AcDbProxyObject
 90
      499
 91
      509
 95
   983063
 70
     0
 93
      265
310
90F312F31323822203D2031272D302200000000000000200FC00000000000028404E
 94
        0
1001
ACAD
1000
AcRTDxfName
1000
SCALE
1000
AcRTDxfName
1000
SCALE
1000
AcRTDxfName
1000
SCALE
1000
AcRTDxfName
1000
SCALE
1000
AcRTDxfName
1000
SCALE
  0
ACAD_PROXY_OBJECT
  5
5718
102
{ACAD_REACTORS
330
5705
102
}
330
5705
100
AcDbProxyObject
 90
      499
 91
      509
 95
   983063
 70
     0
 93
      257
310
90E312F363422203D2031272D302200000000000000240FC000000000000284040
 94
        0
1001
ACAD
1000
AcRTDxfName
1000
SCALE
1000
AcRTDxfName
1000
SCALE
1000
AcRTDxfName
1000
SCALE
1000
AcRTDxfName
1000
SCALE
1000
AcRTDxfName
1000
SCALE
  0
ACAD_PROXY_OBJECT
  5
5719
102
{ACAD_REACTORS
330
5705
102
}
330
5705
100
AcDbProxyObject
 90
      499
 91
      509
 95
   983063
 70
     0
 93
      257
310
90E312F333222203D2031272D302200000000000000280FC000000000000284066
 94
        0
1001
ACAD
1000
AcRTDxfName
1000
SCALE
1000
AcRTDxfName
1000
SCALE
1000
AcRTDxfName
1000
SCALE
1000
AcRTDxfName
1000
SCALE
1000
AcRTDxfName
1000
SCALE
  0
ACAD_PROXY_OBJECT
  5
571A
102
{ACAD_REACTORS
330
5705
102
}
330
5705
100
AcDbProxyObject
 90
      499
 91
      509
 95
   983063
 70
     0
 93
      257
310
90E312F313622203D2031272D3022000000000000002C0FC000000000000284040
 94
        0
1001
ACAD
1000
AcRTDxfName
1000
SCALE
1000
AcRTDxfName
1000
SCALE
1000
AcRTDxfName
1000
SCALE
1000
AcRTDxfName
1000
SCALE
1000
AcRTDxfName
1000
SCALE
  0
ACAD_PROXY_OBJECT
  5
571B
102
{ACAD_REACTORS
330
5705
102
}
330
5705
100
AcDbProxyObject
 90
      499
 91
      509
 95
   983063
 70
     0
 93
      257
310
90E332F333222203D2031272D3022000000000000002E0FC000000000000284066
 94
        0
1001
ACAD
1000
AcRTDxfName
1000
SCALE
1000
AcRTDxfName
1000
SCALE
1000
AcRTDxfName
1000
SCALE
1000
AcRTDxfName
1000
SCALE
1000
AcRTDxfName
1000
SCALE
  0
ACAD_PROXY_OBJECT
  5
571C
102
{ACAD_REACTORS
330
5705
102
}
330
5705
100
AcDbProxyObject
 90
      499
 91
      509
 95
   983063
 70
     0
 93
      249
310
90D312F3822203D2031272D302200000000000000300FC000000000000284028
 94
        0
1001
ACAD
1000
AcRTDxfName
1000
SCALE
1000
AcRTDxfName
1000
SCALE
1000
AcRTDxfName
1000
SCALE
1000
AcRTDxfName
1000
SCALE
1000
AcRTDxfName
1000
SCALE
  0
ACAD_PROXY_OBJECT
  5
571D
102
{ACAD_REACTORS
330
5705
102
}
330
5705
100
AcDbProxyObject
 90
      499
 91
      509
 95
   983063
 70
     0
 93
      257
310
90E332F313622203D2031272D302200000000000000320FC000000000000284066
 94
        0
1001
ACAD
1000
AcRTDxfName
1000
SCALE
1000
AcRTDxfName
1000
SCALE
1000
AcRTDxfName
1000
SCALE
1000
AcRTDxfName
1000
SCALE
1000
AcRTDxfName
1000
SCALE
  0
ACAD_PROXY_OBJECT
  5
571E
102
{ACAD_REACTORS
330
5705
102
}
330
5705
100
AcDbProxyObject
 90
      499
 91
      509
 95
   983063
 70
     0
 93
      249
310
90D312F3422203D2031272D302200000000000000340FC000000000000284040
 94
        0
1001
ACAD
1000
AcRTDxfName
1000
SCALE
1000
AcRTDxfName
1000
SCALE
1000
AcRTDxfName
1000
SCALE
1000
AcRTDxfName
1000
SCALE
1000
AcRTDxfName
1000
SCALE
  0
ACAD_PROXY_OBJECT
  5
571F
102
{ACAD_REACTORS
330
5705
102
}
330
5705
100
AcDbProxyObject
 90
      499
 91
      509
 95
   983063
 70
     0
 93
      249
310
90D332F3822203D2031272D302200000000000000360FC000000000000284028
 94
        0
1001
ACAD
1000
AcRTDxfName
1000
SCALE
1000
AcRTDxfName
1000
SCALE
1000
AcRTDxfName
1000
SCALE
1000
AcRTDxfName
1000
SCALE
1000
AcRTDxfName
1000
SCALE
  0
ACAD_PROXY_OBJECT
  5
5720
102
{ACAD_REACTORS
330
5705
102
}
330
5705
100
AcDbProxyObject
 90
      499
 91
      509
 95
   983063
 70
     0
 93
      249
310
90D312F3222203D2031272D302200000000000000380FC000000000000284040
 94
        0
1001
ACAD
1000
AcRTDxfName
1000
SCALE
1000
AcRTDxfName
1000
SCALE
1000
AcRTDxfName
1000
SCALE
1000
AcRTDxfName
1000
SCALE
1000
AcRTDxfName
1000
SCALE
  0
ACAD_PROXY_OBJECT
  5
5721
102
{ACAD_REACTORS
330
5705
102
}
330
5705
100
AcDbProxyObject
 90
      499
 91
      509
 95
   983063
 70
     0
 93
      249
310
90D332F3422203D2031272D3022000000000000003A0FC000000000000284028
 94
        0
1001
ACAD
1000
AcRTDxfName
1000
SCALE
1000
AcRTDxfName
1000
SCALE
1000
AcRTDxfName
1000
SCALE
1000
AcRTDxfName
1000
SCALE
1000
AcRTDxfName
1000
SCALE
  0
ACAD_PROXY_OBJECT
  5
5722
102
{ACAD_REACTORS
330
5705
102
}
330
5705
100
AcDbProxyObject
 90
      499
 91
      509
 95
   983063
 70
     0
 93
      169
310
90B3122203D2031272D3022004000000000000284000
 94
        0
1001
ACAD
1000
AcRTDxfName
1000
SCALE
1000
AcRTDxfName
1000
SCALE
1000
AcRTDxfName
1000
SCALE
1000
AcRTDxfName
1000
SCALE
1000
AcRTDxfName
1000
SCALE
  0
ACAD_PROXY_OBJECT
  5
5723
102
{ACAD_REACTORS
330
5705
102
}
330
5705
100
AcDbProxyObject
 90
      499
 91
      509
 95
   983063
 70
     0
 93
      265
310
90F312D312F3222203D2031272D3022000000000000003E0FC000000000000284018
 94
        0
1001
ACAD
1000
AcRTDxfName
1000
SCALE
1000
AcRTDxfName
1000
SCALE
1000
AcRTDxfName
1000
SCALE
1000
AcRTDxfName
1000
SCALE
1000
AcRTDxfName
1000
SCALE
  0
ACAD_PROXY_OBJECT
  5
5724
102
{ACAD_REACTORS
330
5705
102
}
330
5705
100
AcDbProxyObject
 90
      499
 91
      509
 95
   983063
 70
     0
 93
      233
310
90B3322203D2031272D30220000000000000002100000000000000284000
 94
        0
1001
ACAD
1000
AcRTDxfName
1000
SCALE
1000
AcRTDxfName
1000
SCALE
1000
AcRTDxfName
1000
SCALE
1000
AcRTDxfName
1000
SCALE
1000
AcRTDxfName
1000
SCALE
  0
ACAD_PROXY_OBJECT
  5
5725
102
{ACAD_REACTORS
330
5705
102
}
330
5705
100
AcDbProxyObject
 90
      499
 91
      509
 95
   983063
 70
     0
 93
      233
310
90B3622203D2031272D3022000000000000000610000000000000028405D
 94
        0
1001
ACAD
1000
AcRTDxfName
1000
SCALE
1000
AcRTDxfName
1000
SCALE
1000
AcRTDxfName
1000
SCALE
1000
AcRTDxfName
1000
SCALE
1000
AcRTDxfName
1000
SCALE
  0
ACAD_PROXY_OBJECT
  5
5726
102
{ACAD_REACTORS
330
5705
102
}
330
5705
100
AcDbProxyObject
 90
      499
 91
      509
 95
   983063
 70
     0
 93
      257
310
90E31272D3022203D2031272D3022000000000000000A10000000000000028401D
 94
        0
1001
ACAD
1000
AcRTDxfName
1000
SCALE
1000
AcRTDxfName
1000
SCALE
1000
AcRTDxfName
1000
SCALE
1000
AcRTDxfName
1000
SCALE
1000
AcRTDxfName
1000
SCALE
  0
TABLESTYLE
  5
5704
102
{ACAD_XDICTIONARY
360
5927
102
}
102
{ACAD_REACTORS
330
5703
102
}
330
5703
100
AcDbTableStyle
  3
Standard
 70
     0
 71
     0
 40
1.5
 41
1.5
280
     0
281
     0
  7
Standard
140
4.5
170
     2
 62
     0
 63
     7
283
     0
274
    -2
284
     1
 64
     0
275
    -2
285
     1
 65
     0
276
    -2
286
     1
 66
     0
277
    -2
287
     1
 67
     0
278
    -2
288
     1
 68
     0
279
    -2
289
     1
 69
     0
  7
Standard
140
6.0
170
     5
 62
     0
 63
     7
283
     0
274
    -2
284
     1
 64
     0
275
    -2
285
     1
 65
     0
276
    -2
286
     1
 66
     0
277
    -2
287
     1
 67
     0
278
    -2
288
     1
 68
     0
279
    -2
289
     1
 69
     0
  7
Standard
140
4.5
170
     5
 62
     0
 63
     7
283
     0
274
    -2
284
     1
 64
     0
275
    -2
285
     1
 65
     0
276
    -2
286
     1
 66
     0
277
    -2
287
     1
 67
     0
278
    -2
288
     1
 68
     0
279
    -2
289
     1
 69
     0
  0
ACAD_PROXY_OBJECT
  5
56F7
102
{ACAD_REACTORS
330
56F1
102
}
330
56F1
100
AcDbProxyObject
 90
      499
 91
      507
 95
   983063
 70
     0
 93
      444
310
430C9915DA5C99599C985B59401049028333333333333E3BF0000000000000FB0107901411070040501600405405064090741402480A0340
 94
        0
1001
ACAD
1000
AcDbSavedByObjectVersion
1070
     0
1000
AcRTDxfName
1000
VISUALSTYLE
1000
AcRTDxfName
1000
VISUALSTYLE
1000
AcRTDxfName
1000
VISUALSTYLE
1000
AcRTDxfName
1000
VISUALSTYLE
1000
AcRTDxfName
1000
VISUALSTYLE
  0
ACAD_PROXY_OBJECT
  5
56F9
102
{ACAD_REACTORS
330
56F1
102
}
330
56F1
100
AcDbProxyObject
 90
      499
 91
      507
 95
   983063
 70
     0
 93
      508
310
428CD108121A5919195B8010640502408333333333333E3BF0000000000000FB01079024090700405020000000000001110200405405064090740C02480A0340
 94
        0
1001
ACAD
1000
AcDbSavedByObjectVersion
1070
     0
1000
AcRTDxfName
1000
VISUALSTYLE
1000
AcRTDxfName
1000
VISUALSTYLE
1000
AcRTDxfName
1000
VISUALSTYLE
1000
AcRTDxfName
1000
VISUALSTYLE
1000
AcRTDxfName
1000
VISUALSTYLE
  0
ACAD_PROXY_OBJECT
  5
56F8
102
{ACAD_REACTORS
330
56F1
102
}
330
56F1
100
AcDbProxyObject
 90
      499
 91
      507
 95
   983063
 70
     0
 93
      444
310
430CD915DA5C99599C985B59401059028333333333333E3BF0000000000000FB0107901411070040501600405405064090741402480A0340
 94
        0
1001
ACAD
1000
AcDbSavedByObjectVersion
1070
     0
1000
AcRTDxfName
1000
VISUALSTYLE
1000
AcRTDxfName
1000
VISUALSTYLE
1000
AcRTDxfName
1000
VISUALSTYLE
1000
AcRTDxfName
1000
VISUALSTYLE
1000
AcRTDxfName
1000
VISUALSTYLE
  0
ACAD_PROXY_OBJECT
  5
56F6
102
{ACAD_REACTORS
330
56F1
102
}
330
56F1
100
AcDbProxyObject
 90
      499
 91
      507
 95
   983063
 70
     0
 93
      396
310
4190985CDA58C0107406404333333333333E3BF0000000000000FB0107A41107004050150841D405064090741402480A0354
 94
        0
1001
ACAD
1000
AcDbSavedByObjectVersion
1070
     0
1000
AcRTDxfName
1000
VISUALSTYLE
1000
AcRTDxfName
1000
VISUALSTYLE
1000
AcRTDxfName
1000
VISUALSTYLE
1000
AcRTDxfName
1000
VISUALSTYLE
1000
AcRTDxfName
1000
VISUALSTYLE
  0
ACAD_PROXY_OBJECT
  5
56FD
102
{ACAD_REACTORS
330
56F1
102
}
330
56F1
100
AcDbProxyObject
 90
      499
 91
      507
 95
   983063
 70
     0
 93
      436
310
42509C9A59DA1D195B8010C409028333333333333E3BF0000000000000FB010790141107004050150841D405064090741402480A02995A
 94
        0
1001
ACAD
1000
AcDbSavedByObjectVersion
1070
     0
1000
AcRTDxfName
1000
VISUALSTYLE
1000
AcRTDxfName
1000
VISUALSTYLE
1000
AcRTDxfName
1000
VISUALSTYLE
1000
AcRTDxfName
1000
VISUALSTYLE
1000
AcRTDxfName
1000
VISUALSTYLE
  0
ACAD_PROXY_OBJECT
  5
5701
102
{ACAD_REACTORS
330
56F1
102
}
330
56F1
100
AcDbProxyObject
 90
      499
 91
      507
 95
   983063
 70
     0
 93
      460
310
4310DBDB1BDC90DA185B99D9401104090240C333333333333E3BF0000000000000FB0108901411070040501508421405064090741402480A035E
 94
        0
1001
ACAD
1000
AcDbSavedByObjectVersion
1070
     0
1000
AcRTDxfName
1000
VISUALSTYLE
1000
AcRTDxfName
1000
VISUALSTYLE
1000
AcRTDxfName
1000
VISUALSTYLE
1000
AcRTDxfName
1000
VISUALSTYLE
1000
AcRTDxfName
1000
VISUALSTYLE
  0
ACAD_PROXY_OBJECT
  5
56FA
102
{ACAD_REACTORS
330
56F1
102
}
330
56F1
100
AcDbProxyObject
 90
      499
 91
      507
 95
   983063
 70
     0
 93
      508
310
42D0DBDB98D95C1D1D585B0010940D028333333333333E3BF0000000000000FB0107902409070040501000000000000111010841D405064090740C02480A0340
 94
        0
1001
ACAD
1000
AcDbSavedByObjectVersion
1070
     0
1000
AcRTDxfName
1000
VISUALSTYLE
1000
AcRTDxfName
1000
VISUALSTYLE
1000
AcRTDxfName
1000
VISUALSTYLE
1000
AcRTDxfName
1000
VISUALSTYLE
1000
AcRTDxfName
1000
VISUALSTYLE
  0
ACAD_PROXY_OBJECT
  5
56FC
102
{ACAD_REACTORS
330
56F1
102
}
330
56F1
100
AcDbProxyObject
 90
      499
 91
      507
 95
   983063
 70
     0
 93
      420
310
41111A5B4010B409028333333333333E3BF0000000000000FB010790141107004050150841D405064090741402480A02677FFFFFD2
 94
        0
1001
ACAD
1000
AcDbSavedByObjectVersion
1070
     0
1000
AcRTDxfName
1000
VISUALSTYLE
1000
AcRTDxfName
1000
VISUALSTYLE
1000
AcRTDxfName
1000
VISUALSTYLE
1000
AcRTDxfName
1000
VISUALSTYLE
1000
AcRTDxfName
1000
VISUALSTYLE
  0
ACAD_PROXY_OBJECT
  5
5700
102
{ACAD_REACTORS
330
56F1
102
}
330
56F1
100
AcDbProxyObject
 90
      499
 91
      507
 95
   983063
 70
     0
 93
      452
310
43119858D95C185D1D195C9B8010F409028333333333333E3BF0000000000000FB010790141107004050150841D405064090741402480A0354
 94
        0
1001
ACAD
1000
AcDbSavedByObjectVersion
1070
     0
1000
AcRTDxfName
1000
VISUALSTYLE
1000
AcRTDxfName
1000
VISUALSTYLE
1000
AcRTDxfName
1000
VISUALSTYLE
1000
AcRTDxfName
1000
VISUALSTYLE
1000
AcRTDxfName
1000
VISUALSTYLE
  0
ACAD_PROXY_OBJECT
  5
56F2
102
{ACAD_REACTORS
330
56F1
102
}
330
56F1
100
AcDbProxyObject
 90
      499
 91
      507
 95
   983063
 70
     0
 93
      396
310
41519B185D00240901404333333333333E3BF0000000000000F9010740A41107004050150841D405064090741402480A1B58
 94
        0
1001
ACAD
1000
AcDbSavedByObjectVersion
1070
     0
1000
AcRTDxfName
1000
VISUALSTYLE
1000
AcRTDxfName
1000
VISUALSTYLE
1000
AcRTDxfName
1000
VISUALSTYLE
1000
AcRTDxfName
1000
VISUALSTYLE
1000
AcRTDxfName
1000
VISUALSTYLE
  0
ACAD_PROXY_OBJECT
  5
56F3
102
{ACAD_REACTORS
330
56F1
102
}
330
56F1
100
AcDbProxyObject
 90
      499
 91
      507
 95
   983063
 70
     0
 93
      484
310
43919B185D15DA5D1A115919D95CC010140901404333333333333E3BF0000000000000F9010740901411070040501600405405064090741402480A1B58
 94
        0
1001
ACAD
1000
AcDbSavedByObjectVersion
1070
     0
1000
AcRTDxfName
1000
VISUALSTYLE
1000
AcRTDxfName
1000
VISUALSTYLE
1000
AcRTDxfName
1000
VISUALSTYLE
1000
AcRTDxfName
1000
VISUALSTYLE
1000
AcRTDxfName
1000
VISUALSTYLE
  0
ACAD_PROXY_OBJECT
  5
56F4
102
{ACAD_REACTORS
330
56F1
102
}
330
56F1
100
AcDbProxyObject
 90
      499
 91
      507
 95
   983063
 70
     0
 93
      420
310
4211DBDD5C985D590010240902404333333333333E3BF0000000000000F9010740A411070040501641D405064090741402480A1B58
 94
        0
1001
ACAD
1000
AcDbSavedByObjectVersion
1070
     0
1000
AcRTDxfName
1000
VISUALSTYLE
1000
AcRTDxfName
1000
VISUALSTYLE
1000
AcRTDxfName
1000
VISUALSTYLE
1000
AcRTDxfName
1000
VISUALSTYLE
1000
AcRTDxfName
1000
VISUALSTYLE
  0
ACAD_PROXY_OBJECT
  5
56F5
102
{ACAD_REACTORS
330
56F1
102
}
330
56F1
100
AcDbProxyObject
 90
      499
 91
      507
 95
   983063
 70
     0
 93
      508
310
4451DBDD5C985D5915DA5D1A115919D95CC010340902404333333333333E3BF0000000000000F9010740901411070040501600405405064090741402480A1B50
 94
        0
1001
ACAD
1000
AcDbSavedByObjectVersion
1070
     0
1000
AcRTDxfName
1000
VISUALSTYLE
1000
AcRTDxfName
1000
VISUALSTYLE
1000
AcRTDxfName
1000
VISUALSTYLE
1000
AcRTDxfName
1000
VISUALSTYLE
1000
AcRTDxfName
1000
VISUALSTYLE
  0
ACAD_PROXY_OBJECT
  5
56FF
102
{ACAD_REACTORS
330
56F1
102
}
330
56F1
100
AcDbProxyObject
 90
      499
 91
      507
 95
   983063
 70
     0
 93
      452
310
43131A5B995C185D1D195C9B8010E409028333333333333E3BF0000000000000FB010790141107004050750841D405064090741402483A0353
 94
        0
1001
ACAD
1000
AcDbSavedByObjectVersion
1070
     0
1000
AcRTDxfName
1000
VISUALSTYLE
1000
AcRTDxfName
1000
VISUALSTYLE
1000
AcRTDxfName
1000
VISUALSTYLE
1000
AcRTDxfName
1000
VISUALSTYLE
1000
AcRTDxfName
1000
VISUALSTYLE
  0
ACAD_PROXY_OBJECT
  5
56FB
102
{ACAD_REACTORS
330
56F1
102
}
330
56F1
100
AcDbProxyObject
 90
      499
 91
      507
 95
   983063
 70
     0
 93
      428
310
429499585B1A5CDD1A58C0108409028333333333333E3BF0000000000000FB01079019070040501508421405064090741402480A1B49
 94
        0
1001
ACAD
1000
AcDbSavedByObjectVersion
1070
     0
1000
AcRTDxfName
1000
VISUALSTYLE
1000
AcRTDxfName
1000
VISUALSTYLE
1000
AcRTDxfName
1000
VISUALSTYLE
1000
AcRTDxfName
1000
VISUALSTYLE
1000
AcRTDxfName
1000
VISUALSTYLE
  0
ACAD_PROXY_OBJECT
  5
56FE
102
{ACAD_REACTORS
330
56F1
102
}
330
56F1
100
AcDbProxyObject
 90
      499
 91
      507
 95
   983063
 70
     0
 93
      420
310
42151A1A58DAD95B8010D409028333333333333E3BF0000000000000FB010790141107004050150C41D405064090741402480A0352
 94
        0
1001
ACAD
1000
AcDbSavedByObjectVersion
1070
     0
1000
AcRTDxfName
1000
VISUALSTYLE
1000
AcRTDxfName
1000
VISUALSTYLE
1000
AcRTDxfName
1000
VISUALSTYLE
1000
AcRTDxfName
1000
VISUALSTYLE
1000
AcRTDxfName
1000
VISUALSTYLE
  0
DICTIONARYVAR
  5
5968
102
{ACAD_REACTORS
330
3B
102
}
330
3B
100
DictionaryVariables
280
     0
  1
1:1
  0
DICTIONARYVAR
  5
5967
102
{ACAD_REACTORS
330
3B
102
}
330
3B
100
DictionaryVariables
280
     0
  1
STANDARD
  0
DICTIONARYVAR
  5
5966
102
{ACAD_REACTORS
330
3B
102
}
330
3B
100
DictionaryVariables
280
     0
  1
STANDARD
  0
DICTIONARYVAR
  5
3D
102
{ACAD_REACTORS
330
3B
102
}
330
3B
100
DictionaryVariables
280
     0
  1
2
  0
DICTIONARYVAR
  5
3C
102
{ACAD_REACTORS
330
3B
102
}
330
3B
100
DictionaryVariables
280
     0
  1
1
  0
DICTIONARYVAR
  5
596A
102
{ACAD_REACTORS
330
3B
102
}
330
3B
100
DictionaryVariables
280
     0
  1
0
  0
DICTIONARYVAR
  5
5FB6
102
{ACAD_REACTORS
330
3B
102
}
330
3B
100
DictionaryVariables
280
     0
  1

  0
DICTIONARYVAR
  5
5969
102
{ACAD_REACTORS
330
3B
102
}
330
3B
100
DictionaryVariables
280
     0
  1
127
  0
DICTIONARY
  5
64AC
330
22
100
AcDbDictionary
280
     1
281
     1
  3
ACAD_XREC_ROUNDTRIP
360
64AD
  0
DICTIONARY
  5
5753
330
4E46
100
AcDbDictionary
280
     1
281
     1
  3
ACAD_XREC_ROUNDTRIP
360
64B2
  3
ADSK_XREC_LAYOUTTHUMBNAIL
360
5754
  0
DICTIONARY
  5
56E2
330
56E1
100
AcDbDictionary
280
     1
281
     1
  3
ACAD_XREC_ROUNDTRIP
360
5F5D
  3
BUMPTILE
360
56E4
  3
DIFFUSETILE
360
56E3
  3
OPACITYTILE
360
56E7
  3
REFLECTIONTILE
360
56E6
  3
REFRACTIONTILE
360
56E8
  3
SPECULARTILE
360
56E5
  0
DICTIONARY
  5
56DA
330
56D9
100
AcDbDictionary
280
     1
281
     1
  3
ACAD_XREC_ROUNDTRIP
360
5F5C
  3
BUMPTILE
360
56DC
  3
DIFFUSETILE
360
56DB
  3
OPACITYTILE
360
56DF
  3
REFLECTIONTILE
360
56DE
  3
REFRACTIONTILE
360
56E0
  3
SPECULARTILE
360
56DD
  0
DICTIONARY
  5
56EA
330
56E9
100
AcDbDictionary
280
     1
281
     1
  3
ACAD_XREC_ROUNDTRIP
360
5F5E
  3
BUMPTILE
360
56EC
  3
DIFFUSETILE
360
56EB
  3
OPACITYTILE
360
56EF
  3
REFLECTIONTILE
360
56EE
  3
REFRACTIONTILE
360
56F0
  3
SPECULARTILE
360
56ED
  0
DICTIONARY
  5
64AE
330
4441
100
AcDbDictionary
280
     1
281
     1
  3
ACAD_XREC_ROUNDTRIP
360
64AF
  0
DICTIONARY
  5
64B0
330
4442
100
AcDbDictionary
280
     1
281
     1
  3
ACAD_XREC_ROUNDTRIP
360
64B1
  0
DICTIONARY
  5
5927
330
5704
100
AcDbDictionary
280
     1
281
     1
  3
ACAD_ROUNDTRIP_2008_TABLESTYLE_CELLSTYLEMAP
360
5F40
  3
ACAD_XREC_ROUNDTRIP
360
5F5F
  0
XRECORD
  5
64AD
102
{ACAD_REACTORS
330
64AC
102
}
330
64AC
100
AcDbXrecord
280
     1
102
SHADEPLOT
 70
     0
102
SHADEPLOTRESLEVEL
 70
     2
102
SHADEPLOTCUSTOMDPI
 70
   300
  0
XRECORD
  5
64B2
102
{ACAD_REACTORS
330
5753
102
}
330
5753
100
AcDbXrecord
280
     1
102
SHADEPLOT
 70
     1
102
SHADEPLOTRESLEVEL
 70
     2
102
SHADEPLOTCUSTOMDPI
 70
   300
  0
XRECORD
  5
5754
102
{ACAD_REACTORS
330
5753
102
}
330
5753
100
AcDbXrecord
280
     1
310
28000000620000008C0000000100080000000000B0360000000000000000000000010000000000000000000000000000FFFFFF000000000000000000000000000000000000000000000000000000000000000000330000006600000099000000CC000000FF00000000330000333300006633000099330000CC330000FF3300
310
0000660000336600006666000099660000CC660000FF66000000990000339900006699000099990000CC990000FF99000000CC000033CC000066CC000099CC0000CCCC0000FFCC000000FF000033FF000066FF000099FF0000CCFF0000FFFF000000003300330033006600330099003300CC003300FF003300003333003333
310
33006633330099333300CC333300FF33330000663300336633006666330099663300CC663300FF66330000993300339933006699330099993300CC993300FF99330000CC330033CC330066CC330099CC3300CCCC3300FFCC330000FF330033FF330066FF330099FF3300CCFF3300FFFF330000006600330066006600660099
310
006600CC006600FF00660000336600333366006633660099336600CC336600FF33660000666600336666006666660099666600CC666600FF66660000996600339966006699660099996600CC996600FF99660000CC660033CC660066CC660099CC6600CCCC6600FFCC660000FF660033FF660066FF660099FF6600CCFF6600
310
FFFF660000009900330099006600990099009900CC009900FF00990000339900333399006633990099339900CC339900FF33990000669900336699006666990099669900CC669900FF66990000999900339999006699990099999900CC999900FF99990000CC990033CC990066CC990099CC9900CCCC9900FFCC990000FF99
310
0033FF990066FF990099FF9900CCFF9900FFFF99000000CC003300CC006600CC009900CC00CC00CC00FF00CC000033CC003333CC006633CC009933CC00CC33CC00FF33CC000066CC003366CC006666CC009966CC00CC66CC00FF66CC000099CC003399CC006699CC009999CC00CC99CC00FF99CC0000CCCC0033CCCC0066CC
310
CC0099CCCC00CCCCCC00FFCCCC0000FFCC0033FFCC0066FFCC0099FFCC00CCFFCC00FFFFCC000000FF003300FF006600FF009900FF00CC00FF00FF00FF000033FF003333FF006633FF009933FF00CC33FF00FF33FF000066FF003366FF006666FF009966FF00CC66FF00FF66FF000099FF003399FF006699FF009999FF00CC
310
99FF00FF99FF0000CCFF0033CCFF0066CCFF0099CCFF00CCCCFF00FFCCFF0000FFFF0033FFFF0066FFFF0099FFFF00CCFFFF00FFFFFF00000000000D0D0D001A1A1A00282828003535350043434300505050005D5D5D006B6B6B00787878008686860093939300A1A1A100AEAEAE00BBBBBB00C9C9C900D6D6D600E4E4E400
310
F1F1F100FFFFFF0000000000000000000000000000000000000000000000000000000000000000000000000000000000F5F5F5F5F5F5F5F5F5F5F5F5F5F5F5F5F5F5F5F5F5F5F5F5F5F5F5F5F5F5F5F5F5F5F5F5F5F5F5F5F5F5F5F5F5F5F5F5F5F5F5F5F5F5F5F5F5F5F5F5F5F5F5F5F5F5F5F5F5F5F5F5F5F5F5F5F5F5F5
310
F5F5F5F5F5F5F5F5F5F5F5F5F5F5F5F5F5F5F50000F5E2E2E2E2E2E2E2E2E2E2E2E2E2E2E2E2E2E2E2E2E2E2E2E2E2E2E2E2E2E2E2E2E2E2E2E2E2E2E2E2E2E2E2E2E2E2E2E2E2E2E2E2E2E2E2E2E2E2E2E2E2E2E2E2E2E2E2E2E2E2E2E2E2E2E2E2E2E2E2E2E2E2E2E2E2E2E2E2E2E2E2E2E2E2E2E2F50000F5E2E2E2E2E2
310
E2E2E2E2E2E2E2E2E2E2E2E2E2E2E2E2E2E2E2E2E2E2E2E2E2E2E2E2E2E2E2E2E2E2E2E2E2E2E2E2E2E2E2E2E2E2E2E2E2E2E2E2E2E2E2E2E2E2E2E2E2E2E2E2E2E2E2E2E2E2E2E2E2E2E2E2E2E2E2E2E2E2E2E2E2E2E2E2E2E2E2F50000F5E2F5F5F5F5F5F5F5F5E2E2E2E2E2E2E2E2F5F5F5F5F5F5F5F5F5F5F5F5F5F5F5
310
E2E2E2E2E2E2E2E2E2F5F5F5F5F5F5F5F5F5F5F5F5F5F5E2E2E2E2E2E2E2E2E2F5F5F5F5F5F5F5F5F5F5F5F5F5F5F5E2E2E2E2E2E2E2E2F5F5F5F5F5F5F5F5E2F50000F5E2F5E2E2E2E2E2E2E2E2E2E2E2E2E2E2E2E2E2E2E2E2E2E2E2E2E2F5F5E2E2E2E2E2E2E2E2E2E2E2E2E2E2E2E2E2E2E2E2E2E2E2E2E2E2E2E2E2E2
310
E2E2E2E2E2E2E2E2E2E2E2E2E2E2E2E2E2E2E2E2E2E2E2E2E2E2E2E2E2E2E2E2E2E2E2F5E2F50000F5E2F5E2E2E2E2F5F5F5F5F5F5F5F5F5F5F5F5F5F5F5F5F5F5F5F5F5F5F5F5F5F5F5F5F5F5F5F5F5F5F5F5F5F5F5F5F5F5F5F5F5F5F5F5F5F5F5F5F5F5F5F5F5F5F5F5F5F5F5F5F5F5F5F5F5F5F5F5F5F5F5F5F5F5F5F5
310
F5F5F5E2E2E2E2E2F5E2F50000F5E2F5E2E2E2E2F5F5F5F5F5F5F5F5F5F5F5F5F5F5F5F5F5F5F5F5F5F5F5F5F5F5F5F5F5F5F5F5F5F5F5F5F5F5F5F5F5F5F5F5F5F5F5F5F5F5F5F5F5F5F5F5F5F5F5F5F5F5F5F5F5F5F5F5F5F5F5F5F5F5F5F5F5F5F5F5F5F5F5F5E2E2E2E2F5E2F50000F5E2F5E2E2E2E2E2E2E2E2E2E2E2
310
E2E2E2E2E2E2E2E2E2E2E2E2E2E2E2E2E2E2E2E2E2E2E2E2E2E2E2E2E2E2E2E2E2E2E2E2E2E2E2E2E2E2E2E2E2E2E2E2E2E2E2E2E2E2E2E2E2E2E2E2E2E2E2E2E2E2E2E2E2E2E2E2E2E2E2E2E2E2E2E2E2F5E2F50000F5E2F5E2E2E2E2F5F5F5F5F5F5F5F5F5F5F5F5F5F5F5F5F5F5F5F5F5F5F5F5F5F5F5F5F5F5F5F5F5F5
310
F5F5F5F5F5F5F5F5F5F5F5F5F5F5F5F5F5F5F5F5F5F5F5F5F5F5F5F5F5F5F5F5F5F5F5F5F5F5F5F5F5F5F5F5F5F5F5F5F5F5E2E2E2E2F5E2F50000F5E2F5E2E2E2E2F5F5E2E2E2E2E2E2E2E2E2E2E2E2E2E2E2E2E2E2E2E2E2E2E2E2E2E2E2E2E2E2E2E2E2E2E2E2E2E2E2E2E2E2E2E2E2E2E2E2E2E2E2E2E2E2E2E2E2E2E2
310
E2E2E2E2E2E2E2E2E2E2E2E2E2E2E2E2E2E2E2E2E2E2F5E2E2E2E2F5E2F50000F5E2F5E2E2E2E2F5F5E2E2E2E2E2E2E2E2E2E2E2E2E2E2E2E2E2E2E2E2E2E2E2E2E2E2E2E2E2E2E2E2E2E2E2E2E2E2E2E2E2E2E2E2E2E2E2E2E2E2E2E2E2E2E2E2E2E2E2E2E2E2E2E2E2E2E2E2E2E2E2E2E2E2E2E2E2E2E2E2E2F5E2E2E2E2
310
F5E2F50000F5E2F5E2E2E2E2F5F5E2E2E2E2E2E2E2E2E2E2E2E2E2E2E2E2E2E2E2E2E2E2E2E2E2E2E2E2E2E2E2E2E2E2E2E2E2E2E2E2E2E2E2E2E2E2E2E2E2E2E2E2E2E2E2E2E2E2E2E2E2E2E2E2E2E2E2E2E2E2E2E2E2E2E2E2E2E2E2E2E2F5E2E2E2E2F5E2F50000F5E2E2E2E2E2E2F5F5E2E2E2E2E2E2E2E2E2E2E2E2E2
310
E2E2E2E2E2E2E2E2E2E2E2E2E2E2E2E2E2E2E2E2E2E2E2E2E2E2F5F5F5F5F5F5F5F5F5F5F5F5F5E2E2E2E2E2E2E2E2E2E2E2E2E2E2E2E2E2E2E2E2E2E2E2E2E2E2E2E2E2F5E2E2E2E2E2E2F50000F5E2E2E2E2E2E2F5F5E2E2E2E2E2E2E2E2E2E2E2E2E2E2E2E2E2E2E2E2E2E2E2E2E2E2E2E2E2E2E2E2E2E2E2E2E2EFEFF5
310
F5F5F5F5F5F5F5F5F5F5F5F5E2E2E2E2E2E2E2E2E2E2E2E2E2E2E2E2E2E2E2E2E2E2E2E2E2E2E2E2E2F5E2E2E2E2E2E2F50000F5E2E2E2E2E2E2F5F5E2E2E2E2E2E2E2E2E2E2E2E2E2E2E2E2E2E2E2E2E2E2E2E2E2E2E2E2E2E2E2E2E2E2E2E2E2EFEFF5F5F5F5F5F5F5F5F5F5F5F5F5E2E2E2E2E2E2E2E2E2E2E2E2E2E2E2
310
E2E2E2E2E2E2E2E2E2E2E2E2E2E2F5E2E2E2E2E2E2F50000F5E2E2E2E2E2E2F5F5E2E2E2E2E2E2E2E2E2E2E2E2E2E2E2E2E2E2E2E2E2E2E2E2E2E2E2E2E2E2E2E2E2E2E2E2EFEFEFF5F5F5F5F5F5F5F5F5F5F5F5F5E2E2E2E2E2E2E2E2E2E2E2E2E2E2E2E2E2E2E2E2E2E2E2E2E2E2E2E2E2F5E2E2E2E2E2E2F50000F5E2E2
310
E2E2E2E2F5F5E2E2E2E2E2E2E2E2E2E2E2E2E2E2E2E2E2E2E2E2E2E2E2E2E2E2E2E2E2E2E2E2E2E2E2E2EFEFE2F5F5F5F5F5F5F5F5F5E2E2E2E2E2E2E2E2E2E2E2E2E2E2E2E2E2E2E2E2E2E2E2E2E2E2E2E2E2E2E2E2E2F5E2E2E2E2E2E2F50000F5E2E2E2E2E2E2F5F5E2E2E2E2E2E2E2E2E2E2E2E2E2E2E2E2E2E2E2E2E2
310
E2E2E2E2E2E2E2E2E2E2E2E2E2E2E2EFEFE2F5F5F5F5F5F5F5F5F5E2E2E2E2E2E2E2E2E2E2E2E2E2E2E2E2E2E2E2E2E2E2E2E2E2E2E2E2E2E2E2E2E2F5E2E2E2E2E2E2F50000F5E2E2E2E2E2E2F5F5E2E2E2E2E2E2E2E2E2E2E2E2E2E2E2E2E2E2E2E2E2E2E2E2E2E2E2E2E2E2E2E2E2E2E2E2EFEFE2E2E2E2E2E2E2E2E2E2
310
E2E2E2E2E2E2E2E2E2E2E2E2E2E2E2E2E2E2E2E2E2E2E2E2E2E2E2E2E2E2E2E2E2F5E2E2E2E2E2E2F50000F5E2E2E2E2E2E2F5F5E2E2E2E2E2E2E2E2E2E2E2E2E2E2E2E2E2E2E2E2E2E2E2E2E2E2E2E2E2E2E2E2E2E2E2E2EFEFE2E2E2E2E2E2E2E2E2E2E2E2E2E2E2E2E2E2E2E2E2E2E2E2E2E2E2E2E2E2E2E2E2E2E2E2E2
310
E2E2E2E2E2E2F5E2E2E2E2E2E2F50000F5E2E2E2E2E2E2F5F5E2E2E2E2E2E2E2E2E2E2E2E2E2E2E2E2E2E2E2E2E2E2E2E2E2E2E2E2E2E2E2E2E2E2E2EFEFDCE2E2E2E2E2E2E2E2E2E2E2E2E2F5F5F5F5F5F5F5F5F5F5F5F5F5E2E2E2E2E2E2E2E2E2E2E2E2E2E2E2E2E2F5E2E2E2E2E2E2F50000F5E2F5E2E2E2E2F5F5E2E2
310
E2E2E2E2E2E2E2E2F5F5F5F5F5E2E2E2E2E2E2E2F5F5F5F5E2E2E2F5F5F5F5E2E2EFEFE2E2E2E2F5F5F5F5F5F5F5F5E2E2F5F5F5F5F5F5F5F5F5F5F5E2F5E2E2E2E2E2E2E2E2E2E2E2E2E2E2E2E2E2F5E2E2E2E2F5E2F50000F5E2F5E2E2E2E2F5F5E2E2E2E2E2E2E2E2E2E2E2E2E2E2E2E2E2E2E2E2E2E2E2E2E2E2E2E2E2
310
F5F5F5F5E2E2EFEFE2E2E2E2F5F5F5F5F5F5F5F5E2E2F5E2E2E2E2E2E2E2E2E2E2E2F5E2E2E2E2E2E2E2E2E2E2E2E2E2E2E2E2E2F5E2E2E2E2F5E2F50000F5E2F5E2E2E2E2F5F5E2EFEFEFEFEFEFEFEFEFEFEFEFEFEFEFE2E2E2E2E2E2EFEFEFEFEFEFEFEFEFEFEFEFEFEFEFEFE2E2E2F5F5F5F5E2E2E2E2E2E2F5F5F5F5F5
310
F5F5F5F5F5F5F5F5E2E2E2E2E2E2E2E2E2E2E2E2E2E2E2E2E2F5E2E2E2E2F5E2F50000F5E2F5E2E2E2E2F5F5E2EFEFE2EFEFE2EFEFEFEFE2ECECECECE2E2E2E2E2E2ECECECE2E2EFEFEFEFEFEFEFEFEFEFEFEFEFEFF5F5F5F5E2E2E2E2E2E2E2E2E2E2E2E2E2E2E2E2E2E2E2E2E2E2E2E2E2E2E2E2E2E2E2E2E2E2E2E2F5E2
310
E2E2E2F5E2F50000F5E2F5E2E2E2E2F5F5E2F5F5F5F5F5E2EFEFEFEFF5ECECECECF5E2E2E2E2F5ECECECF5F5EFEFEFEFEFE2E2E2E2E2E2EFEFEFEFEFEFE2E2E2F5F5F5F5F5E2E2E2E2E2E2E2E2E2E2E2E2E2E2E2E2E2E2E2E2E2E2E2E2E2E2E2E2E2F5E2E2E2E2F5E2F50000F5E2F5E2E2E2E2F5F5E2E2E2E2E2E2E2EFEFEF
310
EFECECECECECECE2E2E2E2ECECECECECECEFEFEFEFE2E2E2E2E2E2E2E2EFEFEFEFEFEFE2E2F5F5F5F5F5E2E2E2E2E2E2E2E2E2E2E2E2E2E2E2E2E2E2E2E2E2EFEFE2E2E2E2E2E2F5E2E2E2E2F5E2F50000F5E2F5E2E2E2E2F5F5E2E2E2E2E2E2E2EFEFEFEFF5F5F5F5F5F5E2E2E2E2F5F5F5F5F5F5EFEFEFEFE2E2E2E2E2E2
310
E2E2E2EFEFEFEFEFEFEFEFEFE2E2E2E2E2E2E2E2E2E2E2E2E2E2E2E2E2E2E2E2E2E2E2EFF5F5F5F5F5E2E2E2F5E2E2E2E2F5E2F50000F5E2F5E2E2E2E2F5F5E2E2E2E2E2E2E2E2EFEFEFF5F5E2E2E2E2E2E2E2E2E2E2E2F5E2F5EFEFEFEFE2E2E2E2E2E2E2E2E2EFEFEFEFF5F5ECECECEFE2E2E2E2E2E2F5F5F5F5F5E2E2E2
310
E2E2E2E2E2E2E2E2EFF5F5F5F5F5E2E2E2F5E2E2E2E2F5E2F50000F5E2F5E2E2E2E2F5F5E2E2E2E2E2E2E2E2EFEFEFF5F5F5F5F5F5E2E2E2E2F5F5F5F5F5F5EFEFEFEFE2E2E2E2E2E2E2E2EFEFEFEFEFECECECECECE2E2E2E2E2E2E2F5F5F5F5F5E2E2E2E2E2E2E2E2E2E2EFEFE2E2E2E2E2E2E2E2F5E2E2E2E2F5E2F50000
310
F5E2F5E2E2E2E2F5F5E2E2E2E2E2E2E2E2E2EFEFECECECECECECE2E2E2E2ECECECECECECEFEFEFEFEFE2E2E2E2E2E2E2EFEFEFEFE2F5ECECECECF5E2E2E2E2E2EFEFE2E2E2E2E2E2E2E2E2E2E2E2E2E2EFE2E2E2E2E2E2E2E2E2F5E2E2E2E2F5E2F50000F5E2F5E2E2E2E2F5F5E2E2E2E2E2E2E2E2E2EFEFF5ECECECECF5E2
310
E2E2E2F5ECECECECF5EFEFEFEFEFEFEFEFE2E2EFEFEFEFEFEFE2F5F5F5ECECE2E2E2E2E2E2ECECEFEFEFE2E2E2F5F5F5F5E2E2E2EFEFE2E2E2E2E2E2E2E2E2F5E2E2E2E2F5E2F50000F5E2F5E2E2E2E2F5F5E2E2E2E2E2E2E2E2E2EFEFEFEFECECECE2E2E2E2E2E2ECECECEFEFEFEFEFEFEFEFEFEFEFEFEFEFE2EFEFEFF5F5
310
E2E2E2E2E2E2E2E2ECECECECECEFEFEFEFEFF5F5F5F5E2E2E2EFE2E2E2E2E2E2E2E2E2E2F5E2E2E2E2F5E2F50000F5E2F5E2E2E2E2F5F5E2E2E2E2E2E2E2E2E2EFEFE2E2E2E2E2E2E2E2E2E2E2E2E2E2E2E2E2E2E2E2E2E2E2E2EFEFEFEFEFEFEFE2ECF5F5E2E2E2E2E2E2E2ECECECECECF5E2EFEFEFEFEFEFE2E2E2EFE2E2
310
E2E2E2E2E2E2E2E2E2F5E2E2E2E2F5E2F50000F5E2F5E2E2E2E2F5F5E2E2E2E2E2E2E2E2EFEFEFE2E2E2E2E2E2E2E2E2E2E2E2E2E2E2E2E2E2E2E2E2E2E2E2E2E2E2EFEFEFEFF5ECECECECECE2E2E2E2E2E2F5F5ECECECEFEFEFDCEFEFEFEFEFE2EFE2E2E2E2E2E2E2E2E2E2E2F5E2E2E2E2F5E2F50000F5E2F5E2E2E2E2F5
310
F5E2E2E2E2E2E2E2E2EFEFEFE2E2E2E2E2E2E2E2E2E2E2E2E2E2E2E2E2E2E2E2E2E2E2E2E2E2E2E2E2E2EFEFEFECECECECE2E2E2E2E2E2E2E2F5F5E2EFEFEFEFEFEFE2EFEFEFEFE2E2E2E2E2E2E2E2E2E2E2F5E2E2E2E2F5E2F50000F5E2F5E2E2E2E2F5F5E2E2E2E2E2E22828EC282828E2E2E2E2E2E2E2E2E2E2E2E2E2E2
310
E2E2E2E2E2E2E2E2E2E2E2E2E2E2E2E2E2E2EFEFECE2E2E2E2E2ECF5F5F5E2F5E2EFEFEFEFE2E2E2E2E2EFEFEFE2F5F5F5F5F5E2E2E2E2F5E2E2E2E2F5E2F50000F5E2F5E2E2E2E2F5F5E2E2E2E2E2E2ECECECE2EC28E2E2E2E2E2E2E2E2E2E2E2E2E2E2E2E2E2E2E2E2E2E2E2E2E2E2E2E2E2E2E2E2E2E2E2E2E2E2E2E2EC
310
ECECF5F5F5EFEFEFEFE2E2E2E2E2E2E2EFEFEFF5F5F5F5F5E2E2E2E2F5E2E2E2E2F5E2F50000F5E2E2E2E2E2E2F5F5E2E2E2E2E2E228ECE2ECEC28E2E2E2E2E2E2E2E2E2E2E2E2E2E2E2E2E2E2E2E2E2E2E2E2E2E2E2E2E2E2E2E2E2E2E2E2E2E2E2E2ECECECECECF5EFEFEFEFE2E2E2E2E2E2E2E2EFEFEFDCE2E2E2E2E2E2
310
E2F5E2E2E2E2E2E2F50000F5E2E2E2E2E2E2F5F5E2E2E2E2E2E228ECE2ECEC28E2E2E2E2E2E2E2E2E2E2E2E2E2E2E2E2E2E2E2E2E2E2E2E2E2E2E2E2E2E2E2E2E2E2E2E2E2E2E2E2EFECECF5F5EFEFEFEFEFE2E2E2E2E2E2E2E2EFEFE2EFEFE2E2E2E2E2E2F5E2E2E2E2E2E2F50000F5E2E2E2E2E2E2F5F5E2E2E2E2E2E228
310
ECE2ECEC28E2E2E2E2E2E2E2E2E2E2E2E2E2E2E2E2E2E2E2E2E2E2F5F5F5F5F5F5F5F5F5F5F5F5E2E2E2E2E2E2E2E2DCEFEFEFEFEFE2EFEFE2E2E2E2E2E2E2EFEFEFEFEFEFE2F5F5F5F5F5E2E2E2E2E2E2F50000F5E2E2E2E2E2E2F5F5E2E2E2E2E2E228ECECECEC28E2E2E2E2E2E2E2E2E2E2E2E2E2E2E2E2E2E2E2E2E2E2
310
F5F5F5F5F5F5F5F5F5F5F5F5E2E2E2E2E2E2E2E2E2E2E2EFEFEFEFEFEFE2E2E2E2E2E2E2EFEFEFEFEFEFDCF5F5F5F5F5E2E2E2E2E2E2F50000F5E2E2E2E2E2E2F5F5E2E2E2E2E2E228ECE2ECEC28E2E2E2E2E2E2E2E2E2E2E2E2E2E2E2E2E2E2E2E2E2E2E2E2E2E2E2E2E2E2E2E2E2E2E2E2E2E2E2E2E2E2E2E2E2E2E2E2EF
310
EFEFEFEFE2E2E2E2EFEFEFEFEFE2E2EFEFDCE2E2F5E2E2E2E2E2E2F50000F5E2E2E2E2E2E2F5F5E2E2E2E2E2E228ECECECEC28E2E2E2E2E2E2E2E2E2E2E2E2DCDCDCDCDCDCDCDCDCDCDCDCDCDCDCE2E2E2E2E2E2E2E2E2E2E2E2E2E2E2E2E2E2E2E2E2E2E2E2EFEFEFEFEFEFEFEFEFEFE2ECE2ECECEFEFE2F5E2E2E2E2E2E2
310
F50000F5E2E2E2E2E2E2F5F5E2E2E2E2E2E2ECECECECEC28E2E2E2E2E2E2E2E2E2E2F5F5DCDCDCDCDCDCDCDCDCDCDCDCDCDCDCDCDCDCDCE2E2E2E2E2E2E2E2E2E2E2E2E2E2E2E2E2E2E2E2E2EFEFEFEFEFEFEFEFEFF5E2ECECECECE2E2F5E2E2E2E2E2E2F50000F5E2E2E2E2E2E2F5F5E2E2E2E2E2E228ECECE2EC28E2E2E2
310
E2E2E2E2E2E2E2F5F5DCDCE2E2E2E2E2E2E2E2E2DCDCE2E2E2DCDCDCDCDCDCDCE2E2E2E2E2E2E2E2E2E2E2E2E2E2E2E2E2E2E2EFEFDCEFEFEFE2F5F5E2ECECE2E2E2F5E2E2E2E2E2E2F50000F5E2E2E2E2E2E2F5F5E2E2E2E2E2E228ECECE2EC28E2E2E2E2E2E2E2E2E2E2F5F5DCDCE2E2E2E2E2E2E2E2E2DCDCE2E2E2E2E2
310
E2E2DCDCE2DCDCDCE2E2E2E2E2E2E2E2E2E2E2E2E2E2E2E2E2EFEFEFEFECF5E2F5F5F5ECECE2E2F5E2E2E2E2E2E2F50000F5E2E2E2E2E2E2F5F5E2E2E2E2E2E2ECECECECEC28E2E2E2E2E2E2E2E2E2E2ECE2DCDCE2E2E2E2E2E2E2E2E2DCDCE2E2E2E2E2E2E2DCDCE2F5F5DCDCDCDCE2E2E2E2E2E2E2E2E2E2E2E2E2E2E2EF
310
EFEFECECF5E2E2E2F5E2E2E2F5E2E2E2E2E2E2F50000F5E2F5E2E2E2E2F5F5E2E2E2E2E2E2282828ECE228E2E2E2E2E2E2E2E2E2E2ECE2DCDCE2E2E2E2E2E2E2E2E2DCDCE2E2E2E2E2E2E2DCDCE2F5F5E2E2E2DCDCDCE2E2E2E2E2E2E2E2E2E2E2E2E2E2E2EFECECECECE2E2E2E2E2E2F5E2E2E2E2F5E2F50000F5E2F5E2E2
310
E2E2F5F5E2E2E2E2E2E2E2E228ECECECE2E2E2E2E2E2E2E2E2E2ECE2DCDCE2E2E2E2E2E2E2E2E2DCDCE2E2E2E2E2E2E2DCDCE2ECE2E2E2E2E2DCDCE2E2E2E2E2E2E2E2E2E2E2E2E2E2E2E2EFECECECECE2E2E2E2E2F5E2E2E2E2F5E2F50000F5E2F5E2E2E2E2F5F5E2E2E2E2E2E2282828E2EC28E2E2E2E2E2E2E2E2E2E2EC
310
ECECDCECECECECE2E2E2ECECECECE2E2E2E2E2E2E2DCDCE2ECE2E2E2E2E2DCDCE2E2E2E2E2E2E2E2E2E2E2E2E2E2E2E2E2EFECECECE2E2E2E2E2F5E2E2E2E2F5E2F50000F5E2F5E2E2E2E2F5F5E2E2E2E2E2E2282828282828E2E2E2E2E2E2E2E2E2E2E2E2DCDCE2E2E2E2E2E2E2E2E2DCDCECECE2E2E2E2E2DCDCE2ECE2E2
310
E2E2E2DCDCE2E2E2E2E2E2E2E2E2E2E2E2E2E2E2E2E2E2E2E2E2E2E2E2E2E2F5E2E2E2E2F5E2F50000F5E2F5E2E2E2E2F5F5E2E2E2E2E2E2E2E2E2E2E2E2E2E2E2E2E2E2E2E2E2E2E2E2DCDCE2E2E2E2E2E2E2E2E2DCDCE2E2E2E2E2ECECECECE2ECE2E2E2E2E2DCDCE2E2E2E2E2E2E2E2E2E2E2E2E2E2E2E2E2E2E2E2E2E2
310
E2E2E2E2F5E2E2E2E2F5E2F50000F5E2F5E2E2E2E2F5F5E2E2E2E2E2E2E2E2E2E2E2E2E2E2E2E2E2E2E2E2E2E2E2E2DCDCE2E2E2E2E2E2E2E2E2DCDCE2E2E2E2E2E2E2DCDCECECE2E2E2E2E2DCDCE2E2E2E2E2E2E2E2E2E2E2E2E2E2E2E2E2E2E2E2E2E2E2E2E2E2F5E2E2E2E2F5E2F50000F5E2F5E2E2E2E2F5F5E2E2E2E2
310
E2E2E2E2E2E2E2E2E2E2E2E2E2E2E2E2E2E2E2E2DCDCDCDCDCDCDCDCDCDCDCDCDCDCE2E2E2E2E2E2DCDCE2E2E2E2E2E2E2DCDCE2E2E2E2E2E2E2E2E2E2E2E2E2E2E2E2E2E2E2E2E2E2E2E2E2E2F5E2E2E2E2F5E2F50000F5E2F5E2E2E2E2F5F5E2E2E2E2E2E2E2E2E2E2E2E2E2E2E2E2E2E2E2E2E2E2E2E2DCDCDCDCDCDCDC
310
DCDCDCDCDCDCDCDCDCDCDCDCE2DCDCE2E2E2E2E2E2E2DCDCE2E2E2E2E2E2E2E2E2E2E2E2E2E2E2E2E2E2E2E2E2E2E2E2E2E2F5E2E2E2E2F5E2F50000F5E2F5E2E2E2E2F5F5E2E2E2E2E2E2E2E2E2E2E2E2E2E2E2E2E2E2E2E2E2E2E2E2E2E2E2E2E2E2E2E2E2E2E2E2E2E2E2E2DCDCDCDCDCDCDCE2E2E2E2E2E2DCDCE2E2E2
310
E2E2E2E2E2E2E2E2E2E2E2E2E2E2E2E2E2E2E2E2E2E2E2F5E2E2E2E2F5E2F50000F5E2F5E2E2E2E2F5F5E2E2E2E2E2E2E2E2E2E2E2E2E2E2E2E2E2E2E2E2E2E2E2E2E2E2E2E2E2E2E2E2E2E2E2E2E2E2E2E2E2E2E2E2E2E2E2DCDCE2E2E2E2DCDCE2E2E2E2E2E2E2E2E2E2E2E2E2E2E2E2E2E2E2E2E2E2E2E2E2E2F5E2E2E2
310
E2F5E2F50000F5E2F5E2E2E2E2F5F5E2E2E2E2E2E2E2E2E2E2E2E2E2E2E2E2E2E2E2E2E2E2E2E2E2E2E2E2E2E2E2E2E2E2E2E2E2E2E2E2E2E2E2E2E2E2E2E2E2DCDCDCE2DCDCE2E2E2E2E2E2E2E2E2E2E2E2E2E2E2E2E2E2E2E2E2E2E2E2E2E2F5E2E2E2E2F5E2F50000F5E2F5E2E2E2E2F5F5E2E2E2E2E2E2E2E2E2E2E2E2
310
E2E2E2E2E2E2E2E2E2E2E2E2E2E2E2E2E2E2E2E2E2E2E2E2E2E2E2E2E2E2E2E2E2E2E2E2E2E2E2DCDCDCDCE2E2E2E2E2E2E2E2E2E2E2E2E2E2E2E2E2E2E2E2E2E2E2E2E2E2F5E2E2E2E2F5E2F50000F5E2F5E2E2E2E2F5F5E2E2E2E2E2E2E2E2E2E2E2E2E2E2E2E2E2E2E2E2E2E2E2E2E2E2E2E2E2E2E2E2E2E2E2E2E2E2E2
310
E2E2E2E2E2E2E2E2E2E2E2E2E2E2DCDCE2E2E2E2E2E2E2E2E2E2E2E2E2E2E2E2E2E2E2E2E2E2E2E2E2E2F5E2E2E2E2F5E2F50000F5E2F5E2E2E2E2F5F5E2E2E2E2E2E2E2E2E2E2E2E2E2E2E2E2E2E2E2E2E2E2E2E2E2E2E2E2E2E2E2E2E2E2E2E2E2E2E2E2E2E2E2E2E2E2E2E2E2E2E2E2E2E2E2E2E2E2E2E2E2E2E2E2E2E2
310
E2E2E2E2E2E2E2E2E2E2E2E2E2E2E2F5E2E2E2E2F5E2F50000F5E2F5E2E2E2E2F5F5E2E2E2E2E2E2E2E2E2E2E2E2E2E2E2E2E2E2E2E2E2E2E2E2E2E2E2E2E2E2E2E2E2E2E2E2E2E2E2E2E2E2E2E2E2E2E2E2E2E2E2E2E2E2E2E2E2E2E2E2E2E2E2E2E2E2E2E2E2E2E2E2E2E2E2E2E2E2E2E2E2F5E2E2E2E2F5E2F50000F5E2
310
F5E2E2E2E2F5F5E2E2E2E2E2E2E2E2E2E2E2E2E2E2E2E2E2E2E2E2E2E2E2E2E2E2E2E2E2E2E2E2E2E2E2E2E2E2E2E2E2E2E2E2E2E2E2E2E2E2E2E2E2E2E2E2E2E2E2E2E2E2E2E2E2E2E2E2E2E2E2E2E2E2E2E2E2E2E2E2E2F5E2E2E2E2F5E2F50000F5E2F5E2E2E2E2F5F5E2E2E2E2E2E2E2E2E2E2E2E2E2E2E2E2E2E2E2E2
310
E2E2E2E2E2E2E2E2E2E2E2E2E2E2E2E2E2E2E2E2E2E2E2E2E2E2E2E2E2E2E2E2E2E2E2E2E2E2E2E2E2E2E2E2E2E2E2E2E2E2E2E2E2E2E2E2E2E2E2E2E2F5E2E2E2E2F5E2F50000F5E2E2E2E2E2E2F5F5E2E2E2E2E2E2E2E2E2E2E2E2E2E2E2E2E2E2E2E2E2E2E2E2E2E2E2E2E2E2E2E2E2E2E2E2E2E2E2E2E2E2E2E2E2E2E2
310
E2E2E2E2E2E2E2E2E2E2E2E2E2E2E2E2E2E2E2E2E2E2E2E2E2E2E2E2E2E2E2E2E2E2F5E2E2E2E2E2E2F50000F5E2E2E2E2E2E2F5F5E2E2E2E2E2E2E2E2E2E2E2E2E2E2E2E2E2E2E2E2E2E2E2E2E2E2E2E2E2E2E2E2E2E2E2E2E2E2E2E2E2E2E2E2E2E2E2E2E2E2E2E2E2E2E2E2E2E2E2E2E2E2E2E2E2E2E2E2E2E2E2E2E2E2
310
E2E2E2E2E2E2E2F5E2E2E2E2E2E2F50000F5E2E2E2E2E2E2F5F5E2E2E2E2E2E2E2E2E2E2E2E2E2E2E2E2E2E2E2E2E2E2E2E2E2E2E2E2E2E2E2E2E2E2E2E2E2E2E2E2E2E2E2E2E2E2E2E2E2E2E2E2E2E2E2E2E2E2E2E2E2E2E2E2E2E2E2E2E2E2E2E2E2E2E2E2E2E2E2E2E2F5E2E2E2E2E2E2F50000F5E2E2E2E2E2E2F5F5E2
310
E2E2E2E2E2E2E2E2E2E2E2E2E2E2E2E2E2E2E2E2E2E2E2E2E2E2E2E2E2E2E2E2E2E2E2E2E2E2E2E2E2E2E2E2E2E2E2E2E2E2E2E2E2E2E2E2E2E2E2E2E2E2E2E2E2E2E2E2E2E2E2E2E2E2E2E2E2E2E2E2F5E2E2E2E2E2E2F50000F5E2E2E2E2E2E2F5F5E2E2E2E2E2E2E2E2E2E2E2F5F5F5F5F5E2E2E2E2E2E2E2E2E2E2E2E2
310
E2E2F5F5F5F5F5E2E2E2E2E2E2E2E2E2E2E2E2E2E2E2E2E2E2E2E2E2E2E2E2E2E2E2E2E2E2E2E2E2E2E2E2E2E2E2E2E2E2E2E2E2E2F5E2E2E2E2E2E2F50000F5E2E2E2E2E2E2F5F5E2E2E2E2E2E2E2E2E2E2E2F5F5F5F5F5E2E2E2E2E2E2E2E2E2E2E2E2E2E2F5F5F5F5F5E2E2E2E2E2E2E2E2E2E2E2E2E2E2E2E2E2E2E2E2
310
E2E2E2E2E2E2E2E2E2E2E2E2E2E2E2E2E2E2E2E2E2E2E2E2E2E2F5E2E2E2E2E2E2F50000F5E2E2E2E2E2E2F5F5E2E2EFEFEFEFEFEFEFEFEFEFEFEFEFEFEFE2E2E2E2E2E2E2E2E2E2E2E2E2EFEFEFEFEFEFEFEFEFEFEFEFEFEFEFEFE2E2E2E2E2E2E2E2E2E2E2E2E2E2E2E2E2E2E2E2E2E2E2E2E2E2E2E2E2E2E2E2E2E2E2F5
310
E2E2E2E2E2E2F50000F5E2E2E2E2E2E2F5F5E2E2EFEFEFEFEFEFEFEFEFEFEFEFECECECE2E2E2E2E2E2E2E2E2E2E2E2E2ECECECEFEFEFEFEFEFEFEFEFEFEFEFEFF5F5F5F5F5F5F5F5F5F5F5F5F5E2E2E2E2E2E2E2E2E2E2E2E2E2E2E2E2E2E2E2E2E2E2F5E2E2E2E2E2E2F50000F5E2E2E2E2E2E2F5F5E2E2F5F5F5F5F5E2EF
310
EFEFEFE2ECECECECE2E2E2E2E2E2E2E2E2E2E2E2E2ECECECECE2EFEFEFEFE2E2E2E2E2E2EFF5F5F5F5F5F5F5F5F5F5F5F5F5E2E2E2E2E2E2E2E2E2E2E2E2E2E2E2E2E2E2E2E2E2E2F5E2E2E2E2E2E2F50000F5E2F5E2E2E2E2F5F5E2E2F5F5F5F5F5E2EFEFEFEFECECECECECECE2E2E2E2E2E2E2E2E2E2E2ECECECECECECEF
310
EFEFEFE2E2E2E2E2E2F5F5F5F5F5F5F5F5F5F5F5F5F5E2E2E2E2E2E2E2E2E2E2E2E2E2E2E2E2E2E2E2E2E2E2E2F5E2E2E2E2F5E2F50000F5E2F5E2E2E2E2F5F5E2E2E2E2E2E2E2E2EFEFEFEFF5ECECECECECE2E2E2E2E2E2E2E2E2E2E2ECECECECECF5EFEFEFE2E2E2E2E2E2E2EFF5F5F5F5F5F5F5F5F5F5F5F5F5F5F5F5F5
310
E2E2E2E2E2E2E2E2E2E2E2E2E2E2E2E2E2E2F5E2E2E2E2F5E2F50000F5E2F5E2E2E2E2F5F5E2E2E2E2E2E2E2E2E2EFEFEFF5F5E2E2E2E2E2E2E2E2E2E2E2E2E2E2E2E2E2E2E2F5F5EFEFEFE2E2E2E2E2E2E2EFF5F5F5F5F5F5F5F5F5F5F5F5F5F5F5F5F5E2E2E2E2E2E2E2E2E2E2E2E2E2E2E2E2E2E2F5E2E2E2E2F5E2F500
310
00F5E2F5E2E2E2E2F5F5E2E2E2E2E2E2E2E2E2EFEFEFF5F5E2E2E2E2E2E2E2E2E2E2E2E2E2E2E2E2E2E2E2F5F5EFEFE2E2E2E2E2E2E2E2EFE2E2E2E2E2E2E2E2E2E2E2E2E2E2E2E2E2E2E2E2E2E2E2E2E2E2E2E2E2E2E2E2E2E2E2F5E2E2E2E2F5E2F50000F5E2F5E2E2E2E2F5F5E2E2E2E2E2E2E2E2E2E2EFEFF5F5ECECEC
310
ECE2E2E2E2E2E2E2E2E2E2E2ECECECECF5F5EFEFEFE2E2E2E2EFEFEFEFE2E2E2E2E2E2E2E2E2E2E2E2E2E2E2E2E2E2E2E2E2E2E2E2E2E2E2E2E2E2E2E2E2E2E2F5E2E2E2E2F5E2F50000F5E2F5E2E2E2E2F5F5E2E2E2E2E2E2E2E2E2E2EFEFECECECECECECE2E2E2E2E2E2E2E2E2E2E2ECECECECECECEFEFEFEFE2E2E2EFEF
310
EFEFE2E2E2E2E2E2E2E2E2E2E2E2E2E2E2E2E2E2E2E2E2E2E2E2E2E2E2E2E2E2E2E2E2E2E2F5E2E2E2E2F5E2F50000F5E2F5E2E2E2E2F5F5E2E2E2E2E2E2E2E2E2E2EFEFEFEFECECECE2E2E2E2E2E2E2E2E2E2E2E2E2ECECECEFEFEFEFEFEFEFEFEFEFEFEFEFE2E2E2E2E2E2E2E2E2E2E2E2E2E2E2E2E2E2E2E2E2E2E2E2E2
310
E2E2E2E2E2E2E2E2E2E2F5E2E2E2E2F5E2F50000F5E2F5E2E2E2E2F5F5E2E2E2E2E2E2E2E2E2E2EFEFE2E2E2E2E2E2E2E2E2E2E2E2E2E2E2E2E2E2E2E2E2E2E2E2EFEFEFEFEFEFEFEFEFEFE2E2E2E2E2E2E2E2E2E2E2E2E2E2E2E2E2E2E2E2E2E2E2E2E2E2E2E2E2E2E2E2E2E2E2F5E2E2E2E2F5E2F50000F5E2F5E2E2E2E2
310
F5F5E2E2E2E2E2E2E2E2E2EFEFEFE2E2E2E2E2E2E2E2E2E2E2E2E2E2E2E2E2E2E2E2E2E2E2E2EFF5ECF5F5F5ECF5E2EFE2E2E2E2E2E2E2E2E2E2E2E2E2E2E2E2E2E2E2E2E2E2E2E2E2E2E2E2E2E2E2E2E2E2E2F5E2E2E2E2F5E2F50000F5E2F5E2E2E2E2F5F5E2E2E2E2E2E2E2E2E2EFEFEFE2E2E2E2E2E2E2E2E2E2E2E2E2
310
E2E2E2E2E2E2E2E2E2E2E2EFECECF5E2F5ECF5E2EFF5F5F5F5E2E2E2E2E2E2E2E2E2E2E2E2E2E2E2E2E2E2E2E2E2E2E2E2E2E2E2E2E2E2E2F5E2E2E2E2F5E2F50000F5E2F5E2E2E2E2F5F5E2E2E2E2E2E2E2282828282828E2E2E2E2E2E2E2E2E2E2E2E2E2E2E2E2E2E2E2E2E2E2E2ECECECF5F5F5ECECECEFF5F5F5F5E2E2
310
E2E2E2E2E2E2E2E2E2E2E2E2E2E2E2E2E2E2E2E2E2E2E2E2E2E2E2E2E2F5E2E2E2E2F5E2F50000F5E2F5E2E2E2E2F5F5E2E2E2E2E2E2E228E2ECE2EC28E2E2E2E2E2E2E2E2E2E2E2E2E2E2E2E2E2E2E2E2E2E2E2ECECECF5E2F5ECECECEFE2E2E2E2E2E2E2E2E2E2E2E2E2E2E2E2E2E2E2E2E2E2E2E2E2E2E2E2E2E2E2E2E2
310
E2E2F5E2E2E2E2F5E2F50000F5E2F5E2E2E2E2F5F5E2E2E2E2E2E2E2ECECECECEC28E2E2E2E2E2E2E2E2E2E2E2E2E2E2E2E2E2E2E2E2E2E2E2ECECECF5E2F5ECECECEFE2E2E2E2E2E2E2E2E2F5F5F5F5F5F5F5F5F5F5F5F5F5F5F5F5E2E2E2E2E2E2E2E2E2E2F5E2E2E2E2F5E2F50000F5E2F5E2E2E2E2F5F5E2E2E2E2E2E2
310
E228ECE2ECEC28E2E2E2E2E2E2E2E2E2E2E2E2E2E2E2E2E2E2E2E2E2E2E2E2F5ECF5E2F5ECF5E2E2E2E2E2E2E2E2E2E2E2F5F5F5F5F5F5F5F5F5F5F5F5F5F5F5F5E2E2E2E2E2E2E2E2E2E2F5E2E2E2E2F5E2F50000F5E2F5E2E2E2E2F5F5E2E2E2E2E2E2E228ECE2ECEC28E2E2E2E2E2E2E2E2E2E2E2E2E2E2E2E2E2E2E2E2
310
E2E2E2E2E2E2E2E2E2E2E2E2E2E2E2E2E2E2E2E2E2E2E2E2E2E2E2E2E2E2E2E2E2E2E2E2E2E2E2E2E2E2E2E2E2E2E2E2F5E2E2E2E2F5E2F50000F5E2F5E2E2E2E2F5F5E2E2E2E2E2E2E228ECECECEC28E2E2E2E2E2E2E2E2E2E2E2E2E2E2E2E2E2E2E2E2E2E2E2E2E2E2E2E2E2E2E2E2E2E2E2E2E2F5F5E2DCDCDCDCDCDCDC
310
DCDCDCDCDCDCE2E2E2E2E2E2E2E2E2E2E2E2E2E2E2F5E2E2E2E2F5E2F50000F5E2F5E2E2E2E2F5F5E2E2E2E2E2E2E228ECE2ECEC28E2E2E2E2E2E2E2E2E2E2E2E2E2E2E2E2E2E2E2E2E2E2E2E2E2E2E2E2E2E2E2E2E2E2E2E2E2F5F5E2DCDCDCDCDCDCDCDCDCDCDCDCDCDCDCE2E2E2E2E2E2E2E2E2E2E2E2E2F5E2E2E2E2F5
310
E2F50000F5E2E2E2E2E2E2F5F5E2E2E2E2E2E2E228ECE2ECEC28E2E2E2E2E2F5F5F5F5F5F5F5F5F5F5F5F5F5E2E2E2E2E2E2E2E2E2E2E2E2E2E2E2E2E2E2E2ECE2E2DCE2E2E2E2E2E2E2E2E2E2DCDCDCDCDCDCE2E2E2E2E2E2E2E2E2E2E2F5E2E2E2E2E2E2F50000F5E2E2E2E2E2E2F5F5E2E2E2E2E2E2E2ECECECECEC28E2
310
E2E2E2E2F5F5F5F5F5F5F5F5F5F5F5E2F5E2E2E2E2E2E2E2E2E2E2E2E2E2E2E2E2E2E2E2ECECE2DCE2E2E2E2E2E2E2E2E2E2DCDCE2E2E2DCDCDCE2E2E2E2E2E2E2E2E2F5E2E2E2E2E2E2F50000F5E2E2E2E2E2E2F5F5E2E2E2E2E2E2E228ECECE2EC28E2E2E2E2E2F5F5F5F5F5F5F5F5F5F5F5F5F5E2E2E2E2E2E2E2E2E2E2
310
E2E2E2E2E2E2E2E2E2ECE2E2DCE2E2E2E2E2E2E2E2E2E2DCDCE2E2E2E2E2E2DCDCE2F5F5E2E2E2E2F5E2E2E2E2E2E2F50000F5E2E2E2E2E2E2F5F5E2E2E2E2E2E2E228E2ECE2EC28E2E2E2E2E2E2E2E2E2E2E2E2E2E2E2E2E2E2E2E2E2E2E2E2E2E2E2E2E2E2E2E2E2E2E2E2E2ECE2E2DCE2E2E2E2E2E2E2E2E2E2DCDCE2E2
310
E2E2E2E2E2DCE2F5F5E2E2E2E2F5E2E2E2E2E2E2F50000F5E2E2E2E2E2E2F5F5E2E2E2E2E2E2E228ECECECEC28E2E2E2E2E2E2E2E2E2E2E2E2E2E2E2E2E2E2E2E2E2E2E2E2E2E2E2E2E2E2E2E2E2E2E2E2E2ECECECECECECECECE2E2E2ECECECECDCE2E2E2E2E2E2E2DCE2F5F5E2E2E2E2F5E2E2E2E2E2E2F50000F5E2E2E2
310
E2E2E2F5F5E2E2E2E2E2E2E2282828ECE228E2E2E2E2E2E2E2E2E2E2E2E2E2E2E2E2E2E2E2E2E2E2E2E2E2E2E2E2E2E2E2E2E2E2E2E2E2E2E2E2DCE2E2E2E2E2E2E2E2E2E2DCECECE2E2E2E2E2E2DCE2E2ECE2E2E2E2F5E2E2E2E2E2E2F50000F5E2E2E2E2E2E2F5F5E2E2E2E2E2E2E2E2E228ECECECE2E2E2E2E2E2E2E2E2
310
E2E2E2E2E2E2E2E2E2E2E2E2E2E2E2E2E2E2E2E2E2E2E2E2E2E2E2E2E2E2E2DCE2E2E2E2E2E2E2E2E2E2DCDCE2E2E2ECECE2E2DCE2E2ECE2E2E2E2F5E2E2E2E2E2E2F50000F5E2E2E2E2E2E2F5F5E2E2E2E2E2E2E2282828E2EC28E2E2E2E2E2E2E2E2E2E2E2E2E2E2E2E2E2E2E2E2E2E2E2E2E2E2E2E2E2E2E2E2E2E2E2E2
310
E2E2E2E2DCE2E2E2E2E2E2E2E2E2E2DCDCE2E2E2E2E2ECECECECE2ECE2E2E2E2F5E2E2E2E2E2E2F50000F5E2E2E2E2E2E2F5F5E2E2E2E2E2E2E228E2E2ECEC28E2E2E2E2E2E2E2E2E2E2E2E2E2E2E2E2E2E2E2E2E2E2E2E2E2E2E2E2E2E2E2E2E2E2E2E2E2E2E2E2DCE2E2E2E2E2E2E2E2E2E2DCDCE2E2E2E2E2E2E2DCE2EC
310
ECE2E2E2E2F5E2E2E2E2E2E2F50000F5E2E2E2E2E2E2F5F5E2E2E2E2E2E2E2282828282828E2E2E2E2E2E2E2E2E2E2E2E2E2E2E2E2E2E2E2E2E2E2E2ECECECF5E2F5ECECE2E2E2E2E2E2E2E2E228DCDCDCDCDCDCDCDCDCDCDCDCE2E2E2E2E2E2E2DCE2E2E2E2E2E2E2F5E2E2E2E2E2E2F50000F5E2F5E2E2E2E2F5F5E2E2E2
310
E2E2E2E2E2E2E2E2E2E2E2E2E2E2E2E2E2E2E2E2E2E2E2E2E2E2E2E2E2E2E2E2E2ECECECF5E2F5ECECECEFE2E2E2E2E2E2E228DCDCDCDCDCDCDCDCDCDCDCDCDCDCDCE2E2E2E2DCE2E2E2E2E2E2E2F5E2E2E2E2F5E2F50000F5E2F5E2E2E2E2F5F5E2E2E2E2E2E2E2E2E2E2E2E2E2E2E2E2E2E2E2E2E2E2E2E2E2E2E2E2E2E2
310
E2E2E2E2E2E2ECECECF5E2F5ECECECEFF5F5F5F5E2E2E2E2E2E2E2E2E2E2E2E2E2E2E2E2DCDCDCDCDCDCE2DCE2E2E2E2E2E2E2F5E2E2E2E2F5E2F50000F5E2F5E2E2E2E2F5F5E2E2E2E2E2E2E2E2E2E2E2E2E2E2E2E2E2E2E2E2E2E2E2E2E2E2E2E2E2E2E2E2E2E2E2E2EFECECF5F5F5ECECECEFF5F5F5F5E2E2E2E2E2E2E2
310
E2E2E2E2E2E2E2E2E2E2E2E2DCDCDCDCDCE2E2E2E2E2E2E2F5E2E2E2E2F5E2F50000F5E2F5E2E2E2E2F5F5E2E2E2E2E2E2E2E2E2E2E2E2E2E2E2E2282828282828282828282828282828EFEFE2E2E2EFF5ECF5F5F5ECF5E2EFE2E2E2E2E2E2E2E2E2E2E2E2E2E2E2E2E2E2E2E2E2E2E2E2E2E2DCDCE2E2E2E2E2E2E2F5E2E2
310
E2E2F5E2F50000F5E2F5E2E2E2E2F5F5E2E2E2E2E2E2E2E2E2E2E2E2E2E2E2E228ECECECE2E2ECECECECECECECECECECEFEFEFE2EFEFE2E2E2E2E2E2EFEFE2E2E2E2E2E2E2E2E2E2E2E2E2E2E2E2E2E2E2E2E2E2E2E2E2E2E2E2E2E2E2E2E2E2E2F5E2E2E2E2F5E2F50000F5E2F5E2E2E2E2F5F5E2E2E2E2E2E2E2E2E2E2E2
310
E2E2E2E2E228ECE2ECECECECECE2E2ECECECECE2E2EFEFEFEFEFEFEFEFEFEFEFEFEFEFE2E2E2E2E2E2E2E2E2E2E2E2E2E2E2E2E2E2E2E2E2E2E2E2E2E2E2E2E2E2E2E2E2E2E2F5E2E2E2E2F5E2F50000F5E2F5E2E2E2E2F5F5E2E2E2E2E2E2E2E2E2E2E2E2E2E2E2E228E2282828ECECECECECECE2ECECECECEFEFEFE2E2E2
310
E2EFEFEFEFEFEFEFE2E2E2E2E2E2E2E2E2E2E2E2E2E2E2E2E2E2E2E2E2E2E2E2E2E2E2E2E2E2E2E2E2E2E2F5E2E2E2E2F5E2F50000F5E2F5E2E2E2E2F5F5E2E2E2E2E2E2E2E2E2E2E2E2E2E2E2E228E228E228ECECECECECECECECECECE2EFE2E2E2E2E2E2E2E2EFEFEFEFEFE2E2E2E2E2E2E2E2E2E2E2E2E2E2E2E2E2E2E2
310
E2E2E2E2E2E2E2E2E2E2E2E2E2E2E2E2F5E2E2E2E2F5E2F50000F5E2F5E2E2E2E2F5F5E2E2E2E2E2E2E2E2E2E2E2E2E2E2E2E2282828E228EC2828EC28282828EFEFEFEFE2E2E2E2E2F5F5F5F5F5E2E2EFE2E2E2E2E2E2E2E2E2E2E2E2E2E2E2E2E2E2E2E2E2E2E2E2E2E2E2E2E2E2E2E2E2E2E2F5E2E2E2E2F5E2F50000F5
310
E2F5E2E2E2E2F5F5E2E2E2E2E2E2E2E2E2E2E2E2E2E2E2E2E2E2E2E2E2E2E2E2E2E2E2E2E2E2E2E2E2E2E2E2E2E2F5F5F5F5F5E2E2EFE2E2E2E2E2E2E2E2E2E2E2E2E2E2E2E2E2E2E2E2E2E2E2E2E2E2E2E2E2E2E2E2E2E2E2F5E2E2E2E2F5E2F50000F5E2F5E2E2E2E2F5F5E2E2E2E2E2E2E2E2E2E2E2E2E2E2E2E2E2E2E2
310
E2E2E2E2E2E2E2E2E2E2E2E2E2E2E2E2E2E2E2E2E2E2E2E2E2EFEFE2E2E2E2E2E2E2E2E2E2E2E2E2E2E2E2E2E2E2E2E2E2E2E2E2E2E2E2E2E2E2E2E2E2E2F5E2E2E2E2F5E2F50000F5E2F5E2E2E2E2F5F5E2E2E2E2E2E2E2E2E2E2E2E2E2E2E2E2E2E2E2E2E2E2E2E2E2E2E2E2E2E2E2E2E2E2E2E2E2E2E2E2E2E2E2E2E2EF
310
E2E2E2E2E2E2E2E2E2E2E2E2E2E2E2E2E2E2E2E2E2E2E2E2E2E2E2E2E2E2E2E2E2E2E2F5E2E2E2E2F5E2F50000F5E2F5E2E2E2E2F5F5E2E2E2E2E2E2E2E2E2E2E2E2E2E2E2E2E2E2E2E2E2E2E2E2E2E2E2E2E2E2E2E2E2E2E2E2E2E2E2E2E2E2E2E2EFEFE2E2E2E2E2E2E2E2E2E2E2E2E2E2E2E2E2E2E2E2E2E2E2E2E2E2E2
310
E2E2E2E2E2E2E2E2F5E2E2E2E2F5E2F50000F5E2F5E2E2E2E2F5F5E2E2E2E2E2E2E2E2E2E2E2E2E2E2E2E2E2E2E2E2E2E2E2E2E2E2E2E2E2E2E2E2E2E2E2E2E2E2E2E2E2E2E2E2EFEFE2E2E2E2E2E2E2E2E2E2E2E2E2E2E2E2E2E2E2E2E2E2E2E2E2E2E2E2E2E2E2E2E2E2E2F5E2E2E2E2F5E2F50000F5E2F5E2E2E2E2F5F5
310
E2E2E2E2E2E2E2E2E2E2E2E2E2E2E2E2E2E2E2E2E2E2E2E2E2E2E2E2E2E2E2E2E2E2E2E2E2E2E2E2E2E2E2E2E2E2E2E2E2E2E2E2E2E2E2E2E2E2E2E2E2E2E2E2E2E2E2E2E2E2E2E2E2E2E2E2E2E2E2E2E2F5E2E2E2E2F5E2F50000F5E2F5E2E2E2E2F5F5E2E2E2E2E2E2E2E2E2E2E2E2E2E2E2E2E2E2E2E2E2E2E2E2E2E2E2
310
E2E2E2E2E2E2E2E2E2E2E2E2E2E2E2E2E2E2E2E2E2E2E2E2E2E2E2E2E2E2E2E2E2E2E2E2E2E2E2E2E2E2E2E2E2E2E2E2E2E2E2E2E2E2F5E2E2E2E2F5E2F50000F5E2F5E2E2E2E2F5F5E2E2E2E2E2E2E2E2E2E2E2E2E2E2E2E2E2E2E2E2E2E2E2E2E2E2E2E2E2E2E2E2E2E2E2E2E2E2E2E2E2E2E2E2E2E2E2E2E2E2E2E2E2E2
310
E2E2E2E2E2E2E2E2E2E2E2E2E2E2E2E2E2E2E2E2E2E2E2E2E2E2E2F5E2E2E2E2F5E2F50000F5E2E2E2E2E2E2F5F5E2E2E2E2E2E2E2E2E2E2E2E2E2E2E2E2E2E2E2E2E2E2E2E2E2E2E2E2E2E2E2E2E2E2E2E2E2E2E2E2E2E2E2E2E2E2E2E2E2E2E2E2E2E2E2E2E2E2E2E2E2E2E2E2E2E2E2E2E2E2E2E2E2E2E2E2E2E2E2E2E2
310
F5E2E2E2E2E2E2F50000F5E2E2E2E2E2E2F5F5F5F5F5F5F5F5F5F5F5F5F5F5F5F5F5F5F5F5F5F5F5F5F5F5F5F5F5F5F5F5F5F5F5F5F5F5F5F5F5F5F5F5F5F5F5F5F5F5F5F5F5F5F5F5F5F5F5F5F5F5F5F5F5F5F5F5F5F5F5F5F5F5F5F5F5F5F5F5F5F5F5F5E2E2E2E2E2E2F50000F5E2E2E2E2E2E2E2E2E2E2E2E2E2F5F5F5
310
F5F5F5F5F5F5F5F5F5F5F5F5F5F5F5F5F5F5F5F5F5F5F5F5F5F5F5F5F5F5F5F5F5F5F5F5F5F5F5F5F5F5F5F5F5F5F5F5F5F5F5F5F5F5F5F5F5F5F5F5F5F5F5F5F5F5F5F5F5F5F5F5F5F5E2E2E2E2E2E2F50000F5E2E2E2E2E2E2E2E2E2E2E2E2E2F5E2E2E2E2E2E2E2F5F5F5F5F5F5F5F5F5F5F5F5F5F5F5F5E2E2E2E2E2E2
310
E2E2E2E2E2E2E2E2E2E2E2E2E2E2E2E2E2E2E2E2E2E2E2E2F5E2E2F5F5F5F5F5F5E2E2F5E2E2E2E2F5F5E2E2E2E2F5E2E2E2E2E2E2F50000F5E2E2E2E2E2E2E2E2E2E2E2E2ECECECE2E2E2E2E2E2F5F5F5F5F5F5F5F5F5F5F5F5F5F5F5F5E2E2E2E2E2E2E2E2E2E2E2E2E2E2E2E2E2E2E2E2E2E2E2E2E2E2E2E2E2E2F5E2E2
310
F5F5F5F5F5F5E2E2F5E2E2E2E2F5F5E2E2E2E2F5E2E2E2E2E2E2F50000F5E2E2E2E2E2E2E2E2E2E2E2E2ECECECE2E2E2E2E2E2E2E2E2E2E2E2E2E2E2E2E2E2E2E2E2E2E2E2E2E2E2E2E2E2E2E2E2E2E2E2E2E2E2E2E2E2E2E2E2E2E2E2E2E2E2E2F5E2E2E2E2E2E2E2E2E2E2F5E2E2E2E2E2E2E2E2E2E2F5E2E2E2E2E2E2F5
310
0000F5E2E2E2E2E2E2E2E2E2E2E2ECECECECECE2E2E2E2E2F5F5F5F5F5F5F5F5F5F5F5F5F5F5F5F5F5F5F5F5F5F5F5F5F5F5F5F5F5F5F5F5F5F5F5F5F5F5F5F5F5F5F5E2E2E2F5E2E2E2F5F5F5F5E2E2E2F5E2E2F5F5F5F5F5E2E2E2F5E2E2E2E2E2E2F50000F5E2E2E2E2E2E2E2E2E2E2ECECECECECECE2E2E2E2E2F5F5F5
310
F5F5F5F5F5F5F5F5F5F5F5F5F5F5F5F5F5F5F5F5F5F5F5F5F5F5F5F5F5F5F5F5F5F5F5F5F5F5F5F5E2E2E2F5E2E2E2E2E2E2E2E2E2E2F5E2E2E2E2E2E2E2E2E2E2F5E2E2E2E2E2E2F50000F5E2E2E2E2E2E2E2E2E2E2ECECECECECECECE2E2E2E2F5F5F5F5F5F5F5F5F5F5F5F5F5F5F5F5F5F5F5F5F5F5F5F5F5F5F5F5F5F5
310
F5F5F5F5F5F5F5F5F5F5F5F5F5E2E2E2F5E2E2E2E2E2E2E2E2E2E2F5E2E2E2E2E2E2E2E2E2E2F5E2E2E2E2E2E2F50000F5E2F5E2E2E2E2E2E2E2ECECECECECECECECE2E2E2E2F5F5F5F5F5F5F5F5F5F5F5F5F5F5F5F5F5F5F5F5E2E2E2E2E2E2E2E2E2E2E2E2E2E2E2E2E2E2E2E2E2E2E2E2E2E2F5F5F5F5F5F5F5F5F5F5F5
310
F5F5F5F5F5F5F5F5F5F5F5F5E2E2E2E2F5E2F50000F5E2F5E2E2E2E2E2E2E2ECECECECECECECECECE2E2E2F5F5F5F5F5F5F5F5F5F5F5F5F5F5F5F5F5F5F5F5E2E2E2E2E2E2E2E2E2E2E2E2E2E2E2E2E2E2E2E2E2E2E2E2E2E2F5E2E2E2E2E2E2E2E2E2E2E2E2E2E2E2E2E2E2E2E2E2F5E2E2E2E2F5E2F50000F5E2F5E2E2E2
310
E2E2E2ECECECECECECECECECECE2E2E2E2E2E2E2E2E2E2E2E2E2E2E2E2E2E2E2E2E2E2E2E2E2E2E2E2E2E2E2E2E2E2E2E2E2E2E2E2E2E2E2E2E2E2E2E2E2F5E2E2F5F5F5F5F5F5F5E2F5F5F5F5F5F5F5F5E2E2E2F5E2E2E2E2F5E2F50000F5E2F5E2E2E2E2E2ECECECECECECECECECECECECE2E2F5F5F5F5F5F5F5F5F5F5F5
310
F5F5F5F5F5F5E2E2E2E2E2E2E2E2E2E2E2E2E2E2E2E2E2E2E2E2E2E2E2E2E2E2E2E2E2F5E2E2F5F5F5F5F5F5F5E2F5F5F5F5F5F5F5F5E2E2E2F5E2E2E2E2F5E2F50000F5E2F5E2E2E2E2E2ECECECECECECECECECECECECE2E2F5F5F5F5F5F5F5F5F5F5F5F5F5F5F5F5F5E2E2E2E2E2E2E2E2E2E2E2E2E2E2E2E2E2E2E2E2E2
310
E2E2E2E2E2E2E2E2F5E2E2E2E2E2E2E2E2E2E2E2E2E2E2E2E2E2E2E2E2E2F5E2E2E2E2F5E2F50000F5E2F5E2E2E2E2ECECECECECECECF5ECECECECECECE2E2E2E2E2E2E2E2E2E2E2E2E2E2E2E2E2E2E2E2E2E2E2E2E2E2E2E2E2E2E2E2E2E2E2E2E2E2E2E2E2E2E2E2E2E2E2F5E2E2E2E2E2E2E2E2E2E2E2E2E2E2E2E2E2E2
310
E2E2E2F5E2E2E2E2F5E2F5255FF5E2F5E2E2E2E2E2E2E2E2E2E2E2F5F5F5F5F5F5F5F5F5F5F5F5F5F5F5F5F5F5F5F5F5F5F5F5F5F5F5F5F5F5F5F5F5F5F5F5F5F5F5F5F5F5F5F5F5F5F5F5F5F5F5F5F5F5F5F5F5F5F5F5F5F5F5F5F5F5F5F5F5F5F5F5F5F5F5F5F5E2E2E2E2F5E2F53116F5E2F5E2E2E2E2E2E2E2E2E2E2E2
310
E2E2E2E2E2E2E2E2E2E2E2E2E2E2E2E2E2E2E2E2E2E2E2E2E2E2E2E2E2E2E2E2E2E2E2E2E2E2E2E2E2E2E2E2E2E2E2E2E2E2E2E2E2E2E2E2E2E2E2E2E2E2E2E2E2E2E2E2E2E2E2E2E2E2E2E2E2E2E2E2E2F5E2F58040F5E2F5F5F5F5F5F5F5F5E2E2E2E2E2E2E2E2F5F5F5F5F5F5F5F5F5F5F5F5F5F5F5E2E2E2E2E2E2E2E2
310
E2F5F5F5F5F5F5F5F5F5F5F5F5F5F5E2E2E2E2E2E2E2E2E2F5F5F5F5F5F5F5F5F5F5F5F5F5F5F5E2E2E2E2E2E2E2E2F5F5F5F5F5F5F5F5E2F5636FF5E2E2E2E2E2E2E2E2E2E2E2E2E2E2E2E2E2E2E2E2E2E2E2E2E2E2E2E2E2E2E2E2E2E2E2E2E2E2E2E2E2E2E2E2E2E2E2E2E2E2E2E2E2E2E2E2E2E2E2E2E2E2E2E2E2E2E2
310
E2E2E2E2E2E2E2E2E2E2E2E2E2E2E2E2E2E2E2E2E2E2E2E2E2E2E2E2E2F50190F5E2E2E2E2E2E2E2E2E2E2E2E2E2E2E2E2E2E2E2E2E2E2E2E2E2E2E2E2E2E2E2E2E2E2E2E2E2E2E2E2E2E2E2E2E2E2E2E2E2E2E2E2E2E2E2E2E2E2E2E2E2E2E2E2E2E2E2E2E2E2E2E2E2E2E2E2E2E2E2E2E2E2E2E2E2E2E2E2E2E2E2E2E2E2
310
E2E2F514A6F5F5F5F5F5F5F5F5F5F5F5F5F5F5F5F5F5F5F5F5F5F5F5F5F5F5F5F5F5F5F5F5F5F5F5F5F5F5F5F5F5F5F5F5F5F5F5F5F5F5F5F5F5F5F5F5F5F5F5F5F5F5F5F5F5F5F5F5F5F5F5F5F5F5F5F5F5F5F5F5F5F5F5F5F5F5F5F5F5F5F5F5F5F5F5F5F5F50001EFEFEFEFEFEFEFEFEFEFEFEFEFEFEFEFEFEFEFEFEFEF
310
EFEFEFEFEFEFEFEFEFEFEFEFEFEFEFEFEFEFEFEFEFEFEFEFEFEFEFEFEFEFEFEFEFEFEFEFEFEFEFEFEFEFEFEFEFEFEFEFEFEFEFEFEFEFEFEFEFEFEFEFEFEFEFEFEFEFEFEFEFEFEFEFEFEFEFEFE637
  0
XRECORD
  5
5F5D
102
{ACAD_REACTORS
330
56E2
102
}
330
56E2
100
AcDbXrecord
280
     1
102
MATERIAL
148
0.0
149
0.0
149
0.0
 93
        0
 94
      127
282
     0
 72
     0
 77
     0
171
     0
175
     0
179
     0
273
     0
  0
XRECORD
  5
56E4
102
{ACAD_REACTORS
330
56E2
102
}
330
56E2
100
AcDbXrecord
280
     1
270
     1
271
     1
  0
XRECORD
  5
56E3
102
{ACAD_REACTORS
330
56E2
102
}
330
56E2
100
AcDbXrecord
280
     1
270
     1
271
     1
  0
XRECORD
  5
56E7
102
{ACAD_REACTORS
330
56E2
102
}
330
56E2
100
AcDbXrecord
280
     1
270
     1
271
     1
  0
XRECORD
  5
56E6
102
{ACAD_REACTORS
330
56E2
102
}
330
56E2
100
AcDbXrecord
280
     1
270
     1
271
     1
  0
XRECORD
  5
56E8
102
{ACAD_REACTORS
330
56E2
102
}
330
56E2
100
AcDbXrecord
280
     1
270
     1
271
     1
  0
XRECORD
  5
56E5
102
{ACAD_REACTORS
330
56E2
102
}
330
56E2
100
AcDbXrecord
280
     1
270
     1
271
     1
  0
XRECORD
  5
5F5C
102
{ACAD_REACTORS
330
56DA
102
}
330
56DA
100
AcDbXrecord
280
     1
102
MATERIAL
148
0.0
149
0.0
149
0.0
 93
        0
 94
      127
282
     0
 72
     0
 77
     0
171
     0
175
     0
179
     0
273
     0
  0
XRECORD
  5
56DC
102
{ACAD_REACTORS
330
56DA
102
}
330
56DA
100
AcDbXrecord
280
     1
270
     1
271
     1
  0
XRECORD
  5
56DB
102
{ACAD_REACTORS
330
56DA
102
}
330
56DA
100
AcDbXrecord
280
     1
270
     1
271
     1
  0
XRECORD
  5
56DF
102
{ACAD_REACTORS
330
56DA
102
}
330
56DA
100
AcDbXrecord
280
     1
270
     1
271
     1
  0
XRECORD
  5
56DE
102
{ACAD_REACTORS
330
56DA
102
}
330
56DA
100
AcDbXrecord
280
     1
270
     1
271
     1
  0
XRECORD
  5
56E0
102
{ACAD_REACTORS
330
56DA
102
}
330
56DA
100
AcDbXrecord
280
     1
270
     1
271
     1
  0
XRECORD
  5
56DD
102
{ACAD_REACTORS
330
56DA
102
}
330
56DA
100
AcDbXrecord
280
     1
270
     1
271
     1
  0
XRECORD
  5
5F5E
102
{ACAD_REACTORS
330
56EA
102
}
330
56EA
100
AcDbXrecord
280
     1
102
MATERIAL
148
0.0
149
0.0
149
0.0
 93
        0
 94
      127
282
     0
 72
     0
 77
     0
171
     0
175
     0
179
     0
273
     0
  0
XRECORD
  5
56EC
102
{ACAD_REACTORS
330
56EA
102
}
330
56EA
100
AcDbXrecord
280
     1
270
     1
271
     1
  0
XRECORD
  5
56EB
102
{ACAD_REACTORS
330
56EA
102
}
330
56EA
100
AcDbXrecord
280
     1
270
     1
271
     1
  0
XRECORD
  5
56EF
102
{ACAD_REACTORS
330
56EA
102
}
330
56EA
100
AcDbXrecord
280
     1
270
     1
271
     1
  0
XRECORD
  5
56EE
102
{ACAD_REACTORS
330
56EA
102
}
330
56EA
100
AcDbXrecord
280
     1
270
     1
271
     1
  0
XRECORD
  5
56F0
102
{ACAD_REACTORS
330
56EA
102
}
330
56EA
100
AcDbXrecord
280
     1
270
     1
271
     1
  0
XRECORD
  5
56ED
102
{ACAD_REACTORS
330
56EA
102
}
330
56EA
100
AcDbXrecord
280
     1
270
     1
271
     1
  0
XRECORD
  5
64AF
102
{ACAD_REACTORS
330
64AE
102
}
330
64AE
100
AcDbXrecord
280
     1
102
SHADEPLOT
 70
     0
102
SHADEPLOTRESLEVEL
 70
     2
102
SHADEPLOTCUSTOMDPI
 70
   300
  0
XRECORD
  5
64B1
102
{ACAD_REACTORS
330
64B0
102
}
330
64B0
100
AcDbXrecord
280
     1
102
SHADEPLOT
 70
     0
102
SHADEPLOTRESLEVEL
 70
     2
102
SHADEPLOTCUSTOMDPI
 70
   300
  0
ACAD_PROXY_OBJECT
  5
5F40
102
{ACAD_REACTORS
330
5927
102
}
330
5927
100
AcDbProxyObject
 90
      499
 91
      514
 95
   983063
 70
     0
 93
     5304
310
40D054060020000020000003200101A000080002A5058000000C10000000000000006101010000000000003E0FC000000000000F83F0000000000003E0FC000000000000F83F000000000000049000000000000001240419019018000000C1003FBFFFFFE0000000000003C8FD029018000000C1003FBFFFFFE00000000000
310
03C8FD049018000000C1003FBFFFFFE0000000000003C8FD089018000000C1003FBFFFFFE0000000000003C8FD109018000000C1003FBFFFFFE0000000000003C8FD209018000000C1003FBFFFFFE0000000000003C8FD01405075F5449544C450041501A8000000C800406800020000A94160000003040000000000000012
310
40404000000000000F83F0000000000003E0FC000000000000F83F0000000000003E0FC0000000000001240000000000000049010640640600000030400FEFFFFFF8000000000000F23F40A40600000030400FEFFFFFF8000000000000F23F41240600000030400FEFFFFFF8000000000000F23F42240600000030400FEFFF
310
FFF8000000000000F23F44240600000030400FEFFFFFF8000000000000F23F48240600000030400FEFFFFFF8000000000000F23F409014217D2115051115480105406A0000003200101A000080002A5028000000C10000000000000004901010000000000003E0FC000000000000F83F0000000000003E0FC000000000000F
310
83F000000000000049000000000000001240419019018000000C1003FBFFFFFE0000000000003C8FD029018000000C1003FBFFFFFE0000000000003C8FD049018000000C1003FBFFFFFE0000000000003C8FD089018000000C1003FBFFFFFE0000000000003C8FD109018000000C1003FBFFFFFE0000000000003C8FD20901
310
8000000C1003FBFFFFFE0000000000003C8FD03409065F444154410000
340
11
340
0
340
0
340
0
340
0
340
0
340
0
340
11
340
0
340
0
340
0
340
0
340
0
340
0
340
11
340
0
340
0
340
0
340
0
340
0
340
0
 94
        0
1001
ACAD
1000
AcRTDxfName
1000
CELLSTYLEMAP
1000
AcRTDxfName
1000
CELLSTYLEMAP
1000
AcRTDxfName
1000
CELLSTYLEMAP
1000
AcRTDxfName
1000
CELLSTYLEMAP
1000
AcRTDxfName
1000
CELLSTYLEMAP
  0
XRECORD
  5
5F5F
102
{ACAD_REACTORS
330
5927
102
}
330
5927
100
AcDbXrecord
280
     1
102
ACAD_ROUNDTRIP_PRE2007_TABLESTYLE
 90
      512
 91
        0
  1

 92
      512
 93
        0
  2

 94
      512
 95
        0
  3

  0
ENDSEC
  0
EOF
