  0
SECTION
  2
HEADER
  9
$ACADVER
  1
AC1015
  9
$ACADMAINTVER
 70
    20
  9
$DWGCODEPAGE
  3
ANSI_1252
  9
$INSBASE
 10
0.0
 20
0.0
 30
0.0
  9
$EXTMIN
 10
-0.0000008078504834
 20
0.0000001108869583
 30
0.0
  9
$EXTMAX
 10
353.9999991921495
 20
482.0000001108869
 30
0.0
  9
$LIMMIN
 10
-0.0000008078504834
 20
0.0000001108869583
  9
$LIMMAX
 10
353.9999991921495
 20
482.0000001108869
  9
$ORTHOMODE
 70
     0
  9
$REGENMODE
 70
     1
  9
$FILLMODE
 70
     1
  9
$QTEXTMODE
 70
     0
  9
$MIRRTEXT
 70
     0
  9
$LTSCALE
 40
1.0
  9
$ATTMODE
 70
     1
  9
$TEXTSIZE
 40
5.0
  9
$TRACEWID
 40
1.0
  9
$TEXTSTYLE
  7
Arial-Bold
  9
$CLAYER
  8
APL Joinery
  9
$CELTYPE
  6
ByLayer
  9
$CECOLOR
 62
   256
  9
$CELTSCALE
 40
1.0
  9
$DISPSILH
 70
     0
  9
$DIMSCALE
 40
1.0
  9
$DIMASZ
 40
4.0
  9
$DIMEXO
 40
0.625
  9
$DIMDLI
 40
3.75
  9
$DIMRND
 40
0.0
  9
$DIMDLE
 40
0.0
  9
$DIMEXE
 40
1.25
  9
$DIMTP
 40
0.0
  9
$DIMTM
 40
0.0
  9
$DIMTXT
 40
2.5
  9
$DIMCEN
 40
2.5
  9
$DIMTSZ
 40
0.0
  9
$DIMTOL
 70
     0
  9
$DIMLIM
 70
     0
  9
$DIMTIH
 70
     0
  9
$DIMTOH
 70
     0
  9
$DIMSE1
 70
     0
  9
$DIMSE2
 70
     0
  9
$DIMTAD
 70
     1
  9
$DIMZIN
 70
     8
  9
$DIMBLK
  1

  9
$DIMASO
 70
     1
  9
$DIMSHO
 70
     1
  9
$DIMPOST
  1

  9
$DIMAPOST
  1

  9
$DIMALT
 70
     0
  9
$DIMALTD
 70
     3
  9
$DIMALTF
 40
0.03937007874016
  9
$DIMLFAC
 40
1.0
  9
$DIMTOFL
 70
     1
  9
$DIMTVP
 40
0.0
  9
$DIMTIX
 70
     0
  9
$DIMSOXD
 70
     0
  9
$DIMSAH
 70
     0
  9
$DIMBLK1
  1

  9
$DIMBLK2
  1

  9
$DIMSTYLE
  2
ISO-25
  9
$DIMCLRD
 70
     0
  9
$DIMCLRE
 70
     0
  9
$DIMCLRT
 70
     0
  9
$DIMTFAC
 40
1.0
  9
$DIMGAP
 40
0.625
  9
$DIMJUST
 70
     0
  9
$DIMSD1
 70
     0
  9
$DIMSD2
 70
     0
  9
$DIMTOLJ
 70
     0
  9
$DIMTZIN
 70
     8
  9
$DIMALTZ
 70
     0
  9
$DIMALTTZ
 70
     0
  9
$DIMUPT
 70
     0
  9
$DIMDEC
 70
     2
  9
$DIMTDEC
 70
     2
  9
$DIMALTU
 70
     2
  9
$DIMALTTD
 70
     3
  9
$DIMTXSTY
  7
Standard
  9
$DIMAUNIT
 70
     0
  9
$DIMADEC
 70
     0
  9
$DIMALTRND
 40
0.0
  9
$DIMAZIN
 70
     0
  9
$DIMDSEP
 70
    44
  9
$DIMATFIT
 70
     3
  9
$DIMFRAC
 70
     0
  9
$DIMLDRBLK
  1

  9
$DIMLUNIT
 70
     2
  9
$DIMLWD
 70
    -2
  9
$DIMLWE
 70
    -2
  9
$DIMTMOVE
 70
     0
  9
$LUNITS
 70
     2
  9
$LUPREC
 70
     4
  9
$SKETCHINC
 40
1.0
  9
$FILLETRAD
 40
0.0
  9
$AUNITS
 70
     0
  9
$AUPREC
 70
     0
  9
$MENU
  1
.
  9
$ELEVATION
 40
0.0
  9
$PELEVATION
 40
0.0
  9
$THICKNESS
 40
0.0
  9
$LIMCHECK
 70
     0
  9
$CHAMFERA
 40
10.0
  9
$CHAMFERB
 40
10.0
  9
$CHAMFERC
 40
20.0
  9
$CHAMFERD
 40
0.0
  9
$SKPOLY
 70
     0
  9
$TDCREATE
 40
2452311.390521435
  9
$TDUCREATE
 40
2452310.890521435
  9
$TDUPDATE
 40
2455811.683975891
  9
$TDUUPDATE
 40
2455811.183975892
  9
$TDINDWG
 40
0.5091393403
  9
$TDUSRTIMER
 40
0.5091392245
  9
$USRTIMER
 70
     1
  9
$ANGBASE
 50
0.0
  9
$ANGDIR
 70
     0
  9
$PDMODE
 70
     3
  9
$PDSIZE
 40
3.0
  9
$PLINEWID
 40
0.0
  9
$SPLFRAME
 70
     0
  9
$SPLINETYPE
 70
     6
  9
$SPLINESEGS
 70
     8
  9
$HANDSEED
  5
3C61
  9
$SURFTAB1
 70
     6
  9
$SURFTAB2
 70
     6
  9
$SURFTYPE
 70
     6
  9
$SURFU
 70
     6
  9
$SURFV
 70
     6
  9
$UCSBASE
  2

  9
$UCSNAME
  2

  9
$UCSORG
 10
0.0
 20
0.0
 30
0.0
  9
$UCSXDIR
 10
1.0
 20
0.0
 30
0.0
  9
$UCSYDIR
 10
0.0
 20
1.0
 30
0.0
  9
$UCSORTHOREF
  2

  9
$UCSORTHOVIEW
 70
     0
  9
$UCSORGTOP
 10
0.0
 20
0.0
 30
0.0
  9
$UCSORGBOTTOM
 10
0.0
 20
0.0
 30
0.0
  9
$UCSORGLEFT
 10
0.0
 20
0.0
 30
0.0
  9
$UCSORGRIGHT
 10
0.0
 20
0.0
 30
0.0
  9
$UCSORGFRONT
 10
0.0
 20
0.0
 30
0.0
  9
$UCSORGBACK
 10
0.0
 20
0.0
 30
0.0
  9
$PUCSBASE
  2

  9
$PUCSNAME
  2

  9
$PUCSORG
 10
0.0
 20
0.0
 30
0.0
  9
$PUCSXDIR
 10
1.0
 20
0.0
 30
0.0
  9
$PUCSYDIR
 10
0.0
 20
1.0
 30
0.0
  9
$PUCSORTHOREF
  2

  9
$PUCSORTHOVIEW
 70
     0
  9
$PUCSORGTOP
 10
0.0
 20
0.0
 30
0.0
  9
$PUCSORGBOTTOM
 10
0.0
 20
0.0
 30
0.0
  9
$PUCSORGLEFT
 10
0.0
 20
0.0
 30
0.0
  9
$PUCSORGRIGHT
 10
0.0
 20
0.0
 30
0.0
  9
$PUCSORGFRONT
 10
0.0
 20
0.0
 30
0.0
  9
$PUCSORGBACK
 10
0.0
 20
0.0
 30
0.0
  9
$USERI1
 70
     0
  9
$USERI2
 70
     0
  9
$USERI3
 70
     0
  9
$USERI4
 70
     0
  9
$USERI5
 70
     0
  9
$USERR1
 40
0.0
  9
$USERR2
 40
0.0
  9
$USERR3
 40
0.0
  9
$USERR4
 40
0.0
  9
$USERR5
 40
0.0
  9
$WORLDVIEW
 70
     1
  9
$SHADEDGE
 70
     3
  9
$SHADEDIF
 70
    70
  9
$TILEMODE
 70
     0
  9
$MAXACTVP
 70
    64
  9
$PINSBASE
 10
0.0
 20
0.0
 30
0.0
  9
$PLIMCHECK
 70
     0
  9
$PEXTMIN
 10
11.46014299460751
 20
3.285575844812797
 30
-0.0015258207003583
  9
$PEXTMAX
 10
189.6073677543587
 20
282.2033753668244
 30
0.0000000349246037
  9
$PLIMMIN
 10
-5.027082920074462
 20
-5.408084392547607
  9
$PLIMMAX
 10
204.8615736961365
 20
291.6449246406555
  9
$UNITMODE
 70
     0
  9
$VISRETAIN
 70
     1
  9
$PLINEGEN
 70
     0
  9
$PSLTSCALE
 70
     1
  9
$TREEDEPTH
 70
  3020
  9
$CMLSTYLE
  2
Standard
  9
$CMLJUST
 70
     0
  9
$CMLSCALE
 40
20.0
  9
$PROXYGRAPHICS
 70
     1
  9
$MEASUREMENT
 70
     1
  9
$CELWEIGHT
370
    -1
  9
$ENDCAPS
280
     0
  9
$JOINSTYLE
280
     0
  9
$LWDISPLAY
290
     0
  9
$INSUNITS
 70
     4
  9
$HYPERLINKBASE
  1

  9
$STYLESHEET
  1
A4 Specifier Manual.ctb
  9
$XEDIT
290
     1
  9
$CEPSNTYPE
380
     0
  9
$PSTYLEMODE
290
     1
  9
$FINGERPRINTGUID
  2
{D079D194-C9C2-11D5-B123-005004D48FB5}
  9
$VERSIONGUID
  2
{3F5A4986-E1C2-4766-B38A-9D1032E8F6DC}
  9
$EXTNAMES
290
     1
  9
$PSVPSCALE
 40
0.0
  9
$OLESTARTUP
290
     0
  0
ENDSEC
  0
SECTION
  2
CLASSES
  0
CLASS
  1
ACDBDICTIONARYWDFLT
  2
AcDbDictionaryWithDefault
  3
ObjectDBX Classes
 90
        0
280
     0
281
     0
  0
CLASS
  1
ACDBPLACEHOLDER
  2
AcDbPlaceHolder
  3
ObjectDBX Classes
 90
        0
280
     0
281
     0
  0
CLASS
  1
LAYOUT
  2
AcDbLayout
  3
ObjectDBX Classes
 90
        0
280
     0
281
     0
  0
CLASS
  1
DICTIONARYVAR
  2
AcDbDictionaryVar
  3
ObjectDBX Classes
 90
        0
280
     0
281
     0
  0
CLASS
  1
PLOTSETTINGS
  2
AcDbPlotSettings
  3
ObjectDBX Classes
 90
        0
280
     0
281
     0
  0
CLASS
  1
SORTENTSTABLE
  2
AcDbSortentsTable
  3
ObjectDBX Classes
 90
        0
280
     0
281
     0
  0
CLASS
  1
DIMASSOC
  2
AcDbDimAssoc
  3
"AcDbDimAssoc|Product Desc:     AcDim ARX App For Dimension|Company:          Autodesk, Inc.|WEB Address:      www.autodesk.com"
 90
    32768
280
     0
281
     0
  0
CLASS
  1
MATERIAL
  2
AcDbMaterial
  3
ObjectDBX Classes
 90
        0
280
     0
281
     0
  0
CLASS
  1
VISUALSTYLE
  2
AcDbVisualStyle
  3
ObjectDBX Classes
 90
     4095
280
     0
281
     0
  0
CLASS
  1
TABLESTYLE
  2
AcDbTableStyle
  3
ObjectDBX Classes
 90
     2047
280
     0
281
     0
  0
CLASS
  1
SCALE
  2
AcDbScale
  3
ObjectDBX Classes
 90
     1153
280
     0
281
     0
  0
CLASS
  1
MLEADERSTYLE
  2
AcDbMLeaderStyle
  3
ACDB_MLEADERSTYLE_CLASS
 90
     4095
280
     0
281
     0
  0
CLASS
  1
EXACTERMXREFMAP
  2
ExAcTermXrefMap
  3
EXAC_SERVICE
 90
    33793
280
     0
281
     0
  0
CLASS
  1
NPOCOLLECTION
  2
AcDbImpNonPersistentObjectsCollection
  3
ObjectDBX Classes
 90
    33921
280
     0
281
     0
  0
CLASS
  1
EXACXREFPANELOBJECT
  2
ExAcXREFPanelObject
  3
EXAC_ESW
 90
    33793
280
     0
281
     0
  0
CLASS
  1
CELLSTYLEMAP
  2
AcDbCellStyleMap
  3
ObjectDBX Classes
 90
     1152
280
     0
281
     0
  0
ENDSEC
  0
SECTION
  2
TABLES
  0
TABLE
  2
VPORT
  5
8
102
{ACAD_XDICTIONARY
360
304E
102
}
330
0
100
AcDbSymbolTable
 70
     1
  0
VPORT
  5
2F4D
330
8
100
AcDbSymbolTableRecord
100
AcDbViewportTableRecord
  2
*Active
 70
     0
 10
0.0
 20
0.0
 11
1.0
 21
1.0
 12
177.00000001637
 22
241.0000012331306
 13
0.0
 23
0.0
 14
10.0
 24
10.0
 15
10.0
 25
10.0
 16
0.0
 26
0.0
 36
1.0
 17
0.0
 27
0.0
 37
0.0
 40
486.0631379323371
 41
2.243016759776536
 42
50.0
 43
0.0
 44
0.0
 50
0.0
 51
0.0
 71
     0
 72
 20000
 73
     1
 74
     3
 75
     0
 76
     0
 77
     0
 78
     1
281
     0
 65
     1
110
0.0
120
0.0
130
0.0
111
1.0
121
0.0
131
0.0
112
0.0
122
1.0
132
0.0
 79
     0
146
0.0
  0
ENDTAB
  0
TABLE
  2
LTYPE
  5
5
330
0
100
AcDbSymbolTable
 70
     1
  0
LTYPE
  5
14
330
5
100
AcDbSymbolTableRecord
100
AcDbLinetypeTableRecord
  2
ByBlock
 70
     0
  3

 72
    65
 73
     0
 40
0.0
  0
LTYPE
  5
15
330
5
100
AcDbSymbolTableRecord
100
AcDbLinetypeTableRecord
  2
ByLayer
 70
     0
  3

 72
    65
 73
     0
 40
0.0
  0
LTYPE
  5
16
330
5
100
AcDbSymbolTableRecord
100
AcDbLinetypeTableRecord
  2
Continuous
 70
     0
  3
Solid line
 72
    65
 73
     0
 40
0.0
  0
ENDTAB
  0
TABLE
  2
LAYER
  5
2
102
{ACAD_XDICTIONARY
360
2FE0
102
}
330
0
100
AcDbSymbolTable
 70
     7
  0
LAYER
  5
10
102
{ACAD_XDICTIONARY
360
3010
102
}
330
2
100
AcDbSymbolTableRecord
100
AcDbLayerTableRecord
  2
0
 70
     4
 62
     7
  6
Continuous
290
     0
370
    -3
390
F
  0
LAYER
  5
2B
102
{ACAD_XDICTIONARY
360
3012
102
}
330
2
100
AcDbSymbolTableRecord
100
AcDbLayerTableRecord
  2
APL Joinery
 70
     0
 62
     2
  6
Continuous
370
    -3
390
F
  0
LAYER
  5
75
102
{ACAD_XDICTIONARY
360
3014
102
}
330
2
100
AcDbSymbolTableRecord
100
AcDbLayerTableRecord
  2
APL Notes
 70
     0
 62
     7
  6
Continuous
370
    -3
390
F
  0
LAYER
  5
282D
102
{ACAD_XDICTIONARY
360
3016
102
}
330
2
100
AcDbSymbolTableRecord
100
AcDbLayerTableRecord
  2
APL Border
 70
     0
 62
     7
  6
Continuous
370
    -3
390
F
  0
LAYER
  5
2FC1
102
{ACAD_XDICTIONARY
360
301C
102
}
330
2
100
AcDbSymbolTableRecord
100
AcDbLayerTableRecord
  2
APL Hatch
 70
     0
 62
   253
  6
Continuous
370
    -3
390
F
  0
LAYER
  5
33E5
102
{ACAD_XDICTIONARY
360
37AD
102
}
330
2
100
AcDbSymbolTableRecord
100
AcDbLayerTableRecord
  2
APL Building
 70
     0
 62
     3
  6
Continuous
370
    -3
390
F
  0
ENDTAB
  0
TABLE
  2
STYLE
  5
3
330
0
100
AcDbSymbolTable
 70
     5
  0
STYLE
  5
11
330
3
100
AcDbSymbolTableRecord
100
AcDbTextStyleTableRecord
  2
Standard
 70
     0
 40
0.0
 41
1.0
 50
0.0
 71
     0
 42
3.0
  3
txt
  4

  0
STYLE
  5
56
330
3
100
AcDbSymbolTableRecord
100
AcDbTextStyleTableRecord
  2
Arial-Regular
 70
     0
 40
0.0
 41
1.0
 50
0.0
 71
     0
 42
2.5
  3
ARIAL.TTF
  4

1001
ACAD
1000
Arial
1071
       34
  0
STYLE
  5
58
330
3
100
AcDbSymbolTableRecord
100
AcDbTextStyleTableRecord
  2
Arial-Bold
 70
     0
 40
0.0
 41
1.0
 50
0.0
 71
     0
 42
5.0
  3
ARIALBD.TTF
  4

1001
ACAD
1000
Arial
1071
 33554466
  0
ENDTAB
  0
TABLE
  2
VIEW
  5
6
330
0
100
AcDbSymbolTable
 70
     0
  0
ENDTAB
  0
TABLE
  2
UCS
  5
7
330
0
100
AcDbSymbolTable
 70
     0
  0
ENDTAB
  0
TABLE
  2
APPID
  5
9
330
0
100
AcDbSymbolTable
 70
     9
  0
APPID
  5
12
330
9
100
AcDbSymbolTableRecord
100
AcDbRegAppTableRecord
  2
ACAD
 70
     0
  0
APPID
  5
2FB8
330
9
100
AcDbSymbolTableRecord
100
AcDbRegAppTableRecord
  2
ACAD_MLEADERVER
 70
     0
  0
APPID
  5
356C
330
9
100
AcDbSymbolTableRecord
100
AcDbRegAppTableRecord
  2
ACAD_PSEXT
 70
     0
  0
APPID
  5
36B1
330
9
100
AcDbSymbolTableRecord
100
AcDbRegAppTableRecord
  2
ACAUTHENVIRON
 70
     0
  0
APPID
  5
36B2
330
9
100
AcDbSymbolTableRecord
100
AcDbRegAppTableRecord
  2
AcDbDynamicBlockTrueName
 70
     0
  0
APPID
  5
36B3
330
9
100
AcDbSymbolTableRecord
100
AcDbRegAppTableRecord
  2
AcDbDynamicBlockGUID
 70
     0
  0
APPID
  5
36B4
330
9
100
AcDbSymbolTableRecord
100
AcDbRegAppTableRecord
  2
AcDbBlockRepETag
 70
     0
  0
APPID
  5
36B5
330
9
100
AcDbSymbolTableRecord
100
AcDbRegAppTableRecord
  2
AcDbBlockRepBTag
 70
     0
  0
APPID
  5
36B6
330
9
100
AcDbSymbolTableRecord
100
AcDbRegAppTableRecord
  2
ACAD_EXEMPT_FROM_CAD_STANDARDS
 70
     0
  0
ENDTAB
  0
TABLE
  2
DIMSTYLE
  5
A
330
0
100
AcDbSymbolTable
 70
     2
100
AcDbDimStyleTable
 71
     1
340
27
  0
DIMSTYLE
105
27
330
A
100
AcDbSymbolTableRecord
100
AcDbDimStyleTableRecord
  2
ISO-25
 70
     0
 41
4.0
 42
0.625
 43
3.75
 44
1.25
 73
     0
 74
     0
 77
     1
 78
     8
140
2.5
141
2.5
143
0.03937007874016
147
0.625
171
     3
172
     1
271
     2
272
     2
274
     3
278
    44
283
     0
284
     8
340
11
  0
ENDTAB
  0
TABLE
  2
BLOCK_RECORD
  5
1
330
0
100
AcDbSymbolTable
 70
    25
  0
BLOCK_RECORD
  5
1F
102
{ACAD_XDICTIONARY
360
2C09
102
}
330
1
100
AcDbSymbolTableRecord
100
AcDbBlockTableRecord
  2
*Model_Space
340
22
  0
BLOCK_RECORD
  5
2CC1
330
1
100
AcDbSymbolTableRecord
100
AcDbBlockTableRecord
  2
*Paper_Space
340
2CC2
  0
BLOCK_RECORD
  5
29AF
102
{ACAD_XDICTIONARY
360
37F0
102
}
330
1
100
AcDbSymbolTableRecord
100
AcDbBlockTableRecord
  2
08569
340
0
102
{BLKREFS
331
29B3
102
}
  0
BLOCK_RECORD
  5
29B4
102
{ACAD_XDICTIONARY
360
37F5
102
}
330
1
100
AcDbSymbolTableRecord
100
AcDbBlockTableRecord
  2
08568
340
0
102
{BLKREFS
331
29B8
102
}
  0
BLOCK_RECORD
  5
29BA
102
{ACAD_XDICTIONARY
360
37FA
102
}
330
1
100
AcDbSymbolTableRecord
100
AcDbBlockTableRecord
  2
08567
340
0
102
{BLKREFS
331
2A82
102
}
  0
BLOCK_RECORD
  5
29BF
102
{ACAD_XDICTIONARY
360
37FF
102
}
330
1
100
AcDbSymbolTableRecord
100
AcDbBlockTableRecord
  2
08508
340
0
102
{BLKREFS
331
2A89
331
2A98
102
}
  0
BLOCK_RECORD
  5
29D3
330
1
100
AcDbSymbolTableRecord
100
AcDbBlockTableRecord
  2
6Glass
340
0
102
{BLKREFS
331
29E7
331
2A7E
331
2AA6
331
2AA8
331
2AB0
331
31E7
331
31EE
331
32A6
331
32A9
331
32AC
331
32AF
331
32C0
331
32C7
102
}
  0
BLOCK_RECORD
  5
29E0
330
1
100
AcDbSymbolTableRecord
100
AcDbBlockTableRecord
  2
9010600
340
0
102
{BLKREFS
331
29E9
331
2A80
331
2AA7
331
2AAA
331
2AB2
331
31E8
331
31EF
331
32A7
331
32AA
331
32AD
331
32B0
331
32C1
331
32C8
102
}
  0
BLOCK_RECORD
  5
29F6
102
{ACAD_XDICTIONARY
360
3808
102
}
330
1
100
AcDbSymbolTableRecord
100
AcDbBlockTableRecord
  2
08563
340
0
102
{BLKREFS
331
29FA
102
}
  0
BLOCK_RECORD
  5
29FB
102
{ACAD_XDICTIONARY
360
380D
102
}
330
1
100
AcDbSymbolTableRecord
100
AcDbBlockTableRecord
  2
08565
340
0
102
{BLKREFS
331
2A0C
331
2A0D
331
2A7B
102
}
  0
BLOCK_RECORD
  5
2A00
102
{ACAD_XDICTIONARY
360
3812
102
}
330
1
100
AcDbSymbolTableRecord
100
AcDbBlockTableRecord
  2
08564
340
0
102
{BLKREFS
331
2A04
331
2A7C
102
}
  0
BLOCK_RECORD
  5
2A05
102
{ACAD_XDICTIONARY
360
3817
102
}
330
1
100
AcDbSymbolTableRecord
100
AcDbBlockTableRecord
  2
08594
340
0
102
{BLKREFS
331
2A0A
331
2A7D
102
}
  0
BLOCK_RECORD
  5
2A1B
102
{ACAD_XDICTIONARY
360
381C
102
}
330
1
100
AcDbSymbolTableRecord
100
AcDbBlockTableRecord
  2
08561
340
0
102
{BLKREFS
331
2A9F
331
2AA1
331
2AA3
331
2AA4
102
}
  0
BLOCK_RECORD
  5
2C93
102
{ACAD_XDICTIONARY
360
3821
102
}
330
1
100
AcDbSymbolTableRecord
100
AcDbBlockTableRecord
  2
08561ripped
340
0
102
{BLKREFS
331
2C98
102
}
  0
BLOCK_RECORD
  5
2CCC
330
1
100
AcDbSymbolTableRecord
100
AcDbBlockTableRecord
  2
vantage a4 SM border
340
0
102
{BLKREFS
331
2CD0
102
}
  0
BLOCK_RECORD
  5
2D06
330
1
100
AcDbSymbolTableRecord
100
AcDbBlockTableRecord
  2
vantage a4 SM attributes (2)
340
0
102
{BLKREFS
331
2D10
102
}
1001
ACAD
1000
DesignCenter Data
1002
{
1070
     1
1070
     4
1002
}
  0
BLOCK_RECORD
  5
31A9
330
1
100
AcDbSymbolTableRecord
100
AcDbBlockTableRecord
  2
9010655-6.0mm
340
0
102
{BLKREFS
331
31AD
331
31AE
331
31ED
331
31F4
331
3234
331
326D
331
32A8
331
32AB
331
32AE
331
32B1
331
32C2
331
32C9
331
3306
102
}
1001
ACAD
1000
DesignCenter Data
1002
{
1070
     1
1070
     4
1002
}
  0
BLOCK_RECORD
  5
33E9
330
1
100
AcDbSymbolTableRecord
100
AcDbBlockTableRecord
  2
Conc
340
0
102
{BLKREFS
331
3425
331
3426
102
}
1001
ACAD
1000
DesignCenter Data
1002
{
1070
     1
1070
     4
1002
}
  0
BLOCK_RECORD
  5
3832
102
{ACAD_XDICTIONARY
360
3833
102
}
330
1
100
AcDbSymbolTableRecord
100
AcDbBlockTableRecord
  2
vantage black & white logo
340
0
310
2800000020000000200000000100080000000000000400000000000000000000000000000000000000000000000080000080000000808000800000008000800080800000C0C0C000C0DCC000F0CAA6000020400000206000002080000020A0000020C0000020E00000400000004020000040400000406000004080000040A0
310
000040C0000040E00000600000006020000060400000606000006080000060A0000060C0000060E00000800000008020000080400000806000008080000080A0000080C0000080E00000A0000000A0200000A0400000A0600000A0800000A0A00000A0C00000A0E00000C0000000C0200000C0400000C0600000C0800000C0
310
A00000C0C00000C0E00000E0000000E0200000E0400000E0600000E0800000E0A00000E0C00000E0E00040000000400020004000400040006000400080004000A0004000C0004000E00040200000402020004020400040206000402080004020A0004020C0004020E000404000004040200040404000404060004040800040
310
40A0004040C0004040E00040600000406020004060400040606000406080004060A0004060C0004060E00040800000408020004080400040806000408080004080A0004080C0004080E00040A0000040A0200040A0400040A0600040A0800040A0A00040A0C00040A0E00040C0000040C0200040C0400040C0600040C08000
310
40C0A00040C0C00040C0E00040E0000040E0200040E0400040E0600040E0800040E0A00040E0C00040E0E00080000000800020008000400080006000800080008000A0008000C0008000E00080200000802020008020400080206000802080008020A0008020C0008020E00080400000804020008040400080406000804080
310
008040A0008040C0008040E00080600000806020008060400080606000806080008060A0008060C0008060E00080800000808020008080400080806000808080008080A0008080C0008080E00080A0000080A0200080A0400080A0600080A0800080A0A00080A0C00080A0E00080C0000080C0200080C0400080C0600080C0
310
800080C0A00080C0C00080C0E00080E0000080E0200080E0400080E0600080E0800080E0A00080E0C00080E0E000C0000000C0002000C0004000C0006000C0008000C000A000C000C000C000E000C0200000C0202000C0204000C0206000C0208000C020A000C020C000C020E000C0400000C0402000C0404000C0406000C0
310
408000C040A000C040C000C040E000C0600000C0602000C0604000C0606000C0608000C060A000C060C000C060E000C0800000C0802000C0804000C0806000C0808000C080A000C080C000C080E000C0A00000C0A02000C0A04000C0A06000C0A08000C0A0A000C0A0C000C0A0E000C0C00000C0C02000C0C04000C0C06000
310
C0C08000C0C0A000F0FBFF00A4A0A000808080000000FF0000FF000000FFFF00FF000000FF00FF00FFFF0000FFFFFF0000000000000000000000000000000000000000000000000000000000000000000000000000000000000000000000000000000000000000000000000000000000000000000000000000000000000000
310
0000000000000000000000000000000000000000000000000000000000000000A4A40000000000000000000000000000000000000000000000000000000000A400000700000000000000000000000000000000000000000000000000000000A4000707000000000000000000000000000000000000000000000000000000A4
310
00A4A407070000000000000000000000000000000000000000000000000000A400A400A40700000000000000000000000000000000000000000000000000A400A4A400A407070000000000000000000000000000000000000000000000A40700A4000000A4070000000000000000000000000000000000000000000000A400
310
A4A4000000A40707000000000000000000000000000000000000000000A400A4A4000000A4A4A400070000000000000000000000000000000000000000A400A400000000A400A4070700000000000000000000000000000000000000A400A4A4000000A4A40000A40007000000000000000000000000000000000000A400A4
310
A4A4A4A4A4A4A4A4A407070000000000000000000000000000000000A400A4A4A4A4A4A4A4A4A4A4A4A40007000000000000000000000000000000A40000A4A4A4A4A4A4A4A4A4A4A4A40700070000000000000000000000000000A400A4A400A4A4A4A4A4A4A4A4A4A4A4070700000000000000000000000000A400A4A4A4
310
A4A4A4A4A4A4A4A4A4A4A4A4070007000000000000000000000000A400A4A4A4A4A4A4A4A4A4A4A4A4A4A4A4A407070000000000000000000000A400A4A400A4A4A4A4A4A4A4A4A4A4A4A4A4A4070007000000000000000000A40700A4A400A4A4A4A4A4A4A4A4A4A4A4A4A400A40707000000000000000000A400A4A4A4A4
310
A4A4A4A4A4A4A4A4A4A4A4A4A4A4A407000700000000000000A400A4A4A4A4A4A4A4A4A4A4A4A4A4A4A4A4A4A4A4A4A4070007000000000000A400A4A4A4A4A4A4A4A4A4A4A4A4A4A4A4A4A4A4A4A4A40700070000000000A400A4A400A4A4A4A4A4A4A4A4A4A4A4A4A4A4A4A4A4A4A40007000700000000A400A4A4A400A4
310
A4A4A4A4A4A4A4A4A4A4A4A4A4A4A4A4A4000700070000000700A4A4A4A4A4A4A4A4A4A4A4A4A4A4A4A4A4A4A4A4A4A4A4A4A40700070000A407A4A4A4A4A4A4A4A4A4A4A4A4A4A4A4A4A4A4A4A4A4A4A4A4A4A407A40000000000000000000000000000000000000000000000000000000000000000000000000000000000
310
0000000000000000000000000000000000000000000000000000000000000000000000000000000000000000000000000000000000000000
102
{BLKREFS
331
3830
102
}
1001
AcDbDynamicBlockGUID
1000
{7D04BC3F-8AE2-40EA-A482-CE6E620AF154}
1001
AcDbBlockRepETag
1070
     1
1071
      907
1001
ACAD
1000
DesignCenter Data
1002
{
1070
     1
1070
     4
1002
}
  0
ENDTAB
  0
ENDSEC
  0
SECTION
  2
BLOCKS
  0
BLOCK
  5
20
330
1F
100
AcDbEntity
  8
0
100
AcDbBlockBegin
  2
*Model_Space
 70
     0
 10
0.0
 20
0.0
 30
0.0
  3
*Model_Space
  1

  0
ENDBLK
  5
21
330
1F
100
AcDbEntity
  8
0
100
AcDbBlockEnd
  0
BLOCK
  5
2CC3
330
2CC1
100
AcDbEntity
 67
     1
  8
0
100
AcDbBlockBegin
  2
*Paper_Space
 70
     0
 10
0.0
 20
0.0
 30
0.0
  3
*Paper_Space
  1

  0
ENDBLK
  5
2CC4
330
2CC1
100
AcDbEntity
 67
     1
  8
0
100
AcDbBlockEnd
  0
BLOCK
  5
29B0
330
29AF
100
AcDbEntity
  8
0
100
AcDbBlockBegin
  2
08569
 70
     0
 10
402.401581110152
 20
163.9883508038808
 30
0.0
  3
08569
  1
I:\DWG Master BLocks\08569.dwg
  0
LWPOLYLINE
  5
37EE
102
{ACAD_REACTORS
330
37EF
102
}
330
29AF
100
AcDbEntity
  8
APL Joinery
  6
Continuous
100
AcDbPolyline
 90
      102
 70
     1
 43
0.0
 10
453.825388047064
 20
81.22773573310798
 42
-0.1841352475655239
 10
385.6860358915813
 20
67.99711227231707
 42
-0.3645721354516082
 10
377.4015811101521
 20
77.84885854407201
 10
377.4015811101518
 20
109.2383508038809
 42
-0.4142135623729036
 10
377.6515811101518
 20
109.488350803881
 10
378.4015811101516
 20
109.488350803881
 10
378.4015811101516
 20
110.2383508038805
 42
-0.4142135623733781
 10
378.6515811101515
 20
110.4883508038805
 10
380.4515811101514
 20
110.4883508038805
 42
-0.9999999999999856
 10
380.4515811101519
 20
109.4883508038808
 10
379.7015811101514
 20
109.4883508038808
 10
379.7015811101511
 20
107.9883508038808
 10
385.2015811101516
 20
107.9883508038808
 10
385.2015811101516
 20
109.4883508038814
 10
384.4515811101518
 20
109.4883508038811
 42
-0.9999999999999998
 10
384.4515811101518
 20
110.4883508038812
 10
386.2515811101517
 20
110.4883508038815
 42
-0.4142135623731451
 10
386.5015811101518
 20
110.2383508038811
 10
386.5015811101518
 20
107.9883508038803
 10
389.9015811101514
 20
107.9883508038808
 10
389.9015811101513
 20
109.6610005346916
 42
-0.2679491924308937
 10
390.0265811101514
 20
109.8775068856379
 10
391.0265811101516
 20
110.4548571548273
 42
-0.5773502691895894
 10
391.4015811101516
 20
110.2383508038799
 10
391.4015811101514
 20
108.2383508038808
 42
0.4142135623731034
 10
391.651581110151
 20
107.9883508038809
 10
395.2548122738448
 20
107.988350803881
 42
0.0729934230504027
 10
395.5421601594107
 20
108.0305245186597
 10
399.6889289957175
 20
109.2745551695512
 42
0.3312061653634704
 10
400.4015811101509
 20
110.2323814547728
 10
400.4015811101518
 20
124.7443201529901
 42
0.3312061653634589
 10
399.6889289957175
 20
125.702146438211
 10
395.5421601594148
 20
126.9461770891022
 42
0.0729934230505309
 10
395.2548122738485
 20
126.9883508038815
 10
391.6515811101504
 20
126.9883508038816
 42
0.4142135623730951
 10
391.4015811101502
 20
126.7383508038817
 10
391.4015811101511
 20
124.7383508038815
 42
-0.5773502691898008
 10
391.0265811101518
 20
124.5218444529343
 10
390.0265811101519
 20
125.0991947221242
 42
-0.2679491924310638
 10
389.9015811101522
 20
125.31570107307
 10
389.9015811101515
 20
126.9883508038815
 10
386.5015811101512
 20
126.9883508038818
 10
386.5015811101509
 20
124.738350803881
 42
-0.4142135623732782
 10
386.2515811101514
 20
124.4883508038812
 10
384.4515811101512
 20
124.4883508038814
 42
-0.9999999999999998
 10
384.4515811101516
 20
125.4883508038804
 10
385.2015811101516
 20
125.4883508038805
 10
385.2015811101521
 20
126.9883508038808
 10
379.7015811101511
 20
126.9883508038808
 10
379.7015811101514
 20
125.4883508038807
 10
380.4515811101514
 20
125.4883508038802
 42
-0.9999999999999998
 10
380.4515811101516
 20
124.4883508038804
 10
378.6515811101515
 20
124.4883508038817
 42
-0.414213562373195
 10
378.4015811101516
 20
124.7383508038812
 10
378.4015811101514
 20
125.4883508038805
 10
377.6515811101516
 20
125.4883508038811
 42
-0.414213562373195
 10
377.401581110152
 20
125.7383508038807
 10
377.4015811101516
 20
156.2295475503769
 42
-0.3659773818630712
 10
385.7349144434838
 20
166.0896805222095
 42
-0.0364491273682903
 10
400.2301434130311
 20
167.4647723157943
 42
-0.2045290394629734
 10
400.412326092523
 20
167.391630564472
 10
401.4885647954759
 20
166.3156671143835
 42
-0.6022699938919044
 10
404.8392911898892
 20
163.4337612555256
 42
-0.2781785105893594
 10
404.6602309283987
 20
163.2477403575995
 10
400.8159259902015
 20
162.2175598294337
 42
-0.2781785105894991
 10
400.5678412585591
 20
162.2891162242305
 42
-0.2879125173074392
 10
400.0743775098844
 20
164.9016543694636
 10
399.6060105638341
 20
165.3699415255742
 42
0.2068061517140564
 10
399.4216470555126
 20
165.4430341683338
 42
0.0390704850546438
 10
384.2193069030313
 20
163.7868705466966
 42
0.3017501137845384
 10
379.2015811101513
 20
156.2295475503767
 10
379.2015811101513
 20
144.2382457600082
 42
0.6157078743298273
 10
379.6002297588003
 20
144.0372393440534
 42
-0.3706944580782446
 10
384.0857339138646
 20
143.7082230148957
 42
-0.9999999999999998
 10
382.9568514541729
 20
142.5743692358741
 42
2.406732252590789
 10
382.9568514541729
 20
139.9523323718887
 42
-1.00000000000008
 10
384.0857339138643
 20
138.8184785928676
 42
-0.3706944580782156
 10
379.6002297588008
 20
138.4894622637094
 42
0.6157078743299803
 10
379.2015811101512
 20
138.2884558477549
 10
379.2015811101512
 20
129.7883508038807
 42
0.4142135623730617
 10
380.2015811101519
 20
128.7883508038814
 10
395.5923805973455
 20
128.7883508038817
 42
-0.0729934230505204
 10
395.7360545401292
 20
128.7672639464911
 10
400.2061551897369
 20
127.4262337516091
 42
-0.3312061653634696
 10
402.2015811101514
 20
124.7443201529903
 10
402.2015811101509
 20
110.2323814547733
 42
-0.3312061653635123
 10
400.2061551897369
 20
107.5504678561528
 10
395.736054540129
 20
106.2094376612703
 42
-0.072993423050525
 10
395.5923805973458
 20
106.188350803881
 10
380.2015811101516
 20
106.1883508038814
 42
0.4142135623731451
 10
379.2015811101513
 20
105.1883508038812
 10
379.2015811101513
 20
96.68824576001064
 42
0.6157078743297609
 10
379.6002297587999
 20
96.48723934405664
 42
-0.3706944580779786
 10
384.0857339138616
 20
96.15822301489595
 42
-0.9999999999999998
 10
382.9568514541699
 20
95.02436923587461
 42
2.406732252590721
 10
382.9568514541699
 20
92.40233237188871
 42
-0.9999999999999797
 10
384.0857339138617
 20
91.26847859286765
 42
-0.3706944580779214
 10
379.6002297588002
 20
90.9394622637073
 42
0.6157078743292394
 10
379.2015811101515
 20
90.73845584775272
 10
379.2015811101514
 20
77.84885854407194
 42
0.3003213489629477
 10
384.1797490402706
 20
70.30831492219222
 42
0.1892332265322282
 10
452.7698452579094
 20
82.92650864914653
 42
-0.9999999999999996
  0
HATCH
  5
37EF
330
29AF
100
AcDbEntity
  8
APL Hatch
 48
20.0
100
AcDbHatch
 10
0.0
 20
0.0
 30
0.0
210
0.0
220
0.0
230
1.0
  2
SOLID
 70
     1
 71
     1
 91
        1
 92
        7
 72
     1
 73
     1
 93
      102
 10
382.9568514541728
 20
142.5743692358742
 42
1.0
 10
384.0857339138647
 20
143.7082230148956
 42
0.3706944580782458
 10
379.6002297588004
 20
144.0372393440535
 42
-0.6157078743297868
 10
379.2015811101513
 20
144.2382457600081
 42
0.0
 10
379.2015811101513
 20
156.2295475503777
 42
-0.3017501137845018
 10
384.2193069030312
 20
163.7868705466965
 42
-0.0390704850546457
 10
399.4216470555132
 20
165.4430341683339
 42
-0.2068061517141506
 10
399.6060105638346
 20
165.3699415255738
 42
0.0
 10
400.0743775098844
 20
164.9016543694636
 42
0.2879125173075156
 10
400.5678412585596
 20
162.28911622423
 42
0.2781785105890948
 10
400.8159259902018
 20
162.2175598294338
 42
0.0
 10
404.6602309283984
 20
163.2477403575995
 42
0.2781785105891199
 10
404.8392911898891
 20
163.433761255525
 42
0.6022699938919873
 10
401.4885647954759
 20
166.3156671143835
 42
0.0
 10
400.4123260925247
 20
167.3916305644703
 42
0.2045290394630598
 10
400.2301434130335
 20
167.4647723157944
 42
0.036449127368295
 10
385.7349144434843
 20
166.0896805222096
 42
0.3659773818630579
 10
377.4015811101516
 20
156.2295475503779
 42
0.0
 10
377.401581110152
 20
125.7383508038806
 42
0.4142135623728619
 10
377.6515811101513
 20
125.4883508038811
 42
0.0
 10
378.4015811101514
 20
125.4883508038805
 42
0.0
 10
378.4015811101516
 20
124.7383508038813
 42
0.4142135623728453
 10
378.6515811101511
 20
124.4883508038817
 42
0.0
 10
380.4515811101511
 20
124.4883508038804
 42
1.0
 10
380.4515811101516
 20
125.4883508038802
 42
0.0
 10
379.7015811101513
 20
125.4883508038807
 42
0.0
 10
379.7015811101511
 20
126.9883508038808
 42
0.0
 10
385.2015811101521
 20
126.9883508038808
 42
0.0
 10
385.2015811101516
 20
125.4883508038805
 42
0.0
 10
384.4515811101513
 20
125.4883508038804
 42
1.0
 10
384.4515811101512
 20
124.4883508038814
 42
0.0
 10
386.2515811101513
 20
124.4883508038812
 42
0.4142135623730784
 10
386.5015811101509
 20
124.7383508038808
 42
0.0
 10
386.5015811101512
 20
126.9883508038818
 42
0.0
 10
389.9015811101515
 20
126.9883508038815
 42
0.0
 10
389.9015811101522
 20
125.3157010730698
 42
0.267949192430881
 10
390.0265811101519
 20
125.0991947221242
 42
0.0
 10
391.0265811101512
 20
124.5218444529347
 42
0.577350269189767
 10
391.4015811101511
 20
124.7383508038808
 42
0.0
 10
391.4015811101502
 20
126.7383508038815
 42
-0.414213562373245
 10
391.6515811101503
 20
126.9883508038816
 42
0.0
 10
395.2548122738472
 20
126.9883508038815
 42
-0.0729934230505167
 10
395.5421601594135
 20
126.9461770891026
 42
0.0
 10
399.6889289957181
 20
125.7021464382108
 42
-0.3312061653634757
 10
400.4015811101518
 20
124.7443201529895
 42
0.0
 10
400.4015811101509
 20
110.2323814547723
 42
-0.3312061653635048
 10
399.688928995717
 20
109.274555169551
 42
0.0
 10
395.5421601594111
 20
108.0305245186599
 42
-0.0729934230504793
 10
395.254812273845
 20
107.988350803881
 42
0.0
 10
391.6515811101512
 20
107.9883508038809
 42
-0.41421356237317
 10
391.4015811101514
 20
108.2383508038806
 42
0.0
 10
391.4015811101516
 20
110.2383508038805
 42
0.5773502691895027
 10
391.0265811101512
 20
110.454857154827
 42
0.0
 10
390.0265811101515
 20
109.877506885638
 42
0.2679491924312734
 10
389.9015811101513
 20
109.6610005346915
 42
0.0
 10
389.9015811101514
 20
107.9883508038808
 42
0.0
 10
386.5015811101518
 20
107.9883508038803
 42
0.0
 10
386.5015811101518
 20
110.2383508038813
 42
0.4142135623731617
 10
386.2515811101515
 20
110.4883508038815
 42
0.0
 10
384.4515811101517
 20
110.4883508038812
 42
1.0
 10
384.4515811101519
 20
109.4883508038811
 42
0.0
 10
385.2015811101516
 20
109.4883508038814
 42
0.0
 10
385.2015811101516
 20
107.9883508038808
 42
0.0
 10
379.7015811101511
 20
107.9883508038808
 42
0.0
 10
379.7015811101514
 20
109.4883508038808
 42
0.0
 10
380.4515811101517
 20
109.4883508038808
 42
1.0
 10
380.4515811101516
 20
110.4883508038805
 42
0.0
 10
378.6515811101514
 20
110.4883508038805
 42
0.4142135623731117
 10
378.4015811101516
 20
110.2383508038807
 42
0.0
 10
378.4015811101516
 20
109.488350803881
 42
0.0
 10
377.651581110152
 20
109.488350803881
 42
0.4142135623730868
 10
377.4015811101518
 20
109.2383508038808
 42
0.0
 10
377.4015811101521
 20
77.84885854407166
 42
0.3645721354516165
 10
385.6860358915819
 20
67.99711227231694
 42
0.1841352475655233
 10
453.8253880470643
 20
81.22773573310817
 42
1.0
 10
452.7698452579093
 20
82.92650864914646
 42
-0.1892332265322283
 10
384.1797490402704
 20
70.30831492219228
 42
-0.3003213489630081
 10
379.2015811101514
 20
77.84885854407393
 42
0.0
 10
379.2015811101515
 20
90.73845584775259
 42
-0.6157078743294352
 10
379.6002297588002
 20
90.9394622637073
 42
0.370694458077915
 10
384.0857339138616
 20
91.2684785928676
 42
1.0
 10
382.9568514541699
 20
92.40233237188871
 42
-2.406732252590611
 10
382.9568514541699
 20
95.0243692358747
 42
1.0
 10
384.0857339138618
 20
96.15822301489574
 42
0.3706944580780338
 10
379.6002297587996
 20
96.48723934405637
 42
-0.615707874329455
 10
379.2015811101513
 20
96.68824576001085
 42
0.0
 10
379.2015811101513
 20
105.1883508038812
 42
-0.4142135623731076
 10
380.2015811101515
 20
106.1883508038814
 42
0.0
 10
395.5923805973465
 20
106.188350803881
 42
0.072993423050509
 10
395.7360545401296
 20
106.2094376612705
 42
0.0
 10
400.2061551897362
 20
107.5504678561526
 42
0.3312061653634627
 10
402.2015811101509
 20
110.2323814547722
 42
0.0
 10
402.2015811101514
 20
124.7443201529898
 42
0.3312061653635063
 10
400.2061551897371
 20
127.426233751609
 42
0.0
 10
395.7360545401258
 20
128.7672639464921
 42
0.072993423050502
 10
395.592380597342
 20
128.7883508038817
 42
0.0
 10
380.2015811101512
 20
128.7883508038814
 42
-0.4142135623730951
 10
379.2015811101512
 20
129.7883508038815
 42
0.0
 10
379.2015811101512
 20
138.2884558477547
 42
-0.6157078743299448
 10
379.6002297588007
 20
138.4894622637095
 42
0.370694458078253
 10
384.0857339138644
 20
138.8184785928678
 42
1.0
 10
382.9568514541729
 20
139.9523323718886
 42
-2.406732252590605
 97
        1
330
37EE
 75
     0
 76
     1
 47
0.1625982471393591
 98
        1
 10
378.9541339334469
 20
140.3355358532147
  0
ENDBLK
  5
29B1
330
29AF
100
AcDbEntity
  8
0
100
AcDbBlockEnd
  0
BLOCK
  5
29B5
330
29B4
100
AcDbEntity
  8
0
100
AcDbBlockBegin
  2
08568
 70
     0
 10
402.4015811101521
 20
163.9883508038811
 30
0.0
  3
08568
  1
I:\DWG Master BLocks\08568.dwg
  0
LWPOLYLINE
  5
37F3
102
{ACAD_REACTORS
330
37F4
102
}
330
29B4
100
AcDbEntity
  8
APL Joinery
  6
Continuous
100
AcDbPolyline
 90
      105
 70
     1
 43
0.0
 10
410.9485394201355
 20
64.66967053463441
 10
410.517247365623
 20
65.03483595975177
 10
410.1512165021752
 20
64.60427814599322
 42
-0.0240144869957225
 10
400.5853748144803
 20
64.31913719471712
 42
-0.9999999999999998
 10
400.6218134451458
 20
66.31880522371426
 42
0.187426833488856
 10
467.0259564669541
 20
90.73401430070331
 42
0.3015794116774224
 10
467.4808721324702
 20
99.78974157587671
 10
459.7372069154371
 20
112.8374649405813
 42
0.6157078743296763
 10
459.2917994779412
 20
112.8068620167443
 42
-0.3706944580779091
 10
455.2665528669811
 20
110.8005248090762
 42
-1.00000000000002
 10
455.6586522144587
 20
112.3517366262394
 42
2.406732252590517
 10
454.3204378473462
 20
114.6065669133686
 42
-1.000000000000019
 10
452.7709639120953
 20
115.0054785877765
 42
-0.3706944580778468
 10
456.4603690368087
 20
117.5776934107757
 42
0.6157078743294376
 10
456.7006003553821
 20
117.9540087544711
 10
452.3623841968275
 20
125.2637054867912
 42
0.4142135623731034
 10
450.9920584384095
 20
125.6132871164804
 10
437.7566835649581
 20
117.7582530099796
 42
-0.0729934230505051
 10
437.6223684841867
 20
117.7030595641144
 10
433.0938645688271
 20
116.5748689375836
 42
-0.3312061653635227
 10
430.0091168975826
 20
117.8627807975606
 10
422.6026287862421
 20
130.3423760889707
 42
-0.3312061653634459
 10
422.9498288979386
 20
133.6671072415244
 10
426.1094841154227
 20
137.1017456079077
 42
-0.0729934230505158
 10
426.2222749103218
 20
137.1932064955899
 10
439.4576497837707
 20
145.0482406020888
 42
0.4142135623730617
 10
439.8072314134603
 20
146.4185663605065
 10
435.4690152549048
 20
153.7282630928274
 42
0.6157078743296724
 10
435.0236078174083
 20
153.6976601689885
 42
-0.3706944580779444
 10
430.9983612064472
 20
151.6913229613194
 42
-0.9999999999999994
 10
431.3904605539254
 20
153.2425347784837
 42
2.406732252590654
 10
430.0522461868121
 20
155.4973650656124
 42
-0.9999999999999799
 10
428.5027722515622
 20
155.8962767400199
 42
-0.3706944580779785
 10
432.1921773762763
 20
158.4684915630196
 42
0.6157078743294746
 10
432.4324086948506
 20
158.8448069067148
 10
426.3123832456837
 20
169.1567711778516
 42
0.3017501137845156
 10
418.1403248756458
 20
173.0948119343647
 42
0.0291740144451604
 10
407.648749852264
 20
168.5680593763153
 42
0.4028012420797616
 10
406.7259840374544
 20
165.9535579996589
 42
-0.8694785345465378
 10
398.7850368531815
 20
160.9088853247158
 42
-0.1750657763202787
 10
398.7253996577516
 20
161.0679318349643
 10
398.6965951779785
 20
163.4438780934531
 42
-0.9337355526818557
 10
399.6885383943695
 20
163.5390188304601
 42
1.758525486848315
 10
403.3012673822898
 20
166.5870167331083
 42
-0.3899219535560481
 10
403.1408074390851
 20
166.8850258225574
 10
403.5775665080662
 20
168.5979982883618
 42
-0.2081895260069079
 10
403.6999347359118
 20
168.7556135416513
 42
-0.0329981200854703
 10
415.6616826914627
 20
174.3015981303256
 42
-0.3659773818630376
 10
427.86029989498
 20
170.0754408937078
 10
443.4221549234323
 20
143.8544236154464
 42
-0.4142135623730284
 10
443.3347595160103
 20
143.5118421758425
 10
442.6897942454703
 20
143.1290631275688
 10
443.0725732937435
 20
142.4840978570292
 42
-0.4142135623731784
 10
442.9851778863211
 20
142.1415164174243
 10
441.4372612370244
 20
141.2228467015672
 42
-0.9999999999999998
 10
440.9268891726601
 20
142.0828003956222
 10
441.5718544432005
 20
142.465579443893
 10
440.8062963466535
 20
143.7555099849753
 10
436.0765510293599
 20
140.9484636309703
 10
436.8421091259069
 20
139.6585330898904
 10
437.4870743964463
 20
140.0413121381635
 42
-1.00000000000017
 10
437.9974464608105
 20
139.1813584441106
 10
436.4495298115141
 20
138.2626887282544
 42
-0.4142135623731534
 10
436.1069483719095
 20
138.3500841356767
 10
434.9586112270903
 20
140.2849799472963
 10
432.0347686673087
 20
138.5497149284571
 10
432.8884423633799
 20
137.1113136135899
 42
-0.2679491924313109
 10
432.8914469449042
 20
136.8613316692624
 10
432.326156699598
 20
135.8544651081447
 42
-0.5773502691896449
 10
431.8931752710475
 20
135.8492610202904
 10
430.8724311423188
 20
137.5691684083973
 42
0.4142135623731284
 10
430.529849702714
 20
137.6565638158187
 10
427.4312377529637
 20
135.817575288421
 42
0.0729934230506575
 10
427.2056561631655
 20
135.6346535130578
 10
424.2745454754294
 20
132.4484497878822
 42
0.3312061653634606
 10
424.1505454355388
 20
131.2610458048273
 10
431.5570335468794
 20
118.7814505134164
 42
0.3312061653635083
 10
432.6587291437526
 20
118.3214819919961
 10
436.8596768143426
 20
119.3680682096702
 42
0.0729934230506045
 10
437.1283069758875
 20
119.478455101402
 10
440.2269189256403
 20
121.3174436288018
 42
0.4142135623730617
 10
440.3143143330623
 20
121.6600250684061
 10
439.293570204333
 20
123.379932456514
 42
-0.5773502691895598
 10
439.5055540463232
 20
123.7575074169325
 10
440.6601711891243
 20
123.7713849845451
 42
-0.2679491924314728
 10
440.8781641941608
 20
123.6489960563093
 10
441.7318378902336
 20
122.2105947414398
 10
444.6556804500162
 20
123.9458597602787
 10
443.5073433051956
 20
125.8807555718995
 42
-0.4142135623730617
 10
443.5947387126176
 20
126.2233370115039
 10
445.1426553619137
 20
127.142006727361
 42
-1.000000000000028
 10
445.6530274262791
 20
126.2820530333073
 10
445.008062155738
 20
125.8992739850342
 10
445.7736202522861
 20
124.6093434439533
 10
450.5033655695797
 20
127.4163897979589
 10
449.7378074730328
 20
128.7063203390381
 10
449.0928422024929
 20
128.3235412907644
 42
-1.000000000000014
 10
448.5824701381281
 20
129.1834949848197
 10
450.1303867874248
 20
130.1021647006754
 42
-0.4142135623725456
 10
450.4729682270292
 20
130.0147692932533
 10
450.8557472753024
 20
129.3698040227129
 10
451.5007125458429
 20
129.7525830709866
 42
-0.4142135623727038
 10
451.8432939854472
 20
129.6651876635636
 10
469.0287887817667
 20
100.7084112917334
 42
-0.3658094890688816
 10
466.8993615588807
 20
87.97988374944546
 42
-0.1556933742560087
  0
HATCH
  5
37F4
330
29B4
100
AcDbEntity
  8
APL Hatch
 48
20.0
100
AcDbHatch
 10
0.0
 20
0.0
 30
0.0
210
0.0
220
0.0
230
1.0
  2
SOLID
 70
     1
 71
     1
 91
        1
 92
        7
 72
     1
 73
     1
 93
      105
 10
451.8432939854469
 20
129.665187663564
 42
0.4142135623731993
 10
451.5007125458421
 20
129.7525830709862
 42
0.0
 10
450.8557472753025
 20
129.3698040227129
 42
0.0
 10
450.4729682270295
 20
130.0147692932529
 42
0.4142135623731415
 10
450.1303867874247
 20
130.1021647006754
 42
0.0
 10
448.5824701381279
 20
129.1834949848196
 42
1.0
 10
449.0928422024932
 20
128.3235412907647
 42
0.0
 10
449.7378074730328
 20
128.7063203390381
 42
0.0
 10
450.5033655695796
 20
127.4163897979588
 42
0.0
 10
445.7736202522861
 20
124.6093434439533
 42
0.0
 10
445.008062155738
 20
125.8992739850342
 42
0.0
 10
445.6530274262783
 20
126.2820530333068
 42
1.0
 10
445.1426553619134
 20
127.1420067273609
 42
0.0
 10
443.5947387126176
 20
126.223337011504
 42
0.4142135623729714
 10
443.5073433051955
 20
125.8807555718996
 42
0.0
 10
444.6556804500163
 20
123.9458597602787
 42
0.0
 10
441.7318378902336
 20
122.2105947414398
 42
0.0
 10
440.8781641941609
 20
123.6489960563091
 42
0.2679491924313039
 10
440.6601711891248
 20
123.7713849845451
 42
0.0
 10
439.5055540463228
 20
123.7575074169325
 42
0.5773502691894702
 10
439.2935702043332
 20
123.3799324565137
 42
0.0
 10
440.3143143330624
 20
121.660025068406
 42
-0.4142135623731093
 10
440.2269189256402
 20
121.3174436288017
 42
0.0
 10
437.1283069758859
 20
119.478455101401
 42
-0.0729934230506112
 10
436.8596768143407
 20
119.3680682096697
 42
0.0
 10
432.6587291437522
 20
118.321481991996
 42
-0.3312061653633489
 10
431.5570335468795
 20
118.7814505134163
 42
0.0
 10
424.1505454355385
 20
131.2610458048278
 42
-0.331206165363448
 10
424.2745454754298
 20
132.4484497878827
 42
0.0
 10
427.2056561631647
 20
135.6346535130569
 42
-0.0729934230505859
 10
427.4312377529624
 20
135.8175752884203
 42
0.0
 10
430.5298497027147
 20
137.6565638158191
 42
-0.4142135623730447
 10
430.8724311423191
 20
137.5691684083968
 42
0.0
 10
431.8931752710475
 20
135.8492610202903
 42
0.5773502691896538
 10
432.326156699598
 20
135.8544651081448
 42
0.0
 10
432.8914469449039
 20
136.8613316692619
 42
0.2679491924309851
 10
432.8884423633803
 20
137.1113136135892
 42
0.0
 10
432.0347686673087
 20
138.5497149284571
 42
0.0
 10
434.9586112270902
 20
140.2849799472963
 42
0.0
 10
436.1069483719095
 20
138.3500841356767
 42
0.4142135623731535
 10
436.4495298115141
 20
138.2626887282544
 42
0.0
 10
437.9974464608105
 20
139.1813584441106
 42
1.0
 10
437.4870743964463
 20
140.0413121381634
 42
0.0
 10
436.842109125907
 20
139.6585330898904
 42
0.0
 10
436.07655102936
 20
140.9484636309703
 42
0.0
 10
440.8062963466535
 20
143.7555099849754
 42
0.0
 10
441.5718544432005
 20
142.465579443893
 42
0.0
 10
440.926889172661
 20
142.0828003956227
 42
1.0
 10
441.4372612370254
 20
141.2228467015679
 42
0.0
 10
442.9851778863213
 20
142.1415164174244
 42
0.4142135623730172
 10
443.0725732937435
 20
142.4840978570292
 42
0.0
 10
442.6897942454703
 20
143.1290631275688
 42
0.0
 10
443.3347595160104
 20
143.5118421758425
 42
0.4142135623728684
 10
443.4221549234323
 20
143.8544236154464
 42
0.0
 10
427.8602998949788
 20
170.07544089371
 42
0.3659773818630522
 10
415.6616826914598
 20
174.3015981303245
 42
0.0329981200854638
 10
403.6999347359114
 20
168.7556135416511
 42
0.2081895260069025
 10
403.5775665080661
 20
168.5979982883615
 42
0.0
 10
403.1408074390848
 20
166.8850258225563
 42
0.3899219535554996
 10
403.3012673822903
 20
166.5870167331081
 42
-1.758525486848123
 10
399.6885383943695
 20
163.5390188304601
 42
0.9198033291535088
 10
398.6964136816938
 20
163.4588488695889
 42
0.0
 10
398.7253996577516
 20
161.0679318349648
 42
0.1750657763203954
 10
398.7850368531813
 20
160.908885324716
 42
0.869478534546663
 10
406.7259840374539
 20
165.9535579996599
 42
-0.4028012420798389
 10
407.6487498522654
 20
168.568059376316
 42
-0.0291740144451568
 10
418.140324875646
 20
173.0948119343648
 42
-0.3017501137845427
 10
426.3123832456842
 20
169.1567711778507
 42
0.0
 10
432.4324086948504
 20
158.8448069067152
 42
-0.6157078743294509
 10
432.1921773762768
 20
158.4684915630195
 42
0.3706944580780069
 10
428.5027722515623
 20
155.89627674002
 42
1.0
 10
430.0522461868121
 20
155.4973650656126
 42
-2.406732252590785
 10
431.390460553925
 20
153.2425347784838
 42
1.0
 10
430.9983612064471
 20
151.6913229613194
 42
0.3706944580779845
 10
435.0236078174085
 20
153.6976601689889
 42
-0.6157078743293674
 10
435.4690152549049
 20
153.7282630928272
 42
0.0
 10
439.80723141346
 20
146.4185663605069
 42
-0.4142135623730892
 10
439.457649783771
 20
145.0482406020889
 42
0.0
 10
426.2222749103224
 20
137.1932064955902
 42
0.0729934230504836
 10
426.1094841154231
 20
137.1017456079082
 42
0.0
 10
422.9498288979385
 20
133.6671072415242
 42
0.3312061653635058
 10
422.6026287862425
 20
130.34237608897
 42
0.0
 10
430.0091168975829
 20
117.8627807975601
 42
0.3312061653634448
 10
433.0938645688269
 20
116.5748689375836
 42
0.0
 10
437.6223684841868
 20
117.7030595641145
 42
0.0729934230505483
 10
437.7566835649584
 20
117.7582530099797
 42
0.0
 10
450.9920584384093
 20
125.6132871164803
 42
-0.4142135623731433
 10
452.3623841968275
 20
125.2637054867912
 42
0.0
 10
456.7006003553821
 20
117.9540087544711
 42
-0.6157078743294376
 10
456.4603690368087
 20
117.5776934107757
 42
0.3706944580778371
 10
452.7709639120953
 20
115.0054785877767
 42
1.0
 10
454.3204378473462
 20
114.6065669133686
 42
-2.406732252590575
 10
455.6586522144586
 20
112.3517366262394
 42
1.0
 10
455.266552866981
 20
110.8005248090762
 42
0.3706944580778686
 10
459.291799477941
 20
112.8068620167438
 42
-0.6157078743294088
 10
459.7372069154366
 20
112.837464940582
 42
0.0
 10
467.4808721324703
 20
99.78974157587659
 42
-0.3015794116774162
 10
467.0259564669541
 20
90.73401430070333
 42
-0.1874268334888551
 10
400.6218134451462
 20
66.31880522371425
 42
1.0
 10
400.5853748144799
 20
64.31913719471708
 42
0.0240144869957233
 10
410.1512165021752
 20
64.6042781459932
 42
0.0
 10
410.517247365623
 20
65.03483595975175
 42
0.0
 10
410.9485394201355
 20
64.66967053463442
 42
0.1556933742560097
 10
466.899361558881
 20
87.97988374944571
 42
0.3658094890688699
 10
469.0287887817667
 20
100.7084112917333
 42
0.0
 97
        1
330
37F3
 75
     0
 76
     1
 47
0.1786182924857345
 98
        1
 10
455.474237304571
 20
122.1581035596864
  0
ENDBLK
  5
29B6
330
29B4
100
AcDbEntity
  8
0
100
AcDbBlockEnd
  0
BLOCK
  5
29BB
330
29BA
100
AcDbEntity
  8
0
100
AcDbBlockBegin
  2
08567
 70
     0
 10
295.0413271635919
 20
112.0901888573665
 30
0.0
  3
08567
  1
I:\DWG Master BLocks\08567.dwg
  0
LWPOLYLINE
  5
37F8
102
{ACAD_REACTORS
330
37F9
102
}
330
29BA
100
AcDbEntity
  8
APL Joinery
  6
Continuous
100
AcDbPolyline
 90
       72
 70
     1
 43
0.0
 10
338.2529794560611
 20
65.79166911455278
 42
-0.046687545122569
 10
320.0707052489396
 20
64.09018885736623
 10
295.0413271635923
 20
64.09018885736642
 42
-0.1627665837126115
 10
266.1682133989075
 20
73.74513309353203
 42
-0.4558365664567841
 10
265.6402955101294
 20
81.27494364153085
 10
316.3342203824058
 20
131.9688685138074
 42
-0.6681786379193194
 10
318.0413271635925
 20
131.2617617326207
 10
318.0413271635923
 20
105.3342195082575
 42
0.4142135623730951
 10
318.5413271635923
 20
104.8342195082575
 10
319.5413271635923
 20
104.8342195082575
 42
0.4142135623730951
 10
320.0413271635923
 20
105.3342195082575
 10
320.0413271635926
 20
135.2617617326207
 42
-0.1989123673796587
 10
320.3342203824058
 20
135.9688685138073
 10
340.638840765363
 20
156.2734888967644
 42
-0.4992969303793142
 10
342.2216756434398
 20
156.0491867347739
 42
-0.0761693286106221
 10
343.0776348185235
 20
153.7173837115716
 42
-0.556853813119647
 10
342.7679017167116
 20
153.4262926557858
 10
342.3701147676238
 20
153.532879347554
 42
0.4931454260317947
 10
341.7407052450719
 20
153.0499164344097
 10
341.7407052450719
 20
149.0901888584035
 42
0.9999999999999998
 10
343.2407052450719
 20
149.0901888584035
 10
343.2407052450719
 20
151.7466910615681
 10
344.7260004876643
 20
151.3487074007942
 42
0.4931454260312739
 10
345.04070524894
 20
151.5901888573664
 10
345.04070524894
 20
151.9780415811965
 42
0.4174839177328852
 10
335.0413271635919
 20
162.0895669427145
 10
334.5413271635919
 20
162.0895669427145
 42
0.4931454260312741
 10
334.2998457070196
 20
161.7748621814388
 10
334.6978293677937
 20
160.2895669388466
 10
332.0413271646291
 20
160.2895669388466
 42
0.9999999999999998
 10
332.0413271646291
 20
158.7895669388465
 10
336.0010547406353
 20
158.7895669388466
 42
0.4931454260317498
 10
336.4840176537796
 20
159.4189764613984
 10
336.3774309620114
 20
159.8167634104861
 42
-0.5568538131197553
 10
336.6685220177968
 20
160.1264965122982
 42
-0.0761693286106262
 10
339.0003250409994
 20
159.2705373372143
 42
-0.4992969303792951
 10
339.22462720299
 20
157.6877024591375
 10
318.9200068200328
 20
137.3830820761805
 42
-0.1989123673796642
 10
318.2129000388463
 20
137.0901888573669
 10
288.285357814483
 20
137.0901888573669
 42
0.4142135623730951
 10
287.7853578144829
 20
136.5901888573669
 10
287.7853578144829
 20
135.5901888573669
 42
0.4142135623730951
 10
288.285357814483
 20
135.090188857367
 10
314.2129000388463
 20
135.0901888573669
 42
-0.6681786379192784
 10
314.9200068200327
 20
133.3830820761805
 10
264.2260819477563
 20
82.68915720390412
 42
-0.4558365664567851
 10
256.6962713997577
 20
83.21707509268188
 42
-0.162766583712616
 10
247.0413271635919
 20
112.0901888573669
 10
247.0413271635919
 20
137.1195669427143
 42
-0.0466875451225619
 10
248.7428074207779
 20
155.3018411498332
 42
-0.2008074252056255
 10
253.2619389831862
 20
159.7359566918611
 42
-0.6125792200092148
 10
253.5969110427199
 20
159.4423554378249
 42
0.4888994517311883
 10
254.0815995865484
 20
158.8195669388466
 10
258.0413271625547
 20
158.8195669388465
 42
0.9999999999999998
 10
258.0413271625547
 20
160.3195669388465
 10
255.38482495939
 20
160.3195669388465
 10
255.7747145765343
 20
161.7746547993729
 42
0.5178599832871537
 10
255.5135690867021
 20
162.0885850123903
 42
0.3438133106444533
 10
246.4399974452651
 20
153.7862336093824
 42
0.0418864903599103
 10
245.0413271635919
 20
137.1195669427143
 10
245.0413271635919
 20
112.0901888573669
 42
0.4142135623730951
 10
295.0413271635919
 20
62.09018885736694
 10
320.0707052489406
 20
62.09018885736632
 42
0.0418864903599103
 10
336.7373719156083
 20
63.48885913903963
 42
0.3438133106444535
 10
345.0397233186159
 20
72.5624307804766
 42
0.5178599832873863
 10
344.7257931055984
 20
72.82357627030873
 10
343.2707052450719
 20
72.43368665316456
 10
343.2707052450719
 20
75.09018885632915
 42
0.9999999999999998
 10
341.7707052450719
 20
75.09018885632915
 10
341.7707052450719
 20
71.13046128032303
 42
0.488899451731249
 10
342.3934937440503
 20
70.64577273649442
 42
-0.6125792200092894
 10
342.6870949980866
 20
70.31080067696101
 42
-0.2008074252056322
  0
HATCH
  5
37F9
330
29BA
100
AcDbEntity
  8
APL Hatch
 48
20.0
100
AcDbHatch
 10
0.0
 20
0.0
 30
0.0
210
0.0
220
0.0
230
1.0
  2
SOLID
 70
     1
 71
     1
 91
        1
 92
        7
 72
     1
 73
     1
 93
       72
 10
247.0413271635919
 20
137.1195669427142
 42
-0.0466875451225613
 10
248.7428074207777
 20
155.3018411498328
 42
-0.2008074252056399
 10
253.2619389831863
 20
159.7359566918611
 42
-0.6125792200091908
 10
253.5969110427199
 20
159.4423554378248
 42
0.4888994517311957
 10
254.0815995865485
 20
158.8195669388466
 42
0.0
 10
258.0413271625547
 20
158.8195669388465
 42
1.0
 10
258.0413271625547
 20
160.3195669388465
 42
0.0
 10
255.38482495939
 20
160.3195669388466
 42
0.0
 10
255.7747145765342
 20
161.7746547993727
 42
0.51785998328749
 10
255.513569086702
 20
162.0885850123903
 42
0.3438133106444746
 10
246.4399974452649
 20
153.7862336093816
 42
0.0418864903599058
 10
245.0413271635919
 20
137.1195669427154
 42
0.0
 10
245.0413271635919
 20
112.0901888573669
 42
0.414213562373088
 10
295.0413271635907
 20
62.09018885736693
 42
0.0
 10
320.0707052489382
 20
62.09018885736631
 42
0.041886490359914
 10
336.7373719156074
 20
63.48885913903941
 42
0.343813310644479
 10
345.0397233186159
 20
72.56243078047659
 42
0.5178599832874065
 10
344.7257931055984
 20
72.82357627030873
 42
0.0
 10
343.2707052450719
 20
72.43368665316456
 42
0.0
 10
343.2707052450719
 20
75.09018885632915
 42
1.0
 10
341.7707052450719
 20
75.09018885632915
 42
0.0
 10
341.7707052450719
 20
71.130461280323
 42
0.4888994517312678
 10
342.3934937440503
 20
70.64577273649444
 42
-0.612579220009176
 10
342.6870949980866
 20
70.31080067696102
 42
-0.2008074252056326
 10
338.2529794560611
 20
65.79166911455278
 42
-0.0466875451225725
 10
320.0707052489383
 20
64.09018885736623
 42
0.0
 10
295.0413271635921
 20
64.09018885736642
 42
-0.1627665837126106
 10
266.1682133989074
 20
73.74513309353203
 42
-0.4558365664567813
 10
265.6402955101293
 20
81.27494364153083
 42
0.0
 10
316.3342203824059
 20
131.9688685138074
 42
-0.6681786379192695
 10
318.0413271635925
 20
131.2617617326208
 42
0.0
 10
318.0413271635923
 20
105.3342195082575
 42
0.4142135623730951
 10
318.5413271635923
 20
104.8342195082575
 42
0.0
 10
319.5413271635923
 20
104.8342195082575
 42
0.4142135623730951
 10
320.0413271635923
 20
105.3342195082575
 42
0.0
 10
320.0413271635926
 20
135.2617617326211
 42
-0.1989123673796671
 10
320.334220382406
 20
135.9688685138076
 42
0.0
 10
340.638840765363
 20
156.2734888967644
 42
-0.4992969303793185
 10
342.2216756434398
 20
156.0491867347738
 42
-0.0761693286106213
 10
343.0776348185235
 20
153.7173837115716
 42
-0.5568538131197562
 10
342.7679017167114
 20
153.4262926557859
 42
0.0
 10
342.3701147676236
 20
153.532879347554
 42
0.4931454260315997
 10
341.7407052450719
 20
153.0499164344097
 42
0.0
 10
341.7407052450719
 20
149.0901888584035
 42
1.0
 10
343.2407052450719
 20
149.0901888584035
 42
0.0
 10
343.2407052450719
 20
151.7466910615682
 42
0.0
 10
344.7260004876644
 20
151.3487074007942
 42
0.4931454260311819
 10
345.04070524894
 20
151.5901888573664
 42
0.0
 10
345.04070524894
 20
151.9780415811947
 42
0.4174839177329375
 10
335.0413271635919
 20
162.0895669427145
 42
0.0
 10
334.5413271635919
 20
162.0895669427145
 42
0.4931454260312068
 10
334.2998457070196
 20
161.7748621814389
 42
0.0
 10
334.6978293677937
 20
160.2895669388466
 42
0.0
 10
332.0413271646291
 20
160.2895669388466
 42
1.0
 10
332.0413271646291
 20
158.7895669388465
 42
0.0
 10
336.0010547406353
 20
158.7895669388466
 42
0.4931454260317727
 10
336.4840176537796
 20
159.4189764613984
 42
0.0
 10
336.3774309620113
 20
159.8167634104862
 42
-0.5568538131198335
 10
336.668522017797
 20
160.1264965122982
 42
-0.0761693286106193
 10
339.0003250409993
 20
159.2705373372143
 42
-0.499296930379339
 10
339.2246272029899
 20
157.6877024591374
 42
0.0
 10
318.9200068200327
 20
137.3830820761803
 42
-0.1989123673796637
 10
318.2129000388461
 20
137.0901888573669
 42
0.0
 10
288.285357814483
 20
137.0901888573669
 42
0.4142135623730951
 10
287.7853578144829
 20
136.5901888573669
 42
0.0
 10
287.7853578144829
 20
135.590188857367
 42
0.4142135623730951
 10
288.2853578144829
 20
135.090188857367
 42
0.0
 10
314.2129000388462
 20
135.0901888573669
 42
-0.6681786379192989
 10
314.9200068200327
 20
133.3830820761805
 42
0.0
 10
264.2260819477562
 20
82.68915720390397
 42
-0.4558365664567817
 10
256.6962713997575
 20
83.21707509268202
 42
-0.1627665837126149
 10
247.0413271635919
 20
112.0901888573669
 42
0.0
 97
        1
330
37F8
 75
     0
 76
     1
 47
0.1724674290881022
 98
        1
 10
246.3139565563651
 20
131.4929842234057
  0
ENDBLK
  5
29BC
330
29BA
100
AcDbEntity
  8
0
100
AcDbBlockEnd
  0
BLOCK
  5
29C0
330
29BF
100
AcDbEntity
  8
0
100
AcDbBlockBegin
  2
08508
 70
     0
 10
-1592.280301688976
 20
-946.8470982643166
 30
0.0
  3
08508
  1
I:\DWG Master BLocks\08508.dwg
  0
LWPOLYLINE
  5
37FD
102
{ACAD_REACTORS
330
37FE
102
}
330
29BF
100
AcDbEntity
  8
APL Joinery
100
AcDbPolyline
 90
      109
 70
     1
 43
0.0
 10
-1571.506413148802
 20
-949.0457469129651
 42
-0.6157078743296314
 10
-1571.305406732847
 20
-948.6470982643165
 10
-1554.580301688976
 20
-948.6470982643165
 42
-0.4142135623730951
 10
-1553.580301688976
 20
-949.6470982643165
 10
-1553.580301688976
 20
-965.037897751511
 42
0.072993423050535
 10
-1553.559214831587
 20
-965.1815716942943
 10
-1552.218184636704
 20
-969.6516723439023
 42
0.3312061653634686
 10
-1549.536271038085
 20
-971.6470982643166
 10
-1535.024332339867
 20
-971.6470982643166
 42
0.3312061653634687
 10
-1532.342418741248
 20
-969.6516723439021
 10
-1531.001388546366
 20
-965.1815716942943
 42
0.0729934230505078
 10
-1530.980301688976
 20
-965.037897751511
 10
-1530.980301688976
 20
-949.6470982643163
 42
-0.4142135623730951
 10
-1529.980301688976
 20
-948.6470982643163
 10
-1513.255196645104
 20
-948.6470982643163
 42
-0.6157078743294902
 10
-1513.05419022915
 20
-949.0457469129649
 42
0.3706944580780391
 10
-1512.72517389999
 20
-953.531251068027
 42
0.9999999999999998
 10
-1511.591320120969
 20
-952.4023686083351
 42
-2.406732252591129
 10
-1508.969283256983
 20
-952.4023686083351
 42
0.9999999999999996
 10
-1507.835429477962
 20
-953.5312510680268
 42
0.1056016928053509
 10
-1507.054327663002
 20
-952.3200420830349
 42
-0.8334542510401055
 10
-1506.280301688976
 20
-952.4618326707127
 10
-1506.280301688976
 20
-953.0916419125757
 42
0.6681786379193159
 10
-1505.978524993679
 20
-953.2166419125758
 10
-1504.603524993679
 20
-951.8416419125756
 42
0.4142135623730009
 10
-1504.603524993679
 20
-951.4880885219822
 10
-1506.280301688976
 20
-949.8113118266854
 10
-1506.280301688976
 20
-949.3970982643164
 10
-1507.27821907852
 20
-949.3970982643164
 42
0.01507803804939
 10
-1507.386137473081
 20
-949.2192501630505
 42
-0.5948022051749238
 10
-1506.966693383819
 20
-948.4470982643165
 10
-1503.530301688976
 20
-948.4470982643165
 42
0.4142135623730951
 10
-1503.280301688976
 20
-948.1970982643165
 10
-1503.280301688976
 20
-947.0970982643164
 42
0.4142135623730951
 10
-1503.530301688976
 20
-946.8470982643165
 10
-1534.030301688976
 20
-946.8470982643165
 42
0.4142135623730951
 10
-1534.280301688976
 20
-947.0970982643164
 10
-1534.280301688976
 20
-947.8470982643164
 10
-1535.030301688976
 20
-947.8470982643164
 42
0.4142135623730951
 10
-1535.280301688976
 20
-948.0970982643164
 10
-1535.280301688976
 20
-949.8970982643166
 42
0.9999999999999998
 10
-1534.280301688976
 20
-949.8970982643166
 10
-1534.280301688976
 20
-949.1470982643166
 10
-1532.780301688976
 20
-949.1470982643166
 10
-1532.780301688976
 20
-954.6470982643166
 10
-1534.280301688976
 20
-954.6470982643166
 10
-1534.280301688976
 20
-953.8970982643165
 42
0.9999999999999998
 10
-1535.280301688976
 20
-953.8970982643165
 10
-1535.280301688976
 20
-955.6970982643164
 42
0.4142135623730951
 10
-1535.030301688976
 20
-955.9470982643166
 10
-1532.780301688976
 20
-955.9470982643166
 10
-1532.780301688976
 20
-959.3470982643165
 10
-1534.597288987084
 20
-959.3470982643165
 10
-1535.246808039922
 20
-960.4720982643163
 42
0.5773502691896049
 10
-1535.030301688976
 20
-960.8470982643163
 10
-1533.030301688976
 20
-960.8470982643163
 42
-0.4142135623730951
 10
-1532.780301688976
 20
-961.0970982643165
 10
-1532.780301688976
 20
-964.7003294280132
 42
-0.0729934230505078
 10
-1532.822475403755
 20
-964.9876773135796
 10
-1534.066506054646
 20
-969.1344461498827
 42
-0.3312061653634832
 10
-1535.024332339867
 20
-969.8470982643163
 10
-1541.880301688976
 20
-969.8470982643163
 10
-1542.280301688976
 20
-970.2470982643164
 10
-1542.680301688976
 20
-969.8470982643163
 10
-1549.536271038085
 20
-969.8470982643165
 42
-0.3312061653634989
 10
-1550.494097323306
 20
-969.1344461498829
 10
-1551.738127974197
 20
-964.987677313579
 42
-0.0729934230505636
 10
-1551.780301688976
 20
-964.7003294280125
 10
-1551.780301688976
 20
-961.0970982643166
 42
-0.4142135623730951
 10
-1551.530301688976
 20
-960.8470982643167
 10
-1549.530301688976
 20
-960.8470982643167
 42
0.5773502691896049
 10
-1549.31379533803
 20
-960.4720982643167
 10
-1549.963314390868
 20
-959.3470982643166
 10
-1551.780301688976
 20
-959.3470982643166
 10
-1551.780301688976
 20
-955.9470982643166
 10
-1549.530301688976
 20
-955.9470982643166
 42
0.4142135623730951
 10
-1549.280301688976
 20
-955.6970982643164
 10
-1549.280301688976
 20
-953.8970982643165
 42
0.9999999999999998
 10
-1550.280301688976
 20
-953.8970982643165
 10
-1550.280301688976
 20
-954.6470982643166
 10
-1551.780301688976
 20
-954.6470982643166
 10
-1551.780301688976
 20
-949.1470982643166
 10
-1550.280301688976
 20
-949.1470982643166
 10
-1550.280301688976
 20
-949.8970982643166
 42
0.9999999999999998
 10
-1549.280301688976
 20
-949.8970982643166
 10
-1549.280301688976
 20
-948.0970982643166
 42
0.4142135623730951
 10
-1549.530301688976
 20
-947.8470982643166
 10
-1550.280301688976
 20
-947.8470982643166
 10
-1550.280301688976
 20
-947.0970982643166
 42
0.4142135623730951
 10
-1550.530301688976
 20
-946.8470982643166
 10
-1581.030301688976
 20
-946.8470982643166
 42
0.4142135623730951
 10
-1581.280301688976
 20
-947.0970982643166
 10
-1581.280301688976
 20
-948.1970982643165
 42
0.4142135623730951
 10
-1581.030301688976
 20
-948.4470982643165
 10
-1577.593909994133
 20
-948.4470982643165
 42
-0.5948022051748465
 10
-1577.174465904872
 20
-949.2192501630508
 42
0.01507803804939
 10
-1577.282384299432
 20
-949.3970982643165
 10
-1578.280301688976
 20
-949.3970982643165
 10
-1578.280301688976
 20
-949.8113118266854
 10
-1579.957078384273
 20
-951.4880885219822
 42
0.4142135623730007
 10
-1579.957078384273
 20
-951.8416419125756
 10
-1578.582078384273
 20
-953.2166419125758
 42
0.6681786379193159
 10
-1578.280301688976
 20
-953.0916419125757
 10
-1578.280301688976
 20
-952.4618326707127
 42
-0.8334542510401059
 10
-1577.50627571495
 20
-952.3200420830351
 42
0.1056016928053508
 10
-1576.72517389999
 20
-953.531251068027
 42
0.9999999999999998
 10
-1575.591320120969
 20
-952.4023686083351
 42
-2.406732252591129
 10
-1572.969283256983
 20
-952.4023686083351
 42
0.9999999999999998
 10
-1571.835429477962
 20
-953.5312510680272
 42
0.3706944580780391
  0
HATCH
  5
37FE
330
29BF
100
AcDbEntity
  8
APL Hatch
100
AcDbHatch
 10
0.0
 20
0.0
 30
0.0
210
0.0
220
0.0
230
1.0
  2
SOLID
 70
     1
 71
     1
 91
        1
 92
        1
 93
      109
 72
     2
 10
-1571.305406732848
 20
-948.8970982643165
 40
0.2499999999999611
 50
143.5162629386594
 51
270.0000000000521
 73
     0
 72
     1
 10
-1571.305406732847
 20
-948.6470982643165
 11
-1554.580301688976
 21
-948.6470982643165
 72
     2
 10
-1554.580301688976
 20
-949.6470982643165
 40
1.0
 50
270.0
 51
360.0
 73
     0
 72
     1
 10
-1553.580301688976
 20
-949.6470982643165
 11
-1553.580301688976
 21
-965.037897751511
 72
     2
 10
-1553.080301688976
 20
-965.0378977515115
 40
0.4999999999997727
 50
179.9999999999348
 51
196.6992442339312
 73
     1
 72
     1
 10
-1553.559214831587
 20
-965.1815716942943
 11
-1552.218184636704
 21
-969.6516723439023
 72
     2
 10
-1549.536271038085
 20
-968.8470982643163
 40
2.800000000000115
 50
196.6992442339958
 51
270.0
 73
     1
 72
     1
 10
-1549.536271038085
 20
-971.6470982643166
 11
-1535.024332339867
 21
-971.6470982643166
 72
     2
 10
-1535.024332339868
 20
-968.8470982643163
 40
2.800000000000181
 50
270.0000000000046
 51
343.3007557660078
 73
     1
 72
     1
 10
-1532.342418741248
 20
-969.6516723439021
 11
-1531.001388546366
 21
-965.1815716942943
 72
     2
 10
-1531.480301688976
 20
-965.0378977515108
 40
0.4999999999999954
 50
343.3007557659814
 51
359.999999999974
 73
     1
 72
     1
 10
-1530.980301688976
 20
-965.037897751511
 11
-1530.980301688976
 21
-949.6470982643163
 72
     2
 10
-1529.980301688976
 20
-949.6470982643163
 40
1.0
 50
180.0
 51
270.0
 73
     0
 72
     1
 10
-1529.980301688976
 20
-948.6470982643163
 11
-1513.255196645104
 21
-948.6470982643163
 72
     2
 10
-1513.255196645104
 20
-948.8970982643163
 40
0.2499999999998863
 50
270.0
 51
396.4837370613925
 73
     0
 72
     2
 10
-1510.280301688976
 20
-951.0970982643163
 40
3.450000000000115
 50
143.5162629386308
 51
224.8741191514086
 73
     1
 72
     2
 10
-1512.158247010479
 20
-952.9668098381812
 40
0.8000000000001287
 50
224.8741191514063
 51
404.8741191514178
 73
     1
 72
     2
 10
-1510.280301688976
 20
-951.0970982643163
 40
1.850000000000052
 50
135.1258808485944
 51
404.8741191514129
 73
     0
 72
     2
 10
-1508.402356367473
 20
-952.966809838181
 40
0.7999999999999684
 50
135.1258808486052
 51
315.1258808486109
 73
     1
 72
     2
 10
-1510.280301688976
 20
-951.0970982643176
 40
3.449999999999508
 50
315.1258808486129
 51
339.2386381947913
 73
     1
 72
     2
 10
-1506.680301688976
 20
-952.4618326707125
 40
0.4000000000002268
 50
200.7613618052328
 51
360.0000000000326
 73
     0
 72
     1
 10
-1506.280301688976
 20
-952.4618326707127
 11
-1506.280301688976
 21
-953.0916419125757
 72
     2
 10
-1506.10352499368
 20
-953.0916419125757
 40
0.1767766952966667
 50
180.0
 51
315.0
 73
     1
 72
     1
 10
-1505.978524993679
 20
-953.2166419125758
 11
-1504.603524993679
 21
-951.8416419125756
 72
     2
 10
-1504.780301688976
 20
-951.6648652172792
 40
0.2500000000000422
 50
315.0000000000737
 51
405.0000000000737
 73
     1
 72
     1
 10
-1504.603524993679
 20
-951.4880885219822
 11
-1506.280301688976
 21
-949.8113118266854
 72
     1
 10
-1506.280301688976
 20
-949.8113118266854
 11
-1506.280301688976
 21
-949.3970982643164
 72
     1
 10
-1506.280301688976
 20
-949.3970982643164
 11
-1507.27821907852
 21
-949.3970982643164
 72
     2
 10
-1510.280301688974
 20
-951.0970982643202
 40
3.449999999999633
 50
29.52173048507479
 51
32.97710041895627
 73
     1
 72
     2
 10
-1506.96669338382
 20
-948.9470982643167
 40
0.5000000000001071
 50
147.0228995811846
 51
270.0000000000521
 73
     0
 72
     1
 10
-1506.966693383819
 20
-948.4470982643165
 11
-1503.530301688976
 21
-948.4470982643165
 72
     2
 10
-1503.530301688976
 20
-948.1970982643165
 40
0.25
 50
270.0
 51
360.0
 73
     1
 72
     1
 10
-1503.280301688976
 20
-948.1970982643165
 11
-1503.280301688976
 21
-947.0970982643164
 72
     2
 10
-1503.530301688976
 20
-947.0970982643164
 40
0.25
 50
0.0
 51
90.0
 73
     1
 72
     1
 10
-1503.530301688976
 20
-946.8470982643165
 11
-1534.030301688976
 21
-946.8470982643165
 72
     2
 10
-1534.030301688976
 20
-947.0970982643164
 40
0.25
 50
90.0
 51
180.0
 73
     1
 72
     1
 10
-1534.280301688976
 20
-947.0970982643164
 11
-1534.280301688976
 21
-947.8470982643164
 72
     1
 10
-1534.280301688976
 20
-947.8470982643164
 11
-1535.030301688976
 21
-947.8470982643164
 72
     2
 10
-1535.030301688976
 20
-948.0970982643164
 40
0.25
 50
90.0
 51
180.0
 73
     1
 72
     1
 10
-1535.280301688976
 20
-948.0970982643164
 11
-1535.280301688976
 21
-949.8970982643166
 72
     2
 10
-1534.780301688976
 20
-949.8970982643166
 40
0.5
 50
180.0
 51
360.0
 73
     1
 72
     1
 10
-1534.280301688976
 20
-949.8970982643166
 11
-1534.280301688976
 21
-949.1470982643166
 72
     1
 10
-1534.280301688976
 20
-949.1470982643166
 11
-1532.780301688976
 21
-949.1470982643166
 72
     1
 10
-1532.780301688976
 20
-949.1470982643166
 11
-1532.780301688976
 21
-954.6470982643166
 72
     1
 10
-1532.780301688976
 20
-954.6470982643166
 11
-1534.280301688976
 21
-954.6470982643166
 72
     1
 10
-1534.280301688976
 20
-954.6470982643166
 11
-1534.280301688976
 21
-953.8970982643165
 72
     2
 10
-1534.780301688976
 20
-953.8970982643165
 40
0.5
 50
0.0
 51
180.0
 73
     1
 72
     1
 10
-1535.280301688976
 20
-953.8970982643165
 11
-1535.280301688976
 21
-955.6970982643164
 72
     2
 10
-1535.030301688976
 20
-955.6970982643164
 40
0.25
 50
180.0
 51
270.0
 73
     1
 72
     1
 10
-1535.030301688976
 20
-955.9470982643166
 11
-1532.780301688976
 21
-955.9470982643166
 72
     1
 10
-1532.780301688976
 20
-955.9470982643166
 11
-1532.780301688976
 21
-959.3470982643165
 72
     1
 10
-1532.780301688976
 20
-959.3470982643165
 11
-1534.597288987084
 21
-959.3470982643165
 72
     1
 10
-1534.597288987084
 20
-959.3470982643165
 11
-1535.246808039922
 21
-960.4720982643163
 72
     2
 10
-1535.030301688976
 20
-960.5970982643164
 40
0.2499999999999221
 50
149.9999999999897
 51
270.0
 73
     1
 72
     1
 10
-1535.030301688976
 20
-960.8470982643163
 11
-1533.030301688976
 21
-960.8470982643163
 72
     2
 10
-1533.030301688976
 20
-961.0970982643165
 40
0.25
 50
270.0
 51
360.0
 73
     0
 72
     1
 10
-1532.780301688976
 20
-961.0970982643165
 11
-1532.780301688976
 21
-964.7003294280132
 72
     2
 10
-1533.780301688976
 20
-964.700329428012
 40
1.0
 50
0.0000000000716515
 51
16.69924423406602
 73
     0
 72
     1
 10
-1532.822475403755
 20
-964.9876773135796
 11
-1534.066506054646
 21
-969.1344461498827
 72
     2
 10
-1535.024332339867
 20
-968.8470982643162
 40
1.000000000000175
 50
16.69924423400862
 51
90.00000000001303
 73
     0
 72
     1
 10
-1535.024332339867
 20
-969.8470982643163
 11
-1541.880301688976
 21
-969.8470982643163
 72
     1
 10
-1541.880301688976
 20
-969.8470982643163
 11
-1542.280301688976
 21
-970.2470982643164
 72
     1
 10
-1542.280301688976
 20
-970.2470982643164
 11
-1542.680301688976
 21
-969.8470982643163
 72
     1
 10
-1542.680301688976
 20
-969.8470982643163
 11
-1549.536271038085
 21
-969.8470982643165
 72
     2
 10
-1549.536271038085
 20
-968.8470982643165
 40
0.9999999999998863
 50
90.0
 51
163.3007557660064
 73
     0
 72
     1
 10
-1550.494097323306
 20
-969.1344461498829
 11
-1551.738127974197
 21
-964.987677313579
 72
     2
 10
-1550.780301688976
 20
-964.7003294280123
 40
0.9999999999999907
 50
163.3007557659814
 51
179.999999999987
 73
     0
 72
     1
 10
-1551.780301688976
 20
-964.7003294280125
 11
-1551.780301688976
 21
-961.0970982643166
 72
     2
 10
-1551.530301688976
 20
-961.0970982643166
 40
0.25
 50
180.0
 51
270.0
 73
     0
 72
     1
 10
-1551.530301688976
 20
-960.8470982643167
 11
-1549.530301688976
 21
-960.8470982643167
 72
     2
 10
-1549.530301688976
 20
-960.5970982643166
 40
0.25
 50
270.0
 51
390.0000000000103
 73
     1
 72
     1
 10
-1549.31379533803
 20
-960.4720982643167
 11
-1549.963314390868
 21
-959.3470982643166
 72
     1
 10
-1549.963314390868
 20
-959.3470982643166
 11
-1551.780301688976
 21
-959.3470982643166
 72
     1
 10
-1551.780301688976
 20
-959.3470982643166
 11
-1551.780301688976
 21
-955.9470982643166
 72
     1
 10
-1551.780301688976
 20
-955.9470982643166
 11
-1549.530301688976
 21
-955.9470982643166
 72
     2
 10
-1549.530301688976
 20
-955.6970982643164
 40
0.25
 50
270.0
 51
360.0
 73
     1
 72
     1
 10
-1549.280301688976
 20
-955.6970982643164
 11
-1549.280301688976
 21
-953.8970982643165
 72
     2
 10
-1549.780301688976
 20
-953.8970982643165
 40
0.5
 50
0.0
 51
180.0
 73
     1
 72
     1
 10
-1550.280301688976
 20
-953.8970982643165
 11
-1550.280301688976
 21
-954.6470982643166
 72
     1
 10
-1550.280301688976
 20
-954.6470982643166
 11
-1551.780301688976
 21
-954.6470982643166
 72
     1
 10
-1551.780301688976
 20
-954.6470982643166
 11
-1551.780301688976
 21
-949.1470982643166
 72
     1
 10
-1551.780301688976
 20
-949.1470982643166
 11
-1550.280301688976
 21
-949.1470982643166
 72
     1
 10
-1550.280301688976
 20
-949.1470982643166
 11
-1550.280301688976
 21
-949.8970982643166
 72
     2
 10
-1549.780301688976
 20
-949.8970982643166
 40
0.5
 50
180.0
 51
360.0
 73
     1
 72
     1
 10
-1549.280301688976
 20
-949.8970982643166
 11
-1549.280301688976
 21
-948.0970982643166
 72
     2
 10
-1549.530301688976
 20
-948.0970982643166
 40
0.25
 50
0.0
 51
90.0
 73
     1
 72
     1
 10
-1549.530301688976
 20
-947.8470982643166
 11
-1550.280301688976
 21
-947.8470982643166
 72
     1
 10
-1550.280301688976
 20
-947.8470982643166
 11
-1550.280301688976
 21
-947.0970982643166
 72
     2
 10
-1550.530301688976
 20
-947.0970982643166
 40
0.25
 50
0.0
 51
90.0
 73
     1
 72
     1
 10
-1550.530301688976
 20
-946.8470982643166
 11
-1581.030301688976
 21
-946.8470982643166
 72
     2
 10
-1581.030301688976
 20
-947.0970982643166
 40
0.25
 50
90.0
 51
180.0
 73
     1
 72
     1
 10
-1581.280301688976
 20
-947.0970982643166
 11
-1581.280301688976
 21
-948.1970982643165
 72
     2
 10
-1581.030301688976
 20
-948.1970982643165
 40
0.25
 50
180.0
 51
270.0
 73
     1
 72
     1
 10
-1581.030301688976
 20
-948.4470982643165
 11
-1577.593909994133
 21
-948.4470982643165
 72
     2
 10
-1577.593909994133
 20
-948.9470982643167
 40
0.5000000000002274
 50
270.0
 51
392.9771004188231
 73
     0
 72
     2
 10
-1574.280301688981
 20
-951.0970982643167
 40
3.449999999996
 50
147.0228995810811
 51
150.4782695149627
 73
     1
 72
     1
 10
-1577.282384299432
 20
-949.3970982643165
 11
-1578.280301688976
 21
-949.3970982643165
 72
     1
 10
-1578.280301688976
 20
-949.3970982643165
 11
-1578.280301688976
 21
-949.8113118266854
 72
     1
 10
-1578.280301688976
 20
-949.8113118266854
 11
-1579.957078384273
 21
-951.4880885219822
 72
     2
 10
-1579.780301688976
 20
-951.6648652172792
 40
0.2500000000000422
 50
134.9999999999263
 51
224.9999999999263
 73
     1
 72
     1
 10
-1579.957078384273
 20
-951.8416419125756
 11
-1578.582078384273
 21
-953.2166419125758
 72
     2
 10
-1578.457078384273
 20
-953.0916419125757
 40
0.1767766952966369
 50
225.0
 51
360.0
 73
     1
 72
     1
 10
-1578.280301688976
 20
-953.0916419125757
 11
-1578.280301688976
 21
-952.4618326707127
 72
     2
 10
-1577.880301688976
 20
-952.4618326707127
 40
0.400000000000091
 50
180.0
 51
339.2386381947787
 73
     0
 72
     2
 10
-1574.280301688976
 20
-951.0970982643177
 40
3.449999999999459
 50
200.7613618052087
 51
224.8741191513858
 73
     1
 72
     2
 10
-1576.15824701048
 20
-952.9668098381812
 40
0.8000000000000486
 50
224.8741191514005
 51
404.8741191514005
 73
     1
 72
     2
 10
-1574.280301688976
 20
-951.0970982643163
 40
1.850000000000212
 50
135.1258808485894
 51
404.874119151408
 73
     0
 72
     2
 10
-1572.402356367473
 20
-952.9668098381812
 40
0.8000000000000479
 50
135.1258808485764
 51
315.1258808485822
 73
     1
 72
     2
 10
-1574.280301688976
 20
-951.0970982643163
 40
3.450000000000067
 50
315.1258808485874
 51
396.4837370613661
 73
     1
 97
        1
330
37FD
 75
     0
 76
     1
 98
        1
 10
0.0
 20
0.0
  0
ENDBLK
  5
29C1
330
29BF
100
AcDbEntity
  8
0
100
AcDbBlockEnd
  0
BLOCK
  5
29D4
330
29D3
100
AcDbEntity
  8
0
100
AcDbBlockBegin
  2
6Glass
 70
     0
 10
101.8368839708302
 20
399.4111348733001
 30
0.0
  3
6Glass
  1
I:\DWG Master BLocks\6Glass.dwg
  0
LINE
  5
2D46
330
29D3
100
AcDbEntity
  8
APL Joinery
 62
     7
100
AcDbLine
 10
95.33688397083029
 20
412.4111348732999
 30
0.0
 11
95.33688397083029
 21
392.4111348733
 31
0.0
  0
LINE
  5
2D47
330
29D3
100
AcDbEntity
  8
APL Joinery
 62
     7
100
AcDbLine
 10
89.33688397083029
 20
412.4111348732999
 30
0.0
 11
95.33688397083029
 21
412.4111348732999
 31
0.0
  0
LINE
  5
2D48
330
29D3
100
AcDbEntity
  8
APL Joinery
 62
     8
100
AcDbLine
 10
93.33688397083028
 20
412.4111348732999
 30
0.0
 11
93.33688397083028
 21
392.4111348733
 31
0.0
  0
LINE
  5
2D49
330
29D3
100
AcDbEntity
  8
APL Joinery
 62
     7
100
AcDbLine
 10
89.33688397083029
 20
412.4111348732999
 30
0.0
 11
89.33688397083029
 21
392.4111348733
 31
0.0
  0
LINE
  5
2D4A
330
29D3
100
AcDbEntity
  8
APL Joinery
 62
     8
100
AcDbLine
 10
91.33688397083028
 20
412.4111348732999
 30
0.0
 11
91.33688397083028
 21
392.4111348733
 31
0.0
  0
ENDBLK
  5
29D5
330
29D3
100
AcDbEntity
  8
0
100
AcDbBlockEnd
  0
BLOCK
  5
29E1
330
29E0
100
AcDbEntity
  8
0
100
AcDbBlockBegin
  2
9010600
 70
     0
 10
78.93974279730776
 20
112.9117061828312
 30
0.0
  3
9010600
  1
I:\DWG Master BLocks\9010600.dwg
  0
LWPOLYLINE
  5
3802
330
29E0
100
AcDbEntity
  8
APL Joinery
 62
   252
100
AcDbPolyline
 90
       24
 70
     1
 43
0.0
 10
76.93974279730787
 20
116.3783589013558
 42
-0.7746306590969661
 10
77.40850308089332
 20
116.499371042584
 42
0.1326610113338032
 10
79.939588024827
 20
113.9116205669736
 10
79.93974279730764
 20
112.9117061828312
 10
78.93974279730776
 20
112.9117061828312
 10
78.93974279730776
 20
109.9117061828313
 10
80.18974279730775
 20
109.9117061828313
 10
80.18974279730775
 20
110.9117061828312
 42
-0.8483943572501239
 10
80.67646739292309
 20
110.9920894263013
 10
81.41319198853826
 20
108.8224726697714
 42
-0.1651513899116614
 10
81.4131919885383
 20
108.5009396958912
 10
80.67646739292307
 20
106.3313229393613
 42
-0.8483943572501297
 10
80.18974279730775
 20
106.4117061828314
 10
80.18974279730775
 20
107.4117061828313
 10
78.93974279730776
 20
107.4117061828313
 10
78.93974279730776
 20
104.4117061828313
 10
78.45528725393058
 20
104.4117061828313
 10
76.93974279730787
 20
105.2867061828312
 10
76.93974279730787
 20
106.2867061828313
 10
77.93974279730775
 20
106.8640564520209
 10
77.93974279730775
 20
110.4593559136416
 10
76.93974279730787
 20
111.0367061828313
 10
76.93974279730787
 20
112.0367061828314
 10
77.93974279730779
 20
112.6140564520208
 42
-0.1316524975873966
  0
ENDBLK
  5
29E2
330
29E0
100
AcDbEntity
  8
0
100
AcDbBlockEnd
  0
BLOCK
  5
29F7
330
29F6
100
AcDbEntity
  8
0
100
AcDbBlockBegin
  2
08563
 70
     0
 10
438.9036642829221
 20
324.6401719682099
 30
0.0
  3
08563
  1
I:\DWG Master BLocks\08563.dwg
  0
LWPOLYLINE
  5
3805
102
{ACAD_REACTORS
330
3807
102
}
330
29F6
100
AcDbEntity
  8
APL Joinery
  6
Continuous
100
AcDbPolyline
 90
       54
 70
     1
 43
0.0
 10
452.2650677916955
 20
291.5348416379482
 42
0.0748236180816112
 10
461.4166413389607
 20
296.9335687106053
 42
0.5677421025148562
 10
461.3549115491512
 20
297.3584573624818
 42
-0.5334529025398687
 10
460.2337920719122
 20
302.9785446758486
 42
-1.000000000000039
 10
461.3676458509333
 20
301.8496622161569
 42
2.406732252590586
 10
463.9896827149193
 20
301.8496622161572
 42
-0.9999999999998994
 10
465.1235364939403
 20
302.9785446758492
 42
-0.1010435458504641
 10
465.8820527172856
 20
301.8253300199879
 42
0.5677421025149249
 10
466.3060759531255
 20
301.75791170711
 42
0.362621010123859
 10
466.306075953125
 20
347.5224322293105
 42
0.5677421025149164
 10
465.8820527172856
 20
347.4550139164321
 42
-0.1010435458504708
 10
465.1235364939403
 20
346.3017992605707
 42
-0.9999999999999394
 10
463.9896827149193
 20
347.4306817202625
 42
2.406732252590586
 10
461.3676458509333
 20
347.430681720263
 42
-1.00000000000003
 10
460.2337920719122
 20
346.3017992605713
 42
-0.5334529025398731
 10
461.3549115491511
 20
351.9218865739381
 42
0.5677421025148809
 10
461.4166413389601
 20
352.3467752258149
 42
0.0748236180816113
 10
452.2650677916945
 20
357.7455022984722
 42
0.5315926867950362
 10
450.2036642829226
 20
356.3545220324946
 10
450.2036642829226
 20
342.1401719682099
 42
-0.0729934230504964
 10
450.1277515963206
 20
341.6229457741907
 10
448.8415472306506
 20
337.3355978886242
 42
-0.3312061653635091
 10
446.1596336320317
 20
335.3401719682099
 10
427.6036642829222
 20
335.34017196821
 10
427.6036642829223
 20
333.39017196821
 42
-0.4142135623731117
 10
425.803664282922
 20
331.5901719682099
 10
418.4648297464407
 20
331.59017196821
 42
0.5521550681542646
 10
418.2394131610677
 20
331.2320638601018
 42
-0.3176804823849516
 10
417.5735364939326
 20
327.3060191644999
 42
-0.9999999999999799
 10
416.4396827149115
 20
328.4349016241918
 42
2.406732252590586
 10
413.8176458509254
 20
328.4349016241914
 42
-0.9999999999998793
 10
412.6837920719051
 20
327.3060191644995
 42
-0.317680482384927
 10
412.0179154047678
 20
331.2320638601021
 42
0.5521550681542112
 10
411.7924988193951
 20
331.5901719682099
 10
403.8867041064596
 20
331.5901719682103
 42
0.2266866366950492
 10
411.5012526127197
 20
301.7579117071095
 42
0.5677421025148725
 10
411.9252758485592
 20
301.8253300199877
 42
-0.101043545850468
 10
412.683792071905
 20
302.978544675849
 42
-0.9999999999999195
 10
413.8176458509254
 20
301.8496622161572
 42
2.406732252590586
 10
416.4396827149118
 20
301.8496622161568
 42
-0.9999999999999797
 10
417.5735364939327
 20
302.9785446758485
 42
-0.533452902539873
 10
416.452417016694
 20
297.3584573624817
 42
0.567742102514837
 10
416.390687226885
 20
296.9335687106049
 42
0.0748236180816114
 10
425.5422607741502
 20
291.5348416379477
 42
0.5315926867950475
 10
427.6036642829222
 20
292.9258219039251
 10
427.6036642829224
 20
307.14017196821
 42
-0.0729934230504901
 10
427.6795769695243
 20
307.6573981622292
 10
428.9657813351944
 20
311.9447460477958
 42
-0.3312061653634998
 10
431.6476949338135
 20
313.9401719682099
 10
446.1596336320317
 20
313.94017196821
 42
-0.3312061653635093
 10
448.8415472306506
 20
311.9447460477958
 10
450.1277515963207
 20
307.6573981622293
 42
-0.0729934230504963
 10
450.2036642829226
 20
307.14017196821
 10
450.2036642829225
 20
292.9258219039251
 42
0.5315926867950461
  0
LWPOLYLINE
  5
3806
102
{ACAD_REACTORS
330
3807
102
}
330
29F6
100
AcDbEntity
  8
APL Joinery
  6
Continuous
100
AcDbPolyline
 90
       87
 70
     1
 43
0.0
 10
450.9867102565175
 20
289.1401719682102
 42
0.7159705359550782
 10
450.9867102565165
 20
360.1401719682101
 10
447.1536642829224
 20
360.14017196821
 42
0.4142135623730951
 10
446.9036642829224
 20
359.89017196821
 10
446.9036642829224
 20
359.14017196821
 10
446.1536642829224
 20
359.14017196821
 42
0.4142135623730951
 10
445.9036642829224
 20
358.89017196821
 10
445.9036642829224
 20
357.09017196821
 42
0.9999999999999998
 10
446.9036642829224
 20
357.09017196821
 10
446.9036642829224
 20
357.84017196821
 10
448.4036642829224
 20
357.84017196821
 10
448.4036642829224
 20
352.34017196821
 10
446.9036642829224
 20
352.34017196821
 10
446.9036642829224
 20
353.09017196821
 42
0.9999999999999998
 10
445.9036642829224
 20
353.09017196821
 10
445.9036642829224
 20
351.2901719682099
 42
0.4142135623730951
 10
446.1536642829224
 20
351.0401719682099
 10
448.4036642829224
 20
351.0401719682099
 10
448.4036642829224
 20
342.1401719682102
 10
447.1174599172528
 20
337.8528240826437
 42
-0.3312061653634771
 10
446.1596336320319
 20
337.14017196821
 10
423.4286642829229
 20
337.14017196821
 42
0.9999999999999998
 10
423.4286642829229
 20
335.89017196821
 10
425.8036642829229
 20
335.89017196821
 10
425.8036642829229
 20
333.39017196821
 10
405.1926627908931
 20
333.39017196821
 42
-0.5773502691895819
 10
404.976156439947
 20
333.7651719682099
 10
406.0460760389004
 20
335.6183270736108
 42
0.3394542588633274
 10
405.9666167276006
 20
336.2218804642042
 10
405.1215485282989
 20
337.0669486635066
 42
0.1989123673796956
 10
404.9447718330018
 20
337.1401719682099
 10
403.7255460842467
 20
337.14017196821
 42
0.3191429222161999
 10
403.4894513312354
 20
336.9723867333108
 42
0.4162733122356118
 10
426.8206183093282
 20
289.1401719682099
 10
430.6536642829223
 20
289.14017196821
 42
0.4142135623730951
 10
430.9036642829224
 20
289.39017196821
 10
430.9036642829224
 20
290.14017196821
 10
431.6536642829224
 20
290.14017196821
 42
0.4142135623730951
 10
431.9036642829224
 20
290.39017196821
 10
431.9036642829224
 20
292.1901719682099
 42
0.9999999999999998
 10
430.9036642829224
 20
292.1901719682099
 10
430.9036642829224
 20
291.4401719682099
 10
429.4036642829224
 20
291.4401719682099
 10
429.4036642829224
 20
296.94017196821
 10
430.9036642829224
 20
296.94017196821
 10
430.9036642829224
 20
296.1901719682099
 42
0.9999999999999998
 10
431.9036642829224
 20
296.1901719682099
 10
431.9036642829224
 20
297.99017196821
 42
0.4142135623730951
 10
431.6536642829224
 20
298.2401719682101
 10
429.4036642829224
 20
298.2401719682101
 10
429.4036642829224
 20
301.64017196821
 10
431.2206515810304
 20
301.64017196821
 10
431.8701706338685
 20
302.76517196821
 42
0.5773502691895614
 10
431.6536642829224
 20
303.14017196821
 10
429.6536642829224
 20
303.14017196821
 42
-0.4142135623730951
 10
429.4036642829224
 20
303.39017196821
 10
429.4036642829224
 20
307.1401719682098
 10
430.6898686485922
 20
311.4275198537762
 42
-0.3312061653634737
 10
431.6476949338135
 20
312.1401719682099
 10
438.5036642829228
 20
312.14017196821
 10
438.9036642829228
 20
312.54017196821
 10
439.3036642829225
 20
312.14017196821
 10
446.1596336320319
 20
312.1401719682099
 42
-0.3312061653634696
 10
447.1174599172528
 20
311.4275198537763
 10
448.4036642829224
 20
307.1401719682098
 10
448.4036642829224
 20
303.3901719682099
 42
-0.4142135623730951
 10
448.1536642829224
 20
303.1401719682099
 10
446.1536642829223
 20
303.1401719682098
 42
0.5773502691895278
 10
445.9371579319764
 20
302.7651719682099
 10
446.5866769848144
 20
301.6401719682099
 10
448.4036642829224
 20
301.6401719682099
 10
448.4036642829224
 20
298.2401719682101
 10
446.1536642829224
 20
298.2401719682101
 42
0.4142135623730951
 10
445.9036642829224
 20
297.99017196821
 10
445.9036642829224
 20
296.1901719682099
 42
0.9999999999999998
 10
446.9036642829224
 20
296.1901719682099
 10
446.9036642829224
 20
296.94017196821
 10
448.4036642829224
 20
296.94017196821
 10
448.4036642829224
 20
291.4401719682099
 10
446.9036642829224
 20
291.4401719682099
 10
446.9036642829224
 20
292.1901719682099
 42
0.9999999999999998
 10
445.9036642829224
 20
292.1901719682099
 10
445.9036642829224
 20
290.39017196821
 42
0.4142135623730951
 10
446.1536642829224
 20
290.14017196821
 10
446.9036642829224
 20
290.14017196821
 10
446.9036642829224
 20
289.39017196821
 42
0.4142135623730951
 10
447.1536642829224
 20
289.14017196821
  0
HATCH
  5
3807
330
29F6
100
AcDbEntity
  8
APL Hatch
 48
20.0
100
AcDbHatch
 10
0.0
 20
0.0
 30
0.0
210
0.0
220
0.0
230
1.0
  2
SOLID
 70
     1
 71
     1
 91
        2
 92
        7
 72
     1
 73
     1
 93
       87
 10
450.9867102565166
 20
360.1401719682101
 42
0.0
 10
447.1536642829224
 20
360.14017196821
 42
0.4142135623730951
 10
446.9036642829224
 20
359.89017196821
 42
0.0
 10
446.9036642829224
 20
359.14017196821
 42
0.0
 10
446.1536642829224
 20
359.14017196821
 42
0.4142135623730951
 10
445.9036642829224
 20
358.89017196821
 42
0.0
 10
445.9036642829224
 20
357.09017196821
 42
1.0
 10
446.9036642829224
 20
357.09017196821
 42
0.0
 10
446.9036642829224
 20
357.84017196821
 42
0.0
 10
448.4036642829225
 20
357.84017196821
 42
0.0
 10
448.4036642829223
 20
352.34017196821
 42
0.0
 10
446.9036642829224
 20
352.34017196821
 42
0.0
 10
446.9036642829224
 20
353.09017196821
 42
1.0
 10
445.9036642829224
 20
353.09017196821
 42
0.0
 10
445.9036642829224
 20
351.2901719682099
 42
0.4142135623730951
 10
446.1536642829224
 20
351.0401719682099
 42
0.0
 10
448.4036642829224
 20
351.0401719682099
 42
0.0
 10
448.4036642829225
 20
342.1401719682103
 42
0.0
 10
447.1174599172527
 20
337.8528240826436
 42
-0.3312061653635008
 10
446.1596336320317
 20
337.14017196821
 42
0.0
 10
423.4286642829229
 20
337.14017196821
 42
1.0
 10
423.4286642829229
 20
335.89017196821
 42
0.0
 10
425.8036642829229
 20
335.89017196821
 42
0.0
 10
425.8036642829229
 20
333.3901719682101
 42
0.0
 10
405.1926627908931
 20
333.39017196821
 42
-0.5773502691897687
 10
404.9761564399471
 20
333.76517196821
 42
0.0
 10
406.0460760389
 20
335.6183270736101
 42
0.3394542588632731
 10
405.9666167276012
 20
336.2218804642036
 42
0.0
 10
405.1215485282994
 20
337.0669486635062
 42
0.1989123673798078
 10
404.9447718330022
 20
337.1401719682099
 42
0.0
 10
403.7255460842466
 20
337.14017196821
 42
0.3191429222162263
 10
403.4894513312354
 20
336.9723867333107
 42
0.4162733122356109
 10
426.8206183093282
 20
289.1401719682099
 42
0.0
 10
430.6536642829223
 20
289.14017196821
 42
0.4142135623730951
 10
430.9036642829224
 20
289.39017196821
 42
0.0
 10
430.9036642829225
 20
290.14017196821
 42
0.0
 10
431.6536642829224
 20
290.14017196821
 42
0.4142135623730951
 10
431.9036642829224
 20
290.39017196821
 42
0.0
 10
431.9036642829224
 20
292.1901719682099
 42
1.0
 10
430.9036642829224
 20
292.1901719682099
 42
0.0
 10
430.9036642829225
 20
291.4401719682099
 42
0.0
 10
429.4036642829224
 20
291.4401719682099
 42
0.0
 10
429.4036642829223
 20
296.94017196821
 42
0.0
 10
430.9036642829224
 20
296.94017196821
 42
0.0
 10
430.9036642829224
 20
296.1901719682099
 42
1.0
 10
431.9036642829224
 20
296.1901719682099
 42
0.0
 10
431.9036642829224
 20
297.99017196821
 42
0.4142135623730951
 10
431.6536642829224
 20
298.2401719682101
 42
0.0
 10
429.4036642829224
 20
298.2401719682101
 42
0.0
 10
429.4036642829223
 20
301.64017196821
 42
0.0
 10
431.2206515810305
 20
301.64017196821
 42
0.0
 10
431.8701706338685
 20
302.7651719682101
 42
0.5773502691895059
 10
431.6536642829224
 20
303.14017196821
 42
0.0
 10
429.6536642829224
 20
303.14017196821
 42
-0.4142135623730951
 10
429.4036642829224
 20
303.39017196821
 42
0.0
 10
429.4036642829224
 20
307.1401719682099
 42
0.0
 10
430.6898686485921
 20
311.4275198537761
 42
-0.3312061653634814
 10
431.6476949338134
 20
312.1401719682099
 42
0.0
 10
438.5036642829227
 20
312.14017196821
 42
0.0
 10
438.9036642829229
 20
312.54017196821
 42
0.0
 10
439.3036642829225
 20
312.1401719682099
 42
0.0
 10
446.1596336320318
 20
312.1401719682099
 42
-0.3312061653635129
 10
447.1174599172528
 20
311.4275198537762
 42
0.0
 10
448.4036642829224
 20
307.1401719682099
 42
0.0
 10
448.4036642829224
 20
303.3901719682099
 42
-0.4142135623730951
 10
448.1536642829224
 20
303.1401719682099
 42
0.0
 10
446.1536642829224
 20
303.1401719682098
 42
0.5773502691894926
 10
445.9371579319763
 20
302.76517196821
 42
0.0
 10
446.5866769848146
 20
301.6401719682099
 42
0.0
 10
448.4036642829223
 20
301.6401719682099
 42
0.0
 10
448.4036642829223
 20
298.2401719682101
 42
0.0
 10
446.1536642829224
 20
298.2401719682101
 42
0.4142135623730951
 10
445.9036642829224
 20
297.99017196821
 42
0.0
 10
445.9036642829224
 20
296.1901719682099
 42
1.0
 10
446.9036642829224
 20
296.1901719682099
 42
0.0
 10
446.9036642829224
 20
296.94017196821
 42
0.0
 10
448.4036642829224
 20
296.94017196821
 42
0.0
 10
448.4036642829224
 20
291.4401719682099
 42
0.0
 10
446.9036642829224
 20
291.4401719682099
 42
0.0
 10
446.9036642829224
 20
292.1901719682099
 42
1.0
 10
445.9036642829224
 20
292.1901719682099
 42
0.0
 10
445.9036642829224
 20
290.39017196821
 42
0.4142135623730951
 10
446.1536642829224
 20
290.14017196821
 42
0.0
 10
446.9036642829224
 20
290.14017196821
 42
0.0
 10
446.9036642829224
 20
289.39017196821
 42
0.4142135623730951
 10
447.1536642829224
 20
289.14017196821
 42
0.0
 10
450.9867102565174
 20
289.1401719682102
 42
0.7159705359550785
 97
        1
330
3806
 92
       22
 72
     1
 73
     1
 93
       54
 10
452.2650677916947
 20
357.7455022984721
 42
-0.0748236180816114
 10
461.4166413389603
 20
352.3467752258147
 42
-0.567742102514883
 10
461.3549115491507
 20
351.921886573938
 42
0.5334529025398358
 10
460.2337920719122
 20
346.3017992605713
 42
1.0
 10
461.3676458509334
 20
347.4306817202629
 42
-2.406732252590586
 10
463.9896827149194
 20
347.4306817202626
 42
1.0
 10
465.1235364939402
 20
346.3017992605707
 42
0.1010435458504838
 10
465.8820527172856
 20
347.4550139164323
 42
-0.5677421025148244
 10
466.306075953125
 20
347.5224322293104
 42
-0.36262101012386
 10
466.3060759531254
 20
301.7579117071098
 42
-0.5677421025149183
 10
465.8820527172855
 20
301.8253300199881
 42
0.1010435458504535
 10
465.1235364939402
 20
302.9785446758492
 42
1.0
 10
463.9896827149192
 20
301.8496622161572
 42
-2.40673225259066
 10
461.3676458509333
 20
301.849662216157
 42
1.0
 10
460.2337920719121
 20
302.9785446758485
 42
0.5334529025398611
 10
461.3549115491512
 20
297.3584573624818
 42
-0.5677421025149801
 10
461.4166413389606
 20
296.9335687106053
 42
-0.0748236180816148
 10
452.2650677916949
 20
291.534841637948
 42
-0.5315926867950362
 10
450.2036642829225
 20
292.9258219039257
 42
0.0
 10
450.2036642829226
 20
307.1401719682098
 42
0.0729934230505201
 10
450.1277515963207
 20
307.6573981622293
 42
0.0
 10
448.8415472306505
 20
311.9447460477961
 42
0.3312061653634672
 10
446.1596336320318
 20
313.94017196821
 42
0.0
 10
431.6476949338134
 20
313.9401719682099
 42
0.3312061653634788
 10
428.9657813351944
 20
311.9447460477958
 42
0.0
 10
427.6795769695243
 20
307.6573981622291
 42
0.0729934230505048
 10
427.6036642829224
 20
307.1401719682098
 42
0.0
 10
427.6036642829222
 20
292.9258219039251
 42
-0.5315926867950354
 10
425.5422607741502
 20
291.5348416379477
 42
-0.0748236180816134
 10
416.3906872268848
 20
296.933568710605
 42
-0.5677421025149027
 10
416.4524170166943
 20
297.3584573624819
 42
0.5334529025398358
 10
417.5735364939328
 20
302.9785446758485
 42
1.0
 10
416.4396827149117
 20
301.8496622161568
 42
-2.40673225259066
 10
413.8176458509254
 20
301.8496622161573
 42
1.0
 10
412.6837920719053
 20
302.9785446758491
 42
0.1010435458504915
 10
411.9252758485592
 20
301.8253300199876
 42
-0.5677421025147278
 10
411.5012526127197
 20
301.7579117071095
 42
-0.2266866366950498
 10
403.8867041064596
 20
331.5901719682103
 42
0.0
 10
411.7924988193949
 20
331.5901719682099
 42
-0.552155068154124
 10
412.0179154047678
 20
331.2320638601022
 42
0.317680482384938
 10
412.6837920719051
 20
327.3060191644995
 42
1.0
 10
413.8176458509255
 20
328.4349016241912
 42
-2.406732252590807
 10
416.4396827149113
 20
328.4349016241917
 42
1.0
 10
417.5735364939325
 20
327.3060191644999
 42
0.3176804823849525
 10
418.2394131610677
 20
331.2320638601018
 42
-0.5521550681543389
 10
418.4648297464408
 20
331.59017196821
 42
0.0
 10
425.8036642829221
 20
331.5901719682099
 42
0.4142135623731022
 10
427.6036642829223
 20
333.3901719682101
 42
0.0
 10
427.6036642829222
 20
335.34017196821
 42
0.0
 10
446.1596336320316
 20
335.3401719682099
 42
0.331206165363484
 10
448.8415472306505
 20
337.3355978886238
 42
0.0
 10
450.1277515963207
 20
341.6229457741909
 42
0.072993423050527
 10
450.2036642829226
 20
342.1401719682104
 42
0.0
 10
450.2036642829226
 20
356.3545220324946
 42
-0.5315926867950659
 97
        1
330
3805
 75
     0
 76
     1
 47
0.116449396336785
 98
        2
 10
449.2354098182146
 20
358.7470828855235
 10
449.2354098182146
 20
358.7470828855235
  0
ENDBLK
  5
29F8
330
29F6
100
AcDbEntity
  8
0
100
AcDbBlockEnd
  0
BLOCK
  5
29FC
330
29FB
100
AcDbEntity
  8
0
100
AcDbBlockBegin
  2
08565
 70
     0
 10
274.7219240868437
 20
246.591655321968
 30
0.0
  3
08565
  1
I:\DWG Master BLocks\08565.dwg
  0
LWPOLYLINE
  5
380B
102
{ACAD_REACTORS
330
380C
102
}
330
29FB
100
AcDbEntity
  8
APL Joinery
  6
Continuous
100
AcDbPolyline
 90
       41
 70
     1
 43
0.0
 10
297.8391949643524
 20
268.1602579815599
 42
-0.519232481575548
 10
299.177263146171
 20
267.2191363611294
 10
299.177263146171
 20
261.0905875947395
 42
-0.1228930777519797
 10
299.06000990525
 20
260.6207385132941
 10
292.7414176834597
 20
248.7494440359918
 42
0.122893077751947
 10
292.5772631461706
 20
248.0916553219682
 10
292.5772631461711
 20
243.6916553219682
 42
0.9999999999999998
 10
293.7772631461704
 20
243.6916553219679
 42
-0.4142135623730284
 10
294.0272631461705
 20
243.9416553219682
 10
296.0772631461712
 20
243.9416553219679
 42
0.9999999999999998
 10
296.0772631461712
 20
245.2416553219678
 10
293.9772631461707
 20
245.2416553219678
 10
293.9772631461707
 20
248.091655321968
 10
300.5772631461712
 20
260.4916553219679
 10
302.8272631461711
 20
260.4916553219679
 42
0.4142135623730951
 10
303.0772631461711
 20
260.7416553219679
 10
303.0772631461712
 20
262.5416553219681
 42
0.9999999999999998
 10
302.0772631461712
 20
262.5416553219681
 10
302.0772631461712
 20
261.791655321968
 10
300.5772631461712
 20
261.791655321968
 10
300.5772631461712
 20
267.2916553219681
 10
302.0772631461712
 20
267.2916553219681
 10
302.0772631461712
 20
266.5416553219681
 42
0.9999999999999998
 10
303.0772631461711
 20
266.5416553219681
 10
303.0772631461711
 20
268.3416553219679
 42
0.4142135623730951
 10
302.8272631461711
 20
268.5916553219679
 10
302.0772631461712
 20
268.5916553219679
 10
302.0772631461712
 20
269.341655321968
 42
0.4142135623730951
 10
301.8272631461712
 20
269.591655321968
 10
297.9942171725769
 20
269.5916553219682
 42
0.2271353965670983
 10
274.8423638173127
 20
246.9272257917682
 42
0.6155241147059309
 10
275.1480043625008
 20
246.6018727531432
 10
276.1331876143906
 20
246.8925238287734
 10
277.4633144546608
 20
245.5623969885028
 42
-0.3394542588632778
 10
277.5030441103106
 20
245.2606202932062
 10
276.914744409871
 20
244.2416553219681
 42
1.0
 10
277.9539748944133
 20
243.6416553219681
 10
278.5748552291727
 20
244.7170516071933
 42
0.3394542588633189
 10
278.3364772952765
 20
246.5277117789726
 10
277.4416955968766
 20
247.4224934773724
 42
-0.3129161666623126
 10
277.1374462278412
 20
249.105264527849
 42
-0.2022611481846391
  0
HATCH
  5
380C
330
29FB
100
AcDbEntity
  8
APL Hatch
 48
20.0
100
AcDbHatch
 10
0.0
 20
0.0
 30
0.0
210
0.0
220
0.0
230
1.0
  2
SOLID
 70
     1
 71
     1
 91
        1
 92
        7
 72
     1
 73
     1
 93
       41
 10
303.0772631461711
 20
268.3416553219679
 42
0.4142135623730951
 10
302.8272631461711
 20
268.5916553219679
 42
0.0
 10
302.0772631461712
 20
268.5916553219679
 42
0.0
 10
302.0772631461712
 20
269.341655321968
 42
0.4142135623730951
 10
301.8272631461712
 20
269.591655321968
 42
0.0
 10
297.9942171725769
 20
269.5916553219682
 42
0.2271353965671042
 10
274.8423638173124
 20
246.9272257917674
 42
0.6155241147059119
 10
275.1480043625016
 20
246.6018727531435
 42
0.0
 10
276.1331876143906
 20
246.8925238287734
 42
0.0
 10
277.4633144546609
 20
245.5623969885026
 42
-0.3394542588634426
 10
277.5030441103103
 20
245.2606202932059
 42
0.0
 10
276.9147444098712
 20
244.2416553219685
 42
1.0
 10
277.9539748944134
 20
243.6416553219684
 42
0.0
 10
278.5748552291733
 20
244.7170516071943
 42
0.3394542588632583
 10
278.3364772952759
 20
246.5277117789733
 42
0.0
 10
277.4416955968764
 20
247.4224934773726
 42
-0.3129161666622804
 10
277.1374462278413
 20
249.105264527849
 42
-0.2022611481846391
 10
297.8391949643526
 20
268.16025798156
 42
-0.519232481575561
 10
299.177263146171
 20
267.2191363611291
 42
0.0
 10
299.177263146171
 20
261.09058759474
 42
-0.1228930777519329
 10
299.0600099052502
 20
260.6207385132946
 42
0.0
 10
292.7414176834597
 20
248.7494440359918
 42
0.1228930777519728
 10
292.5772631461706
 20
248.0916553219681
 42
0.0
 10
292.5772631461711
 20
243.6916553219679
 42
1.0
 10
293.7772631461704
 20
243.6916553219679
 42
-0.4142135623730951
 10
294.0272631461706
 20
243.9416553219682
 42
0.0
 10
296.0772631461711
 20
243.9416553219679
 42
1.0
 10
296.0772631461712
 20
245.2416553219678
 42
0.0
 10
293.9772631461708
 20
245.2416553219679
 42
0.0
 10
293.9772631461707
 20
248.0916553219681
 42
0.0
 10
300.5772631461712
 20
260.4916553219679
 42
0.0
 10
302.8272631461711
 20
260.4916553219679
 42
0.4142135623730951
 10
303.0772631461711
 20
260.7416553219679
 42
0.0
 10
303.0772631461712
 20
262.541655321968
 42
1.0
 10
302.0772631461712
 20
262.5416553219681
 42
0.0
 10
302.0772631461712
 20
261.791655321968
 42
0.0
 10
300.5772631461711
 20
261.791655321968
 42
0.0
 10
300.5772631461712
 20
267.2916553219681
 42
0.0
 10
302.0772631461712
 20
267.2916553219681
 42
0.0
 10
302.0772631461712
 20
266.5416553219681
 42
1.0
 10
303.0772631461711
 20
266.5416553219681
 42
0.0
 97
        1
330
380B
 75
     0
 76
     1
 47
0.0447240740050734
 98
        1
 10
300.1691309831883
 20
267.3439497208876
  0
ENDBLK
  5
29FD
330
29FB
100
AcDbEntity
  8
0
100
AcDbBlockEnd
  0
BLOCK
  5
2A01
330
2A00
100
AcDbEntity
  8
0
100
AcDbBlockBegin
  2
08564
 70
     0
 10
323.977048167726
 20
238.5069484183733
 30
0.0
  3
08564
  1
I:\DWG Master BLocks\08564.dwg
  0
LWPOLYLINE
  5
3810
102
{ACAD_REACTORS
330
3811
102
}
330
2A00
100
AcDbEntity
  8
APL Joinery
  6
Continuous
100
AcDbPolyline
 90
       86
 70
     1
 43
0.0
 10
325.7770481677261
 20
253.0069484183727
 42
-0.0490214681706039
 10
326.460087991263
 20
259.9569484183732
 10
334.3658827041985
 20
259.9569484183733
 42
-0.5521550681541941
 10
334.5912992895713
 20
259.5988403102654
 42
0.3176804823849439
 10
335.2571759567084
 20
255.6727956146629
 42
0.9999999999998593
 10
336.391029735729
 20
256.8016780743546
 42
-2.406732252590586
 10
339.0130665997151
 20
256.8016780743552
 42
1.000000000000009
 10
340.1469203787363
 20
255.6727956146635
 42
0.317680482384924
 10
340.812797045871
 20
259.5988403102651
 42
-0.5521550681542646
 10
341.0382136312442
 20
259.9569484183732
 10
348.3770481677256
 20
259.9569484183732
 42
0.4142135623730951
 10
350.1770481677259
 20
261.7569484183733
 10
350.1770481677259
 20
263.7069484183732
 10
368.7330175168353
 20
263.7069484183732
 42
0.3312061653634935
 10
371.4149311154542
 20
265.7023743387875
 10
372.701135481124
 20
269.989722224354
 42
0.0729934230504931
 10
372.7770481677262
 20
270.5069484183733
 10
372.7770481677262
 20
284.7212984826579
 42
-0.5315926867950362
 10
374.8384516764975
 20
286.1122787486355
 42
-0.0748236180816307
 10
383.9900252237653
 20
280.7135516759769
 42
-0.5677421025147816
 10
383.9282954339546
 20
280.2886630241013
 42
0.5334529025398602
 10
382.8071759567156
 20
274.6685757107347
 42
0.9999999999999797
 10
383.9410297357368
 20
275.7974581704264
 42
-2.406732252590655
 10
386.563066599723
 20
275.7974581704259
 42
0.9999999999998992
 10
387.6969203787434
 20
274.6685757107341
 42
0.1010435458504782
 10
388.4554366020891
 20
275.8217903665954
 42
-0.5677421025148717
 10
388.8794598379288
 20
275.8892086794737
 42
-0.1757125606305816
 10
397.177048167726
 20
253.0069484183733
 10
397.177048167726
 20
242.1069484183734
 42
-0.4142135623730951
 10
395.1770481677259
 20
240.1069484183734
 10
394.3828748030232
 20
240.1069484183734
 10
394.6697386568817
 20
241.1775388958222
 42
0.4931454260312739
 10
394.1867757437372
 20
241.8069484183735
 10
390.2270481677309
 20
241.8069484183735
 42
0.9999999999999998
 10
390.2270481677309
 20
240.3069484183735
 10
392.8835503708956
 20
240.3069484183735
 10
392.4855667111578
 20
238.8216531796489
 42
0.4931454260312741
 10
392.7270481677301
 20
238.5069484183733
 10
398.727048167726
 20
238.5069484183733
 42
0.4142135623730951
 10
398.977048167726
 20
238.7569484183733
 10
398.977048167726
 20
253.0069484183733
 42
0.3210797719828385
 10
373.5600941413203
 20
288.5069484183734
 10
369.727048167726
 20
288.5069484183733
 42
0.4142135623730951
 10
369.477048167726
 20
288.2569484183733
 10
369.477048167726
 20
287.5069484183732
 10
368.7270481677259
 20
287.5069484183732
 42
0.4142135623730951
 10
368.4770481677259
 20
287.2569484183733
 10
368.4770481677259
 20
285.4569484183733
 42
0.9999999999999998
 10
369.477048167726
 20
285.4569484183733
 10
369.477048167726
 20
286.2069484183734
 10
370.9770481677259
 20
286.2069484183734
 10
370.9770481677259
 20
280.7069484183734
 10
369.477048167726
 20
280.7069484183734
 10
369.4770481677259
 20
281.4569484183733
 42
0.9999999999999998
 10
368.4770481677259
 20
281.4569484183733
 10
368.4770481677259
 20
279.6569484183732
 42
0.4142135623730951
 10
368.7270481677259
 20
279.4069484183732
 10
370.9770481677259
 20
279.4069484183732
 10
370.9770481677259
 20
270.5069484183734
 10
369.6908438020565
 20
266.2196005328071
 42
-0.3312061653635093
 10
368.7330175168354
 20
265.5069484183733
 10
346.0020481677266
 20
265.5069484183733
 42
0.9999999999999998
 10
346.0020481677266
 20
264.2569484183733
 10
348.3770481677266
 20
264.2569484183733
 10
348.3770481677266
 20
261.7569484183733
 10
327.7660466756966
 20
261.7569484183733
 42
-0.5773502691896031
 10
327.5495403247505
 20
262.1319484183733
 10
328.6194599237037
 20
263.9851035237741
 42
0.3394542588633132
 10
328.5400006124041
 20
264.5886569143674
 10
327.6949324131023
 20
265.4337251136698
 42
0.1989123673797064
 10
327.5181557178052
 20
265.5069484183733
 10
326.2989299690503
 20
265.5069484183733
 42
0.3191429222162102
 10
326.0628352160392
 20
265.3391631834745
 42
0.0839703237189779
 10
323.977048167726
 20
253.0069484183733
 10
323.977048167726
 20
238.7569484183733
 42
0.4142135623730951
 10
324.227048167726
 20
238.5069484183733
 10
330.2270481677219
 20
238.5069484183733
 42
0.4931454260312739
 10
330.4685296242942
 20
238.8216531796489
 10
330.0705459645564
 20
240.3069484183735
 10
332.7270481677209
 20
240.3069484183735
 42
0.9999999999999998
 10
332.7270481677209
 20
241.8069484183735
 10
328.7673205917149
 20
241.8069484183735
 42
0.4931454260312741
 10
328.2843576785704
 20
241.1775388958222
 10
328.5712215324288
 20
240.1069484183734
 10
327.777048167726
 20
240.1069484183734
 42
-0.4142135623730951
 10
325.777048167726
 20
242.1069484183734
  0
HATCH
  5
3811
330
2A00
100
AcDbEntity
  8
APL Hatch
 48
20.0
100
AcDbHatch
 10
0.0
 20
0.0
 30
0.0
210
0.0
220
0.0
230
1.0
  2
SOLID
 70
     1
 71
     1
 91
        1
 92
        7
 72
     1
 73
     1
 93
       86
 10
373.5600941413204
 20
288.5069484183734
 42
0.0
 10
369.727048167726
 20
288.5069484183733
 42
0.4142135623730951
 10
369.477048167726
 20
288.2569484183733
 42
0.0
 10
369.477048167726
 20
287.5069484183732
 42
0.0
 10
368.7270481677259
 20
287.5069484183732
 42
0.4142135623730951
 10
368.4770481677259
 20
287.2569484183733
 42
0.0
 10
368.4770481677259
 20
285.4569484183733
 42
1.0
 10
369.477048167726
 20
285.4569484183733
 42
0.0
 10
369.477048167726
 20
286.2069484183734
 42
0.0
 10
370.9770481677259
 20
286.2069484183734
 42
0.0
 10
370.9770481677259
 20
280.7069484183734
 42
0.0
 10
369.477048167726
 20
280.7069484183734
 42
0.0
 10
369.4770481677259
 20
281.4569484183733
 42
1.0
 10
368.4770481677259
 20
281.4569484183733
 42
0.0
 10
368.4770481677259
 20
279.6569484183732
 42
0.4142135623730951
 10
368.7270481677259
 20
279.4069484183732
 42
0.0
 10
370.9770481677259
 20
279.4069484183732
 42
0.0
 10
370.9770481677259
 20
270.5069484183732
 42
0.0
 10
369.6908438020564
 20
266.219600532807
 42
-0.3312061653635017
 10
368.7330175168353
 20
265.5069484183733
 42
0.0
 10
346.0020481677266
 20
265.5069484183733
 42
1.0
 10
346.0020481677266
 20
264.2569484183733
 42
0.0
 10
348.3770481677266
 20
264.2569484183733
 42
0.0
 10
348.3770481677266
 20
261.7569484183733
 42
0.0
 10
327.7660466756966
 20
261.7569484183733
 42
-0.5773502691896033
 10
327.5495403247505
 20
262.1319484183733
 42
0.0
 10
328.6194599237035
 20
263.9851035237736
 42
0.3394542588632401
 10
328.5400006124046
 20
264.5886569143669
 42
0.0
 10
327.6949324131025
 20
265.4337251136697
 42
0.1989123673798389
 10
327.5181557178054
 20
265.5069484183733
 42
0.0
 10
326.29892996905
 20
265.5069484183733
 42
0.3191429222162002
 10
326.0628352160391
 20
265.3391631834742
 42
0.0839703237189747
 10
323.977048167726
 20
253.0069484183735
 42
0.0
 10
323.977048167726
 20
238.7569484183733
 42
0.4142135623730951
 10
324.227048167726
 20
238.5069484183733
 42
0.0
 10
330.2270481677219
 20
238.5069484183733
 42
0.4931454260312279
 10
330.4685296242942
 20
238.8216531796488
 42
0.0
 10
330.0705459645564
 20
240.3069484183735
 42
0.0
 10
332.7270481677209
 20
240.3069484183735
 42
1.0
 10
332.7270481677209
 20
241.8069484183735
 42
0.0
 10
328.7673205917149
 20
241.8069484183735
 42
0.493145426031744
 10
328.2843576785705
 20
241.1775388958215
 42
0.0
 10
328.5712215324289
 20
240.1069484183734
 42
0.0
 10
327.777048167726
 20
240.1069484183734
 42
-0.4142135623730951
 10
325.777048167726
 20
242.1069484183734
 42
0.0
 10
325.7770481677261
 20
253.0069484183726
 42
-0.0490214681706046
 10
326.4600879912629
 20
259.9569484183732
 42
0.0
 10
334.3658827041983
 20
259.9569484183733
 42
-0.552155068154181
 10
334.5912992895714
 20
259.5988403102655
 42
0.3176804823849685
 10
335.2571759567085
 20
255.6727956146628
 42
1.0
 10
336.3910297357291
 20
256.8016780743546
 42
-2.406732252590733
 10
339.013066599715
 20
256.8016780743552
 42
1.0
 10
340.1469203787363
 20
255.6727956146635
 42
0.317680482384924
 10
340.812797045871
 20
259.5988403102651
 42
-0.5521550681542644
 10
341.0382136312442
 20
259.9569484183732
 42
0.0
 10
348.3770481677257
 20
259.9569484183732
 42
0.4142135623731044
 10
350.1770481677259
 20
261.7569484183734
 42
0.0
 10
350.1770481677258
 20
263.7069484183732
 42
0.0
 10
368.7330175168353
 20
263.7069484183732
 42
0.3312061653634951
 10
371.4149311154542
 20
265.7023743387874
 42
0.0
 10
372.7011354811243
 20
269.9897222243551
 42
0.072993423050494
 10
372.7770481677262
 20
270.5069484183744
 42
0.0
 10
372.7770481677262
 20
284.7212984826582
 42
-0.5315926867950413
 10
374.8384516764978
 20
286.1122787486354
 42
-0.0748236180816229
 10
383.9900252237646
 20
280.7135516759775
 42
-0.5677421025148983
 10
383.9282954339552
 20
280.2886630241016
 42
0.5334529025399215
 10
382.8071759567155
 20
274.6685757107348
 42
1.0
 10
383.9410297357368
 20
275.7974581704264
 42
-2.406732252590656
 10
386.563066599723
 20
275.7974581704259
 42
1.0
 10
387.6969203787432
 20
274.6685757107339
 42
0.101043545850517
 10
388.4554366020892
 20
275.8217903665955
 42
-0.5677421025146117
 10
388.8794598379289
 20
275.8892086794737
 42
-0.175712560630586
 10
397.177048167726
 20
253.0069484183725
 42
0.0
 10
397.177048167726
 20
242.1069484183734
 42
-0.4142135623730951
 10
395.1770481677259
 20
240.1069484183734
 42
0.0
 10
394.3828748030232
 20
240.1069484183734
 42
0.0
 10
394.6697386568815
 20
241.1775388958215
 42
0.4931454260317436
 10
394.1867757437372
 20
241.8069484183735
 42
0.0
 10
390.2270481677309
 20
241.8069484183735
 42
1.0
 10
390.2270481677309
 20
240.3069484183735
 42
0.0
 10
392.8835503708956
 20
240.3069484183735
 42
0.0
 10
392.4855667111578
 20
238.8216531796488
 42
0.493145426031228
 10
392.7270481677301
 20
238.5069484183733
 42
0.0
 10
398.727048167726
 20
238.5069484183733
 42
0.4142135623730951
 10
398.977048167726
 20
238.7569484183733
 42
0.0
 10
398.977048167726
 20
253.0069484183733
 42
0.3210797719828382
 97
        1
330
3810
 75
     0
 76
     1
 47
0.083054030658115
 98
        1
 10
371.170675627264
 20
287.0651560619352
  0
ENDBLK
  5
2A02
330
2A00
100
AcDbEntity
  8
0
100
AcDbBlockEnd
  0
BLOCK
  5
2A06
330
2A05
100
AcDbEntity
  8
0
100
AcDbBlockBegin
  2
08594
 70
     0
 10
398.977048167726
 20
238.5069484183733
 30
0.0
  3
08594
  1
I:\DWG Master BLocks\08594.dwg
  0
LWPOLYLINE
  5
3815
102
{ACAD_REACTORS
330
3816
102
}
330
2A05
100
AcDbEntity
  8
APL Joinery
  6
Continuous
100
AcDbPolyline
 90
       44
 70
     1
 43
0.0
 10
340.3278017379453
 20
240.5191105805356
 42
0.6397713516119647
 10
340.5180737357875
 20
240.1069484183735
 10
382.4360225996643
 20
240.1069484183735
 42
0.6397713516119543
 10
382.6262945975068
 20
240.5191105805356
 42
-0.3904564089862662
 10
382.8071759567159
 20
245.1911012220834
 42
-0.9999999999999996
 10
383.9410297357369
 20
244.0622187623915
 42
2.406732252590586
 10
386.563066599723
 20
244.062218762392
 42
-0.9999999999998793
 10
387.6969203787436
 20
245.1911012220839
 42
-0.1010796319505995
 10
388.4556195963019
 20
244.0374288368255
 42
0.8259000647041901
 10
389.2270481677305
 20
244.1858903346176
 10
389.22704816773
 20
244.7514920666327
 42
-0.6681786379197611
 10
389.5288248630263
 20
244.8764920666327
 10
390.9038248630264
 20
243.5014920666325
 42
-0.4142135623730951
 10
390.9038248630267
 20
243.1479386760392
 10
389.2270481677301
 20
241.4711619807423
 10
389.2270481677301
 20
241.2569484183735
 42
-0.4142135623730951
 10
389.0270481677301
 20
241.0569484183735
 10
388.2541307781857
 20
241.0569484183735
 42
-0.0150780380493182
 10
388.1462123836262
 20
240.8791003171077
 42
0.5948022051749068
 10
388.5656564728861
 20
240.1069484183735
 10
391.9770481677301
 20
240.1069484183737
 42
-0.4142135623733615
 10
392.2270481677301
 20
239.8569484183735
 10
392.2270481677292
 20
238.756948418373
 42
-0.4142135623728287
 10
391.9770481677292
 20
238.5069484183733
 10
330.9770481677228
 20
238.5069484183733
 42
-0.4142135623728287
 10
330.7270481677229
 20
238.7569484183731
 10
330.7270481677219
 20
239.8569484183735
 42
-0.4142135623733615
 10
330.9770481677219
 20
240.1069484183737
 10
334.3884398625661
 20
240.1069484183734
 42
0.5948022051749068
 10
334.8078839518259
 20
240.8791003171077
 42
-0.015078038049312
 10
334.6999655572664
 20
241.0569484183735
 10
333.9270481677218
 20
241.0569484183735
 42
-0.4142135623731784
 10
333.7270481677218
 20
241.2569484183735
 10
333.7270481677219
 20
241.4711619807423
 10
332.0502714724252
 20
243.1479386760391
 42
-0.4142135623730951
 10
332.0502714724257
 20
243.5014920666325
 10
333.4252714724257
 20
244.8764920666327
 42
-0.6681786379197538
 10
333.7270481677222
 20
244.7514920666328
 10
333.7270481677217
 20
244.1858903346176
 42
0.8259000647042011
 10
334.4984767391502
 20
244.0374288368255
 42
-0.101079631950596
 10
335.2571759567084
 20
245.1911012220838
 42
-0.9999999999998992
 10
336.3910297357291
 20
244.0622187623919
 42
2.406732252590586
 10
339.013066599715
 20
244.0622187623916
 42
-0.9999999999999799
 10
340.1469203787363
 20
245.1911012220833
 42
-0.3904564089862546
  0
HATCH
  5
3816
330
2A05
100
AcDbEntity
  8
APL Hatch
 48
20.0
100
AcDbHatch
 10
0.0
 20
0.0
 30
0.0
210
0.0
220
0.0
230
1.0
  2
SOLID
 70
     1
 71
     1
 91
        1
 92
        7
 72
     1
 73
     1
 93
       44
 10
340.3278017379451
 20
240.5191105805355
 42
0.3904564089862666
 10
340.1469203787363
 20
245.1911012220833
 42
1.0
 10
339.013066599715
 20
244.0622187623916
 42
-2.40673225259066
 10
336.3910297357291
 20
244.0622187623919
 42
1.0
 10
335.2571759567086
 20
245.191101222084
 42
0.1010796319505783
 10
334.4984767391504
 20
244.0374288368259
 42
-0.8259000647048225
 10
333.7270481677217
 20
244.185890334618
 42
0.0
 10
333.7270481677222
 20
244.7514920666327
 42
0.6681786379197058
 10
333.4252714724257
 20
244.8764920666328
 42
0.0
 10
332.0502714724255
 20
243.5014920666322
 42
0.414213562373048
 10
332.0502714724255
 20
243.1479386760389
 42
0.0
 10
333.727048167722
 20
241.4711619807423
 42
0.0
 10
333.7270481677218
 20
241.2569484183737
 42
0.4142135623733448
 10
333.9270481677218
 20
241.0569484183735
 42
0.0
 10
334.6999655572664
 20
241.0569484183735
 42
0.0150780380493639
 10
334.8078839518262
 20
240.8791003171071
 42
-0.5948022051746634
 10
334.3884398625657
 20
240.1069484183734
 42
0.0
 10
330.9770481677219
 20
240.1069484183737
 42
0.4142135623733282
 10
330.7270481677219
 20
239.8569484183735
 42
0.0
 10
330.7270481677229
 20
238.7569484183731
 42
0.4142135623728952
 10
330.9770481677229
 20
238.5069484183733
 42
0.0
 10
391.9770481677292
 20
238.5069484183733
 42
0.4142135623728621
 10
392.2270481677292
 20
238.7569484183731
 42
0.0
 10
392.2270481677301
 20
239.8569484183735
 42
0.4142135623733282
 10
391.9770481677301
 20
240.1069484183737
 42
0.0
 10
388.5656564728865
 20
240.1069484183735
 42
-0.5948022051747697
 10
388.1462123836258
 20
240.8791003171072
 42
0.0150780380493649
 10
388.2541307781857
 20
241.0569484183735
 42
0.0
 10
389.0270481677301
 20
241.0569484183735
 42
0.4142135623731368
 10
389.2270481677301
 20
241.2569484183734
 42
0.0
 10
389.2270481677301
 20
241.4711619807422
 42
0.0
 10
390.9038248630265
 20
243.147938676039
 42
0.4142135623730951
 10
390.9038248630265
 20
243.5014920666323
 42
0.0
 10
389.5288248630263
 20
244.8764920666327
 42
0.6681786379195959
 10
389.22704816773
 20
244.7514920666327
 42
0.0
 10
389.2270481677305
 20
244.185890334618
 42
-0.825900064705063
 10
388.4556195963017
 20
244.0374288368259
 42
0.1010796319505729
 10
387.6969203787436
 20
245.191101222084
 42
1.0
 10
386.563066599723
 20
244.0622187623921
 42
-2.406732252590807
 10
383.9410297357371
 20
244.0622187623916
 42
1.0
 10
382.8071759567159
 20
245.1911012220834
 42
0.3904564089862727
 10
382.6262945975068
 20
240.5191105805356
 42
-0.6397713516116339
 10
382.4360225996645
 20
240.1069484183735
 42
0.0
 10
340.5180737357874
 20
240.1069484183735
 42
-0.6397713516116179
 97
        1
330
3815
 75
     0
 76
     1
 47
0.0539489431887971
 98
        1
 10
339.6328978428325
 20
240.4061846624575
  0
ENDBLK
  5
2A07
330
2A05
100
AcDbEntity
  8
0
100
AcDbBlockEnd
  0
BLOCK
  5
2A1C
330
2A1B
100
AcDbEntity
  8
0
100
AcDbBlockBegin
  2
08561
 70
     0
 10
346.1774924079222
 20
344.2300386961512
 30
0.0
  3
08561
  1
I:\DWG Master BLocks\08561.dwg
  0
LWPOLYLINE
  5
381A
102
{ACAD_REACTORS
330
381B
102
}
330
2A1B
100
AcDbEntity
  8
APL Joinery
  6
Continuous
100
AcDbPolyline
 90
      124
 70
     1
 43
0.0
 10
247.9990017882764
 20
346.2852709575079
 42
0.4203573577896773
 10
248.2489470291615
 20
346.0300386961512
 10
251.8774924079226
 20
346.0300386961512
 42
-0.4142135623730951
 10
252.3774924079225
 20
345.5300386961511
 10
252.3774924079225
 20
340.7300386961511
 42
-0.9999999999999998
 10
252.3774924079225
 20
339.7300386961512
 10
252.3774924079225
 20
336.0941403112887
 42
-0.1316524975873945
 10
252.3105051098148
 20
335.8441403112887
 10
250.5703127309502
 20
332.8300386961511
 42
-0.7673269879789596
 10
249.0774924079226
 20
333.2300386961512
 10
249.0774924079225
 20
335.7300386961512
 42
-0.4142135623730951
 10
249.5774924079225
 20
336.2300386961512
 10
250.0774924079224
 20
336.2300386961512
 42
0.4142135623730951
 10
250.5774924079223
 20
336.7300386961511
 10
250.5774924079223
 20
343.7300386961512
 42
0.4142135623730951
 10
250.0774924079224
 20
344.2300386961512
 10
247.7621955527202
 20
344.2300386961512
 10
246.4278056916222
 20
344.2300386961512
 42
-0.4149478220195426
 10
246.1778064767944
 20
344.4806652625658
 42
-0.0412588403800713
 10
247.5761626895955
 20
360.8967053628199
 42
-0.3659773818630382
 10
257.436295661428
 20
369.2300386961512
 10
287.9274924079222
 20
369.2300386961512
 42
-0.4142135623730951
 10
288.1774924079222
 20
368.9800386961512
 10
288.1774924079222
 20
368.2300386961511
 10
288.9274924079222
 20
368.2300386961511
 42
-0.4142135623730951
 10
289.1774924079221
 20
367.9800386961511
 10
289.1774924079221
 20
366.180038696151
 42
-0.9999999999999998
 10
288.1774924079222
 20
366.180038696151
 10
288.1774924079222
 20
366.9300386961511
 10
286.6774924079221
 20
366.9300386961511
 10
286.6774924079221
 20
361.430038696151
 10
288.1774924079222
 20
361.430038696151
 10
288.1774924079222
 20
362.180038696151
 42
-0.9999999999999998
 10
289.1774924079221
 20
362.180038696151
 10
289.1774924079221
 20
360.3800386961511
 42
-0.4142135623730951
 10
288.9274924079222
 20
360.1300386961511
 10
286.6774924079221
 20
360.1300386961511
 10
286.6774924079221
 20
356.7300386961512
 10
288.3501421387326
 20
356.7300386961512
 42
-0.2679491924311306
 10
288.5666484896788
 20
356.6050386961511
 10
289.1439987588677
 20
355.6050386961512
 42
-0.5773502691895433
 10
288.9274924079222
 20
355.2300386961511
 10
287.0135000706449
 20
355.2300386961511
 42
0.5023968879034532
 10
286.7740434993395
 20
354.9082017247596
 10
287.9636967735918
 20
350.9426908105849
 42
0.3312061653634539
 10
288.9215230588129
 20
350.230038696151
 10
295.7774924079215
 20
350.2300386961512
 10
296.1774924079222
 20
349.8300386961513
 10
296.5774924079217
 20
350.2300386961512
 10
303.4334617570305
 20
350.2300386961512
 42
0.3312061653634596
 10
304.3912880422518
 20
350.9426908105847
 10
305.5809413165046
 20
354.9082017247596
 42
0.5023968879035815
 10
305.3414847451993
 20
355.2300386961511
 10
303.4274924079221
 20
355.2300386961511
 42
-0.5773502691896031
 10
303.210986056976
 20
355.6050386961512
 10
303.7883363261656
 20
356.6050386961511
 42
-0.2679491924311129
 10
304.0048426771111
 20
356.7300386961512
 10
305.6774924079221
 20
356.7300386961512
 10
305.6774924079221
 20
360.130038696151
 10
303.4274924079221
 20
360.130038696151
 42
-0.4142135623730951
 10
303.1774924079222
 20
360.380038696151
 10
303.1774924079222
 20
362.180038696151
 42
-0.9999999999999998
 10
304.1774924079222
 20
362.180038696151
 10
304.1774924079222
 20
361.430038696151
 10
305.6774924079221
 20
361.430038696151
 10
305.6774924079221
 20
366.9300386961511
 10
304.1774924079222
 20
366.9300386961511
 10
304.1774924079222
 20
366.180038696151
 42
-0.9999999999999998
 10
303.1774924079222
 20
366.180038696151
 10
303.1774924079222
 20
367.9800386961511
 42
-0.4142135623730951
 10
303.4274924079221
 20
368.2300386961511
 10
304.1774924079222
 20
368.2300386961511
 10
304.1774924079222
 20
368.9800386961512
 42
-0.4142135623730951
 10
304.4274924079222
 20
369.2300386961509
 10
334.9186891544164
 20
369.2300386961512
 42
-0.3659773818630382
 10
344.7788221262486
 20
360.8967053628205
 42
-0.0412588403800712
 10
346.17717833905
 20
344.4806652625672
 42
-0.4149478220196093
 10
345.9271791242222
 20
344.2300386961512
 10
344.5927892631241
 20
344.2300386961512
 42
-0.371247317196426
 10
344.3455551749071
 20
344.4429535829184
 10
343.4802583197047
 20
350.2115992842651
 42
-0.0372396871880505
 10
343.4774924079218
 20
350.2486843974976
 10
343.4774924079218
 20
355.2300386961511
 42
0.4142135623730951
 10
342.4774924079218
 20
356.2300386961512
 10
339.7274924079218
 20
356.2300386961512
 42
0.4142135623730951
 10
339.4774924079218
 20
355.9800386961512
 10
339.4774924079218
 20
345.130038696151
 42
-0.9999999999999998
 10
337.6774924079219
 20
345.130038696151
 10
337.6774924079218
 20
357.0300386961511
 42
-0.4142135623730951
 10
338.6774924079217
 20
358.0300386961511
 10
342.2441359425019
 20
358.0300386961511
 42
0.4597272097789265
 10
343.2324758965616
 20
359.1823020706347
 42
0.0036475490244203
 10
343.0039981913193
 20
360.5967053628181
 42
0.3659773818630299
 10
334.9186891544165
 20
367.430038696151
 10
322.9273873640553
 20
367.4300386961511
 42
0.6157078743294433
 10
322.7263809481004
 20
367.0313900475024
 42
-0.3706944580779911
 10
322.3973646189407
 20
362.5458858924407
 42
-1.0
 10
321.2635108399194
 20
363.6747683521325
 42
2.406732252590791
 10
318.6414739759339
 20
363.6747683521325
 42
-0.9999999999999797
 10
317.5076201969125
 20
362.5458858924406
 42
-0.3706944580780251
 10
317.1786038677528
 20
367.0313900475023
 42
0.6157078743293453
 10
316.9775974517983
 20
367.430038696151
 10
308.4774924079222
 20
367.430038696151
 42
0.4142135623730951
 10
307.4774924079222
 20
366.430038696151
 10
307.4774924079223
 20
355.0392392089567
 42
-0.0729934230505333
 10
307.4564055505319
 20
354.8955652661736
 10
306.1153753556498
 20
350.4254646165656
 42
-0.3312061653634608
 10
303.4334617570305
 20
348.4300386961511
 10
288.9215230588127
 20
348.4300386961512
 42
-0.3312061653634596
 10
286.2396094601935
 20
350.4254646165652
 10
284.8985792653114
 20
354.8955652661736
 42
-0.0729934230505271
 10
284.877492407922
 20
355.0392392089567
 10
284.8774924079224
 20
366.430038696151
 42
0.4142135623730951
 10
283.8774924079224
 20
367.430038696151
 10
275.3773873640469
 20
367.4300386961511
 42
0.6157078743294667
 10
275.1763809480922
 20
367.0313900475024
 42
-0.3706944580780191
 10
274.8473646189319
 20
362.5458858924406
 42
-0.9999999999999996
 10
273.7135108399112
 20
363.6747683521325
 42
2.406732252590859
 10
271.0914739759248
 20
363.6747683521326
 42
-0.9999999999999797
 10
269.9576201969041
 20
362.5458858924407
 42
-0.3706944580779785
 10
269.6286038677437
 20
367.0313900475024
 42
0.6157078743293178
 10
269.4275974517892
 20
367.430038696151
 10
257.4362956614278
 20
367.430038696151
 42
0.3659773818630378
 10
249.3509866245248
 20
360.596705362816
 42
0.0366457672067406
  0
HATCH
  5
381B
330
2A1B
100
AcDbEntity
  8
APL Hatch
 48
20.0
100
AcDbHatch
 10
0.0
 20
0.0
 30
0.0
210
0.0
220
0.0
230
1.0
  2
SOLID
 70
     1
 71
     1
 91
        1
 92
        7
 72
     1
 73
     1
 93
      124
 10
334.9186891544175
 20
369.2300386961512
 42
0.0
 10
304.427492407922
 20
369.2300386961509
 42
0.4142135623730951
 10
304.1774924079222
 20
368.980038696151
 42
0.0
 10
304.1774924079222
 20
368.2300386961511
 42
0.0
 10
303.4274924079221
 20
368.2300386961511
 42
0.4142135623730951
 10
303.1774924079222
 20
367.9800386961511
 42
0.0
 10
303.1774924079222
 20
366.180038696151
 42
1.0
 10
304.1774924079222
 20
366.180038696151
 42
0.0
 10
304.1774924079222
 20
366.9300386961511
 42
0.0
 10
305.6774924079221
 20
366.9300386961511
 42
0.0
 10
305.6774924079221
 20
361.430038696151
 42
0.0
 10
304.1774924079222
 20
361.4300386961509
 42
0.0
 10
304.1774924079222
 20
362.180038696151
 42
1.0
 10
303.1774924079222
 20
362.180038696151
 42
0.0
 10
303.1774924079222
 20
360.380038696151
 42
0.4142135623730951
 10
303.4274924079221
 20
360.130038696151
 42
0.0
 10
305.6774924079222
 20
360.130038696151
 42
0.0
 10
305.6774924079222
 20
356.7300386961511
 42
0.0
 10
304.0048426771115
 20
356.7300386961512
 42
0.2679491924311199
 10
303.7883363261658
 20
356.6050386961514
 42
0.0
 10
303.210986056976
 20
355.6050386961512
 42
0.5773502691895274
 10
303.4274924079221
 20
355.2300386961511
 42
0.0
 10
305.3414847451994
 20
355.2300386961511
 42
-0.5023968879035105
 10
305.5809413165046
 20
354.9082017247596
 42
0.0
 10
304.3912880422518
 20
350.9426908105847
 42
-0.3312061653634595
 10
303.4334617570305
 20
350.2300386961512
 42
0.0
 10
296.5774924079217
 20
350.2300386961512
 42
0.0
 10
296.1774924079222
 20
349.8300386961513
 42
0.0
 10
295.7774924079216
 20
350.2300386961512
 42
0.0
 10
288.9215230588131
 20
350.230038696151
 42
-0.3312061653634935
 10
287.9636967735918
 20
350.9426908105847
 42
0.0
 10
286.7740434993395
 20
354.9082017247596
 42
-0.5023968879033821
 10
287.0135000706448
 20
355.2300386961511
 42
0.0
 10
288.9274924079218
 20
355.2300386961511
 42
0.5773502691895133
 10
289.1439987588679
 20
355.6050386961509
 42
0.0
 10
288.5666484896788
 20
356.605038696151
 42
0.267949192431201
 10
288.3501421387326
 20
356.7300386961512
 42
0.0
 10
286.6774924079221
 20
356.7300386961512
 42
0.0
 10
286.6774924079221
 20
360.1300386961511
 42
0.0
 10
288.9274924079222
 20
360.1300386961511
 42
0.4142135623730951
 10
289.1774924079221
 20
360.3800386961511
 42
0.0
 10
289.1774924079221
 20
362.180038696151
 42
1.0
 10
288.1774924079222
 20
362.180038696151
 42
0.0
 10
288.1774924079222
 20
361.430038696151
 42
0.0
 10
286.6774924079221
 20
361.430038696151
 42
0.0
 10
286.6774924079221
 20
366.9300386961511
 42
0.0
 10
288.1774924079222
 20
366.9300386961511
 42
0.0
 10
288.1774924079222
 20
366.180038696151
 42
1.0
 10
289.1774924079221
 20
366.180038696151
 42
0.0
 10
289.1774924079221
 20
367.9800386961511
 42
0.4142135623730951
 10
288.9274924079222
 20
368.2300386961511
 42
0.0
 10
288.1774924079222
 20
368.2300386961512
 42
0.0
 10
288.1774924079222
 20
368.9800386961512
 42
0.4142135623730951
 10
287.9274924079222
 20
369.2300386961512
 42
0.0
 10
257.436295661427
 20
369.2300386961512
 42
0.3659773818630507
 10
247.5761626895953
 20
360.8967053628185
 42
0.0412588403800662
 10
246.1778064767944
 20
344.4806652625664
 42
0.4149478220195447
 10
246.4278056916215
 20
344.2300386961512
 42
0.0
 10
247.7621955527202
 20
344.2300386961512
 42
0.0
 10
250.0774924079224
 20
344.2300386961512
 42
-0.4142135623730951
 10
250.5774924079223
 20
343.7300386961512
 42
0.0
 10
250.5774924079223
 20
336.7300386961511
 42
-0.4142135623730951
 10
250.0774924079224
 20
336.2300386961512
 42
0.0
 10
249.5774924079225
 20
336.2300386961512
 42
0.4142135623730951
 10
249.0774924079225
 20
335.7300386961512
 42
0.0
 10
249.0774924079226
 20
333.2300386961511
 42
0.7673269879789555
 10
250.5703127309502
 20
332.8300386961512
 42
0.0
 10
252.3105051098148
 20
335.8441403112887
 42
0.1316524975873945
 10
252.3774924079225
 20
336.0941403112887
 42
0.0
 10
252.3774924079225
 20
339.7300386961512
 42
1.0
 10
252.3774924079225
 20
340.7300386961511
 42
0.0
 10
252.3774924079225
 20
345.5300386961511
 42
0.4142135623730951
 10
251.8774924079226
 20
346.0300386961512
 42
0.0
 10
248.2489470291609
 20
346.0300386961512
 42
-0.4203573577896915
 10
247.9990017882764
 20
346.2852709575085
 42
-0.0366457672067414
 10
249.350986624525
 20
360.5967053628169
 42
-0.3659773818630434
 10
257.4362956614288
 20
367.430038696151
 42
0.0
 10
269.4275974517891
 20
367.430038696151
 42
-0.6157078743295529
 10
269.6286038677438
 20
367.0313900475024
 42
0.3706944580779643
 10
269.957620196904
 20
362.5458858924408
 42
1.0
 10
271.0914739759248
 20
363.6747683521325
 42
-2.406732252590932
 10
273.7135108399112
 20
363.6747683521325
 42
1.0
 10
274.8473646189319
 20
362.5458858924407
 42
0.370694458078013
 10
275.1763809480923
 20
367.0313900475024
 42
-0.6157078743294669
 10
275.377387364047
 20
367.4300386961511
 42
0.0
 10
283.8774924079224
 20
367.430038696151
 42
-0.4142135623731117
 10
284.8774924079224
 20
366.4300386961509
 42
0.0
 10
284.877492407922
 20
355.0392392089566
 42
0.0729934230505028
 10
284.8985792653115
 20
354.8955652661735
 42
0.0
 10
286.2396094601934
 20
350.4254646165656
 42
0.3312061653634987
 10
288.9215230588126
 20
348.4300386961512
 42
0.0
 10
303.4334617570303
 20
348.4300386961511
 42
0.3312061653634931
 10
306.1153753556498
 20
350.4254646165657
 42
0.0
 10
307.4564055505328
 20
354.8955652661766
 42
0.0729934230504947
 10
307.4774924079223
 20
355.0392392089599
 42
0.0
 10
307.4774924079222
 20
366.430038696151
 42
-0.4142135623730951
 10
308.4774924079222
 20
367.430038696151
 42
0.0
 10
316.9775974517981
 20
367.430038696151
 42
-0.6157078743295022
 10
317.1786038677528
 20
367.0313900475023
 42
0.3706944580780378
 10
317.5076201969125
 20
362.5458858924405
 42
1.0
 10
318.6414739759339
 20
363.6747683521326
 42
-2.406732252590643
 10
321.2635108399195
 20
363.6747683521326
 42
1.0
 10
322.3973646189407
 20
362.5458858924408
 42
0.3706944580779674
 10
322.7263809481005
 20
367.0313900475023
 42
-0.6157078743295179
 10
322.9273873640551
 20
367.4300386961511
 42
0.0
 10
334.9186891544166
 20
367.430038696151
 42
-0.3659773818630723
 10
343.0039981913196
 20
360.5967053628168
 42
-0.003647549024415
 10
343.2324758965615
 20
359.1823020706355
 42
-0.4597272097788631
 10
342.2441359425029
 20
358.0300386961511
 42
0.0
 10
338.6774924079217
 20
358.0300386961511
 42
0.4142135623730951
 10
337.6774924079218
 20
357.0300386961511
 42
0.0
 10
337.6774924079219
 20
345.130038696151
 42
1.0
 10
339.4774924079218
 20
345.130038696151
 42
0.0
 10
339.4774924079218
 20
355.9800386961512
 42
-0.4142135623730951
 10
339.7274924079218
 20
356.2300386961512
 42
0.0
 10
342.4774924079218
 20
356.2300386961512
 42
-0.4142135623730951
 10
343.4774924079218
 20
355.2300386961511
 42
0.0
 10
343.4774924079218
 20
350.2486843974978
 42
0.0372396871880505
 10
343.4802583197047
 20
350.2115992842651
 42
0.0
 10
344.3455551749071
 20
344.4429535829186
 42
0.3712473171964727
 10
344.5927892631241
 20
344.2300386961512
 42
0.0
 10
345.9271791242222
 20
344.2300386961512
 42
0.4149478220194091
 10
346.1771783390499
 20
344.4806652625672
 42
0.0412588403800679
 10
344.7788221262488
 20
360.8967053628191
 42
0.3659773818630467
 97
        1
330
381A
 75
     0
 76
     1
 47
0.088129692808704
 98
        1
 10
306.8074065020771
 20
368.1649591653947
  0
ENDBLK
  5
2A1D
330
2A1B
100
AcDbEntity
  8
0
100
AcDbBlockEnd
  0
BLOCK
  5
2C94
330
2C93
100
AcDbEntity
  8
0
100
AcDbBlockBegin
  2
08561ripped
 70
     0
 10
346.1774924079222
 20
344.2300386961512
 30
0.0
  3
08561ripped
  1
08561ripped.dwg
  0
LWPOLYLINE
  5
381F
330
2C93
100
AcDbEntity
  8
APL Joinery
  6
Continuous
100
AcDbPolyline
 90
      112
 70
     1
 43
0.0
 10
304.1774924079222
 20
366.9300386961511
 10
304.1774924079222
 20
366.180038696151
 42
-0.9999999999999998
 10
303.1774924079222
 20
366.180038696151
 10
303.1774924079222
 20
367.9800386961511
 42
-0.4142135623730951
 10
303.4274924079221
 20
368.2300386961511
 10
304.1774924079222
 20
368.2300386961511
 10
304.1774924079222
 20
368.9800386961512
 42
-0.4142135623730951
 10
304.4274924079222
 20
369.2300386961509
 10
334.9186891544164
 20
369.2300386961512
 42
-0.3659773818630401
 10
344.7788221262486
 20
360.8967053628205
 42
-0.0412588403800712
 10
346.17717833905
 20
344.4806652625672
 42
-0.4149478220197428
 10
345.9271791242222
 20
344.2300386961512
 10
344.5927892631241
 20
344.2300386961512
 42
-0.3712473171963684
 10
344.3455551749071
 20
344.4429535829184
 10
343.4802583197047
 20
350.2115992842651
 42
-0.0372396871880504
 10
343.4774924079218
 20
350.2486843974976
 10
343.4774924079218
 20
355.2300386961511
 42
0.4142135623730951
 10
342.4774924079218
 20
356.2300386961512
 10
339.7274924079218
 20
356.2300386961512
 42
0.4142135623730951
 10
339.4774924079218
 20
355.9800386961512
 10
339.4774924079218
 20
345.130038696151
 42
-0.9999999999999998
 10
337.677492407922
 20
345.130038696151
 10
337.6774924079218
 20
357.0300386961511
 42
-0.4142135623730951
 10
338.6774924079217
 20
358.0300386961511
 10
342.2441359425019
 20
358.0300386961511
 42
0.4597272097789343
 10
343.2324758965616
 20
359.1823020706347
 42
0.0036475490244203
 10
343.0039981913193
 20
360.5967053628181
 42
0.3659773818630293
 10
334.9186891544165
 20
367.4300386961509
 10
322.9273873640553
 20
367.4300386961511
 42
0.6157078743292252
 10
322.7263809481004
 20
367.0313900475024
 42
-0.3706944580779888
 10
322.3973646189407
 20
362.5458858924407
 42
-0.9999999999999497
 10
321.2635108399194
 20
363.6747683521325
 42
2.406732252590842
 10
318.6414739759339
 20
363.6747683521325
 42
-1.00000000000005
 10
317.5076201969124
 20
362.5458858924406
 42
-0.370694458078028
 10
317.1786038677528
 20
367.0313900475023
 42
0.6157078743293655
 10
316.9775974517983
 20
367.430038696151
 10
308.4774924079222
 20
367.430038696151
 42
0.4142135623730951
 10
307.4774924079222
 20
366.430038696151
 10
307.4774924079223
 20
355.0392392089567
 42
-0.0729934230505393
 10
307.4564055505319
 20
354.8955652661736
 10
306.1153753556498
 20
350.4254646165656
 42
-0.3312061653634605
 10
303.4334617570305
 20
348.4300386961511
 10
288.9215230588127
 20
348.4300386961512
 42
-0.3312061653634599
 10
286.2396094601935
 20
350.4254646165652
 10
284.8985792653114
 20
354.8955652661736
 42
-0.0729934230505243
 10
284.877492407922
 20
355.0392392089567
 10
284.8774924079224
 20
366.430038696151
 42
0.4142135623730951
 10
283.8774924079224
 20
367.430038696151
 10
275.3773873640469
 20
367.4300386961511
 42
0.6157078743294126
 10
275.1763809480922
 20
367.0313900475024
 42
-0.3706944580780169
 10
274.8473646189319
 20
362.5458858924406
 42
-0.9999999999999998
 10
273.7135108399113
 20
363.6747683521325
 42
2.406732252590883
 10
271.0914739759248
 20
363.6747683521326
 42
-0.9999999999999996
 10
269.9576201969041
 20
362.5458858924407
 42
-0.370694458077977
 10
269.6286038677437
 20
367.0313900475024
 42
0.6157078743292859
 10
269.4275974517892
 20
367.430038696151
 10
257.4362956614278
 20
367.430038696151
 42
0.3659773818630381
 10
249.3509866245248
 20
360.596705362816
 42
0.0366457672067406
 10
247.9990017882764
 20
346.2852709575079
 42
0.4203573577896646
 10
248.2489470291615
 20
346.0300386961512
 10
251.8774924079226
 20
346.0300386961512
 42
-0.4142135623730951
 10
252.3774924079225
 20
345.5300386961511
 10
252.3774924079226
 20
344.2300386961512
 10
246.4278056916222
 20
344.2300386961512
 42
-0.4149478220195448
 10
246.1778064767944
 20
344.4806652625658
 42
-0.0412588403800713
 10
247.5761626895955
 20
360.8967053628199
 42
-0.3659773818630362
 10
257.436295661428
 20
369.2300386961512
 10
287.9274924079222
 20
369.2300386961512
 42
-0.4142135623730951
 10
288.1774924079222
 20
368.9800386961512
 10
288.1774924079222
 20
368.2300386961511
 10
288.9274924079222
 20
368.2300386961511
 42
-0.4142135623730951
 10
289.1774924079221
 20
367.9800386961511
 10
289.1774924079221
 20
366.180038696151
 42
-0.9999999999999998
 10
288.1774924079222
 20
366.180038696151
 10
288.1774924079222
 20
366.9300386961511
 10
286.6774924079221
 20
366.9300386961511
 10
286.6774924079221
 20
361.430038696151
 10
288.1774924079222
 20
361.430038696151
 10
288.1774924079222
 20
362.180038696151
 42
-0.9999999999999998
 10
289.1774924079221
 20
362.180038696151
 10
289.1774924079221
 20
360.3800386961511
 42
-0.4142135623730951
 10
288.9274924079222
 20
360.1300386961511
 10
286.6774924079221
 20
360.1300386961511
 10
286.6774924079221
 20
356.7300386961512
 10
288.3501421387326
 20
356.7300386961512
 42
-0.2679491924311353
 10
288.5666484896787
 20
356.6050386961511
 10
289.1439987588677
 20
355.6050386961512
 42
-0.5773502691895694
 10
288.9274924079222
 20
355.2300386961511
 10
287.0135000706449
 20
355.2300386961511
 42
0.5023968879035167
 10
286.7740434993395
 20
354.9082017247596
 10
287.9636967735918
 20
350.9426908105849
 42
0.3312061653634816
 10
288.9215230588129
 20
350.230038696151
 10
295.7774924079215
 20
350.2300386961512
 10
296.1774924079222
 20
349.8300386961513
 10
296.5774924079217
 20
350.2300386961512
 10
303.4334617570305
 20
350.2300386961512
 42
0.3312061653634596
 10
304.3912880422517
 20
350.9426908105847
 10
305.5809413165046
 20
354.9082017247596
 42
0.5023968879035782
 10
305.3414847451993
 20
355.2300386961511
 10
303.4274924079221
 20
355.2300386961511
 42
-0.5773502691897995
 10
303.210986056976
 20
355.6050386961512
 10
303.7883363261656
 20
356.6050386961511
 42
-0.2679491924310924
 10
304.0048426771111
 20
356.7300386961512
 10
305.6774924079221
 20
356.7300386961512
 10
305.6774924079221
 20
360.130038696151
 10
303.4274924079221
 20
360.130038696151
 42
-0.4142135623730951
 10
303.1774924079222
 20
360.380038696151
 10
303.1774924079222
 20
362.180038696151
 42
-0.9999999999999998
 10
304.1774924079222
 20
362.180038696151
 10
304.1774924079222
 20
361.430038696151
 10
305.6774924079221
 20
361.430038696151
 10
305.6774924079221
 20
366.9300386961511
  0
HATCH
  5
3820
330
2C93
100
AcDbEntity
  8
APL Hatch
 48
20.0
100
AcDbHatch
 10
0.0
 20
0.0
 30
0.0
210
0.0
220
0.0
230
1.0
  2
SOLID
 70
     1
 71
     0
 91
        1
 92
        7
 72
     1
 73
     1
 93
      113
 10
334.9186891544176
 20
369.2300386961512
 42
0.0
 10
304.427492407922
 20
369.2300386961509
 42
0.4142135623730951
 10
304.1774924079222
 20
368.980038696151
 42
0.0
 10
304.1774924079222
 20
368.2300386961511
 42
0.0
 10
303.4274924079221
 20
368.2300386961511
 42
0.4142135623730951
 10
303.1774924079222
 20
367.9800386961511
 42
0.0
 10
303.1774924079222
 20
366.180038696151
 42
1.0
 10
304.1774924079222
 20
366.180038696151
 42
0.0
 10
304.1774924079222
 20
366.9300386961511
 42
0.0
 10
305.6774924079221
 20
366.9300386961511
 42
0.0
 10
305.6774924079221
 20
361.430038696151
 42
0.0
 10
304.1774924079222
 20
361.4300386961509
 42
0.0
 10
304.1774924079222
 20
362.180038696151
 42
1.0
 10
303.1774924079222
 20
362.180038696151
 42
0.0
 10
303.1774924079222
 20
360.380038696151
 42
0.4142135623730951
 10
303.4274924079221
 20
360.130038696151
 42
0.0
 10
305.6774924079222
 20
360.130038696151
 42
0.0
 10
305.6774924079222
 20
356.7300386961511
 42
0.0
 10
304.0048426771115
 20
356.7300386961512
 42
0.2679491924310994
 10
303.7883363261658
 20
356.6050386961514
 42
0.0
 10
303.210986056976
 20
355.6050386961512
 42
0.5773502691896479
 10
303.4274924079221
 20
355.2300386961511
 42
0.0
 10
305.3414847451994
 20
355.2300386961511
 42
-0.5023968879035072
 10
305.5809413165046
 20
354.9082017247596
 42
0.0
 10
304.3912880422517
 20
350.9426908105847
 42
-0.3312061653634596
 10
303.4334617570305
 20
350.2300386961512
 42
0.0
 10
296.5774924079217
 20
350.2300386961512
 42
0.0
 10
296.1774924079222
 20
349.8300386961513
 42
0.0
 10
295.7774924079216
 20
350.2300386961512
 42
0.0
 10
288.921523058813
 20
350.230038696151
 42
-0.331206165363463
 10
287.9636967735919
 20
350.9426908105847
 42
0.0
 10
286.7740434993395
 20
354.9082017247596
 42
-0.5023968879034454
 10
287.0135000706448
 20
355.2300386961511
 42
0.0
 10
288.9274924079218
 20
355.2300386961511
 42
0.5773502691895396
 10
289.1439987588679
 20
355.6050386961509
 42
0.0
 10
288.5666484896788
 20
356.6050386961511
 42
0.2679491924312314
 10
288.3501421387326
 20
356.7300386961512
 42
0.0
 10
286.6774924079221
 20
356.7300386961511
 42
0.0
 10
286.6774924079221
 20
360.1300386961511
 42
0.0
 10
288.9274924079222
 20
360.1300386961511
 42
0.4142135623730951
 10
289.1774924079221
 20
360.3800386961511
 42
0.0
 10
289.1774924079221
 20
362.180038696151
 42
1.0
 10
288.1774924079222
 20
362.180038696151
 42
0.0
 10
288.1774924079222
 20
361.430038696151
 42
0.0
 10
286.6774924079221
 20
361.430038696151
 42
0.0
 10
286.6774924079221
 20
366.9300386961511
 42
0.0
 10
288.1774924079222
 20
366.9300386961511
 42
0.0
 10
288.1774924079222
 20
366.180038696151
 42
1.0
 10
289.1774924079221
 20
366.180038696151
 42
0.0
 10
289.1774924079221
 20
367.9800386961511
 42
0.4142135623730951
 10
288.9274924079222
 20
368.2300386961511
 42
0.0
 10
288.1774924079222
 20
368.2300386961512
 42
0.0
 10
288.1774924079222
 20
368.9800386961512
 42
0.4142135623730951
 10
287.9274924079222
 20
369.2300386961512
 42
0.0
 10
257.436295661427
 20
369.2300386961512
 42
0.3659773818630502
 10
247.5761626895953
 20
360.8967053628185
 42
0.0412588403800662
 10
246.1778064767944
 20
344.4806652625664
 42
0.414947822019547
 10
246.4278056916215
 20
344.2300386961512
 42
0.0
 10
250.0774924079224
 20
344.2300386961512
 42
0.0
 10
252.3774924079225
 20
344.2300386961512
 42
0.0
 10
252.3774924079225
 20
345.5300386961511
 42
0.4142135623730951
 10
251.8774924079226
 20
346.0300386961512
 42
0.0
 10
248.2489470291609
 20
346.0300386961512
 42
-0.4203573577896788
 10
247.9990017882764
 20
346.2852709575085
 42
-0.0366457672067414
 10
249.350986624525
 20
360.5967053628169
 42
-0.3659773818630434
 10
257.4362956614288
 20
367.430038696151
 42
0.0
 10
269.4275974517891
 20
367.430038696151
 42
-0.6157078743294427
 10
269.6286038677437
 20
367.0313900475024
 42
0.3706944580779632
 10
269.957620196904
 20
362.5458858924408
 42
1.0
 10
271.0914739759248
 20
363.6747683521325
 42
-2.406732252590994
 10
273.7135108399112
 20
363.6747683521325
 42
1.0
 10
274.847364618932
 20
362.5458858924407
 42
0.3706944580779976
 10
275.1763809480922
 20
367.0313900475023
 42
-0.6157078743295682
 10
275.3773873640469
 20
367.4300386961511
 42
0.0
 10
283.8774924079224
 20
367.430038696151
 42
-0.4142135623731117
 10
284.8774924079224
 20
366.4300386961509
 42
0.0
 10
284.877492407922
 20
355.0392392089566
 42
0.0729934230504999
 10
284.8985792653115
 20
354.8955652661735
 42
0.0
 10
286.2396094601934
 20
350.4254646165656
 42
0.3312061653634992
 10
288.9215230588126
 20
348.4300386961512
 42
0.0
 10
303.4334617570303
 20
348.4300386961511
 42
0.3312061653634928
 10
306.1153753556498
 20
350.4254646165657
 42
0.0
 10
307.4564055505328
 20
354.8955652661766
 42
0.0729934230505008
 10
307.4774924079223
 20
355.0392392089599
 42
0.0
 10
307.4774924079222
 20
366.430038696151
 42
-0.4142135623730951
 10
308.4774924079222
 20
367.430038696151
 42
0.0
 10
316.9775974517981
 20
367.430038696151
 42
-0.6157078743295222
 10
317.1786038677528
 20
367.0313900475023
 42
0.3706944580780385
 10
317.5076201969125
 20
362.5458858924405
 42
1.0
 10
318.6414739759339
 20
363.6747683521326
 42
-2.406732252590733
 10
321.2635108399194
 20
363.6747683521326
 42
1.0
 10
322.3973646189407
 20
362.5458858924408
 42
0.3706944580779655
 10
322.7263809481005
 20
367.0313900475023
 42
-0.6157078743294563
 10
322.9273873640553
 20
367.4300386961511
 42
0.0
 10
334.9186891544166
 20
367.4300386961509
 42
-0.3659773818630678
 10
343.0039981913195
 20
360.5967053628168
 42
-0.0036475490244149
 10
343.2324758965615
 20
359.1823020706355
 42
-0.4597272097788911
 10
342.2441359425029
 20
358.0300386961511
 42
0.0
 10
338.6774924079217
 20
358.0300386961511
 42
0.4142135623730951
 10
337.6774924079218
 20
357.0300386961511
 42
0.0
 10
337.677492407922
 20
345.130038696151
 42
1.0
 10
339.4774924079218
 20
345.130038696151
 42
0.0
 10
339.4774924079218
 20
355.9800386961512
 42
-0.4142135623730951
 10
339.7274924079218
 20
356.2300386961512
 42
0.0
 10
342.4774924079218
 20
356.2300386961512
 42
-0.4142135623730951
 10
343.4774924079218
 20
355.2300386961511
 42
0.0
 10
343.4774924079218
 20
350.2486843974978
 42
0.0372396871880504
 10
343.4802583197047
 20
350.2115992842651
 42
0.0
 10
344.3455551749071
 20
344.4429535829186
 42
0.3712473171964151
 10
344.5927892631241
 20
344.2300386961512
 42
0.0
 10
345.9271791242223
 20
344.2300386961512
 42
0.4149478220194762
 10
346.17717833905
 20
344.4806652625672
 42
0.0412588403800682
 10
344.7788221262488
 20
360.8967053628192
 42
0.3659773818630426
 97
        0
 75
     0
 76
     1
 47
0.0911464683143929
 98
        1
 10
305.5485037323291
 20
367.9511833394722
  0
ENDBLK
  5
2C95
330
2C93
100
AcDbEntity
  8
0
100
AcDbBlockEnd
  0
BLOCK
  5
2CCD
330
2CCC
100
AcDbEntity
  8
0
100
AcDbBlockBegin
  2
vantage a4 SM border
 70
     0
 10
0.0
 20
0.0
 30
0.0
  3
vantage a4 SM border
  1
vantage a4 SM border.dwg
  0
TEXT
  5
3824
330
2CCC
100
AcDbEntity
  8
APL Border
100
AcDbText
 10
11.59500000000003
 20
3.979818213543524
 30
0.0
 40
1.5
  1
VANTAGE SPECIFIER'S GUIDE 2011:1     ARCHITECTURAL PROFILES LTD. NB. TECHNICAL SPECIFICATIONS SUBJECT TO CHANGE WITHOUT NOTICE.
 41
1.175568529931163
  7
Arial-Regular
 72
     5
 11
189.595
 21
3.979818213543524
 31
0.0
100
AcDbText
  0
LINE
  5
3825
330
2CCC
100
AcDbEntity
  8
APL Border
100
AcDbLine
 10
11.59500000000003
 20
6.189999999999997
 30
0.0
 11
189.595
 21
6.189999999999997
 31
0.0
  0
MTEXT
  5
3826
330
2CCC
100
AcDbEntity
  8
APL Border
100
AcDbMText
 10
57.55102029361978
 20
3.879818213543526
 30
0.0
 40
1.5
 41
0.0
 71
     8
 72
     5
  1
{\fCommercialPi BT|b0|i0|c2|p18;a}
  7
Arial-Regular
 73
     1
 44
1.0
1001
ACAD
1000
MTEXTBEGIN
1070
    73
1070
     1
1070
    44
1040
1.0
1070
    74
1070
     0
1000
MTEXTEND
  0
LINE
  5
3827
330
2CCC
100
AcDbEntity
  8
APL Border
100
AcDbLine
 10
189.595
 20
268.19
 30
0.0
 11
142.595
 21
268.19
 31
0.0
  0
LINE
  5
3828
330
2CCC
100
AcDbEntity
  8
APL Border
100
AcDbLine
 10
189.595
 20
282.19
 30
0.0
 11
189.595
 21
254.19
 31
0.0
  0
LINE
  5
3829
330
2CCC
100
AcDbEntity
  8
APL Border
100
AcDbLine
 10
166.095
 20
268.19
 30
0.0
 11
166.095
 21
254.19
 31
0.0
  0
LINE
  5
382A
330
2CCC
100
AcDbEntity
  8
APL Border
100
AcDbLine
 10
189.595
 20
254.19
 30
0.0
 11
24.99473224900737
 21
254.19
 31
0.0
  0
LINE
  5
382B
330
2CCC
100
AcDbEntity
  8
APL Border
100
AcDbLine
 10
189.595
 20
282.19
 30
0.0
 11
24.99473224900737
 21
282.19
 31
0.0
  0
LINE
  5
382C
330
2CCC
100
AcDbEntity
  8
APL Border
100
AcDbLine
 10
142.595
 20
282.19
 30
0.0
 11
142.595
 21
254.19
 31
0.0
  0
TEXT
  5
382D
330
2CCC
100
AcDbEntity
  8
APL Border
100
AcDbText
 10
147.845
 20
273.69
 30
0.0
 40
2.5
  1
CAD REF.
  7
Arial-Regular
100
AcDbText
  0
TEXT
  5
382E
330
2CCC
100
AcDbEntity
  8
APL Border
100
AcDbText
 10
149.6877694406548
 20
262.19
 30
0.0
 40
2.5
  1
DATE
  7
Arial-Regular
 72
     1
 11
154.345
 21
262.19
 31
0.0
100
AcDbText
  0
TEXT
  5
382F
330
2CCC
100
AcDbEntity
  8
APL Border
100
AcDbText
 10
172.1185334242838
 20
262.19
 30
0.0
 40
2.5
  1
SCALE
  7
Arial-Regular
 72
     1
 11
177.845
 21
262.19
 31
0.0
100
AcDbText
  0
INSERT
  5
3830
102
{ACAD_XDICTIONARY
360
3831
102
}
330
2CCC
100
AcDbEntity
  8
APL Border
100
AcDbBlockReference
  2
vantage black & white logo
 10
24.99473224900737
 20
256.19
 30
0.0
 41
0.5
 42
0.5
 43
0.5
  0
LINE
  5
3875
330
2CCC
100
AcDbEntity
  8
APL Border
100
AcDbLine
 10
24.99473224900737
 20
256.19
 30
0.0
 11
24.99473224900737
 21
254.19
 31
0.0
  0
LINE
  5
3876
330
2CCC
100
AcDbEntity
  8
APL Border
100
AcDbLine
 10
24.99473224900716
 20
279.6304177948761
 30
0.0
 11
24.99473224900737
 21
282.19
 31
0.0
  0
ENDBLK
  5
2CCE
330
2CCC
100
AcDbEntity
  8
0
100
AcDbBlockEnd
  0
BLOCK
  5
2D0E
330
2D06
100
AcDbEntity
  8
0
100
AcDbBlockBegin
  2
vantage a4 SM attributes (2)
 70
     2
 10
0.0
 20
0.0
 30
0.0
  3
vantage a4 SM attributes (2)
  1

  0
ATTDEF
  5
2D07
330
2D06
100
AcDbEntity
  8
APL Border
100
AcDbText
 10
41.78979785863009
 20
269.19
 30
0.0
 40
3.5
  1
DRAWING TITLE LINE 1
  7
Arial-Bold
100
AcDbAttributeDefinition
  3
Drawing Title Line 1
  2
DRAWINGTITLE_1
 70
     0
  0
ATTDEF
  5
2D08
330
2D06
100
AcDbEntity
  8
APL Border
100
AcDbText
 10
41.78979785863009
 20
263.19
 30
0.0
 40
3.0
  1
DRAWING TITLE LINE 2
  7
Arial-Regular
100
AcDbAttributeDefinition
  3
Drawing Title Line 2
  2
DRAWINGTITLE_2
 70
     0
  0
ATTDEF
  5
2D09
330
2D06
100
AcDbEntity
  8
APL Border
100
AcDbText
 10
165.845
 20
273.69
 30
0.0
 40
2.5
  1
AW123-456
  7
Arial-Regular
100
AcDbAttributeDefinition
  3
CAD Reference
  2
AW123-456
 70
     0
  0
ATTDEF
  5
2D0A
330
2D06
100
AcDbEntity
  8
APL Border
100
AcDbText
 10
147.5475920873124
 20
257.1899999999999
 30
0.0
 40
2.5
  1
24.05.02
  7
Arial-Regular
 72
     1
 11
154.345
 21
257.1899999999999
 31
0.0
100
AcDbAttributeDefinition
  3
Date
  2
24.05.02
 70
     0
  0
ATTDEF
  5
2D0B
330
2D06
100
AcDbEntity
  8
APL Border
100
AcDbText
 10
175.4456139154161
 20
257.1899999999999
 30
0.0
 40
2.5
  1
1:2
  7
Arial-Regular
 72
     1
 11
177.845
 21
257.1899999999999
 31
0.0
100
AcDbAttributeDefinition
  3
Scale
  2
1:2
 70
     0
  0
ATTDEF
  5
2D0C
330
2D06
100
AcDbEntity
  8
APL Border
100
AcDbText
 10
11.59500000000003
 20
1.189999999999997
 30
0.0
 40
3.75
  1
1.2.34
  7
Arial-Bold
100
AcDbAttributeDefinition
  3
Page Number (Left)
  2
1.2.34
 70
     0
  0
ATTDEF
  5
2D0D
330
2D06
100
AcDbEntity
  8
APL Border
100
AcDbText
 10
175.0298567530696
 20
1.189999999999997
 30
0.0
 40
3.75
  1
1.2.34
  7
Arial-Bold
 72
     2
 11
189.595
 21
1.189999999999997
 31
0.0
100
AcDbAttributeDefinition
  3
Page Number (Right)
  2
1.2.34
 70
     0
  0
ENDBLK
  5
2D0F
330
2D06
100
AcDbEntity
  8
0
100
AcDbBlockEnd
  0
BLOCK
  5
31AB
330
31A9
100
AcDbEntity
  8
0
100
AcDbBlockBegin
  2
9010655-6.0mm
 70
     0
 10
0.0
 20
0.0
 30
0.0
  3
9010655-6.0mm
  1

  0
LWPOLYLINE
  5
31AA
330
31A9
100
AcDbEntity
  8
APL Joinery
  6
Continuous
 62
   252
100
AcDbPolyline
 90
       33
 70
     0
 43
0.0
 10
0.0
 20
-5.599038105676754
 10
0.0
 20
-7.0
 10
2.228708941706145
 20
-9.228708941706372
 42
0.339454258863344
 10
2.832262332299478
 20
-9.308168253005248
 10
4.443682525945632
 20
-8.377814370426108
 42
0.2547680682100514
 10
5.940029725042052
 20
-5.927736343072071
 10
5.999391199849242
 20
-4.725913564125107
 42
0.9999999999999996
 10
5.000608800150374
 20
-4.67658083612531
 10
4.967550194764271
 20
-5.345879992226286
 42
-0.3324456373451605
 10
3.898825437301724
 20
-6.637469610020502
 42
-0.5057748943823708
 10
3.25
 20
-6.160132214448083
 10
3.25
 20
-4.929832752827451
 10
4.443682525945632
 20
-4.240659825145712
 42
0.2547680682100514
 10
5.940029725042052
 20
-1.79058179779156
 10
5.999391199849242
 20
-0.588759018844712
 42
0.9999999999999996
 10
5.000608800150374
 20
-0.539426290844915
 10
4.967550194764271
 20
-1.208725446946004
 42
-0.3324456373452584
 10
3.898825437301325
 20
-2.500315064740277
 42
-0.5057748943820711
 10
3.25
 20
-2.022977669167687
 10
3.25
 20
-0.7906409785855431
 10
6.0
 20
2.683548243248424
 10
6.0
 20
3.629430836795791
 42
0.499279002243573
 10
5.68055407188126
 20
3.869591747577942
 10
-0.8271786522893762
 20
1.987788678516835
 42
0.3250075722533765
 10
-1.0
 20
1.75
 10
-1.0
 20
0.5000000000000001
 42
0.4142135623730951
 10
-0.5
 20
0.0
 10
0.0
 20
0.0
 10
0.0
 20
-2.800000000000068
 10
-0.75
 20
-2.800000000000068
 10
-0.75
 20
-4.300000000000068
 10
0.0
 20
-5.599038105676754
 10
0.0
 20
-2.800000000000068
  0
ENDBLK
  5
31AC
330
31A9
100
AcDbEntity
  8
0
100
AcDbBlockEnd
  0
BLOCK
  5
3423
330
33E9
100
AcDbEntity
  8
0
100
AcDbBlockBegin
  2
Conc
 70
     0
 10
0.0
 20
0.0
 30
0.0
  3
Conc
  1

  0
LINE
  5
33EA
330
33E9
100
AcDbEntity
  8
APL Building
  6
Continuous
 62
     8
100
AcDbLine
 10
-2.478391357920145
 20
-1.817827868737367
 30
0.0
 11
-1.938152417595858
 21
-3.247594617557069
 31
0.0
  0
LINE
  5
33EB
330
33E9
100
AcDbEntity
  8
APL Building
  6
Continuous
 62
     8
100
AcDbLine
 10
-0.4975152433977997
 20
-2.651858472215508
 30
0.0
 11
-2.478391357920145
 21
-1.817827868737367
 31
0.0
  0
LINE
  5
33EC
330
33E9
100
AcDbEntity
  8
APL Building
  6
Continuous
 62
     8
100
AcDbLine
 10
-9.115661252028473
 20
-6.015698538053129
 30
0.0
 11
-11.48929093711729
 21
-4.302448136944803
 31
0.0
  0
LINE
  5
33ED
330
33E9
100
AcDbEntity
  8
APL Building
  6
Continuous
 62
     8
100
AcDbLine
 10
-11.27350642029108
 20
-6.872323738607065
 30
0.0
 11
-9.115661252028473
 21
-6.015698538053129
 31
0.0
  0
LINE
  5
33EE
330
33E9
100
AcDbEntity
  8
APL Building
  6
Continuous
 62
     8
100
AcDbLine
 10
-15.68325640830483
 20
-1.30089097825521
 30
0.0
 11
-16.37870317731574
 21
-1.761023797128245
 31
0.0
  0
LINE
  5
33EF
330
33E9
100
AcDbEntity
  8
APL Building
  6
Continuous
 62
     8
100
AcDbLine
 10
-16.84233435665669
 20
-1.300890978254983
 30
0.0
 11
-15.68325640830483
 21
-1.30089097825521
 31
0.0
  0
LINE
  5
33F0
330
33E9
100
AcDbEntity
  8
APL Building
  6
Continuous
 62
     8
100
AcDbLine
 10
-16.37870317731574
 20
-1.761023797128245
 30
0.0
 11
-16.84233435665669
 21
-1.300890978254983
 31
0.0
  0
LINE
  5
33F1
330
33E9
100
AcDbEntity
  8
APL Building
  6
Continuous
 62
     8
100
AcDbLine
 10
-11.48929093711729
 20
-4.302448136944803
 30
0.0
 11
-11.27350642029108
 21
-6.872323738607065
 31
0.0
  0
LINE
  5
33F2
330
33E9
100
AcDbEntity
  8
APL Building
  6
Continuous
 62
     8
100
AcDbLine
 10
-5.483370462807897
 20
-8.509638473936092
 30
0.0
 11
-5.097011146690476
 21
-9.276526505392212
 31
0.0
  0
LINE
  5
33F3
330
33E9
100
AcDbEntity
  8
APL Building
  6
Continuous
 62
     8
100
AcDbLine
 10
-5.6379141892549
 20
-9.276526505392212
 30
0.0
 11
-5.483370462807897
 21
-8.509638473936092
 31
0.0
  0
LINE
  5
33F4
330
33E9
100
AcDbEntity
  8
APL Building
  6
Continuous
 62
     8
100
AcDbLine
 10
-5.097011146690476
 20
-9.276526505392212
 30
0.0
 11
-5.6379141892549
 21
-9.276526505392212
 31
0.0
  0
LINE
  5
33F5
330
33E9
100
AcDbEntity
  8
APL Building
  6
Continuous
 62
     8
100
AcDbLine
 10
-8.043648701266761
 20
-0.6925036610250573
 30
0.0
 11
-8.109582859185707
 21
-1.739490017258049
 31
0.0
  0
LINE
  5
33F6
330
33E9
100
AcDbEntity
  8
APL Building
  6
Continuous
 62
     8
100
AcDbLine
 10
-7.779912069590011
 20
-1.739490017258049
 30
0.0
 11
-8.043648701266761
 21
-0.6925036610250573
 31
0.0
  0
LINE
  5
33F7
330
33E9
100
AcDbEntity
  8
APL Building
  6
Continuous
 62
     8
100
AcDbLine
 10
-8.109582859185707
 20
-1.739490017258049
 30
0.0
 11
-7.779912069590011
 21
-1.739490017258049
 31
0.0
  0
LINE
  5
33F8
330
33E9
100
AcDbEntity
  8
APL Building
  6
Continuous
 62
     8
100
AcDbLine
 10
-12.66965374258973
 20
0.9997731161115552
 30
0.0
 11
-12.28329442647242
 21
2.073416360149167
 31
0.0
  0
LINE
  5
33F9
330
33E9
100
AcDbEntity
  8
APL Building
  6
Continuous
 62
     8
100
AcDbLine
 10
-12.59238187936626
 20
2.226793966440027
 30
0.0
 11
-12.66965374258973
 21
0.9997731161115552
 31
0.0
  0
LINE
  5
33FA
330
33E9
100
AcDbEntity
  8
APL Building
  6
Continuous
 62
     8
100
AcDbLine
 10
-12.28329442647242
 20
2.073416360149167
 30
0.0
 11
-12.59238187936626
 21
2.226793966440027
 31
0.0
  0
LINE
  5
33FB
330
33E9
100
AcDbEntity
  8
APL Building
  6
Continuous
 62
     8
100
AcDbLine
 10
-7.911780385428301
 20
5.3276678873126
 30
0.0
 11
-7.845846227509298
 21
4.738738061931599
 31
0.0
  0
LINE
  5
33FC
330
33E9
100
AcDbEntity
  8
APL Building
  6
Continuous
 62
     8
100
AcDbLine
 10
-8.10958285918582
 20
4.804174709196331
 30
0.0
 11
-7.911780385428301
 21
5.3276678873126
 31
0.0
  0
LINE
  5
33FD
330
33E9
100
AcDbEntity
  8
APL Building
  6
Continuous
 62
     8
100
AcDbLine
 10
-7.845846227509298
 20
4.738738061931599
 30
0.0
 11
-8.10958285918582
 21
4.804174709196331
 31
0.0
  0
LINE
  5
33FE
330
33E9
100
AcDbEntity
  8
APL Building
  6
Continuous
 62
     8
100
AcDbLine
 10
-3.078656847169611
 20
4.556548886416749
 30
0.0
 11
-2.71849755361984
 21
1.99488346144858
 31
0.0
  0
LINE
  5
33FF
330
33E9
100
AcDbEntity
  8
APL Building
  6
Continuous
 62
     8
100
AcDbLine
 10
-3.798975434268641
 20
1.756589003311773
 30
0.0
 11
-3.078656847169611
 21
4.556548886416749
 31
0.0
  0
LINE
  5
3400
330
33E9
100
AcDbEntity
  8
APL Building
  6
Continuous
 62
     8
100
AcDbLine
 10
-2.71849755361984
 20
1.99488346144858
 30
0.0
 11
-3.798975434268641
 21
1.756589003311773
 31
0.0
  0
LINE
  5
3401
330
33E9
100
AcDbEntity
  8
APL Building
  6
Continuous
 62
     8
100
AcDbLine
 10
10.94538877944239
 20
2.448455407672781
 30
0.0
 11
11.80253283239119
 21
0.4853559897364903
 31
0.0
  0
LINE
  5
3402
330
33E9
100
AcDbEntity
  8
APL Building
  6
Continuous
 62
     8
100
AcDbLine
 10
12.98934767493546
 20
0.616229284265728
 30
0.0
 11
10.94538877944239
 21
2.448455407672781
 31
0.0
  0
LINE
  5
3403
330
33E9
100
AcDbEntity
  8
APL Building
  6
Continuous
 62
     8
100
AcDbLine
 10
7.283962026765834
 20
-7.943105239299484
 30
0.0
 11
5.557685892155745
 21
-4.944917037360255
 31
0.0
  0
LINE
  5
3404
330
33E9
100
AcDbEntity
  8
APL Building
  6
Continuous
 62
     8
100
AcDbLine
 10
2.968271690240953
 20
-8.371417839576452
 30
0.0
 11
7.283962026765834
 21
-7.943105239299484
 31
0.0
  0
LINE
  5
3405
330
33E9
100
AcDbEntity
  8
APL Building
  6
Continuous
 62
     8
100
AcDbLine
 10
2.308014092036614
 20
-1.01968689734781
 30
0.0
 11
2.571750723713307
 21
-0.2998837774377989
 31
0.0
  0
LINE
  5
3406
330
33E9
100
AcDbEntity
  8
APL Building
  6
Continuous
 62
     8
100
AcDbLine
 10
3.231092302904528
 20
-0.9542502500835325
 30
0.0
 11
2.308014092036614
 21
-1.01968689734781
 31
0.0
  0
LINE
  5
3407
330
33E9
100
AcDbEntity
  8
APL Building
  6
Continuous
 62
     8
100
AcDbLine
 10
2.571750723713307
 20
-0.2998837774377989
 30
0.0
 11
3.231092302904528
 21
-0.9542502500835325
 31
0.0
  0
LINE
  5
3408
330
33E9
100
AcDbEntity
  8
APL Building
  6
Continuous
 62
     8
100
AcDbLine
 10
-2.118232064370658
 20
-5.868833657059667
 30
0.0
 11
-1.277860379421611
 21
-7.239026791345395
 31
0.0
  0
LINE
  5
3409
330
33E9
100
AcDbEntity
  8
APL Building
  6
Continuous
 62
     8
100
AcDbLine
 10
-0.6775948901725429
 20
-7.060305947743017
 30
0.0
 11
-2.118232064370658
 21
-5.868833657059667
 31
0.0
  0
LINE
  5
340A
330
33E9
100
AcDbEntity
  8
APL Building
  6
Continuous
 62
     8
100
AcDbLine
 10
-1.277860379421611
 20
-7.239026791345395
 30
0.0
 11
-0.6775948901725429
 21
-7.060305947743017
 31
0.0
  0
LINE
  5
340B
330
33E9
100
AcDbEntity
  8
APL Building
  6
Continuous
 62
     8
100
AcDbLine
 10
-1.938152417595858
 20
-3.247594617557069
 30
0.0
 11
-0.4975152433977997
 21
-2.651858472215508
 31
0.0
  0
LINE
  5
340C
330
33E9
100
AcDbEntity
  8
APL Building
  6
Continuous
 62
     8
100
AcDbLine
 10
5.557685892155745
 20
-4.944917037360255
 30
0.0
 11
2.968271690240953
 21
-8.371417839576452
 31
0.0
  0
LINE
  5
340D
330
33E9
100
AcDbEntity
  8
APL Building
  6
Continuous
 62
     8
100
AcDbLine
 10
12.21188621536441
 20
-5.135331135532169
 30
0.0
 11
11.98007062569411
 21
-5.595463954405659
 31
0.0
  0
LINE
  5
340E
330
33E9
100
AcDbEntity
  8
APL Building
  6
Continuous
 62
     8
100
AcDbLine
 10
11.5937113095768
 20
-5.288708741823256
 30
0.0
 11
12.21188621536441
 21
-5.135331135532169
 31
0.0
  0
LINE
  5
340F
330
33E9
100
AcDbEntity
  8
APL Building
  6
Continuous
 62
     8
100
AcDbLine
 10
11.98007062569411
 20
-5.595463954405659
 30
0.0
 11
11.5937113095768
 21
-5.288708741823256
 31
0.0
  0
LINE
  5
3410
330
33E9
100
AcDbEntity
  8
APL Building
  6
Continuous
 62
     8
100
AcDbLine
 10
11.80253283239119
 20
0.4853559897364903
 30
0.0
 11
12.98934767493546
 21
0.616229284265728
 31
0.0
  0
LINE
  5
3411
330
33E9
100
AcDbEntity
  8
APL Building
  6
Continuous
 62
     8
100
AcDbLine
 10
8.986679486740626
 20
-1.936975097805543
 30
0.0
 11
9.106732584590304
 21
-2.771005701283911
 31
0.0
  0
LINE
  5
3412
330
33E9
100
AcDbEntity
  8
APL Building
  6
Continuous
 62
     8
100
AcDbLine
 10
8.686546742115865
 20
-2.651858472215508
 30
0.0
 11
8.986679486740626
 21
-1.936975097805543
 31
0.0
  0
LINE
  5
3413
330
33E9
100
AcDbEntity
  8
APL Building
  6
Continuous
 62
     8
100
AcDbLine
 10
9.106732584590304
 20
-2.771005701283911
 30
0.0
 11
8.686546742115865
 21
-2.651858472215508
 31
0.0
  0
LINE
  5
3414
330
33E9
100
AcDbEntity
  8
APL Building
  6
Continuous
 62
     8
100
AcDbLine
 10
4.910332341677076
 20
6.619523170118782
 30
0.0
 11
6.205039442634529
 21
2.336397167348422
 31
0.0
  0
LINE
  5
3415
330
33E9
100
AcDbEntity
  8
APL Building
  6
Continuous
 62
     8
100
AcDbLine
 10
6.420823959460676
 20
7.047835770395749
 30
0.0
 11
4.910332341677076
 21
6.619523170118782
 31
0.0
  0
LINE
  5
3416
330
33E9
100
AcDbEntity
  8
APL Building
  6
Continuous
 62
     8
100
AcDbLine
 10
0.4665630053983705
 20
3.607192423060268
 30
0.0
 11
0.5438348686220707
 21
2.763615588459288
 31
0.0
  0
LINE
  5
3417
330
33E9
100
AcDbEntity
  8
APL Building
  6
Continuous
 62
     8
100
AcDbLine
 10
0.2347474157282363
 20
2.763615588458833
 30
0.0
 11
0.4665630053983705
 21
3.607192423060268
 31
0.0
  0
LINE
  5
3418
330
33E9
100
AcDbEntity
  8
APL Building
  6
Continuous
 62
     8
100
AcDbLine
 10
0.5438348686220707
 20
2.763615588459288
 30
0.0
 11
0.2347474157282363
 21
2.763615588458833
 31
0.0
  0
LINE
  5
3419
330
33E9
100
AcDbEntity
  8
APL Building
  6
Continuous
 62
     8
100
AcDbLine
 10
0.3959235123819553
 20
7.617950541571872
 30
0.0
 11
0.725594301977651
 21
7.159894010719881
 31
0.0
  0
LINE
  5
341A
330
33E9
100
AcDbEntity
  8
APL Building
  6
Continuous
 62
     8
100
AcDbLine
 10
0.3959235123819553
 20
7.029020716190643
 30
0.0
 11
0.3959235123819553
 21
7.617950541571872
 31
0.0
  0
LINE
  5
341B
330
33E9
100
AcDbEntity
  8
APL Building
  6
Continuous
 62
     8
100
AcDbLine
 10
0.725594301977651
 20
7.159894010719881
 30
0.0
 11
0.3959235123819553
 21
7.029020716190643
 31
0.0
  0
LINE
  5
341C
330
33E9
100
AcDbEntity
  8
APL Building
  6
Continuous
 62
     8
100
AcDbLine
 10
11.2073519934595
 20
7.058188564609963
 30
0.0
 11
11.28462385668297
 21
6.598055745736473
 31
0.0
  0
LINE
  5
341D
330
33E9
100
AcDbEntity
  8
APL Building
  6
Continuous
 62
     8
100
AcDbLine
 10
10.6664489508953
 20
6.674744548882017
 30
0.0
 11
11.2073519934595
 21
7.058188564609963
 31
0.0
  0
LINE
  5
341E
330
33E9
100
AcDbEntity
  8
APL Building
  6
Continuous
 62
     8
100
AcDbLine
 10
11.28462385668297
 20
6.598055745736473
 30
0.0
 11
10.6664489508953
 21
6.674744548882017
 31
0.0
  0
LINE
  5
341F
330
33E9
100
AcDbEntity
  8
APL Building
  6
Continuous
 62
     8
100
AcDbLine
 10
6.205039442634529
 20
2.336397167348422
 30
0.0
 11
6.420823959460676
 21
7.047835770395749
 31
0.0
  0
LINE
  5
3420
330
33E9
100
AcDbEntity
  8
APL Building
  6
Continuous
 62
     8
100
AcDbLine
 10
17.15728546166599
 20
-2.144467812855964
 30
0.0
 11
17.23455732488935
 21
-2.604600631729226
 31
0.0
  0
LINE
  5
3421
330
33E9
100
AcDbEntity
  8
APL Building
  6
Continuous
 62
     8
100
AcDbLine
 10
16.77092614554851
 20
-2.527911828583683
 30
0.0
 11
17.15728546166599
 21
-2.144467812855964
 31
0.0
  0
LINE
  5
3422
330
33E9
100
AcDbEntity
  8
APL Building
  6
Continuous
 62
     8
100
AcDbLine
 10
17.23455732488935
 20
-2.604600631729226
 30
0.0
 11
16.77092614554851
 21
-2.527911828583683
 31
0.0
  0
ENDBLK
  5
3424
330
33E9
100
AcDbEntity
  8
0
100
AcDbBlockEnd
  0
BLOCK
  5
3835
330
3832
100
AcDbEntity
  8
0
 62
     9
100
AcDbBlockBegin
  2
vantage black & white logo
 70
     0
 10
0.0
 20
0.0
 30
0.0
  3
vantage black & white logo
  1

  0
SPLINE
  5
3836
102
{ACAD_REACTORS
330
3866
102
}
330
3832
100
AcDbEntity
  8
APL Border
 62
     8
100
AcDbSpline
210
0.0
220
0.0
230
1.0
 70
     8
 71
     3
 72
    16
 73
    12
 74
    10
 42
0.0000000001
 43
0.0000000001
 44
0.0000000001
 40
0.0
 40
0.0
 40
0.0
 40
0.0
 40
0.1978277931646383
 40
0.361463118001824
 40
0.5540499897785108
 40
0.7796220130725381
 40
0.979106605438038
 40
1.222151590302332
 40
1.40748727220097
 40
1.607226525619232
 40
1.815049166761618
 40
1.815049166761618
 40
1.815049166761618
 40
1.815049166761618
 10
-6.679452083611295
 20
24.89125032803118
 30
0.0
 10
-6.685371732996674
 20
24.82559351525051
 30
0.0
 10
-6.696187882184245
 20
24.70562798418881
 30
0.0
 10
-6.721757155054659
 20
24.52229576436942
 30
0.0
 10
-6.768469983285688
 20
24.33480615160983
 30
0.0
 10
-6.86071972339088
 20
24.14153771241002
 30
0.0
 10
-7.051789745146238
 20
24.01851519430105
 30
0.0
 10
-7.233921808197289
 20
23.91285203345822
 30
0.0
 10
-7.443451931375125
 20
23.87675735439051
 30
0.0
 10
-7.641222718647389
 20
23.88093312949101
 30
0.0
 10
-7.776581895343343
 20
23.89281010788354
 30
0.0
 10
-7.845603808282817
 20
23.89886637823479
 30
0.0
 11
-6.679452083611295
 21
24.89125032803118
 31
0.0
 11
-6.698967886443824
 21
24.69438750983487
 31
0.0
 11
-6.7229873764864
 21
24.53252465544059
 31
0.0
 11
-6.771947617386814
 21
24.34626516442952
 31
0.0
 11
-6.880972027936735
 21
24.14879006322128
 31
0.0
 11
-7.039699899396197
 21
24.02796140183178
 31
0.0
 11
-7.25666078222261
 21
23.91842218515177
 31
0.0
 11
-7.438645676318543
 21
23.88333923622035
 31
0.0
 11
-7.638384704687155
 21
23.88303939885124
 31
0.0
 11
-7.845603808282817
 21
23.89886637823479
 31
0.0
1001
AcDbBlockRepETag
1070
     1
1071
      590
1005
3836
  0
SPLINE
  5
3837
102
{ACAD_REACTORS
330
3866
102
}
330
3832
100
AcDbEntity
  8
APL Border
 62
     8
100
AcDbSpline
210
0.0
220
0.0
230
1.0
 70
     8
 71
     3
 72
    11
 73
     7
 74
     5
 42
0.0000000001
 43
0.0000000001
 44
0.0000000001
 40
0.0
 40
0.0
 40
0.0
 40
0.0
 40
0.0680840587483313
 40
0.1752723045973904
 40
0.2784233367375334
 40
0.4826852714337078
 40
0.4826852714337078
 40
0.4826852714337078
 40
0.4826852714337078
 10
-7.465264214605014
 20
24.80065518845331
 30
0.0
 10
-7.468646137215252
 20
24.77808681972154
 30
0.0
 10
-7.47735239504952
 20
24.719987903891
 30
0.0
 10
-7.524447891091254
 20
24.63752792323728
 30
0.0
 10
-7.635129760920157
 20
24.54333837224584
 30
0.0
 10
-7.743266182308203
 20
24.55714977626708
 30
0.0
 10
-7.815117916056323
 20
24.56632682606847
 30
0.0
 11
-7.465264214605014
 21
24.80065518845331
 31
0.0
 11
-7.478569823577657
 21
24.73388393846117
 31
0.0
 11
-7.530473398252325
 21
24.64010046985295
 31
0.0
 11
-7.611072397370236
 21
24.57572705319073
 31
0.0
 11
-7.815117916056323
 21
24.56632682606847
 31
0.0
1001
AcDbBlockRepETag
1070
     1
1071
      593
1005
3837
  0
SPLINE
  5
3838
102
{ACAD_REACTORS
330
3866
102
}
330
3832
100
AcDbEntity
  8
APL Border
 62
     8
100
AcDbSpline
210
0.0
220
0.0
230
1.0
 70
     8
 71
     3
 72
    20
 73
    16
 74
     0
 42
0.0000000001
 43
0.0000000001
 40
0.0
 40
0.0
 40
0.0
 40
0.0
 40
0.1774120264923274
 40
0.3258093286713144
 40
0.4834060703451958
 40
0.6311237014699663
 40
0.811161917566129
 40
0.9605198197290178
 40
1.289502400757101
 40
1.459697744220917
 40
1.604754171475458
 40
1.794797311213428
 40
2.030760379210173
 40
2.301729078160567
 40
2.393267743077617
 40
2.393267743077617
 40
2.393267743077617
 40
2.393267743077617
 10
5.780015564168593
 20
26.87985997284487
 30
0.0
 10
5.839056126904296
 20
26.87337384475878
 30
0.0
 10
5.947481505327601
 20
26.86146235781404
 30
0.0
 10
6.098807931884806
 20
26.80185114122353
 30
0.0
 10
6.227972759762906
 20
26.72168911843352
 30
0.0
 10
6.347510602881385
 20
26.61140356622764
 30
0.0
 10
6.442310149474394
 20
26.48207375794227
 30
0.0
 10
6.536759215535255
 20
26.28338234239492
 30
0.0
 10
6.578465181725675
 20
26.06469589684353
 30
0.0
 10
6.553150099427256
 20
25.85079503063701
 30
0.0
 10
6.524121382020268
 20
25.68499989147718
 30
0.0
 10
6.464236525716046
 20
25.50199988960434
 30
0.0
 10
6.327150620479812
 20
25.31187331731421
 30
0.0
 10
6.179477266233362
 20
25.17172660684537
 30
0.0
 10
6.072729148555964
 20
25.11631253421805
 30
0.0
 10
6.045077525535504
 20
25.10350570839811
 30
0.0
1001
AcDbBlockRepETag
1070
     1
1071
      594
1005
3838
  0
SPLINE
  5
3839
102
{ACAD_REACTORS
330
3866
102
}
330
3832
100
AcDbEntity
  8
APL Border
 62
     8
100
AcDbSpline
210
0.0
220
0.0
230
1.0
 70
     8
 71
     3
 72
    17
 73
    13
 74
    11
 42
0.0000000001
 43
0.0000000001
 44
0.0000000001
 40
0.0
 40
0.0
 40
0.0
 40
0.0
 40
0.0975027714782739
 40
0.2117924486065133
 40
0.317678689712162
 40
0.4843960423119905
 40
0.5983164751676271
 40
0.7475672999664091
 40
0.8854036234346642
 40
1.040732215041493
 40
1.197661337444246
 40
1.243973057737614
 40
1.243973057737614
 40
1.243973057737614
 40
1.243973057737614
 10
5.580769717272147
 20
26.18861664944085
 30
0.0
 10
5.613502616848285
 20
26.1875961553427
 30
0.0
 10
5.684603990133519
 20
26.18537947021098
 30
0.0
 10
5.781919321100519
 20
26.1258482190374
 30
0.0
 10
5.832561030472812
 20
26.0011917111029
 30
0.0
 10
5.820388894698232
 20
25.86817511516085
 30
0.0
 10
5.765298612935113
 20
25.7349784962169
 30
0.0
 10
5.67725421213275
 20
25.62965962372396
 30
0.0
 10
5.546675458142082
 20
25.55725132865025
 30
0.0
 10
5.401760839408257
 20
25.51345804330555
 30
0.0
 10
5.281860155064943
 20
25.50729075876586
 30
0.0
 10
5.21427201805345
 20
25.50302975767877
 30
0.0
 10
5.198870965514487
 20
25.50205881951548
 30
0.0
 11
5.580769717272147
 21
26.18861664944085
 31
0.0
 11
5.67764963039707
 21
26.17761333726443
 31
0.0
 11
5.774085473546278
 21
26.11627608549865
 31
0.0
 11
5.81791994770495
 21
26.01988918322082
 31
0.0
 11
5.809153052873227
 21
25.85340249542595
 31
0.0
 11
5.765318578714499
 21
25.74825305939683
 31
0.0
 11
5.668882735565347
 21
25.63434108961652
 31
0.0
 11
5.55010046754208
 21
25.56441523695462
 31
0.0
 11
5.401316428353624
 21
25.51980267086244
 31
0.0
 11
5.245093480229996
 21
25.50493189624708
 31
0.0
 11
5.198870965514487
 21
25.50205881951548
 31
0.0
1001
AcDbBlockRepETag
1070
     1
1071
      595
1005
3839
  0
SPLINE
  5
383A
102
{ACAD_REACTORS
330
3870
330
3871
102
}
330
3832
100
AcDbEntity
  8
APL Border
 62
     8
100
AcDbSpline
210
0.0
220
0.0
230
1.0
 70
     8
 71
     3
 72
    25
 73
    21
 74
     0
 42
0.0000000001
 43
0.0000000001
 40
0.0289432764998855
 40
0.0289432764998855
 40
0.0289432764998855
 40
0.0289432764998855
 40
0.7134165119202287
 40
1.411731005087882
 40
2.041147618059464
 40
3.036171077105474
 40
3.957911241576911
 40
4.83592253147705
 40
5.676684481733094
 40
6.271141751551381
 40
6.974058201941041
 40
7.825808739104269
 40
8.5265481701528
 40
9.125733480364379
 40
9.891766509798275
 40
10.6767880070383
 40
11.66821110410527
 40
12.42950909475574
 40
13.09855121203093
 40
13.70132750762923
 40
13.70132750762923
 40
13.70132750762923
 40
13.70132750762923
 10
13.141643811855
 20
43.40554077871886
 30
0.0
 10
12.91988216430481
 20
43.459256627421
 30
0.0
 10
12.47168844867874
 20
43.5669624691983
 30
0.0
 10
11.80600758681791
 20
43.66484839798013
 30
0.0
 10
11.02988777388427
 20
43.6649333207477
 30
0.0
 10
10.1361516270939
 20
43.55263717791944
 30
0.0
 10
9.306733533720876
 20
43.19741938393827
 30
0.0
 10
8.599762003673276
 20
42.45478219212527
 30
0.0
 10
8.236440109363229
 20
41.77191325718488
 30
0.0
 10
8.073464067873601
 20
41.07996170309042
 30
0.0
 10
8.007035995439764
 20
40.3638923215899
 30
0.0
 10
7.98103501985804
 20
39.60493317412716
 30
0.0
 10
8.107710769833204
 20
38.92055182387923
 30
0.0
 10
8.442098079777224
 20
38.21445924826959
 30
0.0
 10
9.036296716232907
 20
37.66873436641545
 30
0.0
 10
9.909689132144507
 20
37.42421376773082
 30
0.0
 10
10.75775873959412
 20
37.35554609345542
 30
0.0
 10
11.56487972715851
 20
37.38454149767491
 30
0.0
 10
12.23983007222788
 20
37.44815687239099
 30
0.0
 10
12.66077873273661
 20
37.49837935861893
 30
0.0
 10
12.86026661033734
 20
37.52234731786496
 30
0.0
1001
AcDbBlockRepETag
1070
     1
1071
      596
1005
383A
  0
SPLINE
  5
383B
102
{ACAD_REACTORS
330
3870
330
3871
102
}
330
3832
100
AcDbEntity
  8
APL Border
 62
     8
100
AcDbSpline
210
0.0
220
0.0
230
1.0
 70
     8
 71
     3
 72
    19
 73
    15
 74
     0
 42
0.0000000001
 43
0.0000000001
 40
1.529304964685563
 40
1.529304964685563
 40
1.529304964685563
 40
1.529304965389289
 40
2.032016958536417
 40
2.556791262130423
 40
2.964493033520332
 40
3.465275586793771
 40
4.160836826595903
 40
4.71800698457321
 40
5.304510401169525
 40
5.733359288828643
 40
6.099728421126306
 40
6.422629926283571
 40
6.722447272622213
 40
6.957123473755099
 40
6.957123473755099
 40
6.957123473755099
 40
6.957123473755099
 10
11.64369617822672
 20
42.03297741382947
 30
0.0
 10
11.47589856643677
 20
42.04574754506741
 30
0.0
 10
11.13485165915975
 20
42.01473204050012
 30
0.0
 10
10.65553906793815
 20
41.91613810684326
 30
0.0
 10
10.23036575101369
 20
41.67654609785123
 30
0.0
 10
9.854221329784113
 20
41.27113304911427
 30
0.0
 10
9.717431528044755
 20
40.66388266631498
 30
0.0
 10
9.641062203095145
 20
40.05806431643046
 30
0.0
 10
9.716968816830743
 20
39.48770259248511
 30
0.0
 10
10.00680770225198
 20
39.09661486818469
 30
0.0
 10
10.3797311442331
 20
38.98358798973799
 30
0.0
 10
10.70216182646531
 20
38.92661434152812
 30
0.0
 10
10.99026249243499
 20
38.92783484269152
 30
0.0
 10
11.24302802126629
 20
38.95177692242413
 30
0.0
 10
11.33360452536307
 20
38.96406177273881
 30
0.0
1001
AcDbBlockRepETag
1070
     1
1071
      597
1005
383B
  0
LWPOLYLINE
  5
383C
102
{ACAD_REACTORS
330
386D
102
}
330
3832
100
AcDbEntity
  8
APL Border
 62
     8
100
AcDbPolyline
 90
       12
 70
     1
 43
0.0
 10
14.13627631352983
 20
43.61979184908029
 10
18.38986203356285
 20
43.61979184908029
 10
18.21321428445671
 20
41.9726305274507
 10
15.84058876400877
 20
41.9726305274507
 10
15.75340373709809
 20
41.15966911198297
 10
17.71732334684157
 20
41.15966911198297
 10
17.56969663746741
 20
39.57967635988449
 10
15.58395939694927
 20
39.57967635988449
 10
15.5052467299167
 20
38.84571591422678
 10
17.87787225036464
 20
38.84571591422678
 10
17.72077299807506
 20
37.38083558975206
 10
13.46718727804204
 20
37.38083558975206
1001
AcDbBlockRepETag
1070
     1
1071
      599
1005
383C
  0
LWPOLYLINE
  5
383D
102
{ACAD_REACTORS
330
3870
330
3871
102
}
330
3832
100
AcDbEntity
  8
APL Border
 62
     8
100
AcDbPolyline
 90
        2
 70
     0
 43
0.0
 10
13.141643811855
 20
43.40554077871887
 10
13.141643811855
 20
41.76981947766621
1001
AcDbBlockRepETag
1070
     1
1071
      600
1005
383D
  0
LWPOLYLINE
  5
383E
102
{ACAD_REACTORS
330
3870
330
3871
102
}
330
3832
100
AcDbEntity
  8
APL Border
 62
     8
100
AcDbPolyline
 90
        6
 70
     0
 43
0.0
 10
11.33358781659778
 20
38.96390597096916
 10
11.39962533929804
 20
39.57967635988449
 10
10.96889270630695
 20
39.57967635988449
 10
11.12639005748273
 20
41.04826877857415
 10
13.23839963312048
 20
41.04826877857415
 10
12.86026661033734
 20
37.52234731786496
1001
AcDbBlockRepETag
1070
     1
1071
      601
1005
383E
  0
LWPOLYLINE
  5
383F
102
{ACAD_REACTORS
330
386A
102
}
330
3832
100
AcDbEntity
  8
APL Border
 62
     8
100
AcDbPolyline
 90
        8
 70
     1
 43
0.0
 10
3.105743226874893
 20
43.61998313276061
 10
2.929095477768755
 20
41.97282181113101
 10
1.466301152475638
 20
41.97282181113101
 10
0.9741138955425029
 20
37.38339558452146
 10
-0.867968570535281
 20
37.38102687343238
 10
-0.3755272841536326
 20
41.97282181113101
 10
-1.891167362926863
 20
41.97282181113101
 10
-1.725754035154749
 20
43.61998313276061
1001
AcDbBlockRepETag
1070
     1
1071
      604
1005
383F
  0
LWPOLYLINE
  5
3840
102
{ACAD_REACTORS
330
3869
102
}
330
3832
100
AcDbEntity
  8
APL Border
 62
     8
100
AcDbPolyline
 90
       10
 70
     1
 43
0.0
 10
-4.228474015381578
 20
40.14164596649268
 10
-3.855464624526035
 20
43.61979184908029
 10
-2.181839912298443
 20
43.61979184908029
 10
-2.850928947786229
 20
37.38083558975206
 10
-5.032306754624556
 20
37.38083558975206
 10
-6.131920885667284
 20
40.6246666384634
 10
-6.479801476178323
 20
37.38083558975206
 10
-8.135186891292875
 20
37.38083558975206
 10
-7.466097855805088
 20
43.61979184908029
 10
-5.40751765387219
 20
43.61979184908029
1001
AcDbBlockRepETag
1070
     1
1071
      605
1005
3840
  0
LWPOLYLINE
  5
3841
102
{ACAD_REACTORS
330
3870
102
}
330
3832
100
AcDbEntity
  8
APL Border
  6
Continuous
 62
     8
100
AcDbPolyline
 90
        8
 70
     1
 43
0.0
 10
-8.449177928734428
 20
37.38083558975206
 10
-9.847253547555595
 20
43.61979184908029
 10
-12.02298966350147
 20
43.61979184908029
 10
-14.82679588919473
 20
37.38083558975206
 10
-12.95240022532295
 20
37.38083558975206
 10
-12.35252874042399
 20
38.71565392391761
 10
-10.64639685172309
 20
38.71565392391761
 10
-10.34727999772013
 20
37.38083558975206
1001
AcDbBlockRepETag
1070
     1
1071
      606
1005
3841
  0
LWPOLYLINE
  5
3842
330
3832
100
AcDbEntity
  8
APL Border
  6
Continuous
 62
     8
100
AcDbPolyline
 90
        7
 70
     1
 43
0.0
 10
-18.99614352503855
 20
43.61979184908029
 10
-17.7875751270476
 20
37.38083558975206
 10
-15.77022638070494
 20
37.38083558975206
 10
-12.96642015501169
 20
43.61979184908029
 10
-14.7664201550117
 20
43.61979184908029
 10
-16.54136876356097
 20
39.42215966960597
 10
-17.19614352503853
 20
43.61979184908029
1001
AcDbBlockRepETag
1070
     1
1071
      608
1005
3842
  0
LWPOLYLINE
  5
3843
102
{ACAD_REACTORS
330
3873
102
}
330
3832
100
AcDbEntity
  8
APL Border
  6
Continuous
 62
     8
100
AcDbPolyline
 90
        4
 70
     1
 43
0.0
 10
16.33779773177886
 20
35.29789574745093
 10
-16.33747952551644
 20
35.29789574745093
 10
-12.98884796421711
 20
29.49789574745094
 10
12.98916617047902
 20
29.49789574745094
1001
AcDbBlockRepETag
1070
     1
1071
      609
1005
3843
  0
LWPOLYLINE
  5
3844
102
{ACAD_REACTORS
330
3866
102
}
330
3832
100
AcDbEntity
  8
APL Border
 62
     8
100
AcDbPolyline
 90
        9
 70
     1
 43
0.0
 10
7.455500104221528
 20
25.00957443408062
 10
6.800478684667126
 20
26.87985997284487
 10
7.607536311785906
 20
26.87985997284487
 10
7.963471882016364
 20
25.86355557445326
 10
8.538893993587493
 20
26.87985997284487
 10
9.414203966725494
 20
26.87985997284487
 10
8.232331174709315
 20
25.00957443408062
 10
8.120338037129926
 20
23.87985997284487
 10
7.343506966642138
 20
23.87985997284487
1001
AcDbBlockRepETag
1070
     1
1071
      611
1005
3844
  0
LWPOLYLINE
  5
3845
102
{ACAD_REACTORS
330
3866
102
}
330
3832
100
AcDbEntity
  8
APL Border
 62
     8
100
AcDbPolyline
 90
        4
 70
     1
 43
0.0
 10
12.20974330707307
 20
28.14789574745094
 10
8.850698786449385
 20
22.32985997284487
 10
-8.850380580188158
 20
22.32985997284487
 10
-12.20942510081127
 20
28.14789574745094
1001
AcDbBlockRepETag
1070
     1
1071
      613
1005
3845
  0
LWPOLYLINE
  5
3846
102
{ACAD_REACTORS
330
3866
102
}
330
3832
100
AcDbEntity
  8
APL Border
 62
     8
100
AcDbPolyline
 90
        6
 70
     0
 43
0.0
 10
5.580769717272147
 20
26.18861664944085
 10
5.137953374950967
 20
26.18861664944085
 10
4.909077041159065
 20
23.87985997284487
 10
4.132245970671277
 20
23.87985997284487
 10
4.429648034880159
 20
26.87985997284487
 10
5.793677369303878
 20
26.87985997284487
1001
AcDbBlockRepETag
1070
     1
1071
      614
1005
3846
  0
LWPOLYLINE
  5
3847
102
{ACAD_REACTORS
330
3873
102
}
330
3832
100
AcDbEntity
  8
APL Border
  6
Continuous
 62
     8
100
AcDbPolyline
 90
        4
 70
     1
 43
0.0
 10
1.119422795136273
 20
34.02289574745092
 10
0.3425917246484857
 20
34.02289574745092
 10
0.0451896604396041
 20
31.02289574745093
 10
0.8220207309273916
 20
31.02289574745093
1001
AcDbBlockRepETag
1070
     1
1071
      620
1005
3847
  0
LWPOLYLINE
  5
3848
102
{ACAD_REACTORS
330
3866
102
}
330
3832
100
AcDbEntity
  8
APL Border
 62
     8
100
AcDbPolyline
 90
        4
 70
     0
 43
0.0
 10
6.045077525535504
 20
25.1035057083981
 10
6.339444173005233
 20
23.87985997284487
 10
5.532386545886623
 20
23.87985997284487
 10
5.142141867913778
 20
25.50205881951548
1001
AcDbBlockRepETag
1070
     1
1071
      621
1005
3848
  0
LWPOLYLINE
  5
3849
102
{ACAD_REACTORS
330
3867
102
}
330
3832
100
AcDbEntity
  8
APL Border
 62
     8
100
AcDbPolyline
 90
        4
 70
     1
 43
0.0
 10
0.0001591031300165
 20
7.000275566930961
 10
3.563095122801513
 20
13.17146177711931
 10
-0.9450856774407441
 20
20.97985997284487
 10
-8.070957716782203
 20
20.97985997284487
1001
AcDbBlockRepETag
1070
     1
1071
      622
1005
3849
  0
LWPOLYLINE
  5
384A
102
{ACAD_REACTORS
330
386B
102
}
330
3832
100
AcDbEntity
  8
APL Border
 62
     8
100
AcDbPolyline
 90
        3
 70
     1
 43
0.0
 10
0.8484489512626112
 20
20.97985997284487
 10
4.459862437153191
 20
14.72470832814346
 10
8.071275923043373
 20
20.97985997284487
1001
AcDbBlockRepETag
1070
     1
1071
      623
1005
384A
  0
LWPOLYLINE
  5
384B
102
{ACAD_REACTORS
330
3866
102
}
330
3832
100
AcDbEntity
  8
APL Border
 62
     8
100
AcDbPolyline
 90
        4
 70
     0
 43
0.0
 10
-7.465264214605014
 20
24.80065518845331
 10
-7.259144283007998
 20
26.87985997284487
 10
-6.48231321252021
 20
26.87985997284487
 10
-6.679452083611295
 20
24.89125032803118
1001
AcDbBlockRepETag
1070
     1
1071
      626
1005
384B
  0
LWPOLYLINE
  5
384C
102
{ACAD_REACTORS
330
3866
102
}
330
3832
100
AcDbEntity
  8
APL Border
 62
     8
100
AcDbPolyline
 90
        4
 70
     0
 43
0.0
 10
-7.845603808282817
 20
23.89886637823479
 10
-8.399876560405061
 20
23.98304774476413
 10
-8.399876560405061
 20
24.64579492155148
 10
-7.81511791605564
 20
24.56632682606838
1001
AcDbBlockRepETag
1070
     1
1071
      627
1005
384C
  0
LWPOLYLINE
  5
384D
102
{ACAD_REACTORS
330
3873
102
}
330
3832
100
AcDbEntity
  8
APL Border
  6
Continuous
 62
     8
100
AcDbPolyline
 90
        6
 70
     1
 43
0.0
 10
-7.549934049473819
 20
34.02289574745092
 10
-8.326765119961606
 20
34.02289574745092
 10
-8.624167184170488
 20
31.02289574745093
 10
-6.770246795158442
 20
31.02289574745093
 10
-6.700109532938455
 20
31.73039516316516
 10
-7.777198851462713
 20
31.73039516316516
1001
AcDbBlockRepETag
1070
     1
1071
      628
1005
384D
  0
LWPOLYLINE
  5
384E
102
{ACAD_REACTORS
330
3873
102
}
330
3832
100
AcDbEntity
  8
APL Border
  6
Continuous
 62
     8
100
AcDbPolyline
 90
        3
 70
     1
 43
0.0
 10
-10.14693849009504
 20
33.12550842600547
 10
-10.00044093617224
 20
32.51653621849665
 10
-10.45444607654239
 20
32.51653621849665
1001
AcDbBlockRepETag
1070
     1
1071
      629
1005
384E
  0
LWPOLYLINE
  5
384F
102
{ACAD_REACTORS
330
3873
102
}
330
3832
100
AcDbEntity
  8
APL Border
  6
Continuous
 62
     8
100
AcDbPolyline
 90
        8
 70
     1
 43
0.0
 10
-8.834065309397374
 20
31.02289574745093
 10
-9.555761072109191
 20
34.02289574745092
 10
-10.50084997043805
 20
34.02289574745092
 10
-12.01573480092304
 20
31.02289574745093
 10
-11.20867717380426
 20
31.02289574745093
 10
-10.74455961985978
 20
31.94201027933759
 10
-9.862229957552528
 20
31.94201027933759
 10
-9.641122936515984
 20
31.02289574745093
1001
AcDbBlockRepETag
1070
     1
1071
      630
1005
384F
  0
LWPOLYLINE
  5
3850
102
{ACAD_REACTORS
330
386C
102
}
330
3832
100
AcDbEntity
  8
APL Border
 62
     8
100
AcDbPolyline
 90
        3
 70
     1
 43
0.0
 10
0.0000000003145431
 20
4.000000000000009
 10
23.60256143704041
 20
44.88083558975217
 10
-23.60256142783933
 20
44.88083558975206
1001
AcDbBlockRepETag
1070
     1
1071
      631
1005
3850
  0
LWPOLYLINE
  5
3851
102
{ACAD_REACTORS
330
386C
102
}
330
3832
100
AcDbEntity
  8
APL Border
 62
     8
100
AcDbPolyline
 90
        3
 70
     1
 43
0.0
 10
27.06666305249243
 20
46.88083558975206
 10
-27.06666304266244
 20
46.88083558975206
 10
-0.0000000000000284
 20
0.0000000000000238
1001
AcDbBlockRepETag
1070
     1
1071
      703
1005
3851
  0
LWPOLYLINE
  5
3852
102
{ACAD_REACTORS
330
3870
330
3872
102
}
330
3832
100
AcDbEntity
  8
APL Border
  6
Continuous
 62
     8
100
AcDbPolyline
 90
        8
 70
     1
 43
0.0
 10
7.980630193374565
 20
37.38083558975206
 10
6.582554574553398
 20
43.61979184908029
 10
4.406818458607517
 20
43.61979184908029
 10
1.603012232914267
 20
37.38083558975206
 10
3.477407896786047
 20
37.38083558975206
 10
4.077279381685002
 20
38.71565392391761
 10
5.783411270385897
 20
38.71565392391761
 10
6.082528124388858
 20
37.38083558975206
1001
AcDbBlockRepETag
1070
     1
1071
      760
1005
3852
  0
LWPOLYLINE
  5
3853
102
{ACAD_REACTORS
330
3870
330
3872
102
}
330
3832
100
AcDbEntity
  8
APL Border
  6
Continuous
 62
     8
100
AcDbPolyline
 90
        3
 70
     1
 43
0.0
 10
5.206046831612667
 20
41.69367581194667
 10
5.552066120962537
 20
40.14955389030274
 10
4.512113667606024
 20
40.14955389030274
1001
AcDbBlockRepETag
1070
     1
1071
      761
1005
3853
  0
LWPOLYLINE
  5
3854
102
{ACAD_REACTORS
330
3873
102
}
330
3832
100
AcDbEntity
  8
APL Border
  6
Continuous
 62
     8
100
AcDbPolyline
 90
        4
 70
     1
 43
0.0
 10
5.615530392135354
 20
34.02289574745092
 10
4.838699321647567
 20
34.02289574745092
 10
4.541297257438685
 20
31.02289574745093
 10
5.318128327926473
 20
31.02289574745093
1001
AcDbBlockRepETag
1070
     1
1071
      785
1005
3854
  0
LWPOLYLINE
  5
3855
102
{ACAD_REACTORS
330
3873
102
}
330
3832
100
AcDbEntity
  8
APL Border
 62
     8
100
AcDbPolyline
 90
       13
 70
     0
 43
0.0
 10
-5.535628094882099
 20
32.1870929174454
 10
-5.353790768486447
 20
34.02289574745092
 10
-6.130425112774389
 20
34.0248801943346
 10
-6.333826921263238
 20
31.9730940808461
 42
0.1695250701542156
 10
-6.106840682758871
 20
31.39301551086222
 42
0.0826087127293405
 10
-5.813961912619959
 20
31.13108995311734
 42
0.1017056431856583
 10
-5.510404689928634
 20
31.02488019433462
 10
-4.760057203160528
 20
31.0248801943346
 42
0.1918846087154957
 10
-4.136172756560569
 20
31.41919793838074
 42
0.1021851328841131
 10
-3.889225876952792
 20
31.97309408084612
 10
-3.685824068463887
 20
34.0248801943346
 10
-4.462655138951674
 20
34.0248801943346
 10
-4.65073703420694
 20
32.12763147393075
1001
AcDbBlockRepETag
1070
     1
1071
      866
1005
3855
  0
SPLINE
  5
3856
102
{ACAD_REACTORS
330
3873
102
}
330
3832
100
AcDbEntity
  8
APL Border
 62
     8
100
AcDbSpline
210
0.0
220
0.0
230
1.0
 70
     8
 71
     3
 72
    24
 73
    20
 74
    18
 42
0.0000000001
 43
0.0000000001
 44
0.0000000001
 40
0.0
 40
0.0
 40
0.0
 40
0.0
 40
0.1612668085855933
 40
0.2532303870616441
 40
0.3214574742553387
 40
0.4101806452459026
 40
0.5031588697521256
 40
0.5664511009171887
 40
0.624871878778038
 40
0.6731644290699905
 40
0.7797386132933425
 40
0.9206747739903356
 40
1.025058962643435
 40
1.116412352300609
 40
1.212929457806147
 40
1.276240530363035
 40
1.339961572016457
 40
1.386280507025952
 40
1.435584820291647
 40
1.435584820291647
 40
1.435584820291647
 40
1.435584820291647
 10
-5.535628094882099
 20
32.1870929174454
 30
0.0
 10
-5.53213414748617
 20
32.13312332644234
 30
0.0
 10
-5.526647751003197
 20
32.04837718097616
 30
0.0
 10
-5.488860432547518
 20
31.94683424540268
 30
0.0
 10
-5.447171648840961
 20
31.8753242559261
 30
0.0
 10
-5.395818187958767
 20
31.80737001333622
 30
0.0
 10
-5.320761662408248
 20
31.77062767698265
 30
0.0
 10
-5.254477128417399
 20
31.74466351916423
 30
0.0
 10
-5.200112096792143
 20
31.72723210184819
 30
0.0
 10
-5.128888988289486
 20
31.72198763189771
 30
0.0
 10
-5.030042811850907
 20
31.72786870372271
 30
0.0
 10
-4.915707066470194
 20
31.75812586881066
 30
0.0
 10
-4.815771266393483
 20
31.81405298527761
 30
0.0
 10
-4.754740567305573
 20
31.89193427605802
 30
0.0
 10
-4.714673995441981
 20
31.96546823314959
 30
0.0
 10
-4.683526695854578
 20
32.03313813212702
 30
0.0
 10
-4.662006183068958
 20
32.08703079743258
 30
0.0
 10
-4.651792807669443
 20
32.13930455656534
 30
0.0
 10
-4.647206914869654
 20
32.17083533130903
 30
0.0
 10
-4.644842382192905
 20
32.1870929174454
 30
0.0
 11
-5.535628094882099
 21
32.1870929174454
 31
0.0
 11
-5.515298846223288
 21
32.02711258990369
 31
0.0
 11
-5.483433995220536
 21
31.94084596230824
 31
0.0
 11
-5.44947766231354
 21
31.88166908437061
 31
0.0
 11
-5.392321718875223
 21
31.8138089399536
 31
0.0
 11
-5.311535231450477
 21
31.76778184269665
 31
0.0
 11
-5.252609732475718
 21
31.74468006578604
 31
0.0
 11
-5.196420818688864
 21
31.72868652792477
 31
0.0
 11
-5.148347479287053
 21
31.72409039341204
 31
0.0
 11
-5.041949649235618
 21
31.73021889267523
 31
0.0
 11
-4.906104524581394
 21
31.76775692005663
 31
0.0
 11
-4.816802280674096
 21
31.82180475140893
 31
0.0
 11
-4.758009512288197
 21
31.89172507883507
 31
0.0
 11
-4.710553499371997
 21
31.97576958188711
 31
0.0
 11
-4.684063009443377
 21
32.03327215445256
 31
0.0
 11
-4.662061522518769
 21
32.09307437617135
 31
0.0
 11
-4.652346246099511
 21
32.13836297456555
 31
0.0
 11
-4.644842382192905
 21
32.1870929174454
 31
0.0
1001
AcDbBlockRepETag
1070
     1
1071
      827
1005
3856
  0
LWPOLYLINE
  5
3857
102
{ACAD_REACTORS
330
3873
102
}
330
3832
100
AcDbEntity
  8
APL Border
 62
     8
100
AcDbPolyline
 90
       13
 70
     0
 43
0.0
 10
6.787553510813182
 20
32.18510847056172
 10
6.969390837208834
 20
34.02091130056725
 10
6.192756492920892
 20
34.02289574745092
 10
5.989354684432043
 20
31.97110963396243
 42
0.1695250701542156
 10
6.21634092293641
 20
31.39103106397854
 42
0.0826087127293405
 10
6.509219693075323
 20
31.12910550623367
 42
0.1017056431856583
 10
6.812776915766647
 20
31.02289574745094
 10
7.563124402534754
 20
31.02289574745093
 42
0.1918846087154957
 10
8.187008849134713
 20
31.41721349149707
 42
0.1021851328841131
 10
8.433955728742489
 20
31.97110963396244
 10
8.637357537231395
 20
34.02289574745092
 10
7.860526466743607
 20
34.02289574745092
 10
7.672444571488341
 20
32.12564702704707
1001
AcDbBlockRepETag
1070
     1
1071
      837
1005
3857
  0
LWPOLYLINE
  5
3858
102
{ACAD_REACTORS
330
3873
102
}
330
3832
100
AcDbEntity
  8
APL Border
  6
Continuous
 62
     8
100
AcDbPolyline
 90
       13
 70
     1
 43
0.0
 10
-1.295012624591635
 20
34.02807364104484
 10
-0.1975458970834154
 20
34.0280551402308
 10
-0.4949479612922972
 20
31.0280551402308
 10
-1.115886909891884
 20
31.0280551402308
 10
-0.9222174129992311
 20
32.98166797820307
 10
-1.611942464131544
 20
31.0280551402308
 10
-2.344230471214956
 20
31.0280551402308
 10
-2.63016252924163
 20
32.98166797820306
 10
-2.823832026134283
 20
31.0280551402308
 10
-3.44477097473387
 20
31.0280551402308
 10
-3.147349004861581
 20
34.02825593571061
 10
-2.047349004861558
 20
34.02825593571061
 10
-1.8272453185659
 20
32.52441131541936
1001
AcDbBlockRepETag
1070
     1
1071
      867
1005
3858
  0
LWPOLYLINE
  5
3859
102
{ACAD_REACTORS
330
3873
102
}
330
3832
100
AcDbEntity
  8
APL Border
  6
Continuous
 62
     8
100
AcDbPolyline
 90
       10
 70
     1
 43
0.0
 10
1.724974710806094
 20
34.02289574745092
 10
1.427552740933805
 20
31.02269495197112
 10
2.048491689533392
 20
31.02269495197112
 10
2.231899581960561
 20
32.87279534971117
 10
3.051434648859952
 20
31.02269495197112
 10
3.902826396438257
 20
31.02269495197112
 10
4.200228460647139
 20
34.02269495197112
 10
3.580266230192904
 20
34.02269495197112
 10
3.395920304875374
 20
32.17298478610545
 10
2.576558098165463
 20
34.02269495197112
1001
AcDbBlockRepETag
1070
     1
1071
      616
1005
3859
  0
LWPOLYLINE
  5
385A
102
{ACAD_REACTORS
330
3873
102
}
330
3832
100
AcDbEntity
  8
APL Border
  6
Continuous
 62
     8
100
AcDbPolyline
 90
       13
 70
     1
 43
0.0
 10
11.01183437133605
 20
34.02271345278515
 10
12.10930109884427
 20
34.02269495197111
 10
11.81189903463539
 20
31.02269495197111
 10
11.1909600860358
 20
31.02269495197111
 10
11.38462958292845
 20
32.97630778994339
 10
10.69490453179614
 20
31.02269495197111
 10
9.962616524712728
 20
31.02269495197111
 10
9.676684466686054
 20
32.97630778994338
 10
9.483014969793401
 20
31.02269495197111
 10
8.862076021193814
 20
31.02269495197111
 10
9.159497991066103
 20
34.02289574745092
 10
10.25949799106612
 20
34.02289574745092
 10
10.47960167736178
 20
32.51905112715967
1001
AcDbBlockRepETag
1070
     1
1071
      847
1005
385A
  0
SPLINE
  5
385B
102
{ACAD_REACTORS
330
3873
102
}
330
3832
100
AcDbEntity
  8
APL Border
 62
     8
100
AcDbSpline
210
0.0
220
0.0
230
1.0
 70
     8
 71
     3
 72
    24
 73
    20
 74
    18
 42
0.0000000001
 43
0.0000000001
 44
0.0000000001
 40
0.0
 40
0.0
 40
0.0
 40
0.0
 40
0.1612668085856004
 40
0.2532303870616512
 40
0.3214574742553458
 40
0.4101806452458731
 40
0.5031588697521455
 40
0.5664511009172086
 40
0.6248718787780579
 40
0.6731644290699537
 40
0.7797386132933625
 40
0.9206747739903555
 40
1.025058962643406
 40
1.116412352300617
 40
1.212929457806155
 40
1.276240530363043
 40
1.339961572016455
 40
1.386280507025956
 40
1.435584820291643
 40
1.435584820291643
 40
1.435584820291643
 40
1.435584820291643
 10
6.787553510813182
 20
32.18510847056172
 30
0.0
 10
6.791047458209138
 20
32.13113887955867
 30
0.0
 10
6.796533854692151
 20
32.04639273409249
 30
0.0
 10
6.834321173147815
 20
31.94484979851901
 30
0.0
 10
6.876009956854381
 20
31.87333980904243
 30
0.0
 10
6.927363417736518
 20
31.80538556645249
 30
0.0
 10
7.002419943287081
 20
31.76864323009899
 30
0.0
 10
7.068704477277941
 20
31.74267907228054
 30
0.0
 10
7.123069508903178
 20
31.72524765496453
 30
0.0
 10
7.194292617405833
 20
31.72000318501402
 30
0.0
 10
7.293138793844411
 20
31.72588425683905
 30
0.0
 10
7.407474539225143
 20
31.75614142192696
 30
0.0
 10
7.507410339301799
 20
31.81206853839397
 30
0.0
 10
7.568441038389779
 20
31.88994982917432
 30
0.0
 10
7.608507610253345
 20
31.96348378626594
 30
0.0
 10
7.639654909840773
 20
32.03115368524333
 30
0.0
 10
7.661175422626328
 20
32.08504635054892
 30
0.0
 10
7.671388798025919
 20
32.13732010968165
 30
0.0
 10
7.675974690825655
 20
32.16885088442535
 30
0.0
 10
7.678339223502376
 20
32.18510847056172
 30
0.0
 11
6.787553510813182
 21
32.18510847056172
 31
0.0
 11
6.80788275947205
 21
32.02512814302002
 31
0.0
 11
6.839747610474802
 21
31.93886151542456
 31
0.0
 11
6.873703943381798
 21
31.87968463748693
 31
0.0
 11
6.930859886820059
 21
31.81182449306993
 31
0.0
 11
7.011646374244861
 21
31.76579739581298
 31
0.0
 11
7.07057187321962
 21
31.74269561890237
 31
0.0
 11
7.126760787006475
 21
31.72670208104109
 31
0.0
 11
7.174834126408228
 21
31.72210594652836
 31
0.0
 11
7.28123195645972
 21
31.72823444579155
 31
0.0
 11
7.417077081113944
 21
31.76577247317295
 31
0.0
 11
7.506379325021185
 21
31.81982030452526
 31
0.0
 11
7.565172093407142
 21
31.88974063195139
 31
0.0
 11
7.612628106323342
 21
31.97378513500343
 31
0.0
 11
7.639118596251961
 21
32.03128770756889
 31
0.0
 11
7.661120083176541
 21
32.09108992928768
 31
0.0
 11
7.670835359595827
 21
32.13637852768188
 31
0.0
 11
7.678339223502376
 21
32.18510847056172
 31
0.0
1001
AcDbBlockRepETag
1070
     1
1071
      848
1005
385B
  0
LWPOLYLINE
  5
385C
102
{ACAD_REACTORS
330
3866
102
}
330
3832
100
AcDbEntity
  8
APL Border
  6
Continuous
 62
     8
100
AcDbPolyline
 90
        4
 70
     1
 43
0.0
 10
-1.87552020613694
 20
26.87985997284487
 10
-2.652351276624727
 20
26.87985997284487
 10
-2.949753340833609
 20
23.87985997284487
 10
-2.172922270345821
 20
23.87985997284487
1001
AcDbBlockRepETag
1070
     1
1071
      851
1005
385C
  0
LWPOLYLINE
  5
385D
102
{ACAD_REACTORS
330
3866
102
}
330
3832
100
AcDbEntity
  8
APL Border
  6
Continuous
 62
     8
100
AcDbPolyline
 90
       10
 70
     1
 43
0.0
 10
-1.269968290467119
 20
26.87985997284487
 10
-1.567390260339408
 20
23.87965917736506
 10
-0.9464513117398212
 20
23.87965917736506
 10
-0.7630434193126519
 20
25.72975957510511
 10
0.0564916475867392
 20
23.87965917736506
 10
0.9078833951650437
 20
23.87965917736506
 10
1.205285459373925
 20
26.87965917736506
 10
0.5853232289196911
 20
26.87965917736506
 10
0.4009773036021614
 20
25.0299490114994
 10
-0.41838490310775
 20
26.87965917736506
1001
AcDbBlockRepETag
1070
     1
1071
      852
1005
385D
  0
LWPOLYLINE
  5
385E
102
{ACAD_REACTORS
330
3866
102
}
330
3832
100
AcDbEntity
  8
APL Border
 62
     8
100
AcDbPolyline
 90
       13
 70
     0
 43
0.0
 10
1.882971499788112
 20
26.87985997284487
 10
3.847979515363789
 20
26.87985997284487
 10
3.788499102522024
 20
26.27985997284487
 10
2.600322157434135
 20
26.27985997284487
 10
2.540562294183217
 20
25.67704105755032
 10
3.542578834455781
 20
25.67704105755032
 10
3.476410183919
 20
25.07985997284487
 10
2.474393643646379
 20
25.07985997284487
 10
2.421932428393546
 20
24.48037956726917
 10
3.610109373481435
 20
24.48037956726917
 10
3.550577451154907
 20
23.87985997284487
 10
1.58556943557923
 20
23.87985997284487
 10
1.882971499788112
 20
26.87985997284487
1001
AcDbBlockRepETag
1070
     1
1071
      864
1005
385E
  0
LINE
  5
385F
102
{ACAD_REACTORS
330
3866
102
}
330
3832
100
AcDbEntity
  8
APL Border
 62
     8
100
AcDbLine
 10
5.198870965514487
 20
25.50205881951548
 30
0.0
 11
5.142141867913778
 21
25.50205881951548
 31
0.0
1001
AcDbBlockRepETag
1070
     1
1071
      865
1005
385F
  0
SPLINE
  5
3860
102
{ACAD_REACTORS
330
3866
102
}
330
3832
100
AcDbEntity
  8
APL Border
 62
     8
100
AcDbSpline
210
0.0
220
0.0
230
1.0
 70
     8
 71
     3
 72
    25
 73
    21
 74
     0
 42
0.0000000001
 43
0.0000000001
 40
0.0
 40
0.0
 40
0.0
 40
0.0
 40
0.3463130802699203
 40
0.6043703055549736
 40
0.8524756959462802
 40
1.099102870182333
 40
1.318598063912852
 40
1.521064627602771
 40
1.694788988362445
 40
1.912615757663666
 40
2.142780600046976
 40
2.483378398179008
 40
2.873129106540456
 40
3.09179617846886
 40
3.322387155839943
 40
3.509181810940893
 40
3.69147909649244
 40
3.927844502409028
 40
4.143063657146388
 40
4.406491840702669
 40
4.406491840702669
 40
4.406491840702669
 40
4.406491840702669
 10
-5.114032196843737
 20
23.8798599728377
 30
0.0
 10
-5.228982970363915
 20
23.89503832123493
 30
0.0
 10
-5.429589987754155
 20
23.92152690506636
 30
0.0
 10
-5.693675021857103
 20
24.03567408988205
 30
0.0
 10
-5.892941488864977
 20
24.19306688135278
 30
0.0
 10
-6.036314150572081
 20
24.38541826526996
 30
0.0
 10
-6.137502326421099
 20
24.58575647986304
 30
0.0
 10
-6.184089306330008
 20
24.77995730666768
 30
0.0
 10
-6.209030826709039
 20
24.97670983726675
 30
0.0
 10
-6.206060891535827
 20
25.18442176502657
 30
0.0
 10
-6.186178297010457
 20
25.44676950423098
 30
0.0
 10
-6.128537036390639
 20
25.76177491648128
 30
0.0
 10
-6.024273636684796
 20
26.06592307272473
 30
0.0
 10
-5.858617591962229
 20
26.29271170654482
 30
0.0
 10
-5.725334295882049
 20
26.45803039682342
 30
0.0
 10
-5.575727893531166
 20
26.59168695454355
 30
0.0
 10
-5.409633372236157
 20
26.70740493083671
 30
0.0
 10
-5.217340570729675
 20
26.79721770551459
 30
0.0
 10
-4.988026372094168
 20
26.86731869684436
 30
0.0
 10
-4.849424991220388
 20
26.87777876054341
 30
0.0
 10
-4.7645039250757
 20
26.87985997283595
 30
0.0
1001
AcDbBlockRepETag
1070
     1
1071
      875
1005
3860
  0
ELLIPSE
  5
3861
102
{ACAD_REACTORS
330
3865
330
3866
102
}
330
3832
100
AcDbEntity
  8
APL Border
 62
     8
100
AcDbEllipse
 10
-4.728528852722632
 20
25.3825150979867
 30
0.0
 11
-0.2732326585474372
 21
-0.8283682112856686
 31
0.0
210
0.0
220
0.0
230
-1.0
 40
0.767138872147242
 41
0.0
 42
6.283185307179586
1001
AcDbBlockRepETag
1070
     1
1071
      876
1005
3861
  0
SPLINE
  5
3862
102
{ACAD_REACTORS
330
3866
102
}
330
3832
100
AcDbEntity
  8
APL Border
 62
     8
100
AcDbSpline
210
0.0
220
0.0
230
1.0
 70
     8
 71
     3
 72
    26
 73
    22
 74
     0
 42
0.0000000001
 43
0.0000000001
 40
4.60284491300692
 40
4.60284491300692
 40
4.60284491300692
 40
4.60284491300692
 40
4.695921259854779
 40
4.963507654731998
 40
5.182979392648435
 40
5.397234555269768
 40
5.619529682274728
 40
5.869260387557257
 40
6.093250787730498
 40
6.263427758207029
 40
6.582064557968705
 40
6.800458868269094
 40
7.179401531729983
 40
7.575889850719137
 40
7.787844664578662
 40
8.01909420716162
 40
8.205730502580088
 40
8.387453763945252
 40
8.621856230932909
 40
8.833419194479944
 40
8.988019761194074
 40
8.988019761194074
 40
8.988019761194074
 40
8.988019761194074
 10
-4.486699891621668
 20
26.8798599728377
 30
0.0
 10
-4.440001835107608
 20
26.87954742494388
 30
0.0
 10
-4.335540249228728
 20
26.87475925711838
 30
0.0
 10
-4.164200665084621
 20
26.85307202884131
 30
0.0
 10
-3.96932086400659
 20
26.77880589501945
 30
0.0
 10
-3.766465201232762
 20
26.6658847706859
 30
0.0
 10
-3.60114437794968
 20
26.50570040783856
 30
0.0
 10
-3.471205788265336
 20
26.31143584383913
 30
0.0
 10
-3.381388817883674
 20
26.11392472080339
 30
0.0
 10
-3.317144182132551
 20
25.88552622199355
 30
0.0
 10
-3.281793375658168
 20
25.65006475492956
 30
0.0
 10
-3.30137826591374
 20
25.34538614523087
 30
0.0
 10
-3.327064239225308
 20
25.0112478652753
 30
0.0
 10
-3.471288581215731
 20
24.71021445059323
 30
0.0
 10
-3.60460091530777
 20
24.4641890220082
 30
0.0
 10
-3.737092402415015
 20
24.29954990084814
 30
0.0
 10
-3.882945983371143
 20
24.16225529150343
 30
0.0
 10
-4.046861838463826
 20
24.04508050911121
 30
0.0
 10
-4.233796525969012
 20
23.94884265716423
 30
0.0
 10
-4.427631511903911
 20
23.89220734010023
 30
0.0
 10
-4.549580407823555
 20
23.882511578974
 30
0.0
 10
-4.601116794093542
 20
23.87985997285202
 30
0.0
1001
AcDbBlockRepETag
1070
     1
1071
      877
1005
3862
  0
LWPOLYLINE
  5
3863
102
{ACAD_REACTORS
330
3866
102
}
330
3832
100
AcDbEntity
  8
APL Border
 62
     8
100
AcDbPolyline
 90
        2
 70
     0
 43
0.0
 10
-4.764503925211641
 20
26.8798599728377
 10
-4.486699891621924
 20
26.8798599728377
1001
AcDbBlockRepETag
1070
     1
1071
      878
1005
3863
  0
LWPOLYLINE
  5
3864
102
{ACAD_REACTORS
330
3866
102
}
330
3832
100
AcDbEntity
  8
APL Border
 62
     8
100
AcDbPolyline
 90
        2
 70
     0
 43
0.0
 10
-5.114032196843737
 20
23.8798599728377
 10
-4.601116794093513
 20
23.87985997285202
1001
AcDbBlockRepETag
1070
     1
1071
      879
1005
3864
  0
HATCH
  5
3865
330
3832
100
AcDbEntity
  8
APL Border
 62
     8
100
AcDbHatch
 10
0.0
 20
0.0
 30
0.0
210
0.0
220
0.0
230
1.0
  2
SOLID
 70
     1
 71
     1
 91
        1
 92
        5
 93
        1
 72
     3
 10
-4.728528852722632
 20
25.3825150979867
 11
-0.2732326585474372
 21
-0.8283682112856686
 40
0.767138872147242
 50
0.0
 51
360.0
 73
     0
 97
        1
330
3861
 75
     0
 76
     1
 47
0.0172809346375552
 98
        1
 10
-4.520972790815363
 20
25.15086651129009
1001
ACAD
1010
0.0
1020
0.0
1030
0.0
1001
AcDbBlockRepETag
1070
     1
1071
      880
1005
3865
  0
HATCH
  5
3866
330
3832
100
AcDbEntity
  8
APL Border
 62
     8
100
AcDbHatch
 10
0.0
 20
0.0
 30
0.0
210
0.0
220
0.0
230
1.0
  2
SOLID
 70
     1
 71
     1
 91
        9
 92
        7
 72
     0
 73
     1
 93
        4
 10
-12.20942510081127
 20
28.14789574745095
 10
-8.85038058018816
 20
22.32985997284487
 10
8.850698786449385
 20
22.32985997284487
 10
12.20974330707306
 20
28.14789574745094
 97
        1
330
3845
 92
       20
 93
        4
 72
     4
 94
        3
 73
     0
 74
     0
 95
       25
 96
       21
 40
0.0
 40
0.0
 40
0.0
 40
0.0
 40
0.3463130802699203
 40
0.6043703055549736
 40
0.8524756959462802
 40
1.099102870182333
 40
1.318598063912852
 40
1.521064627602771
 40
1.694788988362445
 40
1.912615757663666
 40
2.142780600046976
 40
2.483378398179008
 40
2.873129106540456
 40
3.09179617846886
 40
3.322387155839943
 40
3.509181810940893
 40
3.69147909649244
 40
3.927844502409028
 40
4.143063657146388
 40
4.406491840702669
 40
4.406491840702669
 40
4.406491840702669
 40
4.406491840702669
 10
-5.114032196843737
 20
23.8798599728377
 10
-5.228982970363915
 20
23.89503832123493
 10
-5.429589987754155
 20
23.92152690506636
 10
-5.693675021857103
 20
24.03567408988205
 10
-5.892941488864977
 20
24.19306688135278
 10
-6.036314150572081
 20
24.38541826526996
 10
-6.137502326421099
 20
24.58575647986304
 10
-6.184089306330008
 20
24.77995730666768
 10
-6.209030826709039
 20
24.97670983726675
 10
-6.206060891535827
 20
25.18442176502657
 10
-6.186178297010457
 20
25.44676950423098
 10
-6.128537036390639
 20
25.76177491648128
 10
-6.024273636684796
 20
26.06592307272473
 10
-5.858617591962229
 20
26.29271170654482
 10
-5.725334295882049
 20
26.45803039682342
 10
-5.575727893531166
 20
26.59168695454355
 10
-5.409633372236157
 20
26.70740493083671
 10
-5.217340570729675
 20
26.79721770551459
 10
-4.988026372094168
 20
26.86731869684436
 10
-4.849424991220388
 20
26.87777876054341
 10
-4.7645039250757
 20
26.87985997283595
 72
     1
 10
-4.764503925020689
 20
26.87985997283771
 11
-4.486699891621347
 21
26.8798599728377
 72
     4
 94
        3
 73
     0
 74
     0
 95
       26
 96
       22
 40
4.60284491300692
 40
4.60284491300692
 40
4.60284491300692
 40
4.60284491300692
 40
4.695921259854779
 40
4.963507654731998
 40
5.182979392648435
 40
5.397234555269768
 40
5.619529682274728
 40
5.869260387557257
 40
6.093250787730498
 40
6.263427758207029
 40
6.582064557968705
 40
6.800458868269094
 40
7.179401531729983
 40
7.575889850719137
 40
7.787844664578662
 40
8.01909420716162
 40
8.205730502580088
 40
8.387453763945252
 40
8.621856230932909
 40
8.833419194479944
 40
8.988019761194074
 40
8.988019761194074
 40
8.988019761194074
 40
8.988019761194074
 10
-4.486699891621668
 20
26.8798599728377
 10
-4.440001835107608
 20
26.87954742494388
 10
-4.335540249228728
 20
26.87475925711838
 10
-4.164200665084621
 20
26.85307202884131
 10
-3.96932086400659
 20
26.77880589501945
 10
-3.766465201232762
 20
26.6658847706859
 10
-3.60114437794968
 20
26.50570040783856
 10
-3.471205788265336
 20
26.31143584383913
 10
-3.381388817883674
 20
26.11392472080339
 10
-3.317144182132551
 20
25.88552622199355
 10
-3.281793375658168
 20
25.65006475492956
 10
-3.30137826591374
 20
25.34538614523087
 10
-3.327064239225308
 20
25.0112478652753
 10
-3.471288581215731
 20
24.71021445059323
 10
-3.60460091530777
 20
24.4641890220082
 10
-3.737092402415015
 20
24.29954990084814
 10
-3.882945983371143
 20
24.16225529150343
 10
-4.046861838463826
 20
24.04508050911121
 10
-4.233796525969012
 20
23.94884265716423
 10
-4.427631511903911
 20
23.89220734010023
 10
-4.549580407823555
 20
23.882511578974
 10
-4.601116794093542
 20
23.87985997285202
 72
     1
 10
-4.601116794093525
 20
23.87985997285202
 11
-5.114032196843729
 21
23.8798599728377
 97
        4
330
3860
330
3863
330
3862
330
3864
 92
        4
 93
        1
 72
     3
 10
-4.728528852722632
 20
25.3825150979867
 11
-0.2732326585474372
 21
-0.8283682112856686
 40
0.767138872147242
 50
0.0
 51
360.0
 73
     0
 97
        1
330
3861
 92
       20
 93
        8
 72
     1
 10
-6.482313212520211
 20
26.87985997284487
 11
-6.679452083611267
 21
24.89125032803125
 72
     4
 94
        3
 73
     0
 74
     0
 95
       16
 96
       12
 40
0.0
 40
0.0
 40
0.0
 40
0.0
 40
0.1978277931646383
 40
0.361463118001824
 40
0.5540499897785108
 40
0.7796220130725381
 40
0.979106605438038
 40
1.222151590302332
 40
1.40748727220097
 40
1.607226525619232
 40
1.815049166761618
 40
1.815049166761618
 40
1.815049166761618
 40
1.815049166761618
 10
-6.679452083611295
 20
24.89125032803118
 10
-6.685371732996685
 20
24.82559351525052
 10
-6.696187882184318
 20
24.70562798418881
 10
-6.721757155054632
 20
24.52229576436942
 10
-6.768469983285655
 20
24.33480615160982
 10
-6.860719723390843
 20
24.14153771241002
 10
-7.051789745146265
 20
24.01851519430106
 10
-7.233921808197266
 20
23.91285203345821
 10
-7.443451931375136
 20
23.87675735439051
 10
-7.641222718647384
 20
23.88093312949101
 10
-7.776581895343355
 20
23.89281010788354
 10
-7.845603808282817
 20
23.89886637823479
 72
     1
 10
-7.845603808282787
 20
23.89886637823479
 11
-8.399876560405061
 21
23.98304774476413
 72
     1
 10
-8.399876560405061
 20
23.98304774476413
 11
-8.399876560405061
 21
24.64579492155148
 72
     1
 10
-8.399876560405061
 20
24.64579492155148
 11
-7.815117916056302
 21
24.56632682606845
 72
     4
 94
        3
 73
     0
 74
     0
 95
       11
 96
        7
 40
0.0
 40
0.0
 40
0.0
 40
0.0
 40
0.2042619346961744
 40
0.3074129668363174
 40
0.4146012126853764
 40
0.4826852714337078
 40
0.4826852714337078
 40
0.4826852714337078
 40
0.4826852714337078
 10
-7.815117916056323
 20
24.56632682606847
 10
-7.743266182308218
 20
24.55714977626708
 10
-7.635129760920136
 20
24.54333837224583
 10
-7.524447891091284
 20
24.63752792323729
 10
-7.477352395049535
 20
24.71998790389099
 10
-7.468646137215245
 20
24.77808681972154
 10
-7.465264214605014
 20
24.80065518845331
 72
     1
 10
-7.465264214605014
 20
24.80065518845333
 11
-7.259144283007996
 21
26.87985997284487
 72
     1
 10
-7.259144283007996
 20
26.87985997284487
 11
-6.482313212520211
 21
26.87985997284487
 97
        4
330
384B
330
3836
330
384C
330
3837
 92
       22
 72
     0
 73
     1
 93
        4
 10
-2.652351276624725
 20
26.87985997284486
 10
-1.87552020613694
 20
26.87985997284486
 10
-2.172922270345821
 20
23.87985997284487
 10
-2.949753340833609
 20
23.87985997284487
 97
        1
330
385C
 92
       22
 72
     0
 73
     1
 93
       10
 10
-1.269968290467114
 20
26.87985997284487
 10
-0.4183849031077484
 20
26.87965917736506
 10
0.4009773036021615
 20
25.0299490114994
 10
0.5853232289196909
 20
26.87965917736506
 10
1.205285459373925
 20
26.87965917736506
 10
0.9078833951650439
 20
23.87965917736506
 10
0.056491647586738
 20
23.87965917736506
 10
-0.7630434193126518
 20
25.72975957510511
 10
-0.946451311739821
 20
23.87965917736506
 10
-1.567390260339408
 20
23.87965917736506
 97
        1
330
385D
 92
       22
 72
     0
 73
     1
 93
       12
 10
1.882971499788112
 20
26.87985997284486
 10
3.847979515363789
 20
26.87985997284486
 10
3.788499102522024
 20
26.27985997284486
 10
2.600322157434135
 20
26.27985997284487
 10
2.540562294183218
 20
25.67704105755032
 10
3.542578834455781
 20
25.67704105755032
 10
3.476410183919
 20
25.07985997284487
 10
2.47439364364638
 20
25.07985997284487
 10
2.421932428393546
 20
24.48037956726917
 10
3.610109373481436
 20
24.48037956726917
 10
3.550577451154907
 20
23.87985997284487
 10
1.585569435579231
 20
23.87985997284487
 97
        1
330
385E
 92
       20
 93
       11
 72
     1
 10
4.429648034880159
 20
26.87985997284486
 11
5.780015564168562
 21
26.87985997284487
 72
     4
 94
        3
 73
     0
 74
     0
 95
       20
 96
       16
 40
0.0
 40
0.0
 40
0.0
 40
0.0
 40
0.1774120264923274
 40
0.3258093286713144
 40
0.4834060703451958
 40
0.6311237014699663
 40
0.811161917566129
 40
0.9605198197290178
 40
1.289502400757101
 40
1.459697744220917
 40
1.604754171475458
 40
1.794797311213428
 40
2.030760379210173
 40
2.301729078160567
 40
2.393267743077617
 40
2.393267743077617
 40
2.393267743077617
 40
2.393267743077617
 10
5.780015564168593
 20
26.87985997284487
 10
5.839056126904296
 20
26.87337384475878
 10
5.947481505327601
 20
26.86146235781404
 10
6.098807931884806
 20
26.80185114122353
 10
6.227972759762906
 20
26.72168911843352
 10
6.347510602881385
 20
26.61140356622764
 10
6.442310149474394
 20
26.48207375794227
 10
6.536759215535255
 20
26.28338234239492
 10
6.578465181725675
 20
26.06469589684353
 10
6.553150099427256
 20
25.85079503063701
 10
6.524121382020268
 20
25.68499989147718
 10
6.464236525716046
 20
25.50199988960434
 10
6.327150620479812
 20
25.31187331731421
 10
6.179477266233362
 20
25.17172660684537
 10
6.072729148555964
 20
25.11631253421805
 10
6.045077525535504
 20
25.10350570839811
 72
     1
 10
6.045077525535502
 20
25.1035057083981
 11
6.339444173005232
 21
23.87985997284487
 72
     1
 10
6.339444173005232
 20
23.87985997284487
 11
5.532386545886621
 21
23.87985997284487
 72
     1
 10
5.532386545886621
 20
23.87985997284487
 11
5.142141867913776
 21
25.50205881951548
 72
     1
 10
5.142141867913776
 20
25.50205881951548
 11
5.19887096551445
 21
25.50205881951548
 72
     4
 94
        3
 73
     0
 74
     0
 95
       17
 96
       13
 40
0.0
 40
0.0
 40
0.0
 40
0.0
 40
0.0463117202933683
 40
0.2032408426961212
 40
0.3585694343029505
 40
0.4964057577712057
 40
0.6456565825699876
 40
0.7595770154256244
 40
0.9262943680254526
 40
1.032180609131101
 40
1.14647028625934
 40
1.243973057737614
 40
1.243973057737614
 40
1.243973057737614
 40
1.243973057737614
 10
5.198870965514487
 20
25.50205881951548
 10
5.214272018053407
 20
25.50302975767877
 10
5.28186015506489
 20
25.50729075876586
 10
5.40176083940824
 20
25.51345804330556
 10
5.546675458142118
 20
25.55725132865025
 10
5.67725421213268
 20
25.62965962372397
 10
5.765298612935083
 20
25.7349784962169
 10
5.820388894698254
 20
25.86817511516085
 10
5.832561030472788
 20
26.0011917111029
 10
5.781919321100474
 20
26.1258482190374
 10
5.684603990133524
 20
26.18537947021099
 10
5.613502616848251
 20
26.1875961553427
 10
5.580769717272147
 20
26.18861664944085
 72
     1
 10
5.580769717272125
 20
26.18861664944085
 11
5.137953374950967
 21
26.18861664944085
 72
     1
 10
5.137953374950967
 20
26.18861664944085
 11
4.909077041159065
 21
23.87985997284487
 72
     1
 10
4.909077041159065
 20
23.87985997284487
 11
4.132245970671278
 21
23.87985997284487
 72
     1
 10
4.132245970671278
 20
23.87985997284487
 11
4.429648034880159
 21
26.87985997284486
 97
        5
330
3846
330
3838
330
3848
330
385F
330
3839
 92
       22
 72
     0
 73
     1
 93
        9
 10
6.800478684667179
 20
26.87985997284487
 10
7.607536311785904
 20
26.87985997284487
 10
7.963471882016363
 20
25.86355557445326
 10
8.538893993587493
 20
26.87985997284487
 10
9.414203966725493
 20
26.87985997284487
 10
8.232331174709315
 20
25.00957443408062
 10
8.120338037129924
 20
23.87985997284486
 10
7.343506966642139
 20
23.87985997284486
 10
7.455500104221528
 20
25.00957443408062
 97
        1
330
3844
 75
     0
 76
     1
 47
0.0276408434878157
 98
        9
 10
-5.110068937762804
 20
27.30829258594788
 10
-5.110068937762804
 20
27.30829258594788
 10
-5.110068937762804
 20
27.30829258594788
 10
-5.110068937762804
 20
27.30829258594788
 10
-5.110068937762804
 20
27.30829258594788
 10
-5.110068937762804
 20
27.30829258594788
 10
-5.110068937762804
 20
27.30829258594788
 10
-5.110068937762804
 20
27.30829258594788
 10
-5.110068937762804
 20
27.30829258594788
1001
ACAD
1010
0.0
1020
0.0
1030
0.0
1001
AcDbBlockRepETag
1070
     1
1071
      881
1005
3866
  0
HATCH
  5
3867
330
3832
100
AcDbEntity
  8
APL Border
 62
     8
100
AcDbHatch
 10
0.0
 20
0.0
 30
0.0
210
0.0
220
0.0
230
1.0
  2
SOLID
 70
     1
 71
     1
 91
        1
 92
        7
 72
     0
 73
     1
 93
        4
 10
0.0001591031300169
 20
7.000275566930961
 10
3.563095122801513
 20
13.17146177711931
 10
-0.9450856774407473
 20
20.97985997284487
 10
-8.070957716782199
 20
20.97985997284487
 97
        1
330
3849
 75
     0
 76
     1
 47
0.0707162833847576
 98
        3
 10
-2.675438732228172
 20
16.47794635472378
 10
6.312751868664321
 20
42.28939048605213
 10
-9.894301834166896
 20
39.60217176706084
1001
ACAD
1010
0.0
1020
0.0
1030
0.0
1001
AcDbBlockRepETag
1070
     1
1071
      883
1005
3867
  0
HATCH
  5
3868
330
3832
100
AcDbEntity
  8
APL Border
 62
     8
100
AcDbHatch
 10
0.0
 20
0.0
 30
0.0
210
0.0
220
0.0
230
1.0
  2
SOLID
 70
     1
 71
     0
 91
        1
 92
        7
 72
     0
 73
     1
 93
        7
 10
-12.96642015501169
 20
43.61979184908029
 10
-14.7664201550117
 20
43.61979184908029
 10
-16.54136876356097
 20
39.42215966960598
 10
-17.19614352503853
 20
43.61979184908029
 10
-18.99614352503854
 20
43.61979184908029
 10
-17.7875751270476
 20
37.38083558975206
 10
-15.77022638070493
 20
37.38083558975206
 97
        0
 75
     0
 76
     1
 47
0.0707162833847576
 98
        3
 10
6.249678794057444
 20
42.28939048605213
 10
-9.957374908773772
 20
39.60217176706084
 10
-16.39773218462096
 20
38.68285940442952
1001
ACAD
1010
0.0
1020
0.0
1030
0.0
1001
AcDbBlockRepETag
1070
     1
1071
      884
1005
3868
  0
HATCH
  5
3869
330
3832
100
AcDbEntity
  8
APL Border
 62
     8
100
AcDbHatch
 10
0.0
 20
0.0
 30
0.0
210
0.0
220
0.0
230
1.0
  2
SOLID
 70
     1
 71
     1
 91
        1
 92
        7
 72
     0
 73
     1
 93
       10
 10
-2.850928947786229
 20
37.38083558975206
 10
-2.181839912298442
 20
43.6197918490803
 10
-3.855464624526036
 20
43.61979184908029
 10
-4.228474015381578
 20
40.14164596649268
 10
-5.40751765387219
 20
43.61979184908029
 10
-7.466097855805088
 20
43.61979184908029
 10
-8.135186891292875
 20
37.38083558975206
 10
-6.479801476178323
 20
37.38083558975206
 10
-6.131920885667285
 20
40.6246666384634
 10
-5.032306754624555
 20
37.38083558975206
 97
        1
330
3840
 75
     0
 76
     1
 47
0.0707162833847576
 98
        3
 10
6.312751868664321
 20
42.28939048605213
 10
-5.364819983741796
 20
40.80434854252457
 10
-9.894301834166896
 20
39.60217176706084
1001
ACAD
1010
0.0
1020
0.0
1030
0.0
1001
AcDbBlockRepETag
1070
     1
1071
      886
1005
3869
  0
HATCH
  5
386A
330
3832
100
AcDbEntity
  8
APL Border
 62
     8
100
AcDbHatch
 10
0.0
 20
0.0
 30
0.0
210
0.0
220
0.0
230
1.0
  2
SOLID
 70
     1
 71
     1
 91
        1
 92
        7
 72
     0
 73
     1
 93
        8
 10
2.929095477768755
 20
41.97282181113101
 10
3.105743226874893
 20
43.6199831327606
 10
-1.725754035154748
 20
43.61998313276061
 10
-1.891167362926863
 20
41.97282181113101
 10
-0.3755272841536335
 20
41.97282181113101
 10
-0.8679685705352806
 20
37.38102687343239
 10
0.9741138955425025
 20
37.38339558452146
 10
1.466301152475638
 20
41.97282181113101
 97
        1
330
383F
 75
     0
 76
     1
 47
0.0707162833847576
 98
        3
 10
6.461508006627583
 20
42.28958176973246
 10
0.3042431306128051
 20
42.36029787294049
 10
-9.745545696203633
 20
39.60236305074117
1001
ACAD
1010
0.0
1020
0.0
1030
0.0
1001
AcDbBlockRepETag
1070
     1
1071
      887
1005
386A
  0
HATCH
  5
386B
330
3832
100
AcDbEntity
  8
APL Border
 62
     8
100
AcDbHatch
 10
0.0
 20
0.0
 30
0.0
210
0.0
220
0.0
230
1.0
  2
SOLID
 70
     1
 71
     1
 91
        1
 92
        7
 72
     0
 73
     1
 93
        3
 10
8.071275923043375
 20
20.97985997284487
 10
0.8484489512626126
 20
20.97985997284487
 10
4.459862437153192
 20
14.72470832814346
 97
        1
330
384A
 75
     0
 76
     1
 47
0.0707162833847576
 98
        3
 10
4.897289869501349
 20
18.17513736310713
 10
6.312751868664321
 20
42.28939048605213
 10
-9.894301834166896
 20
39.60217176706084
1001
ACAD
1010
0.0
1020
0.0
1030
0.0
1001
AcDbBlockRepETag
1070
     1
1071
      891
1005
386B
  0
HATCH
  5
386C
330
3832
100
AcDbEntity
  8
APL Border
 62
     8
100
AcDbHatch
 10
0.0
 20
0.0
 30
0.0
210
0.0
220
0.0
230
1.0
  2
SOLID
 70
     1
 71
     1
 91
        2
 92
       16
 93
        3
 72
     1
 10
0.0000000003145431
 20
4.000000000000009
 11
23.60256143704041
 21
44.88083558975217
 72
     1
 10
23.60256143704041
 20
44.88083558975217
 11
-23.60256142783933
 21
44.88083558975206
 72
     1
 10
-23.60256142783933
 20
44.88083558975206
 11
0.0000000003145431
 21
4.000000000000007
 97
        1
330
3850
 92
        1
 93
        3
 72
     1
 10
27.06666305249243
 20
46.88083558975206
 11
-27.06666304266244
 21
46.88083558975206
 72
     1
 10
-27.06666304266244
 20
46.88083558975206
 11
-0.0000000000000284
 21
0.0000000000000213
 72
     1
 10
-0.0000000000000284
 20
0.0000000000000238
 11
27.06666305249243
 21
46.88083558975206
 97
        1
330
3851
 75
     0
 76
     1
 98
        1
 10
-236.5641112216887
 20
1.231020082252661
1001
ACAD
1010
0.0
1020
0.0
1030
0.0
1001
AcDbBlockRepETag
1070
     1
1071
      892
1005
386C
  0
HATCH
  5
386D
330
3832
100
AcDbEntity
  8
APL Border
 62
     8
100
AcDbHatch
 10
0.0
 20
0.0
 30
0.0
210
0.0
220
0.0
230
1.0
  2
SOLID
 70
     1
 71
     1
 91
        1
 92
        7
 72
     0
 73
     1
 93
       12
 10
15.84058876400877
 20
41.9726305274507
 10
18.21321428445671
 20
41.9726305274507
 10
18.38986203356285
 20
43.61979184908029
 10
14.13627631352983
 20
43.61979184908029
 10
13.46718727804204
 20
37.38083558975206
 10
17.72077299807506
 20
37.38083558975207
 10
17.87787225036464
 20
38.84571591422678
 10
15.50524672991671
 20
38.84571591422678
 10
15.58395939694927
 20
39.5796763598845
 10
17.56969663746741
 20
39.57967635988449
 10
17.71732334684157
 20
41.15966911198297
 10
15.75340373709809
 20
41.15966911198297
 97
        1
330
383C
 75
     0
 76
     1
 47
0.0265225354961204
 98
        1
 10
15.74642260871314
 20
42.54140343148856
1001
ACAD
1010
0.0
1020
0.0
1030
0.0
1001
AcDbBlockRepETag
1070
     1
1071
      895
1005
386D
  0
SPLINE
  5
386E
102
{ACAD_REACTORS
330
3870
330
3871
102
}
330
3832
100
AcDbEntity
  8
APL Border
 62
     8
100
AcDbSpline
210
0.0
220
0.0
230
1.0
 70
     8
 71
     3
 72
    12
 73
     8
 74
     0
 42
0.0000000001
 43
0.0000000001
 40
0.0
 40
0.0
 40
0.0
 40
0.0
 40
0.6153828260925694
 40
0.6153828260925694
 40
1.184895113366773
 40
1.184895113366773
 40
1.406874102447421
 40
1.406874102447421
 40
1.406874102447421
 40
1.406874102447421
 10
13.141643811855
 20
41.76981947766621
 30
0.0
 10
12.65093549588437
 20
41.90084145687704
 30
0.0
 10
12.40139116615246
 20
41.94113120867605
 30
0.0
 10
12.08548087756223
 20
41.99544455363318
 30
0.0
 10
11.92864742837253
 20
42.01465504085827
 30
0.0
 10
11.75444086026641
 20
42.02973960983341
 30
0.0
 10
11.75444086026641
 20
42.02973960983341
 30
0.0
 10
11.64369617822672
 20
42.03297741382947
 30
0.0
1001
AcDbBlockRepETag
1070
     1
1071
      898
1005
386E
  0
LWPOLYLINE
  5
386F
102
{ACAD_REACTORS
330
3870
102
}
330
3832
100
AcDbEntity
  8
APL Border
  6
Continuous
 62
     8
100
AcDbPolyline
 90
        3
 70
     1
 43
0.0
 10
-11.22376129049633
 20
41.69367581194667
 10
-10.87774200114645
 20
40.14955389030274
 10
-11.91769445450297
 20
40.14955389030274
1001
AcDbBlockRepETag
1070
     1
1071
      902
1005
386F
  0
HATCH
  5
3870
330
3832
100
AcDbEntity
  8
APL Border
 62
     8
100
AcDbHatch
 10
0.0
 20
0.0
 30
0.0
210
0.0
220
0.0
230
1.0
  2
SOLID
 70
     1
 71
     1
 91
        2
 92
        7
 72
     0
 73
     1
 93
        8
 10
-9.847253547555595
 20
43.61979184908029
 10
-12.02298966350147
 20
43.61979184908029
 10
-14.82679588919472
 20
37.38083558975206
 10
-12.95240022532295
 20
37.38083558975206
 10
-12.352528740424
 20
38.71565392391761
 10
-10.64639685172309
 20
38.71565392391761
 10
-10.34727999772013
 20
37.38083558975206
 10
-8.449177928734428
 20
37.38083558975207
 97
        1
330
3841
 92
       22
 72
     0
 73
     1
 93
        3
 10
-11.22376129049633
 20
41.69367581194668
 10
-10.87774200114645
 20
40.14955389030274
 10
-11.91769445450297
 20
40.14955389030274
 97
        1
330
386F
 75
     0
 76
     1
 47
0.0464409783890934
 98
        3
 10
-10.7866676671747
 20
42.18285929720354
 10
-10.7866676671747
 20
42.18285929720354
 10
4.318789658947025
 20
41.34692151769582
1001
ACAD
1010
0.0
1020
0.0
1030
0.0
1001
AcDbBlockRepETag
1070
     1
1071
      903
1005
3870
  0
HATCH
  5
3871
330
3832
100
AcDbEntity
  8
APL Border
 62
     8
100
AcDbHatch
 10
0.0
 20
0.0
 30
0.0
210
0.0
220
0.0
230
1.0
  2
SOLID
 70
     1
 71
     1
 91
        1
 92
        5
 93
        9
 72
     4
 94
        3
 73
     0
 74
     0
 95
       25
 96
       21
 40
0.0289432764998855
 40
0.0289432764998855
 40
0.0289432764998855
 40
0.0289432764998855
 40
0.7134165119202287
 40
1.411731005087882
 40
2.041147618059464
 40
3.036171077105474
 40
3.957911241576911
 40
4.83592253147705
 40
5.676684481733094
 40
6.271141751551381
 40
6.974058201941041
 40
7.825808739104269
 40
8.5265481701528
 40
9.125733480364379
 40
9.891766509798275
 40
10.6767880070383
 40
11.66821110410527
 40
12.42950909475574
 40
13.09855121203093
 40
13.70132750762923
 40
13.70132750762923
 40
13.70132750762923
 40
13.70132750762923
 10
13.141643811855
 20
43.40554077871886
 10
12.91988216430481
 20
43.459256627421
 10
12.47168844867874
 20
43.5669624691983
 10
11.80600758681791
 20
43.66484839798013
 10
11.02988777388427
 20
43.6649333207477
 10
10.1361516270939
 20
43.55263717791944
 10
9.306733533720876
 20
43.19741938393827
 10
8.599762003673276
 20
42.45478219212527
 10
8.236440109363229
 20
41.77191325718488
 10
8.073464067873601
 20
41.07996170309042
 10
8.007035995439764
 20
40.3638923215899
 10
7.98103501985804
 20
39.60493317412716
 10
8.107710769833204
 20
38.92055182387923
 10
8.442098079777224
 20
38.21445924826959
 10
9.036296716232907
 20
37.66873436641545
 10
9.909689132144507
 20
37.42421376773082
 10
10.75775873959412
 20
37.35554609345542
 10
11.56487972715851
 20
37.38454149767491
 10
12.23983007222788
 20
37.44815687239099
 10
12.66077873273661
 20
37.49837935861893
 10
12.86026661033734
 20
37.52234731786496
 72
     1
 10
12.86026661033734
 20
37.52234731786496
 11
13.23839963312048
 21
41.04826877857415
 72
     1
 10
13.23839963312048
 20
41.04826877857415
 11
11.12639005748273
 21
41.04826877857415
 72
     1
 10
11.12639005748273
 20
41.04826877857415
 11
10.96889270630695
 21
39.57967635988449
 72
     1
 10
10.96889270630695
 20
39.57967635988449
 11
11.39962533929804
 21
39.57967635988449
 72
     1
 10
11.39962533929804
 20
39.57967635988449
 11
11.33360452536307
 21
38.96406177273883
 72
     4
 94
        3
 73
     0
 74
     0
 95
       19
 96
       15
 40
1.529304964685562
 40
1.529304964685562
 40
1.529304964685562
 40
1.529304964685562
 40
1.763981165818448
 40
2.06379851215709
 40
2.386700017314354
 40
2.753069149612017
 40
3.181918037271135
 40
3.768421453867451
 40
4.325591611844758
 40
5.021152851646889
 40
5.521935404920329
 40
5.929637176310238
 40
6.454411479904243
 40
6.957123473051371
 40
6.957123473755098
 40
6.957123473755098
 40
6.957123473755098
 10
11.33360452536307
 20
38.96406177273881
 10
11.24302802126629
 20
38.95177692242413
 10
10.99026249243499
 20
38.92783484269152
 10
10.70216182646531
 20
38.92661434152812
 10
10.3797311442331
 20
38.98358798973799
 10
10.00680770225198
 20
39.09661486818469
 10
9.716968816830743
 20
39.48770259248511
 10
9.641062203095145
 20
40.05806431643046
 10
9.717431528044755
 20
40.66388266631498
 10
9.854221329784113
 20
41.27113304911427
 10
10.23036575101369
 20
41.67654609785123
 10
10.65553906793815
 20
41.91613810684326
 10
11.13485165915975
 20
42.01473204050012
 10
11.47589856643677
 20
42.04574754506741
 10
11.64369617822672
 20
42.03297741382947
 72
     4
 94
        3
 73
     0
 74
     0
 95
       12
 96
        8
 40
0.0
 40
0.0
 40
0.0
 40
0.0
 40
0.2219789890806476
 40
0.2219789890806476
 40
0.7914912763548521
 40
0.7914912763548521
 40
1.406874102447421
 40
1.406874102447421
 40
1.406874102447421
 40
1.406874102447421
 10
11.64369617822672
 20
42.03297741382947
 10
11.75444086026641
 20
42.02973960983341
 10
11.75444086026641
 20
42.02973960983341
 10
11.92864742837253
 20
42.01465504085827
 10
12.08548087756223
 20
41.99544455363318
 10
12.40139116615246
 20
41.94113120867605
 10
12.65093549588437
 20
41.90084145687704
 10
13.141643811855
 20
41.76981947766621
 72
     1
 10
13.14164381185501
 20
41.76981947766621
 11
13.141643811855
 21
43.40554077871886
 97
        5
330
383A
330
383E
330
383B
330
386E
330
383D
 75
     0
 76
     1
 47
0.0464409783890934
 98
        3
 10
-10.7866676671747
 20
42.18285929720354
 10
4.318789658947025
 20
41.34692151769582
 10
10.26801654887663
 20
42.50794595375691
1001
ACAD
1010
0.0
1020
0.0
1030
0.0
1001
AcDbBlockRepETag
1070
     1
1071
      904
1005
3871
  0
HATCH
  5
3872
330
3832
100
AcDbEntity
  8
APL Border
 62
     8
100
AcDbHatch
 10
0.0
 20
0.0
 30
0.0
210
0.0
220
0.0
230
1.0
  2
SOLID
 70
     1
 71
     1
 91
        2
 92
        7
 72
     0
 73
     1
 93
        8
 10
6.582554574553399
 20
43.61979184908029
 10
4.406818458607519
 20
43.6197918490803
 10
1.603012232914266
 20
37.38083558975206
 10
3.477407896786048
 20
37.38083558975206
 10
4.077279381684999
 20
38.71565392391761
 10
5.783411270385895
 20
38.71565392391761
 10
6.082528124388858
 20
37.38083558975206
 10
7.980630193374566
 20
37.38083558975207
 97
        1
330
3852
 92
       22
 72
     0
 73
     1
 93
        3
 10
5.206046831612668
 20
41.69367581194667
 10
5.552066120962536
 20
40.14955389030274
 10
4.512113667606024
 20
40.14955389030274
 97
        1
330
3853
 75
     0
 76
     1
 47
0.0464409783890934
 98
        3
 10
-10.7866676671747
 20
42.18285929720354
 10
4.318789658947025
 20
41.34692151769582
 10
4.318789658947025
 20
41.34692151769582
1001
ACAD
1010
0.0
1020
0.0
1030
0.0
1001
AcDbBlockRepETag
1070
     1
1071
      905
1005
3872
  0
HATCH
  5
3873
330
3832
100
AcDbEntity
  8
APL Border
 62
     8
100
AcDbHatch
 10
0.0
 20
0.0
 30
0.0
210
0.0
220
0.0
230
1.0
  2
SOLID
 70
     1
 71
     1
 91
       11
 92
        7
 72
     0
 73
     1
 93
        4
 10
-16.33747952551644
 20
35.29789574745092
 10
-12.98884796421712
 20
29.49789574745095
 10
12.98916617047902
 20
29.49789574745094
 10
16.33779773177886
 20
35.29789574745093
 97
        1
330
3843
 92
       22
 72
     0
 73
     1
 93
        8
 10
-10.50084997043805
 20
34.02289574745092
 10
-9.555761072109191
 20
34.02289574745092
 10
-8.834065309397374
 20
31.02289574745093
 10
-9.641122936515984
 20
31.02289574745093
 10
-9.86222995755253
 20
31.94201027933759
 10
-10.74455961985978
 20
31.94201027933758
 10
-11.20867717380426
 20
31.02289574745093
 10
-12.01573480092304
 20
31.02289574745093
 97
        1
330
384F
 92
        6
 72
     0
 73
     1
 93
        3
 10
-10.14693849009504
 20
33.12550842600547
 10
-10.00044093617224
 20
32.51653621849666
 10
-10.45444607654239
 20
32.51653621849665
 97
        1
330
384E
 92
       22
 72
     0
 73
     1
 93
        6
 10
-8.326765119961606
 20
34.02289574745092
 10
-7.549934049473819
 20
34.02289574745092
 10
-7.777198851462713
 20
31.73039516316516
 10
-6.700109532938454
 20
31.73039516316516
 10
-6.770246795158442
 20
31.02289574745093
 10
-8.624167184170486
 20
31.02289574745092
 97
        1
330
384D
 92
       20
 93
       13
 72
     1
 10
-6.13042511277439
 20
34.02488019433461
 11
-5.353790768486449
 21
34.02289574745093
 72
     1
 10
-5.353790768486449
 20
34.02289574745093
 11
-5.5356280948821
 21
32.18709291744541
 72
     4
 94
        3
 73
     0
 74
     0
 95
       24
 96
       20
 40
0.0
 40
0.0
 40
0.0
 40
0.0
 40
0.1612668085855933
 40
0.2532303870616441
 40
0.3214574742553387
 40
0.4101806452459026
 40
0.5031588697521256
 40
0.5664511009171887
 40
0.624871878778038
 40
0.6731644290699905
 40
0.7797386132933425
 40
0.9206747739903356
 40
1.025058962643435
 40
1.116412352300609
 40
1.212929457806147
 40
1.276240530363035
 40
1.339961572016457
 40
1.386280507025952
 40
1.435584820291647
 40
1.435584820291647
 40
1.435584820291647
 40
1.435584820291647
 10
-5.535628094882099
 20
32.1870929174454
 10
-5.53213414748617
 20
32.13312332644234
 10
-5.526647751003197
 20
32.04837718097616
 10
-5.488860432547518
 20
31.94683424540268
 10
-5.447171648840961
 20
31.8753242559261
 10
-5.395818187958767
 20
31.80737001333622
 10
-5.320761662408248
 20
31.77062767698265
 10
-5.254477128417399
 20
31.74466351916423
 10
-5.200112096792143
 20
31.72723210184819
 10
-5.128888988289486
 20
31.72198763189771
 10
-5.030042811850907
 20
31.72786870372271
 10
-4.915707066470194
 20
31.75812586881066
 10
-4.815771266393483
 20
31.81405298527762
 10
-4.754740567305573
 20
31.89193427605802
 10
-4.71467399544198
 20
31.96546823314959
 10
-4.683526695854578
 20
32.03313813212702
 10
-4.662006183068958
 20
32.08703079743258
 10
-4.651792807669443
 20
32.13930455656534
 10
-4.647206914869654
 20
32.17083533130903
 10
-4.644842382192905
 20
32.1870929174454
 72
     1
 10
-4.644842382192908
 20
32.18709291744538
 11
-4.462655138951674
 21
34.0248801943346
 72
     1
 10
-4.462655138951674
 20
34.0248801943346
 11
-3.685824068463886
 21
34.0248801943346
 72
     1
 10
-3.685824068463886
 20
34.0248801943346
 11
-3.889225876952792
 21
31.97309408084612
 72
     2
 10
-5.35367831607159
 20
32.29400281725688
 40
1.499200908332752
 50
12.35998596222624
 51
34.57361697223234
 73
     0
 72
     2
 10
-4.942942423735221
 20
32.00494866311196
 40
0.9969860617863467
 50
34.29038331790704
 51
79.42991665428312
 73
     0
 72
     1
 10
-4.760057203160528
 20
31.0248801943346
 11
-5.510404689928634
 21
31.02488019433462
 72
     2
 10
-5.403812384664131
 20
31.8164328281441
 40
0.7986973717449786
 50
97.66944495435136
 51
120.898786067779
 73
     0
 72
     2
 10
-5.173141343771899
 20
32.14234761068797
 40
1.197202176515717
 50
122.3618931068037
 51
141.2515245137382
 73
     0
 72
     2
 10
-5.389471681131198
 20
32.00817328375058
 40
0.9450065449727091
 50
139.3862736078239
 51
177.8726579657922
 73
     0
 72
     1
 10
-6.333826921263238
 20
31.9730940808461
 11
-6.13042511277439
 21
34.02488019433461
 97
        2
330
3855
330
3856
 92
       22
 72
     0
 73
     1
 93
       13
 10
-3.14734900486158
 20
34.02825593571061
 10
-2.047349004861559
 20
34.02825593571061
 10
-1.827245318565901
 20
32.52441131541936
 10
-1.295012624591634
 20
34.02807364104484
 10
-0.1975458970834157
 20
34.0280551402308
 10
-0.4949479612922965
 20
31.0280551402308
 10
-1.115886909891883
 20
31.02805514023081
 10
-0.9222174129992312
 20
32.98166797820307
 10
-1.611942464131546
 20
31.02805514023081
 10
-2.344230471214956
 20
31.0280551402308
 10
-2.630162529241629
 20
32.98166797820306
 10
-2.823832026134283
 20
31.02805514023081
 10
-3.444770974733871
 20
31.0280551402308
 97
        1
330
3858
 92
       22
 72
     0
 73
     1
 93
        4
 10
0.342591724648486
 20
34.02289574745092
 10
1.119422795136273
 20
34.02289574745092
 10
0.822020730927392
 20
31.02289574745093
 10
0.045189660439604
 20
31.02289574745093
 97
        1
330
3847
 92
       22
 72
     0
 73
     1
 93
       10
 10
1.724974710806094
 20
34.02289574745093
 10
2.57655809816546
 20
34.02269495197112
 10
3.395920304875375
 20
32.17298478610545
 10
3.580266230192904
 20
34.02269495197112
 10
4.200228460647139
 20
34.02269495197112
 10
3.902826396438257
 20
31.02269495197112
 10
3.051434648859951
 20
31.02269495197112
 10
2.231899581960561
 20
32.87279534971117
 10
2.048491689533392
 20
31.02269495197111
 10
1.427552740933804
 20
31.02269495197111
 97
        1
330
3859
 92
       22
 72
     0
 73
     1
 93
        4
 10
4.838699321647566
 20
34.02289574745092
 10
5.615530392135354
 20
34.02289574745092
 10
5.318128327926473
 20
31.02289574745093
 10
4.541297257438685
 20
31.02289574745093
 97
        1
330
3854
 92
       20
 93
       13
 72
     1
 10
6.192756492920892
 20
34.02289574745092
 11
6.969390837208833
 21
34.02091130056725
 72
     1
 10
6.969390837208833
 20
34.02091130056725
 11
6.787553510813181
 21
32.18510847056173
 72
     4
 94
        3
 73
     0
 74
     0
 95
       24
 96
       20
 40
0.0
 40
0.0
 40
0.0
 40
0.0
 40
0.1612668085856004
 40
0.2532303870616512
 40
0.3214574742553458
 40
0.4101806452458731
 40
0.5031588697521455
 40
0.5664511009172086
 40
0.6248718787780579
 40
0.6731644290699537
 40
0.7797386132933625
 40
0.9206747739903555
 40
1.025058962643406
 40
1.116412352300617
 40
1.212929457806155
 40
1.276240530363043
 40
1.339961572016455
 40
1.386280507025956
 40
1.435584820291643
 40
1.435584820291643
 40
1.435584820291643
 40
1.435584820291643
 10
6.787553510813182
 20
32.18510847056172
 10
6.791047458209138
 20
32.13113887955868
 10
6.796533854692151
 20
32.04639273409249
 10
6.834321173147815
 20
31.944849798519
 10
6.876009956854381
 20
31.87333980904244
 10
6.927363417736517
 20
31.80538556645249
 10
7.002419943287081
 20
31.76864323009899
 10
7.068704477277941
 20
31.74267907228055
 10
7.123069508903178
 20
31.72524765496452
 10
7.194292617405833
 20
31.72000318501404
 10
7.293138793844411
 20
31.72588425683904
 10
7.407474539225143
 20
31.75614142192696
 10
7.507410339301799
 20
31.81206853839398
 10
7.568441038389779
 20
31.88994982917431
 10
7.608507610253345
 20
31.96348378626593
 10
7.639654909840775
 20
32.03115368524333
 10
7.661175422626328
 20
32.08504635054892
 10
7.671388798025919
 20
32.13732010968165
 10
7.675974690825655
 20
32.16885088442535
 10
7.678339223502376
 20
32.18510847056172
 72
     1
 10
7.678339223502373
 20
32.1851084705617
 11
7.860526466743608
 21
34.02289574745092
 72
     1
 10
7.860526466743608
 20
34.02289574745092
 11
8.637357537231395
 21
34.02289574745092
 72
     1
 10
8.637357537231395
 20
34.02289574745092
 11
8.433955728742489
 21
31.97110963396244
 72
     2
 10
6.969503289623695
 20
32.29201837037321
 40
1.499200908332751
 50
12.35998596222655
 51
34.57361697220028
 73
     0
 72
     2
 10
7.38023918196006
 20
32.00296421622829
 40
0.9969860617863467
 50
34.2903833178587
 51
79.42991665428322
 73
     0
 72
     1
 10
7.563124402534754
 20
31.02289574745093
 11
6.812776915766647
 21
31.02289574745094
 72
     2
 10
6.919369221031151
 20
31.81444838126043
 40
0.7986973717449786
 50
97.66944495435136
 51
120.898786067779
 73
     0
 72
     2
 10
7.150040261923383
 20
32.14036316380429
 40
1.197202176515717
 50
122.3618931068037
 51
141.2515245137382
 73
     0
 72
     2
 10
6.933709924564084
 20
32.0061888368669
 40
0.9450065449727091
 50
139.3862736078239
 51
177.8726579657922
 73
     0
 72
     1
 10
5.989354684432043
 20
31.97110963396243
 11
6.192756492920892
 21
34.02289574745092
 97
        2
330
3857
330
385B
 92
       22
 72
     0
 73
     1
 93
       13
 10
9.159497991066102
 20
34.02289574745092
 10
10.25949799106612
 20
34.02289574745092
 10
10.47960167736178
 20
32.51905112715967
 10
11.01183437133604
 20
34.02271345278515
 10
12.10930109884427
 20
34.02269495197111
 10
11.81189903463539
 20
31.02269495197112
 10
11.1909600860358
 20
31.02269495197111
 10
11.38462958292845
 20
32.97630778994339
 10
10.69490453179614
 20
31.02269495197111
 10
9.962616524712728
 20
31.02269495197112
 10
9.676684466686056
 20
32.97630778994339
 10
9.4830149697934
 20
31.02269495197111
 10
8.862076021193814
 20
31.02269495197111
 97
        1
330
385A
 75
     0
 76
     1
 47
0.0356978143457059
 98
       11
 10
-12.74387987022192
 20
34.13164800304253
 10
-12.74387987022192
 20
34.13164800304253
 10
-12.74387987022192
 20
34.13164800304253
 10
-12.74387987022192
 20
34.13164800304253
 10
-12.74387987022192
 20
34.13164800304253
 10
-12.74387987022192
 20
34.13164800304253
 10
-12.74387987022192
 20
34.13164800304253
 10
-12.74387987022192
 20
34.13164800304253
 10
-12.74387987022192
 20
34.13164800304253
 10
-12.74387987022192
 20
34.13164800304253
 10
-12.74387987022192
 20
34.13164800304253
1001
ACAD
1010
0.0
1020
0.0
1030
0.0
1001
AcDbBlockRepETag
1070
     1
1071
      906
1005
3873
  0
ENDBLK
  5
3874
330
3832
100
AcDbEntity
  8
0
 62
     9
100
AcDbBlockEnd
  0
ENDSEC
  0
SECTION
  2
ENTITIES
  0
INSERT
  5
29B3
330
1F
100
AcDbEntity
  8
APL Joinery
100
AcDbBlockReference
  2
08569
 10
259.0006211068043
 20
243.7378264626273
 30
0.0
  0
INSERT
  5
29B8
330
1F
100
AcDbEntity
  8
APL Joinery
100
AcDbBlockReference
  2
08568
 10
259.0006211068043
 20
243.7378264626273
 30
0.0
  0
INSERT
  5
29E7
330
1F
100
AcDbEntity
  8
APL Joinery
100
AcDbBlockReference
  2
6Glass
 10
309.7794623219332
 20
211.0803727215788
 30
0.0
 41
-1.0
 50
120.6886159400231
  0
INSERT
  5
29E9
330
1F
100
AcDbEntity
  8
APL Joinery
100
AcDbBlockReference
  2
9010600
 10
299.7992063064863
 20
222.0185850922625
 30
0.0
 41
-1.0
 50
300.6886159400232
  0
INSERT
  5
29FA
330
1F
100
AcDbEntity
  8
APL Joinery
100
AcDbBlockReference
  2
08563
 10
73.60723208396894
 20
354.3915877016861
 30
0.0
  0
INSERT
  5
2A04
330
1F
100
AcDbEntity
  8
APL Joinery
100
AcDbBlockReference
  2
08564
 10
36.10723208396917
 20
242.8915877016867
 30
0.0
  0
INSERT
  5
2A0A
330
1F
100
AcDbEntity
  8
APL Joinery
100
AcDbBlockReference
  2
08594
 10
111.1072320839691
 20
242.8915877016867
 30
0.0
  0
INSERT
  5
2A0C
330
1F
100
AcDbEntity
  8
APL Joinery
100
AcDbBlockReference
  2
08565
 10
38.25189302464173
 20
269.8915877016867
 30
0.0
  0
INSERT
  5
2A0D
330
1F
100
AcDbEntity
  8
APL Joinery
100
AcDbBlockReference
  2
08565
 10
38.25189302464185
 20
366.8915877016861
 30
0.0
  0
INSERT
  5
2A7B
330
1F
100
AcDbEntity
  8
APL Joinery
100
AcDbBlockReference
  2
08565
 10
38.25189302464173
 20
438.8915877016855
 30
0.0
 41
-1.0
 50
180.0
  0
INSERT
  5
2A7C
330
1F
100
AcDbEntity
  8
APL Joinery
100
AcDbBlockReference
  2
08564
 10
36.10723208396917
 20
465.8915877016855
 30
0.0
 41
-1.0
 50
180.0
  0
INSERT
  5
2A7D
330
1F
100
AcDbEntity
  8
APL Joinery
100
AcDbBlockReference
  2
08594
 10
111.1072320839691
 20
465.8915877016855
 30
0.0
 41
-1.0
 50
180.0
  0
INSERT
  5
2A7E
330
1F
100
AcDbEntity
  8
APL Joinery
100
AcDbBlockReference
  2
6Glass
 10
66.10723208396922
 20
419.8915877016857
 30
0.0
 41
-1.0
  0
INSERT
  5
2A80
330
1F
100
AcDbEntity
  8
APL Joinery
100
AcDbBlockReference
  2
9010600
 10
80.60723208397053
 20
416.8915877016858
 30
0.0
 41
-1.0
 50
180.0
  0
INSERT
  5
2A82
330
1F
100
AcDbEntity
  8
APL Joinery
100
AcDbBlockReference
  2
08567
 10
283.9999991921512
 20
70.00000011088696
 30
0.0
 50
90.0
  0
INSERT
  5
2A89
330
1F
100
AcDbEntity
  8
APL Joinery
100
AcDbBlockReference
  2
08508
 10
234.0006211068032
 20
120.000000110887
 30
0.0
 41
-1.0
 50
89.99999999999998
  0
INSERT
  5
2A98
330
1F
100
AcDbEntity
  8
APL Joinery
100
AcDbBlockReference
  2
08508
 10
233.9999991921518
 20
119.9993781962357
 30
0.0
 50
359.9999999999987
  0
INSERT
  5
2A9F
330
1F
100
AcDbEntity
  8
APL Joinery
100
AcDbBlockReference
  2
08561
 10
173.000621106803
 20
120.0006220255376
 30
0.0
 50
90.0
  0
INSERT
  5
2AA1
330
1F
100
AcDbEntity
  8
APL Joinery
100
AcDbBlockReference
  2
08561
 10
173.000621106803
 20
20.00062202553777
 30
0.0
 50
270.0
  0
INSERT
  5
2AA3
330
1F
100
AcDbEntity
  8
APL Joinery
100
AcDbBlockReference
  2
08561
 10
173.000621106803
 20
247.237826462627
 30
0.0
 50
90.0
  0
INSERT
  5
2AA4
330
1F
100
AcDbEntity
  8
APL Joinery
100
AcDbBlockReference
  2
08561
 10
173.000621106803
 20
147.2378264626271
 30
0.0
 50
270.0
  0
INSERT
  5
2AA6
330
1F
100
AcDbEntity
  8
APL Joinery
100
AcDbBlockReference
  2
6Glass
 10
148.0006211068033
 20
189.737826462627
 30
0.0
 50
270.0
  0
INSERT
  5
2AA7
330
1F
100
AcDbEntity
  8
APL Joinery
100
AcDbBlockReference
  2
9010600
 10
149.0006211068032
 20
204.2378264626284
 30
0.0
 50
90.0
  0
INSERT
  5
2AA8
330
1F
100
AcDbEntity
  8
APL Joinery
100
AcDbBlockReference
  2
6Glass
 10
198.0006211068028
 20
189.7378264626269
 30
0.0
 41
-1.0
 50
90.0
  0
INSERT
  5
2AAA
330
1F
100
AcDbEntity
  8
APL Joinery
100
AcDbBlockReference
  2
9010600
 10
197.0006211068029
 20
204.2378264626284
 30
0.0
 41
-1.0
 50
270.0
  0
INSERT
  5
2AB0
330
1F
100
AcDbEntity
  8
APL Joinery
100
AcDbBlockReference
  2
6Glass
 10
66.10723208396848
 20
385.8915877016859
 30
0.0
 50
180.0
  0
INSERT
  5
2AB2
330
1F
100
AcDbEntity
  8
APL Joinery
100
AcDbBlockReference
  2
9010600
 10
80.60723208396979
 20
388.8915877016864
 30
0.0
  0
TEXT
  5
2BA6
330
1F
100
AcDbEntity
  8
APL Notes
100
AcDbText
 10
14.68363044686139
 20
456.1415429485635
 30
0.0
 40
5.0
  1
08564
  7
Arial-Bold
 72
     2
 11
34.10723208396917
 21
456.1415429485635
 31
0.0
100
AcDbText
  0
TEXT
  5
2BA7
330
1F
100
AcDbEntity
  8
APL Notes
100
AcDbText
 10
24.68363044686139
 20
419.8649863592177
 30
0.0
 40
5.0
  1
08565
  7
Arial-Bold
 72
     2
 11
44.10723208396916
 21
419.8649863592177
 31
0.0
100
AcDbText
  0
TEXT
  5
2BAB
330
1F
100
AcDbEntity
  8
APL Notes
100
AcDbText
 10
24.68363044686139
 20
380.9181890441545
 30
0.0
 40
5.0
  1
08565
  7
Arial-Bold
 72
     2
 11
44.10723208396916
 21
380.9181890441545
 31
0.0
100
AcDbText
  0
TEXT
  5
2BAC
330
1F
100
AcDbEntity
  8
APL Notes
100
AcDbText
 10
14.68363044686139
 20
344.6416324548088
 30
0.0
 40
5.0
  1
08563
  7
Arial-Bold
 72
     2
 11
34.10723208396917
 21
344.6416324548088
 31
0.0
100
AcDbText
  0
TEXT
  5
2BAD
330
1F
100
AcDbEntity
  8
APL Notes
100
AcDbText
 10
62.72352473851572
 20
467.9506791336857
 30
0.0
 40
5.0
  1
08594
  7
Arial-Bold
100
AcDbText
  0
TEXT
  5
2BAE
330
1F
100
AcDbEntity
  8
APL Notes
100
AcDbText
 10
13.92646810034024
 20
247.6416324548087
 30
0.0
 40
5.0
  1
Frame
  7
Arial-Regular
 72
     2
 11
34.10723208396917
 21
247.6416324548087
 31
0.0
100
AcDbText
  0
TEXT
  5
2BAF
330
1F
100
AcDbEntity
  8
APL Notes
100
AcDbText
 10
24.68363044686139
 20
283.9181890441545
 30
0.0
 40
5.0
  1
08565
  7
Arial-Bold
 72
     2
 11
44.10723208396916
 21
283.9181890441545
 31
0.0
100
AcDbText
  0
TEXT
  5
2BB0
330
1F
100
AcDbEntity
  8
APL Notes
100
AcDbText
 10
62.72352473851572
 20
235.8324962696866
 30
0.0
 40
5.0
  1
08594
  7
Arial-Bold
100
AcDbText
  0
TEXT
  5
2BB3
330
1F
100
AcDbEntity
  8
APL Notes
100
AcDbText
 10
96.96591891976789
 20
12.68112143133186
 30
0.0
 40
5.0
  1
08561
  7
Arial-Bold
100
AcDbText
  0
TEXT
  5
2BB5
330
1F
100
AcDbEntity
  8
APL Notes
100
AcDbText
 10
182.9659189197683
 20
12.68112143133294
 30
0.0
 40
5.0
  1
08561
  7
Arial-Bold
100
AcDbText
  0
TEXT
  5
2BB8
330
1F
100
AcDbEntity
  8
APL Notes
100
AcDbText
 10
142.7883655271949
 20
122.3201226197424
 30
0.0
 40
5.0
  1
08561
  7
Arial-Bold
100
AcDbText
  0
TEXT
  5
2BB9
330
1F
100
AcDbEntity
  8
APL Notes
100
AcDbText
 10
261.6872412776094
 20
12.68112143133294
 30
0.0
 40
5.0
  1
08567
  7
Arial-Bold
100
AcDbText
  0
TEXT
  5
2BBA
330
1F
100
AcDbEntity
  8
APL Notes
100
AcDbText
 10
251.3996308532105
 20
122.3201226197424
 30
0.0
 40
5.0
  1
08508
  7
Arial-Bold
100
AcDbText
  0
TEXT
  5
2BC1
330
1F
100
AcDbEntity
  8
APL Notes
100
AcDbText
 10
142.7883655271949
 20
249.5573270568318
 30
0.0
 40
5.0
  1
08561
  7
Arial-Bold
100
AcDbText
  0
TEXT
  5
2BC2
330
1F
100
AcDbEntity
  8
APL Notes
100
AcDbText
 10
182.9659189197683
 20
139.9183258684222
 30
0.0
 40
5.0
  1
08561
  7
Arial-Bold
100
AcDbText
  0
TEXT
  5
2BC3
330
1F
100
AcDbEntity
  8
APL Notes
100
AcDbText
 10
231.6741418630378
 20
139.9183258684222
 30
0.0
 40
5.0
  1
08569
  7
Arial-Bold
100
AcDbText
  0
TEXT
  5
2BC4
330
1F
100
AcDbEntity
  8
APL Notes
100
AcDbText
 10
299.1633224502976
 20
249.5573270568318
 30
0.0
 40
5.0
  1
08568
  7
Arial-Bold
100
AcDbText
  0
LINE
  5
2C0E
330
1F
100
AcDbEntity
  8
APL Building
100
AcDbLine
 10
87.00062110680255
 20
129.7503087418377
 30
0.0
 11
87.00062110680262
 21
10.25093530923766
 31
0.0
  0
INSERT
  5
2C98
330
1F
100
AcDbEntity
  8
APL Joinery
100
AcDbBlockReference
  2
08561ripped
 10
87.0006211068026
 20
20.00062202553767
 30
0.0
 50
270.0
  0
TEXT
  5
2CA0
330
1F
100
AcDbEntity
  8
APL Notes
100
AcDbText
 10
96.96591891976789
 20
5.68112143133186
 30
0.0
 40
5.0
  1
(ripped)
  7
Arial-Regular
100
AcDbText
  0
LWPOLYLINE
  5
2D1F
330
1F
100
AcDbEntity
  8
APL Notes
100
AcDbPolyline
 90
        4
 70
     1
 43
0.3
 10
139.6072320839688
 20
397.3915877016862
 10
139.6072320839688
 20
408.3915877016861
 10
88.6072320839688
 20
408.3915877016861
 10
88.6072320839688
 20
397.3915877016862
  0
TEXT
  5
2D20
330
1F
100
AcDbEntity
  8
APL Notes
100
AcDbText
 10
91.60723208396879
 20
400.3915877016861
 30
0.0
 40
5.0
  1
SECTION A-A
  7
Arial-Bold
100
AcDbText
  0
LWPOLYLINE
  5
2D21
330
1F
100
AcDbEntity
  8
APL Notes
100
AcDbPolyline
 90
        4
 70
     1
 43
0.3
 10
129.0006211068028
 20
193.737826462627
 10
129.0006211068028
 20
204.737826462627
 10
78.00062110680278
 20
204.737826462627
 10
78.00062110680278
 20
193.737826462627
  0
TEXT
  5
2D22
330
1F
100
AcDbEntity
  8
APL Notes
100
AcDbText
 10
81.00062110680278
 20
196.737826462627
 30
0.0
 40
5.0
  1
SECTION B-B
  7
Arial-Bold
100
AcDbText
  0
LWPOLYLINE
  5
2D23
330
1F
100
AcDbEntity
  8
APL Notes
100
AcDbPolyline
 90
        4
 70
     1
 43
0.3
 10
61.00062110680278
 20
66.50062202553766
 10
61.00062110680278
 20
77.50062202553767
 10
10.00062110680278
 20
77.50062202553767
 10
10.00062110680278
 20
66.50062202553766
  0
TEXT
  5
2D24
330
1F
100
AcDbEntity
  8
APL Notes
100
AcDbText
 10
13.00062110680278
 20
69.50062202553766
 30
0.0
 40
5.0
  1
SECTION C-C
  7
Arial-Bold
100
AcDbText
  0
MTEXT
  5
2D42
330
1F
100
AcDbEntity
  8
APL Notes
100
AcDbMText
 10
257.4062540314096
 20
445.5701341209194
 30
0.0
 40
5.0
 41
84.0
 71
     1
 72
     5
  1
{\LNote} -\P\POnly use this product for internal partitioning or external balustrade.
  7
Arial-Bold
 73
     1
 44
1.0
1001
ACAD
1000
MTEXTBEGIN
1070
    73
1070
     1
1070
    44
1040
1.0
1070
    74
1070
     0
1000
MTEXTEND
  0
TEXT
  5
2DBA
330
1F
100
AcDbEntity
  8
APL Notes
100
AcDbText
 10
157.5405380374701
 20
452.7385201749995
 30
0.0
 40
5.0
  1
A
  7
Arial-Bold
100
AcDbText
  0
SOLID
  5
2DBC
330
1F
100
AcDbEntity
  8
APL Notes
  6
Continuous
 62
     8
100
AcDbTrace
 10
168.6942157427558
 20
453.98401951388
 30
0.0
 11
172.6942157427558
 21
454.6506861805466
 31
0.0
 12
168.6942157427558
 22
455.3173528472131
 32
0.0
 13
168.6942157427558
 23
455.3173528472131
 33
0.0
1001
ACAD
1000
DSTYLE
1002
{
1070
   147
1040
0.625
1070
    77
1070
     0
1002
}
  0
TEXT
  5
2DBD
330
1F
100
AcDbEntity
  8
APL Notes
100
AcDbText
 10
180.4969224959092
 20
428.234844449047
 30
0.0
 40
5.0
  1
B
  7
Arial-Bold
100
AcDbText
  0
LWPOLYLINE
  5
2DBE
330
1F
100
AcDbEntity
  8
APL Notes
  6
Continuous
 62
     8
 48
10.0
100
AcDbPolyline
 90
        2
 70
     0
 43
0.0
 10
197.7433854063158
 20
416.1506861805466
 10
183.3298634024819
 20
416.1506861805466
  0
SOLID
  5
2DBF
330
1F
100
AcDbEntity
  8
APL Notes
  6
Continuous
 62
     8
100
AcDbTrace
 10
182.6631967358153
 20
420.1506861805466
 30
0.0
 11
183.3298634024819
 21
416.1506861805466
 31
0.0
 12
183.9965300691485
 22
420.1506861805466
 32
0.0
 13
183.9965300691485
 23
420.1506861805466
 33
0.0
1001
ACAD
1000
DSTYLE
1002
{
1070
   147
1040
0.625
1070
    77
1070
     0
1002
}
  0
TEXT
  5
2DC2
330
1F
100
AcDbEntity
  8
APL Notes
100
AcDbText
 10
157.5405380374701
 20
363.7385201749996
 30
0.0
 40
5.0
  1
A
  7
Arial-Bold
100
AcDbText
  0
SOLID
  5
2DC4
330
1F
100
AcDbEntity
  8
APL Notes
  6
Continuous
 62
     8
100
AcDbTrace
 10
168.6942157427558
 20
364.98401951388
 30
0.0
 11
172.6942157427558
 21
365.6506861805466
 31
0.0
 12
168.6942157427558
 22
366.3173528472133
 32
0.0
 13
168.6942157427558
 23
366.3173528472133
 33
0.0
1001
ACAD
1000
DSTYLE
1002
{
1070
   147
1040
0.625
1070
    77
1070
     0
1002
}
  0
LWPOLYLINE
  5
2DC5
330
1F
100
AcDbEntity
  8
APL Notes
  6
Continuous
 62
     8
 48
10.0
100
AcDbPolyline
 90
        4
 70
     0
 43
0.0
 10
218.2849493864113
 20
418.3053867189258
 10
215.713152616687
 20
416.8205591616245
 42
-0.1316524975873982
 10
213.2131526166869
 20
416.1506861805466
 10
210.5528985788425
 20
416.1506861805466
  0
LWPOLYLINE
  5
2DC7
330
1F
100
AcDbEntity
  8
APL Notes
  6
Continuous
 62
     8
 48
10.0
100
AcDbPolyline
 90
        2
 70
     0
 43
0.0
 10
225.6257238127544
 20
422.5435848100354
 10
222.1736968599726
 20
420.550556119597
  0
SOLID
  5
2DC8
330
1F
100
AcDbEntity
  8
APL Notes
  6
Continuous
 62
     8
100
AcDbTrace
 10
224.9590571460877
 20
426.5435848100354
 30
0.0
 11
225.6257238127544
 21
422.5435848100354
 31
0.0
 12
226.292390479421
 22
426.5435848100354
 32
0.0
 13
226.292390479421
 23
426.5435848100354
 33
0.0
1001
ACAD
1000
DSTYLE
1002
{
1070
   147
1040
0.625
1070
    77
1070
     0
1002
}
  0
TEXT
  5
2DC9
330
1F
100
AcDbEntity
  8
APL Notes
100
AcDbText
 10
222.7927829061816
 20
434.6277430785358
 30
0.0
 40
5.0
  1
B
  7
Arial-Bold
100
AcDbText
  0
SOLID
  5
2DCA
330
1F
100
AcDbEntity
  8
APL Notes
  6
Continuous
 62
     8
 48
10.0
100
AcDbTrace
 10
263.2560662786919
 20
336.9619613894706
 30
0.0
 11
263.9227329453586
 21
332.9619613894706
 31
0.0
 12
264.5893996120253
 22
336.9619613894706
 32
0.0
 13
264.5893996120253
 23
336.9619613894706
 33
0.0
1001
ACAD
1000
DSTYLE
1002
{
1070
   147
1040
0.625
1070
    77
1070
     0
1002
}
  0
LWPOLYLINE
  5
2DCB
330
1F
100
AcDbEntity
  8
APL Notes
  6
Continuous
 62
     8
 48
10.0
100
AcDbPolyline
 90
        2
 70
     0
 43
0.0
 10
271.5481732421365
 20
328.5594113814363
 10
263.9227329453586
 20
332.9619613894706
  0
TEXT
  5
2DCC
330
1F
100
AcDbEntity
  8
APL Notes
100
AcDbText
 10
261.2818836451391
 20
344.9259248383186
 30
0.0
 40
5.0
  1
C
  7
Arial-Bold
100
AcDbText
  0
SOLID
  5
2DCF
330
1F
100
AcDbEntity
  8
APL Notes
  6
Continuous
 62
     8
 48
10.0
100
AcDbTrace
 10
293.5971947985585
 20
332.0454431853753
 30
0.0
 11
294.2638614652251
 21
328.0454431853753
 31
0.0
 12
294.9305281318918
 22
332.0454431853753
 32
0.0
 13
294.9305281318918
 23
332.0454431853753
 33
0.0
1001
ACAD
1000
DSTYLE
1002
{
1070
   147
1040
0.625
1070
    77
1070
     0
1002
}
  0
LWPOLYLINE
  5
2DD0
330
1F
100
AcDbEntity
  8
APL Notes
  6
Continuous
 62
     8
 48
10.0
100
AcDbPolyline
 90
        2
 70
     0
 43
0.0
 10
294.2638614652251
 20
328.0454431853753
 10
291.4322304975032
 20
326.4106002839154
  0
TEXT
  5
2DD1
330
1F
100
AcDbEntity
  8
APL Notes
100
AcDbText
 10
291.6230121650055
 20
340.0094066342234
 30
0.0
 40
5.0
  1
C
  7
Arial-Bold
100
AcDbText
  0
LWPOLYLINE
  5
2DD2
330
1F
100
AcDbEntity
  8
APL Notes
  6
Continuous
 62
     8
 48
10.0
100
AcDbPolyline
 90
        3
 70
     0
 43
0.0
 10
287.7642974905509
 20
324.2929181749819
 10
283.351126868207
 20
321.7449729281918
 10
278.8840392560416
 20
324.3240471635691
  0
TEXT
  5
2DDE
330
1F
100
AcDbEntity
  8
APL Notes
100
AcDbText
 10
21.2218296283075
 20
412.8649863592177
 30
0.0
 40
5.0
  1
Curved
  7
Arial-Regular
 72
     2
 11
44.10723208396916
 21
412.8649863592177
 31
0.0
100
AcDbText
  0
TEXT
  5
2DDF
330
1F
100
AcDbEntity
  8
APL Notes
100
AcDbText
 10
27.42578597210013
 20
405.8649863592178
 30
0.0
 40
5.0
  1
Bead
  7
Arial-Regular
 72
     2
 11
44.10723208396916
 21
405.8649863592178
 31
0.0
100
AcDbText
  0
TEXT
  5
2DE2
330
1F
100
AcDbEntity
  8
APL Notes
100
AcDbText
 10
14.68363044686139
 20
254.6416324548088
 30
0.0
 40
5.0
  1
08564
  7
Arial-Bold
 72
     2
 11
34.10723208396917
 21
254.6416324548088
 31
0.0
100
AcDbText
  0
TEXT
  5
2DE6
330
1F
100
AcDbEntity
  8
APL Notes
100
AcDbText
 10
6.12633167469222
 20
337.6416324548088
 30
0.0
 40
5.0
  1
Transom
  7
Arial-Regular
 72
     2
 11
34.10723208396917
 21
337.6416324548088
 31
0.0
100
AcDbText
  0
TEXT
  5
2DE8
330
1F
100
AcDbEntity
  8
APL Notes
100
AcDbText
 10
62.72352473851572
 20
228.8324962696866
 30
0.0
 40
5.0
  1
Flat Infill
  7
Arial-Regular
100
AcDbText
  0
TEXT
  5
2DEA
330
1F
100
AcDbEntity
  8
APL Notes
100
AcDbText
 10
182.9659189197683
 20
5.68112143133294
 30
0.0
 40
5.0
  1
Split Mullion
  7
Arial-Regular
100
AcDbText
  0
TEXT
  5
2DEB
330
1F
100
AcDbEntity
  8
APL Notes
100
AcDbText
 10
261.6872412776094
 20
5.68112143133294
 30
0.0
 40
5.0
  1
90%%d Corner Post
  7
Arial-Regular
100
AcDbText
  0
TEXT
  5
2DEC
330
1F
100
AcDbEntity
  8
APL Notes
100
AcDbText
 10
299.1633224502976
 20
242.5573270568317
 30
0.0
 40
5.0
  1
Female
  7
Arial-Regular
100
AcDbText
  0
TEXT
  5
2DED
330
1F
100
AcDbEntity
  8
APL Notes
100
AcDbText
 10
299.1633224502976
 20
228.5573270568317
 30
0.0
 40
5.0
  1
Corner Post
  7
Arial-Regular
100
AcDbText
  0
TEXT
  5
2DEE
330
1F
100
AcDbEntity
  8
APL Notes
100
AcDbText
 10
299.1633224502976
 20
235.5573270568318
 30
0.0
 40
5.0
  1
Adjustable
  7
Arial-Regular
100
AcDbText
  0
TEXT
  5
2DF0
330
1F
100
AcDbEntity
  8
APL Notes
100
AcDbText
 10
218.001090950716
 20
270.5573270568318
 30
0.0
 40
5.0
  1
08569
  7
Arial-Bold
100
AcDbText
  0
TEXT
  5
2DF1
330
1F
100
AcDbEntity
  8
APL Notes
100
AcDbText
 10
218.001090950716
 20
263.5573270568317
 30
0.0
 40
5.0
  1
Male
  7
Arial-Regular
100
AcDbText
  0
TEXT
  5
2DF2
330
1F
100
AcDbEntity
  8
APL Notes
100
AcDbText
 10
218.001090950716
 20
249.5573270568318
 30
0.0
 40
5.0
  1
Corner Post
  7
Arial-Regular
100
AcDbText
  0
TEXT
  5
2DF3
330
1F
100
AcDbEntity
  8
APL Notes
100
AcDbText
 10
218.001090950716
 20
256.5573270568318
 30
0.0
 40
5.0
  1
Adjustable
  7
Arial-Regular
100
AcDbText
  0
LWPOLYLINE
  5
300C
330
1F
100
AcDbEntity
  8
0
100
AcDbPolyline
 90
        4
 70
     1
 43
0.0
 10
-0.0000008078504834
 20
482.0000001108869
 10
-0.0000008078504834
 20
0.0000001108869583
 10
353.9999991921495
 20
0.0000001108869583
 10
353.9999991921495
 20
482.0000001108869
  0
LINE
  5
3129
330
1F
100
AcDbEntity
  8
APL Joinery
 62
     7
100
AcDbLine
 10
72.60723208396844
 20
392.8915877016862
 30
0.0
 11
72.60723208396844
 21
397.8915877016861
 31
0.0
  0
LINE
  5
312A
330
1F
100
AcDbEntity
  8
APL Joinery
 62
     8
100
AcDbLine
 10
74.60723208396844
 20
392.8915877016862
 30
0.0
 11
74.60723208396844
 21
397.8915877016861
 31
0.0
  0
LINE
  5
312B
330
1F
100
AcDbEntity
  8
APL Joinery
 62
     7
100
AcDbLine
 10
78.60723208396844
 20
392.8915877016862
 30
0.0
 11
78.60723208396844
 21
397.8915877016861
 31
0.0
  0
LINE
  5
312C
330
1F
100
AcDbEntity
  8
APL Joinery
 62
     8
100
AcDbLine
 10
76.60723208396844
 20
392.8915877016862
 30
0.0
 11
76.60723208396844
 21
397.8915877016861
 31
0.0
  0
LINE
  5
316B
330
1F
100
AcDbEntity
  8
APL Joinery
 62
     7
100
AcDbLine
 10
72.60723208396917
 20
407.8915877016855
 30
0.0
 11
72.60723208396917
 21
412.8915877016855
 31
0.0
  0
LINE
  5
316C
330
1F
100
AcDbEntity
  8
APL Joinery
 62
     8
100
AcDbLine
 10
74.60723208396917
 20
407.8915877016855
 30
0.0
 11
74.60723208396917
 21
412.8915877016855
 31
0.0
  0
LINE
  5
316D
330
1F
100
AcDbEntity
  8
APL Joinery
 62
     7
100
AcDbLine
 10
78.60723208396916
 20
407.8915877016855
 30
0.0
 11
78.60723208396916
 21
412.8915877016855
 31
0.0
  0
LINE
  5
316E
330
1F
100
AcDbEntity
  8
APL Joinery
 62
     8
100
AcDbLine
 10
76.60723208396916
 20
407.8915877016855
 30
0.0
 11
76.60723208396916
 21
412.8915877016855
 31
0.0
  0
INSERT
  5
31AD
330
1F
100
AcDbEntity
  8
APL Joinery
100
AcDbBlockReference
  2
9010655-6.0mm
 10
66.60723208396916
 20
388.8915877016861
 30
0.0
  0
INSERT
  5
31AE
330
1F
100
AcDbEntity
  8
APL Joinery
100
AcDbBlockReference
  2
9010655-6.0mm
 10
66.60723208396916
 20
416.8915877016856
 30
0.0
 41
-1.0
 50
180.0
  0
INSERT
  5
31E7
330
1F
100
AcDbEntity
  8
APL Joinery
100
AcDbBlockReference
  2
6Glass
 10
66.10723208396837
 20
288.8915877016865
 30
0.0
 50
180.0
  0
INSERT
  5
31E8
330
1F
100
AcDbEntity
  8
APL Joinery
100
AcDbBlockReference
  2
9010600
 10
80.60723208396968
 20
291.891587701687
 30
0.0
  0
LINE
  5
31E9
330
1F
100
AcDbEntity
  8
APL Joinery
 62
     7
100
AcDbLine
 10
72.60723208396832
 20
295.8915877016867
 30
0.0
 11
72.60723208396832
 21
300.8915877016867
 31
0.0
  0
LINE
  5
31EA
330
1F
100
AcDbEntity
  8
APL Joinery
 62
     8
100
AcDbLine
 10
74.60723208396832
 20
295.8915877016867
 30
0.0
 11
74.60723208396832
 21
300.8915877016867
 31
0.0
  0
LINE
  5
31EB
330
1F
100
AcDbEntity
  8
APL Joinery
 62
     7
100
AcDbLine
 10
78.60723208396833
 20
295.8915877016867
 30
0.0
 11
78.60723208396833
 21
300.8915877016867
 31
0.0
  0
LINE
  5
31EC
330
1F
100
AcDbEntity
  8
APL Joinery
 62
     8
100
AcDbLine
 10
76.60723208396833
 20
295.8915877016867
 30
0.0
 11
76.60723208396833
 21
300.8915877016867
 31
0.0
  0
INSERT
  5
31ED
330
1F
100
AcDbEntity
  8
APL Joinery
100
AcDbBlockReference
  2
9010655-6.0mm
 10
66.60723208396905
 20
291.8915877016867
 30
0.0
  0
INSERT
  5
31EE
330
1F
100
AcDbEntity
  8
APL Joinery
100
AcDbBlockReference
  2
6Glass
 10
66.10723208396928
 20
322.8915877016864
 30
0.0
 41
-1.0
  0
INSERT
  5
31EF
330
1F
100
AcDbEntity
  8
APL Joinery
100
AcDbBlockReference
  2
9010600
 10
80.60723208397059
 20
319.8915877016864
 30
0.0
 41
-1.0
 50
180.0
  0
LINE
  5
31F0
330
1F
100
AcDbEntity
  8
APL Joinery
 62
     7
100
AcDbLine
 10
72.60723208396922
 20
310.8915877016862
 30
0.0
 11
72.60723208396922
 21
315.8915877016862
 31
0.0
  0
LINE
  5
31F1
330
1F
100
AcDbEntity
  8
APL Joinery
 62
     8
100
AcDbLine
 10
74.60723208396922
 20
310.8915877016862
 30
0.0
 11
74.60723208396922
 21
315.8915877016862
 31
0.0
  0
LINE
  5
31F2
330
1F
100
AcDbEntity
  8
APL Joinery
 62
     7
100
AcDbLine
 10
78.60723208396922
 20
310.8915877016862
 30
0.0
 11
78.60723208396922
 21
315.8915877016862
 31
0.0
  0
LINE
  5
31F3
330
1F
100
AcDbEntity
  8
APL Joinery
 62
     8
100
AcDbLine
 10
76.60723208396922
 20
310.8915877016862
 30
0.0
 11
76.60723208396922
 21
315.8915877016862
 31
0.0
  0
INSERT
  5
31F4
330
1F
100
AcDbEntity
  8
APL Joinery
100
AcDbBlockReference
  2
9010655-6.0mm
 10
66.60723208396922
 20
319.8915877016863
 30
0.0
 41
-1.0
 50
180.0
  0
INSERT
  5
3234
330
1F
100
AcDbEntity
  8
APL Joinery
100
AcDbBlockReference
  2
9010655-6.0mm
 10
149.0006211068031
 20
190.237826462627
 30
0.0
 50
90.0
  0
INSERT
  5
326D
330
1F
100
AcDbEntity
  8
APL Joinery
100
AcDbBlockReference
  2
9010655-6.0mm
 10
197.0006211068031
 20
190.237826462627
 30
0.0
 41
-1.0
 50
270.0
  0
INSERT
  5
32A6
330
1F
100
AcDbEntity
  8
APL Joinery
100
AcDbBlockReference
  2
6Glass
 10
238.0006211068041
 20
189.7378264626272
 30
0.0
 50
270.0
  0
INSERT
  5
32A7
330
1F
100
AcDbEntity
  8
APL Joinery
100
AcDbBlockReference
  2
9010600
 10
235.0006211068035
 20
204.2378264626286
 30
0.0
 50
90.0
  0
INSERT
  5
32A8
330
1F
100
AcDbEntity
  8
APL Joinery
100
AcDbBlockReference
  2
9010655-6.0mm
 10
235.0006211068034
 20
190.2378264626272
 30
0.0
 50
90.0
  0
INSERT
  5
32A9
330
1F
100
AcDbEntity
  8
APL Joinery
100
AcDbBlockReference
  2
6Glass
 10
148.0006211068033
 20
62.50062202553769
 30
0.0
 50
270.0
  0
INSERT
  5
32AA
330
1F
100
AcDbEntity
  8
APL Joinery
100
AcDbBlockReference
  2
9010600
 10
149.0006211068032
 20
77.00062202553906
 30
0.0
 50
90.0
  0
INSERT
  5
32AB
330
1F
100
AcDbEntity
  8
APL Joinery
100
AcDbBlockReference
  2
9010655-6.0mm
 10
149.0006211068031
 20
63.00062202553767
 30
0.0
 50
90.0
  0
INSERT
  5
32AC
330
1F
100
AcDbEntity
  8
APL Joinery
100
AcDbBlockReference
  2
6Glass
 10
112.0006211068022
 20
62.50062202553749
 30
0.0
 41
-1.0
 50
90.0
  0
INSERT
  5
32AD
330
1F
100
AcDbEntity
  8
APL Joinery
100
AcDbBlockReference
  2
9010600
 10
111.0006211068024
 20
77.000622025539
 30
0.0
 41
-1.0
 50
270.0
  0
INSERT
  5
32AE
330
1F
100
AcDbEntity
  8
APL Joinery
100
AcDbBlockReference
  2
9010655-6.0mm
 10
111.0006211068026
 20
63.0006220255376
 30
0.0
 41
-1.0
 50
270.0
  0
INSERT
  5
32AF
330
1F
100
AcDbEntity
  8
APL Joinery
100
AcDbBlockReference
  2
6Glass
 10
198.0006211068028
 20
62.50062202553761
 30
0.0
 41
-1.0
 50
90.0
  0
INSERT
  5
32B0
330
1F
100
AcDbEntity
  8
APL Joinery
100
AcDbBlockReference
  2
9010600
 10
197.0006211068029
 20
77.00062202553912
 30
0.0
 41
-1.0
 50
270.0
  0
INSERT
  5
32B1
330
1F
100
AcDbEntity
  8
APL Joinery
100
AcDbBlockReference
  2
9010655-6.0mm
 10
197.0006211068031
 20
63.00062202553772
 30
0.0
 41
-1.0
 50
270.0
  0
LINE
  5
32BC
330
1F
100
AcDbEntity
  8
APL Joinery
 62
     7
100
AcDbLine
 10
231.0006211068039
 20
196.2378264626272
 30
0.0
 11
226.0006211068039
 21
196.2378264626272
 31
0.0
  0
LINE
  5
32BD
330
1F
100
AcDbEntity
  8
APL Joinery
 62
     8
100
AcDbLine
 10
231.0006211068039
 20
198.2378264626272
 30
0.0
 11
226.0006211068039
 21
198.2378264626272
 31
0.0
  0
LINE
  5
32BE
330
1F
100
AcDbEntity
  8
APL Joinery
 62
     7
100
AcDbLine
 10
231.0006211068039
 20
202.2378264626272
 30
0.0
 11
226.0006211068039
 21
202.2378264626272
 31
0.0
  0
LINE
  5
32BF
330
1F
100
AcDbEntity
  8
APL Joinery
 62
     8
100
AcDbLine
 10
231.0006211068039
 20
200.2378264626272
 30
0.0
 11
226.0006211068039
 21
200.2378264626272
 31
0.0
  0
INSERT
  5
32C0
330
1F
100
AcDbEntity
  8
APL Joinery
100
AcDbBlockReference
  2
6Glass
 10
238.0006211068036
 20
62.50000011088698
 30
0.0
 50
270.0
  0
INSERT
  5
32C1
330
1F
100
AcDbEntity
  8
APL Joinery
100
AcDbBlockReference
  2
9010600
 10
235.000621106803
 20
77.00000011088835
 30
0.0
 50
90.0
  0
INSERT
  5
32C2
330
1F
100
AcDbEntity
  8
APL Joinery
100
AcDbBlockReference
  2
9010655-6.0mm
 10
235.000621106803
 20
63.00000011088696
 30
0.0
 50
90.0
  0
LINE
  5
32C3
330
1F
100
AcDbEntity
  8
APL Joinery
 62
     7
100
AcDbLine
 10
231.0006211068035
 20
69.00000011088692
 30
0.0
 11
226.0006211068035
 21
69.00000011088692
 31
0.0
  0
LINE
  5
32C4
330
1F
100
AcDbEntity
  8
APL Joinery
 62
     8
100
AcDbLine
 10
231.0006211068035
 20
71.00000011088693
 30
0.0
 11
226.0006211068035
 21
71.00000011088693
 31
0.0
  0
LINE
  5
32C5
330
1F
100
AcDbEntity
  8
APL Joinery
 62
     7
100
AcDbLine
 10
231.0006211068035
 20
75.00000011088693
 30
0.0
 11
226.0006211068035
 21
75.00000011088693
 31
0.0
  0
LINE
  5
32C6
330
1F
100
AcDbEntity
  8
APL Joinery
 62
     8
100
AcDbLine
 10
231.0006211068035
 20
73.00000011088693
 30
0.0
 11
226.0006211068035
 21
73.00000011088693
 31
0.0
  0
INSERT
  5
32C7
330
1F
100
AcDbEntity
  8
APL Joinery
100
AcDbBlockReference
  2
6Glass
 10
276.4999991921508
 20
115.9993781962345
 30
0.0
 50
180.0
  0
INSERT
  5
32C8
330
1F
100
AcDbEntity
  8
APL Joinery
100
AcDbBlockReference
  2
9010600
 10
290.9999991921521
 20
118.999378196235
 30
0.0
  0
INSERT
  5
32C9
330
1F
100
AcDbEntity
  8
APL Joinery
100
AcDbBlockReference
  2
9010655-6.0mm
 10
276.9999991921515
 20
118.9993781962346
 30
0.0
  0
LINE
  5
32CA
330
1F
100
AcDbEntity
  8
APL Joinery
 62
     7
100
AcDbLine
 10
282.9999991921507
 20
122.9993781962346
 30
0.0
 11
282.9999991921507
 21
127.9993781962346
 31
0.0
  0
LINE
  5
32CB
330
1F
100
AcDbEntity
  8
APL Joinery
 62
     8
100
AcDbLine
 10
284.9999991921507
 20
122.9993781962346
 30
0.0
 11
284.9999991921507
 21
127.9993781962346
 31
0.0
  0
LINE
  5
32CC
330
1F
100
AcDbEntity
  8
APL Joinery
 62
     7
100
AcDbLine
 10
288.9999991921507
 20
122.9993781962346
 30
0.0
 11
288.9999991921507
 21
127.9993781962346
 31
0.0
  0
LINE
  5
32CD
330
1F
100
AcDbEntity
  8
APL Joinery
 62
     8
100
AcDbLine
 10
286.9999991921507
 20
122.9993781962346
 30
0.0
 11
286.9999991921507
 21
127.9993781962346
 31
0.0
  0
INSERT
  5
3306
330
1F
100
AcDbEntity
  8
APL Joinery
100
AcDbBlockReference
  2
9010655-6.0mm
 10
306.9444152075899
 20
209.9792333755128
 30
0.0
 41
-1.0
 50
300.6886159400335
  0
INSERT
  5
3425
330
1F
100
AcDbEntity
  8
APL Joinery
100
AcDbBlockReference
  2
Conc
 10
75.16277294150552
 20
110.3224234040592
 30
0.0
 50
270.0
  0
INSERT
  5
3426
330
1F
100
AcDbEntity
  8
APL Joinery
100
AcDbBlockReference
  2
Conc
 10
75.16277294150551
 20
38.45266312211089
 30
0.0
 50
270.0
  0
LWPOLYLINE
  5
349B
330
1F
100
AcDbEntity
  8
APL Notes
  6
Continuous
 62
     8
 48
10.0
100
AcDbPolyline
 90
        2
 70
     0
 43
0.0
 10
294.2638614652251
 20
332.0454431853753
 10
294.2638614652251
 20
338.0454431853753
1001
ACAD
1000
DSTYLE
1002
{
1070
   147
1040
0.625
1070
    77
1070
     0
1002
}
  0
LWPOLYLINE
  5
349C
330
1F
100
AcDbEntity
  8
APL Notes
  6
Continuous
 62
     8
 48
10.0
100
AcDbPolyline
 90
        2
 70
     0
 43
0.0
 10
263.9227329453586
 20
336.9619613894706
 10
263.9227329453586
 20
342.9619613894705
1001
ACAD
1000
DSTYLE
1002
{
1070
   147
1040
0.625
1070
    77
1070
     0
1002
}
  0
LWPOLYLINE
  5
349D
330
1F
100
AcDbEntity
  8
APL Notes
 62
     2
100
AcDbPolyline
 90
        6
 70
     1
 43
0.0
 10
315.6620160006625
 20
294.5902723898126
 10
315.6620160006623
 20
374.2090745433297
 10
283.351126868207
 20
355.5543740049504
 10
251.0402377357515
 20
374.2090745433296
 10
251.0402377357515
 20
294.5902723898126
 10
283.351126868207
 20
275.9355718514333
  0
LWPOLYLINE
  5
34A3
330
1F
100
AcDbEntity
  8
APL Notes
 62
     2
100
AcDbPolyline
 90
        4
 70
     0
 43
0.0
 10
285.0831776757758
 20
354.2449729281919
 10
313.6620160006623
 20
370.7449729281919
 10
313.6620160006624
 20
295.7449729281918
 10
285.0831776757758
 20
279.2449729281919
  0
LWPOLYLINE
  5
34A4
330
1F
100
AcDbEntity
  8
APL Notes
 62
     2
100
AcDbPolyline
 90
        2
 70
     0
 43
0.0
 10
285.0831776757758
 20
317.7449729281918
 10
297.6405460306501
 20
324.9949729281918
  0
LWPOLYLINE
  5
34A5
330
1F
100
AcDbEntity
  8
APL Notes
 62
     2
100
AcDbPolyline
 90
        2
 70
     0
 43
0.0
 10
285.0831776757758
 20
315.7449729281918
 10
297.6405460306501
 20
322.9949729281918
  0
LWPOLYLINE
  5
34A7
330
1F
100
AcDbEntity
  8
APL Notes
 62
     2
100
AcDbPolyline
 90
        2
 70
     0
 43
0.0
 10
299.3725968382191
 20
325.9949729281918
 10
313.6620160006623
 20
334.2449729281918
  0
LWPOLYLINE
  5
34A8
330
1F
100
AcDbEntity
  8
APL Notes
 62
     2
100
AcDbPolyline
 90
        2
 70
     0
 43
0.0
 10
299.3725968382191
 20
323.9949729281918
 10
313.6620160006623
 20
332.2449729281918
  0
LWPOLYLINE
  5
34A9
330
1F
100
AcDbEntity
  8
APL Notes
 62
     2
100
AcDbPolyline
 90
        2
 70
     0
 43
0.0
 10
299.3725968382191
 20
362.4949729281919
 10
299.3725968382191
 20
287.4949729281918
  0
LWPOLYLINE
  5
34AB
330
1F
100
AcDbEntity
  8
APL Notes
 62
     2
100
AcDbPolyline
 90
        2
 70
     0
 43
0.0
 10
283.3511268682069
 20
355.5543740049504
 10
283.351126868207
 20
275.9355718514334
  0
LWPOLYLINE
  5
34AC
330
1F
100
AcDbEntity
  8
APL Notes
 62
     2
100
AcDbPolyline
 90
        2
 70
     0
 43
0.0
 10
283.351126868207
 20
353.2449729281918
 10
283.351126868207
 20
278.2449729281918
  0
LWPOLYLINE
  5
34AD
330
1F
100
AcDbEntity
  8
APL Notes
 62
     2
100
AcDbPolyline
 90
        2
 70
     0
 43
0.0
 10
297.6405460306501
 20
361.4949729281919
 10
297.6405460306502
 20
286.4949729281918
  0
LWPOLYLINE
  5
34AE
330
1F
100
AcDbEntity
  8
APL Notes
 62
     2
100
AcDbPolyline
 90
        2
 70
     0
 43
0.0
 10
285.0831776757758
 20
356.5543740049504
 10
285.0831776757758
 20
276.9355718514333
  0
LWPOLYLINE
  5
34AF
330
1F
100
AcDbEntity
  8
APL Notes
 62
     2
100
AcDbPolyline
 90
        2
 70
     0
 43
0.0
 10
281.6190760606382
 20
356.5543740049504
 10
281.6190760606382
 20
276.9355718514333
  0
LWPOLYLINE
  5
34B0
330
1F
100
AcDbEntity
  8
APL Notes
 62
     2
100
AcDbPolyline
 90
        2
 70
     0
 43
0.0
 10
267.3296568981949
 20
323.9949729281919
 10
253.0402377357516
 20
332.2449729281918
  0
LWPOLYLINE
  5
34B1
330
1F
100
AcDbEntity
  8
APL Notes
 62
     2
100
AcDbPolyline
 90
        2
 70
     0
 43
0.0
 10
267.3296568981949
 20
325.9949729281919
 10
253.0402377357516
 20
334.2449729281918
  0
LWPOLYLINE
  5
34B2
330
1F
100
AcDbEntity
  8
APL Notes
 62
     2
100
AcDbPolyline
 90
        4
 70
     0
 43
0.0
 10
281.6190760606381
 20
354.2449729281917
 10
253.0402377357516
 20
370.7449729281919
 10
253.0402377357515
 20
295.7449729281918
 10
281.6190760606381
 20
279.2449729281918
  0
LWPOLYLINE
  5
34B3
330
1F
100
AcDbEntity
  8
APL Notes
 62
     2
100
AcDbPolyline
 90
        2
 70
     0
 43
0.0
 10
269.0617077057637
 20
361.4949729281919
 10
269.0617077057636
 20
286.4949729281918
  0
LWPOLYLINE
  5
34B4
330
1F
100
AcDbEntity
  8
APL Notes
 62
     2
100
AcDbPolyline
 90
        2
 70
     0
 43
0.0
 10
267.3296568981949
 20
362.4949729281919
 10
267.3296568981948
 20
287.4949729281918
  0
LWPOLYLINE
  5
34B7
330
1F
100
AcDbEntity
  8
APL Notes
 62
     2
100
AcDbPolyline
 90
        2
 70
     0
 43
0.0
 10
281.6190760606382
 20
317.7449729281918
 10
269.0617077057637
 20
324.9949729281919
  0
LWPOLYLINE
  5
34B8
330
1F
100
AcDbEntity
  8
APL Notes
 62
     2
100
AcDbPolyline
 90
        2
 70
     0
 43
0.0
 10
281.6190760606382
 20
315.7449729281919
 10
269.0617077057637
 20
322.9949729281919
  0
LWPOLYLINE
  5
34B9
330
1F
100
AcDbEntity
  8
APL Notes
  6
Continuous
 62
     8
 48
20.0
100
AcDbPolyline
 90
        2
 70
     0
 43
0.0
 10
225.6257238127544
 20
426.5435848100354
 10
225.6257238127544
 20
432.5435848100354
1001
ACAD
1000
DSTYLE
1002
{
1070
   147
1040
0.625
1070
    77
1070
     0
1002
}
  0
LWPOLYLINE
  5
34BA
330
1F
100
AcDbEntity
  8
APL Notes
  6
Continuous
 62
     8
 48
10.0
100
AcDbPolyline
 90
        2
 70
     0
 43
0.0
 10
172.6942157427557
 20
382.6506861805466
 10
172.6942157427558
 20
365.6506861805466
  0
LWPOLYLINE
  5
34BB
330
1F
100
AcDbEntity
  8
APL Notes
  6
Continuous
 62
     8
 48
20.0
100
AcDbPolyline
 90
        2
 70
     0
 43
0.0
 10
168.6942157427557
 20
365.6506861805466
 10
162.6942157427558
 20
365.6506861805466
1001
ACAD
1000
DSTYLE
1002
{
1070
   147
1040
0.625
1070
    77
1070
     0
1002
}
  0
LWPOLYLINE
  5
34BC
330
1F
100
AcDbEntity
  8
APL Notes
  6
Continuous
 62
     8
 48
20.0
100
AcDbPolyline
 90
        2
 70
     0
 43
0.0
 10
183.3298634024819
 20
420.1506861805466
 10
183.3298634024819
 20
426.1506861805465
1001
ACAD
1000
DSTYLE
1002
{
1070
   147
1040
0.625
1070
    77
1070
     0
1002
}
  0
LWPOLYLINE
  5
34BD
330
1F
100
AcDbEntity
  8
APL Notes
  6
Continuous
 62
     8
 48
10.0
100
AcDbPolyline
 90
        2
 70
     0
 43
0.0
 10
172.6942157427558
 20
454.6506861805466
 10
172.6942157427557
 20
437.6506861805466
  0
LWPOLYLINE
  5
34BE
330
1F
100
AcDbEntity
  8
APL Notes
  6
Continuous
 62
     8
 48
20.0
100
AcDbPolyline
 90
        2
 70
     0
 43
0.0
 10
168.6942157427557
 20
454.6506861805465
 10
162.6942157427558
 20
454.6506861805465
1001
ACAD
1000
DSTYLE
1002
{
1070
   147
1040
0.625
1070
    77
1070
     0
1002
}
  0
LWPOLYLINE
  5
34BF
330
1F
100
AcDbEntity
  8
APL Notes
 62
     2
100
AcDbPolyline
 90
        8
 70
     1
 43
0.0
 10
216.7131526166869
 20
371.5885083540556
 42
-0.1316524975873982
 10
213.2131526166869
 20
370.6506861805467
 10
162.5528985788425
 20
370.6506861805467
 10
162.5528985788425
 20
449.6506861805466
 10
213.2131526166869
 20
449.6506861805466
 42
0.1316524975873982
 10
214.7131526166869
 20
450.0526099691932
 10
246.8637877112978
 20
468.6147877956844
 10
246.8637877112979
 20
388.9959856421674
  0
LWPOLYLINE
  5
34C7
330
1F
100
AcDbEntity
  8
APL Notes
 62
     2
100
AcDbPolyline
 90
        8
 70
     1
 43
0.0
 10
244.8637877112979
 20
390.1506861805466
 10
216.2849493864113
 20
373.6506861805468
 42
-0.1779712911438103
 10
212.5528985788425
 20
372.6506861805467
 10
164.5528985788424
 20
372.6506861805467
 10
164.5528985788424
 20
447.6506861805466
 10
212.5528985788425
 20
447.6506861805466
 42
0.1779712911438007
 10
216.2849493864112
 20
448.6506861805465
 10
244.8637877112978
 20
465.1506861805466
  0
LWPOLYLINE
  5
34CA
330
1F
100
AcDbEntity
  8
APL Notes
 62
     2
100
AcDbPolyline
 90
        2
 70
     0
 43
0.0
 10
216.2849493864113
 20
410.1506861805464
 10
228.8423177412858
 20
417.4006861805467
  0
LWPOLYLINE
  5
34CB
330
1F
100
AcDbEntity
  8
APL Notes
 62
     2
100
AcDbPolyline
 90
        2
 70
     0
 43
0.0
 10
216.2849493864113
 20
412.1506861805465
 10
228.8423177412858
 20
419.4006861805466
  0
LWPOLYLINE
  5
34CE
330
1F
100
AcDbEntity
  8
APL Notes
 62
     2
100
AcDbPolyline
 90
        2
 70
     0
 43
0.0
 10
164.5528985788424
 20
409.1506861805466
 10
188.5528985788424
 20
409.1506861805466
  0
LWPOLYLINE
  5
34CF
330
1F
100
AcDbEntity
  8
APL Notes
 62
     2
100
AcDbPolyline
 90
        2
 70
     0
 43
0.0
 10
164.5528985788424
 20
411.1506861805466
 10
188.5528985788424
 20
411.1506861805466
  0
LWPOLYLINE
  5
34D1
330
1F
100
AcDbEntity
  8
APL Notes
 62
     2
100
AcDbPolyline
 90
        2
 70
     0
 43
0.0
 10
190.5528985788425
 20
411.1506861805466
 10
212.5528985788425
 20
411.1506861805465
  0
LWPOLYLINE
  5
34D2
330
1F
100
AcDbEntity
  8
APL Notes
 62
     2
100
AcDbPolyline
 90
        2
 70
     0
 43
0.0
 10
190.5528985788425
 20
409.1506861805466
 10
212.5528985788425
 20
409.1506861805466
  0
LWPOLYLINE
  5
34D5
330
1F
100
AcDbEntity
  8
APL Notes
 62
     2
100
AcDbPolyline
 90
        2
 70
     0
 43
0.0
 10
190.5528985788425
 20
447.6506861805466
 10
190.5528985788425
 20
372.6506861805467
  0
LWPOLYLINE
  5
34D6
330
1F
100
AcDbEntity
  8
APL Notes
 62
     2
100
AcDbPolyline
 90
        2
 70
     0
 43
0.0
 10
188.5528985788424
 20
447.6506861805466
 10
188.5528985788424
 20
372.6506861805467
  0
LWPOLYLINE
  5
34D7
330
1F
100
AcDbEntity
  8
APL Notes
 62
     2
100
AcDbPolyline
 90
        2
 70
     0
 43
0.0
 10
230.5743685488546
 20
456.9006861805466
 10
230.5743685488546
 20
381.9006861805466
  0
LWPOLYLINE
  5
34D8
330
1F
100
AcDbEntity
  8
APL Notes
 62
     2
100
AcDbPolyline
 90
        2
 70
     0
 43
0.0
 10
228.8423177412858
 20
455.9006861805466
 10
228.8423177412858
 20
380.9006861805467
  0
LWPOLYLINE
  5
34D9
330
1F
100
AcDbEntity
  8
APL Notes
 62
     2
100
AcDbPolyline
 90
        2
 70
     0
 43
0.0
 10
230.5743685488546
 20
420.4006861805466
 10
244.8637877112978
 20
428.6506861805466
  0
LWPOLYLINE
  5
34DA
330
1F
100
AcDbEntity
  8
APL Notes
 62
     2
100
AcDbPolyline
 90
        2
 70
     0
 43
0.0
 10
230.5743685488546
 20
418.4006861805467
 10
244.8637877112978
 20
426.6506861805466
  0
LWPOLYLINE
  5
34DB
330
1F
100
AcDbEntity
  8
APL Notes
 62
     2
100
AcDbPolyline
 90
        2
 70
     0
 43
0.0
 10
212.5528985788425
 20
449.6506861805466
 10
212.5528985788425
 20
370.6506861805467
  0
LWPOLYLINE
  5
34DC
330
1F
100
AcDbEntity
  8
APL Notes
 62
     2
100
AcDbPolyline
 90
        2
 70
     0
 43
0.0
 10
216.2849493864112
 20
450.9600872573048
 10
216.2849493864113
 20
371.3606889940997
  0
VIEWPORT
  5
2CC9
102
{ACAD_XDICTIONARY
360
3785
102
}
330
2CC1
100
AcDbEntity
 67
     1
  8
0
100
AcDbViewport
 10
99.91724538803104
 20
143.1184201240539
 30
0.0
 40
508.1620776548639
 41
299.2186445790102
 68
     1
 69
     1
 12
99.91724538803104
 22
143.1184201240539
 13
0.0
 23
0.0
 14
10.0
 24
10.0
 15
10.0
 25
10.0
 16
0.0
 26
0.0
 36
1.0
 17
0.0
 27
0.0
 37
0.0
 42
50.0
 43
0.0
 44
0.0
 45
299.2186445790102
 50
0.0
 51
0.0
 72
 20000
 90
    32800
  1

281
     0
 71
     1
 74
     0
110
0.0
120
0.0
130
0.0
111
1.0
121
0.0
131
0.0
112
0.0
122
1.0
132
0.0
 79
     0
146
0.0
  0
VIEWPORT
  5
2CCB
102
{ACAD_XDICTIONARY
360
3787
102
}
330
2CC1
100
AcDbEntity
 67
     1
  8
0
100
AcDbViewport
 10
100.595
 20
131.1899999999999
 30
0.0
 40
178.0
 41
241.9999999999999
 68
     2
 69
     2
 12
177.0000016649617
 22
241.0000034778235
 13
0.0
 23
0.0
 14
10.0
 24
10.0
 15
10.0
 25
10.0
 16
0.0
 26
0.0
 36
1.0
 17
0.0
 27
0.0
 37
0.0
 42
50.0
 43
0.0
 44
0.0
 45
483.9999999999998
 50
0.0
 51
0.0
 72
 20000
 90
    36960
  1

281
     0
 71
     1
 74
     0
110
0.0
120
0.0
130
0.0
111
1.0
121
0.0
131
0.0
112
0.0
122
1.0
132
0.0
 79
     0
146
0.0
  0
INSERT
  5
2CD0
330
2CC1
100
AcDbEntity
 67
     1
  8
APL Border
100
AcDbBlockReference
  2
vantage a4 SM border
 10
0.0
 20
0.0
 30
0.0
  0
INSERT
  5
2D10
330
2CC1
100
AcDbEntity
 67
     1
  8
APL Border
100
AcDbBlockReference
 66
     1
  2
vantage a4 SM attributes (2)
 10
0.0
 20
0.0
 30
0.0
  0
ATTRIB
  5
2D12
330
2D10
100
AcDbEntity
 67
     1
  8
APL Border
100
AcDbText
 10
41.78979785863009
 20
269.19
 30
0.0
 40
3.5
  1
MODE SHOPFRONT
  7
Arial-Bold
100
AcDbAttribute
  2
DRAWINGTITLE_1
 70
     0
  0
ATTRIB
  5
2D13
330
2D10
100
AcDbEntity
 67
     1
  8
APL Border
100
AcDbText
 10
41.78979785863009
 20
263.19
 30
0.0
 40
3.0
  1
CROSS SECTION
  7
Arial-Regular
100
AcDbAttribute
  2
DRAWINGTITLE_2
 70
     0
  0
ATTRIB
  5
2D14
330
2D10
100
AcDbEntity
 67
     1
  8
APL Border
100
AcDbText
 10
165.845
 20
273.69
 30
0.0
 40
2.5
  1
VCSF08-0
  7
Arial-Regular
100
AcDbAttribute
  2
AW123-456
 70
     0
  0
ATTRIB
  5
2D15
330
2D10
100
AcDbEntity
 67
     1
  8
APL Border
100
AcDbText
 10
147.5475920873124
 20
257.1899999999999
 30
0.0
 40
2.5
  1
01.06.11
  7
Arial-Regular
 72
     1
 11
154.345
 21
257.1899999999999
 31
0.0
100
AcDbAttribute
  2
24.05.02
 70
     0
  0
ATTRIB
  5
2D16
330
2D10
100
AcDbEntity
 67
     1
  8
APL Border
100
AcDbText
 10
175.4174761255116
 20
257.1899999999999
 30
0.0
 40
2.5
  1
1:2
  7
Arial-Regular
 72
     1
 11
177.845
 21
257.1899999999999
 31
0.0
100
AcDbAttribute
  2
1:2
 70
     0
  0
ATTRIB
  5
2D17
330
2D10
100
AcDbEntity
 67
     1
  8
APL Border
100
AcDbText
 10
11.59500000000003
 20
1.189999999999997
 30
0.0
 40
3.75
  1

  7
Arial-Bold
100
AcDbAttribute
  2
1.2.34
 70
     0
  0
ATTRIB
  5
2D18
330
2D10
100
AcDbEntity
 67
     1
  8
APL Border
100
AcDbText
 10
189.595
 20
1.189999999999997
 30
0.0
 40
3.75
  1

  7
Arial-Bold
 72
     2
 11
189.595
 21
1.189999999999997
 31
0.0
100
AcDbAttribute
  2
1.2.34
 70
     0
  0
SEQEND
  5
2D11
330
2D10
100
AcDbEntity
 67
     1
  8
APL Border
  0
ENDSEC
  0
SECTION
  2
OBJECTS
  0
DICTIONARY
  5
C
330
0
100
AcDbDictionary
281
     1
  3
ACAD_COLOR
350
2F91
  3
ACAD_GROUP
350
D
  3
ACAD_LAYOUT
350
1A
  3
ACAD_MATERIAL
350
2F67
  3
ACAD_MLEADERSTYLE
350
2FB6
  3
ACAD_MLINESTYLE
350
17
  3
ACAD_PLOTSETTINGS
350
19
  3
ACAD_PLOTSTYLENAME
350
E
  3
ACAD_SCALELIST
350
2F94
  3
ACAD_TABLESTYLE
350
2F92
  3
ACAD_VISUALSTYLE
350
2F80
  3
AcadDim
350
86
  3
ACDB_RECOMPOSE_DATA
350
304C
  3
ACDBHEADERROUNDTRIPXREC
350
3C58
  3
AcDbVariableDictionary
350
3B
  3
DWGPROPS
350
3C57
  0
DICTIONARY
  5
304E
330
8
100
AcDbDictionary
280
     1
281
     1
  3
ACAD_XREC_ROUNDTRIP
360
3777
  0
DICTIONARY
  5
2FE0
330
2
100
AcDbDictionary
280
     1
281
     1
  3
ACAD_LAYERFILTERS
360
3428
  3
ACAD_LAYERSTATES
360
2FE1
  3
ACLYDICTIONARY
360
3427
  0
DICTIONARY
  5
3010
330
10
100
AcDbDictionary
280
     1
281
     1
  3
ACAD_XREC_ROUNDTRIP
360
3778
  3
ADSK_XREC_LAYER_RECONCILED
360
3011
  0
DICTIONARY
  5
3012
330
2B
100
AcDbDictionary
280
     1
281
     1
  3
ACAD_XREC_ROUNDTRIP
360
377B
  3
ADSK_XREC_LAYER_RECONCILED
360
3013
  0
DICTIONARY
  5
3014
330
75
100
AcDbDictionary
280
     1
281
     1
  3
ACAD_XREC_ROUNDTRIP
360
377C
  3
ADSK_XREC_LAYER_RECONCILED
360
3015
  0
DICTIONARY
  5
3016
330
282D
100
AcDbDictionary
280
     1
281
     1
  3
ACAD_XREC_ROUNDTRIP
360
377D
  3
ADSK_XREC_LAYER_RECONCILED
360
3017
  0
DICTIONARY
  5
301C
330
2FC1
100
AcDbDictionary
280
     1
281
     1
  3
ACAD_XREC_ROUNDTRIP
360
3796
  3
ADSK_XREC_LAYER_RECONCILED
360
301D
  0
DICTIONARY
  5
37AD
330
33E5
100
AcDbDictionary
280
     1
281
     1
  3
ACAD_XREC_ROUNDTRIP
360
37AE
  0
DICTIONARY
  5
2C09
330
1F
100
AcDbDictionary
280
     1
281
     1
  3
ACAD_SORTENTS
360
2C0A
  0
DICTIONARY
  5
37F0
330
29AF
100
AcDbDictionary
280
     1
281
     1
  3
ACAD_SORTENTS
360
37F1
  0
DICTIONARY
  5
37F5
330
29B4
100
AcDbDictionary
280
     1
281
     1
  3
ACAD_SORTENTS
360
37F6
  0
DICTIONARY
  5
37FA
330
29BA
100
AcDbDictionary
280
     1
281
     1
  3
ACAD_SORTENTS
360
37FB
  0
DICTIONARY
  5
37FF
330
29BF
100
AcDbDictionary
280
     1
281
     1
  0
DICTIONARY
  5
3808
330
29F6
100
AcDbDictionary
280
     1
281
     1
  3
ACAD_SORTENTS
360
3809
  0
DICTIONARY
  5
380D
330
29FB
100
AcDbDictionary
280
     1
281
     1
  3
ACAD_SORTENTS
360
380E
  0
DICTIONARY
  5
3812
330
2A00
100
AcDbDictionary
280
     1
281
     1
  3
ACAD_SORTENTS
360
3813
  0
DICTIONARY
  5
3817
330
2A05
100
AcDbDictionary
280
     1
281
     1
  3
ACAD_SORTENTS
360
3818
  0
DICTIONARY
  5
381C
330
2A1B
100
AcDbDictionary
280
     1
281
     1
  3
ACAD_SORTENTS
360
381D
  0
DICTIONARY
  5
3821
330
2C93
100
AcDbDictionary
280
     1
281
     1
  3
ACAD_SORTENTS
360
3822
  0
DICTIONARY
  5
3833
330
3832
100
AcDbDictionary
280
     1
281
     1
  3
ACAD_SORTENTS
360
3834
  0
DICTIONARY
  5
3831
330
3830
100
AcDbDictionary
280
     1
281
     1
  0
DICTIONARY
  5
3785
330
2CC9
100
AcDbDictionary
280
     1
281
     1
  3
ACAD_XREC_ROUNDTRIP
360
3786
  0
DICTIONARY
  5
3787
330
2CCB
100
AcDbDictionary
280
     1
281
     1
  3
ACAD_XREC_ROUNDTRIP
360
3788
  0
DICTIONARY
  5
2F91
102
{ACAD_REACTORS
330
C
102
}
330
C
100
AcDbDictionary
281
     1
  0
DICTIONARY
  5
D
102
{ACAD_REACTORS
330
C
102
}
330
C
100
AcDbDictionary
281
     1
  0
DICTIONARY
  5
1A
102
{ACAD_REACTORS
330
C
102
}
330
C
100
AcDbDictionary
281
     1
  3
Model
350
22
  3
Vantage A4
350
2CC2
  0
DICTIONARY
  5
2F67
102
{ACAD_REACTORS
330
C
102
}
330
C
100
AcDbDictionary
281
     1
  3
ByBlock
350
2F70
  3
ByLayer
350
2F68
  3
Global
350
2F78
  0
DICTIONARY
  5
2FB6
102
{ACAD_REACTORS
330
C
102
}
330
C
100
AcDbDictionary
281
     1
  3
Standard
350
375F
  0
DICTIONARY
  5
17
102
{ACAD_REACTORS
330
C
102
}
330
C
100
AcDbDictionary
281
     1
  3
Standard
350
18
  0
DICTIONARY
  5
19
102
{ACAD_REACTORS
330
C
102
}
330
C
100
AcDbDictionary
281
     1
  3
A4 Specifier Manual Hardcopy
350
297B
  3
A4 Specifier Manual PDF
350
297C
  0
ACDBDICTIONARYWDFLT
  5
E
102
{ACAD_REACTORS
330
C
102
}
330
C
100
AcDbDictionary
281
     1
  3
Normal
350
F
100
AcDbDictionaryWithDefault
340
F
  0
DICTIONARY
  5
2F94
102
{ACAD_REACTORS
330
C
102
}
330
C
100
AcDbDictionary
281
     1
  3
A0
350
2F95
  3
A1
350
2F96
  3
A2
350
2F97
  3
A3
350
2F98
  3
A4
350
2F99
  3
A5
350
2F9A
  3
A6
350
2F9B
  3
A7
350
2F9C
  3
A8
350
2F9D
  3
A9
350
2F9E
  3
B0
350
2F9F
  3
B1
350
2FA0
  3
B2
350
2FA1
  3
B3
350
2FA2
  3
B4
350
2FA3
  3
B5
350
2FA4
  3
B6
350
2FA5
  3
B7
350
2FA6
  3
B8
350
2FA7
  3
B9
350
2FA8
  3
C0
350
2FA9
  3
C1
350
2FAA
  3
C2
350
2FAB
  3
C3
350
2FAC
  3
C4
350
2FAD
  3
C5
350
2FAE
  3
C6
350
2FAF
  3
C7
350
2FB0
  3
C8
350
2FB1
  3
C9
350
2FB2
  3
D0
350
2FB3
  3
D1
350
2FB4
  3
D2
350
2FB5
  0
DICTIONARY
  5
2F92
102
{ACAD_REACTORS
330
C
102
}
330
C
100
AcDbDictionary
281
     1
  3
Standard
350
2F93
  0
DICTIONARY
  5
2F80
102
{ACAD_REACTORS
330
C
102
}
330
C
100
AcDbDictionary
281
     1
  3
2dWireframe
350
2F86
  3
3D Hidden
350
2F88
  3
3dWireframe
350
2F87
  3
Basic
350
2F85
  3
Brighten
350
2F8C
  3
ColorChange
350
2F90
  3
Conceptual
350
2F89
  3
Dim
350
2F8B
  3
Facepattern
350
2F8F
  3
Flat
350
2F81
  3
FlatWithEdges
350
2F82
  3
Gouraud
350
2F83
  3
GouraudWithEdges
350
2F84
  3
Linepattern
350
2F8E
  3
Realistic
350
2F8A
  3
Thicken
350
2F8D
  0
XRECORD
  5
86
102
{ACAD_REACTORS
330
C
102
}
330
C
100
AcDbXrecord
280
     1
 90
   990106
  3

 60
     0
 61
     0
 62
     1
 63
     3
 64
     0
 65
     0
 66
     0
 67
     3
 68
     1
 69
     0
 70
     0
 71
     0
 72
     0
 40
8.188652110585962
170
     0
  0
XRECORD
  5
304C
102
{ACAD_REACTORS
330
C
102
}
330
C
100
AcDbXrecord
280
     1
 90
        1
330
2F93
  0
DICTIONARY
  5
3C58
102
{ACAD_REACTORS
330
C
102
}
330
C
100
AcDbDictionary
281
     1
  0
DICTIONARY
  5
3B
102
{ACAD_REACTORS
330
C
102
}
330
C
100
AcDbDictionary
281
     1
  3
CANNOSCALE
350
3087
  3
CMLEADERSTYLE
350
35B1
  3
CTABLESTYLE
350
3086
  3
DIMASSOC
350
3D
  3
HIDETEXT
350
3C
  3
INDEXCTL
350
3088
  3
PROJECTNAME
350
37E3
  3
SORTENTS
350
2C0C
  0
XRECORD
  5
3C57
102
{ACAD_REACTORS
330
C
102
}
330
C
100
AcDbXrecord
280
     1
  1
DWGPROPS COOKIE
  2

  3

  4

  6

  7

  8
homer
  9

300
=
301
=
302
=
303
=
304
=
305
=
306
=
307
=
308
=
309
=
 40
0.5091391666666667
 41
2452311.390521435
 42
2455811.683975891
  1

 90
        0
  0
XRECORD
  5
3777
102
{ACAD_REACTORS
330
304E
102
}
330
304E
100
AcDbXrecord
280
     1
102
VTR_0.000_0.000_1.000_1.000_VISUALSTYLE
340
2F86
102
VTR_0.000_0.000_1.000_1.000_GRIDDISPLAY
 70
     3
102
VTR_0.000_0.000_1.000_1.000_GRIDMAJOR
 70
     5
102
VTR_0.000_0.000_1.000_1.000_DEFAULTLIGHTING
280
     1
102
VTR_0.000_0.000_1.000_1.000_DEFAULTLIGHTINGTYPE
 70
     1
102
VTR_0.000_0.000_1.000_1.000_BRIGHTNESS
141
0.0
102
VTR_0.000_0.000_1.000_1.000_CONTRAST
142
0.0
  0
DICTIONARY
  5
3428
102
{ACAD_REACTORS
330
2FE0
102
}
330
2FE0
100
AcDbDictionary
281
     1
  0
DICTIONARY
  5
2FE1
102
{ACAD_REACTORS
330
2FE0
102
}
330
2FE0
100
AcDbDictionary
281
     1
  0
DICTIONARY
  5
3427
102
{ACAD_REACTORS
330
2FE0
102
}
330
2FE0
100
AcDbDictionary
281
     1
1001
ACAD
1000
<All
  0
XRECORD
  5
3778
102
{ACAD_REACTORS
330
3010
102
}
330
3010
100
AcDbXrecord
280
     1
102
MATERIAL
340
2F78
  0
XRECORD
  5
3011
102
{ACAD_REACTORS
330
3010
102
}
330
3010
100
AcDbXrecord
280
     1
290
     1
  0
XRECORD
  5
377B
102
{ACAD_REACTORS
330
3012
102
}
330
3012
100
AcDbXrecord
280
     1
102
MATERIAL
340
2F78
  0
XRECORD
  5
3013
102
{ACAD_REACTORS
330
3012
102
}
330
3012
100
AcDbXrecord
280
     1
290
     1
  0
XRECORD
  5
377C
102
{ACAD_REACTORS
330
3014
102
}
330
3014
100
AcDbXrecord
280
     1
102
MATERIAL
340
2F78
  0
XRECORD
  5
3015
102
{ACAD_REACTORS
330
3014
102
}
330
3014
100
AcDbXrecord
280
     1
290
     1
  0
XRECORD
  5
377D
102
{ACAD_REACTORS
330
3016
102
}
330
3016
100
AcDbXrecord
280
     1
102
MATERIAL
340
2F78
  0
XRECORD
  5
3017
102
{ACAD_REACTORS
330
3016
102
}
330
3016
100
AcDbXrecord
280
     1
290
     1
  0
XRECORD
  5
3796
102
{ACAD_REACTORS
330
301C
102
}
330
301C
100
AcDbXrecord
280
     1
102
MATERIAL
340
2F78
  0
XRECORD
  5
301D
102
{ACAD_REACTORS
330
301C
102
}
330
301C
100
AcDbXrecord
280
     1
290
     1
  0
XRECORD
  5
37AE
102
{ACAD_REACTORS
330
37AD
102
}
330
37AD
100
AcDbXrecord
280
     1
102
MATERIAL
340
2F78
  0
SORTENTSTABLE
  5
2C0A
102
{ACAD_REACTORS
330
2C09
102
}
330
2C09
100
AcDbSortentsTable
330
1F
331
2DD1
  5
32C8
331
34D8
  5
2BAB
331
31EC
  5
34B1
331
32C3
  5
34CF
331
34A9
  5
2DB9
331
2D22
  5
31F3
331
2BC4
  5
316D
331
31F4
  5
34B9
331
32CB
  5
34D7
331
34B1
  5
2CF7
331
2D42
  5
326D
331
3234
  5
34BA
331
34B9
  5
32BD
331
2DF1
  5
349F
331
2DBA
  5
32A7
331
2DC2
  5
32AF
331
2A7E
  5
2A89
331
316D
  5
34A8
331
32AC
  5
34C2
331
2DCA
  5
32C1
331
2BAD
  5
2DEB
331
29E7
  5
2A0C
331
34D1
  5
2BB9
331
31AD
  5
34AA
331
2DD2
  5
32C9
331
2BB5
  5
2DF3
331
34D9
  5
2BA7
331
32BC
  5
34C8
331
31ED
  5
34B2
331
32C4
  5
34D0
331
2DE2
  5
32CC
331
2D23
  5
31F4
331
2AA6
  5
2AB1
331
34B2
  5
2C67
331
32CC
  5
34D8
331
29B8
  5
29FA
331
2DEA
  5
3425
331
34BA
  5
32B0
331
326D
  5
34BB
331
2DF2
  5
34A0
331
2BA6
  5
2DE2
331
34CA
  5
2DC2
331
316E
  5
34A9
331
32AD
  5
34C3
331
2DCB
  5
32C2
331
2BAE
  5
2DEC
331
34D2
  5
2BB8
331
31AE
  5
34AB
331
349B
  5
32C5
331
34DA
  5
2B97
331
34A3
  5
2DBE
331
32BD
  5
34C9
331
2A9F
  5
2AA7
331
34AB
  5
2D42
331
31EE
  5
34B3
331
32C5
  5
34D1
331
2D24
  5
3234
331
2AA7
  5
2B30
331
34B3
  5
2C0E
331
32CD
  5
34D9
331
2C0E
  5
316E
331
29B3
  5
29E8
331
2DEB
  5
3426
331
2DBC
  5
32A9
331
2DF3
  5
34A1
331
34BB
  5
32AE
331
2DC4
  5
32B1
331
2BA7
  5
2DE6
331
2A80
  5
2A8A
331
32A6
  5
34BC
331
34CB
  5
2DC1
331
2DCC
  5
32C3
331
2BAF
  5
2DEE
331
32AE
  5
34C4
331
349C
  5
32C4
331
29E9
  5
2A0D
331
2A98
  5
2AA3
331
34DB
  5
2B66
331
34A4
  5
2DBD
331
31E7
  5
34AC
331
32BE
  5
34CA
331
34AC
  5
2D24
331
31EF
  5
34B4
331
32C6
  5
34D2
331
34B4
  5
2C08
331
2AA8
  5
2B32
331
2AB0
  5
2B36
331
2DEC
  5
349B
331
34BC
  5
32AD
331
2DBD
  5
32AA
331
3306
  5
34DA
331
3425
  5
34DB
331
2DC5
  5
32BC
331
32A7
  5
34BD
331
32AF
  5
34C5
331
349D
  5
31EF
331
2BB0
  5
2DF1
331
2A89
  5
2A9A
331
2BB8
  5
2ECE
331
34DC
  5
2B55
331
34A5
  5
2DBC
331
29FA
  5
2A0E
331
2AA1
  5
2AA8
331
31E8
  5
34AD
331
32BF
  5
34CB
331
34AD
  5
2D23
331
31F0
  5
34B5
331
32C7
  5
34D3
331
2A0A
  5
2A16
331
2C98
  5
31AD
331
2DED
  5
349C
331
34BD
  5
32A8
331
2DBE
  5
32AB
331
2CA0
  5
31AE
331
3129
  5
34A2
331
3426
  5
34DC
331
2A82
  5
2A8B
331
32A8
  5
34BE
331
32B0
  5
34C6
331
34D5
  5
2BB0
331
2BB9
  5
2ED1
331
2D1F
  5
31F0
331
2BC1
  5
312B
331
2DDE
  5
32CA
331
31E9
  5
34AE
331
32C0
  5
34CC
331
34AE
  5
2D00
331
2DE6
  5
32CD
331
31F1
  5
34B6
331
32C8
  5
34D4
331
2AAA
  5
2B33
331
2AB2
  5
2B37
331
2DEE
  5
349D
331
2DBF
  5
32AC
331
2A7B
  5
2A82
331
312A
  5
34A3
331
34BE
  5
32A6
331
2DC7
  5
32BE
331
32A9
  5
34BF
331
34CE
  5
2CFE
331
2DCF
  5
32C6
331
32B1
  5
34C7
331
34D6
  5
2BAD
331
2BBA
  5
312A
331
34A7
  5
2DBB
331
2D20
  5
31F1
331
2AA3
  5
2AA9
331
2BC2
  5
316B
331
2DDF
  5
32CB
331
31EA
  5
34AF
331
32C1
  5
34CD
331
2A04
  5
2A0F
331
31F2
  5
34B7
331
32C9
  5
34D5
331
34AF
  5
2CFF
331
34B7
  5
2BC2
331
2A0C
  5
2A17
331
34BF
  5
31EE
331
312B
  5
34A4
331
2A7C
  5
2A84
331
34C7
  5
2DDF
331
300C
  5
29E7
331
316B
  5
34A6
331
32AA
  5
34C0
331
2DC8
  5
32BF
331
2BAB
  5
2DE8
331
34CF
  5
2CFD
331
34D7
  5
2BAC
331
2DD0
  5
32C7
331
2BB3
  5
2DF2
331
31EB
  5
34B0
331
32C2
  5
34CE
331
34A8
  5
2DBA
331
2D21
  5
31F2
331
2AA4
  5
2AB0
331
2BC3
  5
316C
331
31F3
  5
34B8
331
32CA
  5
34D6
331
34B0
  5
2CF8
331
2A0D
  5
2A18
331
2DE8
  5
3306
331
34B8
  5
2BC1
331
2DF0
  5
349E
331
312C
  5
34A5
331
2A7D
  5
2A86
331
316C
  5
34A7
331
32AB
  5
34C1
331
2DC9
  5
32C0
331
2BAC
  5
2DEA
  0
SORTENTSTABLE
  5
37F1
102
{ACAD_REACTORS
330
37F0
102
}
330
37F0
100
AcDbSortentsTable
330
29AF
  0
SORTENTSTABLE
  5
37F6
102
{ACAD_REACTORS
330
37F5
102
}
330
37F5
100
AcDbSortentsTable
330
29B4
  0
SORTENTSTABLE
  5
37FB
102
{ACAD_REACTORS
330
37FA
102
}
330
37FA
100
AcDbSortentsTable
330
29BA
  0
SORTENTSTABLE
  5
3809
102
{ACAD_REACTORS
330
3808
102
}
330
3808
100
AcDbSortentsTable
330
29F6
  0
SORTENTSTABLE
  5
380E
102
{ACAD_REACTORS
330
380D
102
}
330
380D
100
AcDbSortentsTable
330
29FB
  0
SORTENTSTABLE
  5
3813
102
{ACAD_REACTORS
330
3812
102
}
330
3812
100
AcDbSortentsTable
330
2A00
  0
SORTENTSTABLE
  5
3818
102
{ACAD_REACTORS
330
3817
102
}
330
3817
100
AcDbSortentsTable
330
2A05
  0
SORTENTSTABLE
  5
381D
102
{ACAD_REACTORS
330
381C
102
}
330
381C
100
AcDbSortentsTable
330
2A1B
  0
SORTENTSTABLE
  5
3822
102
{ACAD_REACTORS
330
3821
102
}
330
3821
100
AcDbSortentsTable
330
2C93
  0
SORTENTSTABLE
  5
3834
102
{ACAD_REACTORS
330
3833
102
}
330
3833
100
AcDbSortentsTable
330
3832
  0
XRECORD
  5
3786
102
{ACAD_REACTORS
330
3785
102
}
330
3785
100
AcDbXrecord
280
     1
102
VISUALSTYLE
340
2F86
102
GRIDDISPLAY
 70
     0
102
GRIDMAJOR
 70
     5
102
DEFAULTLIGHTING
280
     1
102
DEFAULTLIGHTINGTYPE
 70
     1
102
BRIGHTNESS
141
0.0
102
CONTRAST
142
0.0
102
SHADEPLOT
 70
     0
  0
XRECORD
  5
3788
102
{ACAD_REACTORS
330
3787
102
}
330
3787
100
AcDbXrecord
280
     1
102
VISUALSTYLE
340
2F86
102
GRIDDISPLAY
 70
     0
102
GRIDMAJOR
 70
     5
102
DEFAULTLIGHTING
280
     1
102
DEFAULTLIGHTINGTYPE
 70
     1
102
BRIGHTNESS
141
0.0
102
CONTRAST
142
0.0
102
SHADEPLOT
 70
     0
  0
LAYOUT
  5
22
102
{ACAD_XDICTIONARY
360
3C59
102
}
102
{ACAD_REACTORS
330
1A
102
}
330
1A
100
AcDbPlotSettings
  1

  2
A4 Specifier Manual.pc3
  4
A4
  6

 40
6.0
 41
5.0
 42
6.97332763671875
 43
5.96832275390625
 44
209.9733276367187
 45
296.9683227539062
 46
10.5
 47
1.0
 48
55.19893561856474
 49
77.41415496436935
140
329.6878846931311
141
251.7976535946928
142
1.0
143
2.0
 70
 11952
 72
     1
 73
     0
 74
     1
  7
A4 Specifier Manual.ctb
 75
    17
147
0.5
148
2.754291127759756
149
26.13925401387087
100
AcDbLayout
  1
Model
 70
     1
 71
     0
 10
0.0
 20
0.0
 11
12.0
 21
9.0
 12
0.0
 22
0.0
 32
0.0
 14
0.0
 24
0.0
 34
0.0
 15
0.0
 25
0.0
 35
0.0
146
0.0
 13
0.0
 23
0.0
 33
0.0
 16
1.0
 26
0.0
 36
0.0
 17
0.0
 27
1.0
 37
0.0
 76
     0
330
1F
331
2F4D
  0
LAYOUT
  5
2CC2
102
{ACAD_XDICTIONARY
360
2FF3
102
}
102
{ACAD_REACTORS
330
1A
102
}
330
1A
100
AcDbPlotSettings
  1

  2
\\Aplfp01\APL Technical HP5100 PSLaser
  4
A4
  6

 40
5.027082920074462
 41
5.408084392547607
 42
5.70440673828125
 43
5.365753173828125
 44
209.8886566162109
 45
297.0530090332031
 46
0.0
 47
0.0
 48
0.0
 49
0.0
140
0.0
141
0.0
142
1.0
143
1.0
 70
   176
 72
     1
 73
     0
 74
     5
  7
A4 Specifier Manual.ctb
 75
    16
147
1.0
148
0.0
149
0.0
100
AcDbLayout
  1
Vantage A4
 70
     1
 71
     1
 10
-5.027082920074462
 20
-5.408084392547607
 11
204.8615736961365
 21
291.6449246406555
 12
0.0
 22
0.0
 32
0.0
 14
11.46014299460751
 24
3.285575844812797
 34
-0.0015258207003583
 15
189.6073677543587
 25
282.2033753668244
 35
0.0000000349246037
146
0.0
 13
0.0
 23
0.0
 33
0.0
 16
1.0
 26
0.0
 36
0.0
 17
0.0
 27
1.0
 37
0.0
 76
     0
330
2CC1
331
2CC9
1001
ACAD_PSEXT
1000
\\Aplfp01\APL Technical HP5100 PSLaser
1000
HP LaserJet 5100 PS
1000
APL Technical Office
1000

1070
     0
  0
MATERIAL
  5
2F70
102
{ACAD_XDICTIONARY
360
2F71
102
}
102
{ACAD_REACTORS
330
2F67
102
}
330
2F67
100
AcDbMaterial
  1
ByBlock
 72
     0
 73
     2
 43
0.0008202099737533
 43
0.0
 43
0.0
 43
0.0
 43
0.0
 43
0.0008202099737533
 43
0.0
 43
0.0
 43
0.0
 43
0.0
 43
1.0
 43
0.0
 43
0.0
 43
0.0
 43
0.0
 43
1.0
 77
     0
 78
     2
 47
0.0008202099737533
 47
0.0
 47
0.0
 47
0.0
 47
0.0
 47
0.0008202099737533
 47
0.0
 47
0.0
 47
0.0
 47
0.0
 47
1.0
 47
0.0
 47
0.0
 47
0.0
 47
0.0
 47
1.0
171
     0
172
     2
 49
0.0008202099737533
 49
0.0
 49
0.0
 49
0.0
 49
0.0
 49
0.0008202099737533
 49
0.0
 49
0.0
 49
0.0
 49
0.0
 49
1.0
 49
0.0
 49
0.0
 49
0.0
 49
0.0
 49
1.0
175
     0
176
     2
142
0.0008202099737533
142
0.0
142
0.0
142
0.0
142
0.0
142
0.0008202099737533
142
0.0
142
0.0
142
0.0
142
0.0
142
1.0
142
0.0
142
0.0
142
0.0
142
0.0
142
1.0
179
     0
270
     2
144
0.0008202099737533
144
0.0
144
0.0
144
0.0
144
0.0
144
0.0008202099737533
144
0.0
144
0.0
144
0.0
144
0.0
144
1.0
144
0.0
144
0.0
144
0.0
144
0.0
144
1.0
274
     2
147
0.0008202099737533
147
0.0
147
0.0
147
0.0
147
0.0
147
0.0008202099737533
147
0.0
147
0.0
147
0.0
147
0.0
147
1.0
147
0.0
147
0.0
147
0.0
147
0.0
147
1.0
  0
MATERIAL
  5
2F68
102
{ACAD_XDICTIONARY
360
2F69
102
}
102
{ACAD_REACTORS
330
2F67
102
}
330
2F67
100
AcDbMaterial
  1
ByLayer
 72
     0
 73
     2
 43
0.0008202099737533
 43
0.0
 43
0.0
 43
0.0
 43
0.0
 43
0.0008202099737533
 43
0.0
 43
0.0
 43
0.0
 43
0.0
 43
1.0
 43
0.0
 43
0.0
 43
0.0
 43
0.0
 43
1.0
 77
     0
 78
     2
 47
0.0008202099737533
 47
0.0
 47
0.0
 47
0.0
 47
0.0
 47
0.0008202099737533
 47
0.0
 47
0.0
 47
0.0
 47
0.0
 47
1.0
 47
0.0
 47
0.0
 47
0.0
 47
0.0
 47
1.0
171
     0
172
     2
 49
0.0008202099737533
 49
0.0
 49
0.0
 49
0.0
 49
0.0
 49
0.0008202099737533
 49
0.0
 49
0.0
 49
0.0
 49
0.0
 49
1.0
 49
0.0
 49
0.0
 49
0.0
 49
0.0
 49
1.0
175
     0
176
     2
142
0.0008202099737533
142
0.0
142
0.0
142
0.0
142
0.0
142
0.0008202099737533
142
0.0
142
0.0
142
0.0
142
0.0
142
1.0
142
0.0
142
0.0
142
0.0
142
0.0
142
1.0
179
     0
270
     2
144
0.0008202099737533
144
0.0
144
0.0
144
0.0
144
0.0
144
0.0008202099737533
144
0.0
144
0.0
144
0.0
144
0.0
144
1.0
144
0.0
144
0.0
144
0.0
144
0.0
144
1.0
274
     2
147
0.0008202099737533
147
0.0
147
0.0
147
0.0
147
0.0
147
0.0008202099737533
147
0.0
147
0.0
147
0.0
147
0.0
147
1.0
147
0.0
147
0.0
147
0.0
147
0.0
147
1.0
  0
MATERIAL
  5
2F78
102
{ACAD_XDICTIONARY
360
2F79
102
}
102
{ACAD_REACTORS
330
2F67
102
}
330
2F67
100
AcDbMaterial
  1
Global
 72
     0
 73
     2
 43
0.0008202099737533
 43
0.0
 43
0.0
 43
0.0
 43
0.0
 43
0.0008202099737533
 43
0.0
 43
0.0
 43
0.0
 43
0.0
 43
1.0
 43
0.0
 43
0.0
 43
0.0
 43
0.0
 43
1.0
 77
     0
 78
     2
 47
0.0008202099737533
 47
0.0
 47
0.0
 47
0.0
 47
0.0
 47
0.0008202099737533
 47
0.0
 47
0.0
 47
0.0
 47
0.0
 47
1.0
 47
0.0
 47
0.0
 47
0.0
 47
0.0
 47
1.0
171
     0
172
     2
 49
0.0008202099737533
 49
0.0
 49
0.0
 49
0.0
 49
0.0
 49
0.0008202099737533
 49
0.0
 49
0.0
 49
0.0
 49
0.0
 49
1.0
 49
0.0
 49
0.0
 49
0.0
 49
0.0
 49
1.0
175
     0
176
     2
142
0.0008202099737533
142
0.0
142
0.0
142
0.0
142
0.0
142
0.0008202099737533
142
0.0
142
0.0
142
0.0
142
0.0
142
1.0
142
0.0
142
0.0
142
0.0
142
0.0
142
1.0
179
     0
270
     2
144
0.0008202099737533
144
0.0
144
0.0
144
0.0
144
0.0
144
0.0008202099737533
144
0.0
144
0.0
144
0.0
144
0.0
144
1.0
144
0.0
144
0.0
144
0.0
144
0.0
144
1.0
274
     2
147
0.0008202099737533
147
0.0
147
0.0
147
0.0
147
0.0
147
0.0008202099737533
147
0.0
147
0.0
147
0.0
147
0.0
147
1.0
147
0.0
147
0.0
147
0.0
147
0.0
147
1.0
  0
ACAD_PROXY_OBJECT
  5
375F
102
{ACAD_REACTORS
330
2FB6
102
}
330
2FB6
100
AcDbProxyObject
 90
      499
 91
      511
 95
   983063
 70
     0
 93
      618
310
40901902A4063FBFFFFFE000000000000002040AD7A3703D0AD73F4254DD185B99185C99000000000000000104090141901A00000000000004100000000000000041025764000000000000300FC0
340
14
340
0
340
11
340
0
 94
        0
1001
ACAD_MLEADERVER
1070
     2
1001
ACAD
1000
AcRTDxfName
1000
MLEADERSTYLE
1000
AcRTDxfName
1000
MLEADERSTYLE
1000
AcRTDxfName
1000
MLEADERSTYLE
1000
AcRTDxfName
1000
MLEADERSTYLE
  0
MLINESTYLE
  5
18
102
{ACAD_REACTORS
330
17
102
}
330
17
100
AcDbMlineStyle
  2
STANDARD
 70
     0
  3

 62
   256
 51
90.0
 52
90.0
 71
     2
 49
0.5
 62
   256
  6
BYLAYER
 49
-0.5
 62
   256
  6
BYLAYER
  0
PLOTSETTINGS
  5
297B
102
{ACAD_XDICTIONARY
360
3C5B
102
}
102
{ACAD_REACTORS
330
19
102
}
330
19
100
AcDbPlotSettings
  1
A4 Specifier Manual Hardcopy
  2
A4 Specifier Manual.pc3
  4
A4
  6

 40
6.0
 41
5.0
 42
6.97332763671875
 43
5.96832275390625
 44
209.9733276367187
 45
296.9683227539062
 46
10.5
 47
-1.0
 48
55.19893561856474
 49
77.41415496436935
140
329.6878846931311
141
251.7976535946928
142
1.0
143
2.0
 70
  1712
 72
     1
 73
     0
 74
     1
  7
A4 specifier manual.ctb
 75
    17
147
0.5
148
2.225667800726114
149
26.13925412475783
  0
PLOTSETTINGS
  5
297C
102
{ACAD_XDICTIONARY
360
3C5D
102
}
102
{ACAD_REACTORS
330
19
102
}
330
19
100
AcDbPlotSettings
  1
A4 Specifier Manual PDF
  2
Acrobat Distiller.pc3
  4
A4
  6

 40
3.174999952316284
 41
3.174999952316284
 42
3.175003051757812
 43
3.17498779296875
 44
209.9098358154297
 45
297.0318298339844
 46
12.0
 47
3.0
 48
55.19893561856474
 49
77.41415496436935
140
329.6878846931311
141
251.7976535946928
142
1.0
143
2.0
 70
  1712
 72
     1
 73
     0
 74
     1
  7
A4 Specifier Manual.ctb
 75
    17
147
0.5
148
2.231438335389952
149
26.15846035871732
  0
ACDBPLACEHOLDER
  5
F
102
{ACAD_REACTORS
330
E
102
}
330
E
  0
ACAD_PROXY_OBJECT
  5
2F95
102
{ACAD_REACTORS
330
2F94
102
}
330
2F94
100
AcDbProxyObject
 90
      499
 91
      510
 95
   983063
 70
     0
 93
       49
310
904313A3100580
 94
        0
1001
ACAD
1000
AcRTDxfName
1000
SCALE
1000
AcRTDxfName
1000
SCALE
1000
AcRTDxfName
1000
SCALE
1000
AcRTDxfName
1000
SCALE
  0
ACAD_PROXY_OBJECT
  5
2F96
102
{ACAD_REACTORS
330
2F94
102
}
330
2F94
100
AcDbProxyObject
 90
      499
 91
      510
 95
   983063
 70
     0
 93
      113
310
904313A32004000000000000004040
 94
        0
1001
ACAD
1000
AcRTDxfName
1000
SCALE
1000
AcRTDxfName
1000
SCALE
1000
AcRTDxfName
1000
SCALE
1000
AcRTDxfName
1000
SCALE
  0
ACAD_PROXY_OBJECT
  5
2F97
102
{ACAD_REACTORS
330
2F94
102
}
330
2F94
100
AcDbProxyObject
 90
      499
 91
      510
 95
   983063
 70
     0
 93
      113
310
904313A34004000000000000104040
 94
        0
1001
ACAD
1000
AcRTDxfName
1000
SCALE
1000
AcRTDxfName
1000
SCALE
1000
AcRTDxfName
1000
SCALE
1000
AcRTDxfName
1000
SCALE
  0
ACAD_PROXY_OBJECT
  5
2F98
102
{ACAD_REACTORS
330
2F94
102
}
330
2F94
100
AcDbProxyObject
 90
      499
 91
      510
 95
   983063
 70
     0
 93
      113
310
904313A35004000000000000144040
 94
        0
1001
ACAD
1000
AcRTDxfName
1000
SCALE
1000
AcRTDxfName
1000
SCALE
1000
AcRTDxfName
1000
SCALE
1000
AcRTDxfName
1000
SCALE
  0
ACAD_PROXY_OBJECT
  5
2F99
102
{ACAD_REACTORS
330
2F94
102
}
330
2F94
100
AcDbProxyObject
 90
      499
 91
      510
 95
   983063
 70
     0
 93
      113
310
904313A38004000000000000204040
 94
        0
1001
ACAD
1000
AcRTDxfName
1000
SCALE
1000
AcRTDxfName
1000
SCALE
1000
AcRTDxfName
1000
SCALE
1000
AcRTDxfName
1000
SCALE
  0
ACAD_PROXY_OBJECT
  5
2F9A
102
{ACAD_REACTORS
330
2F94
102
}
330
2F94
100
AcDbProxyObject
 90
      499
 91
      510
 95
   983063
 70
     0
 93
      121
310
905313A3130004000000000000244040
 94
        0
1001
ACAD
1000
AcRTDxfName
1000
SCALE
1000
AcRTDxfName
1000
SCALE
1000
AcRTDxfName
1000
SCALE
1000
AcRTDxfName
1000
SCALE
  0
ACAD_PROXY_OBJECT
  5
2F9B
102
{ACAD_REACTORS
330
2F94
102
}
330
2F94
100
AcDbProxyObject
 90
      499
 91
      510
 95
   983063
 70
     0
 93
      121
310
905313A3136004000000000000304001
 94
        0
1001
ACAD
1000
AcRTDxfName
1000
SCALE
1000
AcRTDxfName
1000
SCALE
1000
AcRTDxfName
1000
SCALE
1000
AcRTDxfName
1000
SCALE
  0
ACAD_PROXY_OBJECT
  5
2F9C
102
{ACAD_REACTORS
330
2F94
102
}
330
2F94
100
AcDbProxyObject
 90
      499
 91
      510
 95
   983063
 70
     0
 93
      121
310
905313A3230004000000000000344040
 94
        0
1001
ACAD
1000
AcRTDxfName
1000
SCALE
1000
AcRTDxfName
1000
SCALE
1000
AcRTDxfName
1000
SCALE
1000
AcRTDxfName
1000
SCALE
  0
ACAD_PROXY_OBJECT
  5
2F9D
102
{ACAD_REACTORS
330
2F94
102
}
330
2F94
100
AcDbProxyObject
 90
      499
 91
      510
 95
   983063
 70
     0
 93
      121
310
905313A33300040000000000003E4001
 94
        0
1001
ACAD
1000
AcRTDxfName
1000
SCALE
1000
AcRTDxfName
1000
SCALE
1000
AcRTDxfName
1000
SCALE
1000
AcRTDxfName
1000
SCALE
  0
ACAD_PROXY_OBJECT
  5
2F9E
102
{ACAD_REACTORS
330
2F94
102
}
330
2F94
100
AcDbProxyObject
 90
      499
 91
      510
 95
   983063
 70
     0
 93
      121
310
905313A3430004000000000000444040
 94
        0
1001
ACAD
1000
AcRTDxfName
1000
SCALE
1000
AcRTDxfName
1000
SCALE
1000
AcRTDxfName
1000
SCALE
1000
AcRTDxfName
1000
SCALE
  0
ACAD_PROXY_OBJECT
  5
2F9F
102
{ACAD_REACTORS
330
2F94
102
}
330
2F94
100
AcDbProxyObject
 90
      499
 91
      510
 95
   983063
 70
     0
 93
      121
310
905313A3530004000000000000494001
 94
        0
1001
ACAD
1000
AcRTDxfName
1000
SCALE
1000
AcRTDxfName
1000
SCALE
1000
AcRTDxfName
1000
SCALE
1000
AcRTDxfName
1000
SCALE
  0
ACAD_PROXY_OBJECT
  5
2FA0
102
{ACAD_REACTORS
330
2F94
102
}
330
2F94
100
AcDbProxyObject
 90
      499
 91
      510
 95
   983063
 70
     0
 93
      129
310
906313A313030004000000000000594000
 94
        0
1001
ACAD
1000
AcRTDxfName
1000
SCALE
1000
AcRTDxfName
1000
SCALE
1000
AcRTDxfName
1000
SCALE
1000
AcRTDxfName
1000
SCALE
  0
ACAD_PROXY_OBJECT
  5
2FA1
102
{ACAD_REACTORS
330
2F94
102
}
330
2F94
100
AcDbProxyObject
 90
      499
 91
      510
 95
   983063
 70
     0
 93
      113
310
904323A31000000000000000010165
 94
        0
1001
ACAD
1000
AcRTDxfName
1000
SCALE
1000
AcRTDxfName
1000
SCALE
1000
AcRTDxfName
1000
SCALE
1000
AcRTDxfName
1000
SCALE
  0
ACAD_PROXY_OBJECT
  5
2FA2
102
{ACAD_REACTORS
330
2F94
102
}
330
2F94
100
AcDbProxyObject
 90
      499
 91
      510
 95
   983063
 70
     0
 93
      113
310
904343A31000000000000000410101
 94
        0
1001
ACAD
1000
AcRTDxfName
1000
SCALE
1000
AcRTDxfName
1000
SCALE
1000
AcRTDxfName
1000
SCALE
1000
AcRTDxfName
1000
SCALE
  0
ACAD_PROXY_OBJECT
  5
2FA3
102
{ACAD_REACTORS
330
2F94
102
}
330
2F94
100
AcDbProxyObject
 90
      499
 91
      510
 95
   983063
 70
     0
 93
      113
310
904383A31000000000000000810165
 94
        0
1001
ACAD
1000
AcRTDxfName
1000
SCALE
1000
AcRTDxfName
1000
SCALE
1000
AcRTDxfName
1000
SCALE
1000
AcRTDxfName
1000
SCALE
  0
ACAD_PROXY_OBJECT
  5
2FA4
102
{ACAD_REACTORS
330
2F94
102
}
330
2F94
100
AcDbProxyObject
 90
      499
 91
      510
 95
   983063
 70
     0
 93
      121
310
90531303A31000000000000000910120
 94
        0
1001
ACAD
1000
AcRTDxfName
1000
SCALE
1000
AcRTDxfName
1000
SCALE
1000
AcRTDxfName
1000
SCALE
1000
AcRTDxfName
1000
SCALE
  0
ACAD_PROXY_OBJECT
  5
2FA5
102
{ACAD_REACTORS
330
2F94
102
}
330
2F94
100
AcDbProxyObject
 90
      499
 91
      510
 95
   983063
 70
     0
 93
      129
310
9063130303A31000000000000001650100
 94
        0
1001
ACAD
1000
AcRTDxfName
1000
SCALE
1000
AcRTDxfName
1000
SCALE
1000
AcRTDxfName
1000
SCALE
1000
AcRTDxfName
1000
SCALE
  0
ACAD_PROXY_OBJECT
  5
2FA6
102
{ACAD_REACTORS
330
2F94
102
}
330
2F94
100
AcDbProxyObject
 90
      499
 91
      510
 95
   983063
 70
     0
 93
      265
310
90F312F31323822203D2031272D302200000000000000200FC000000000000284000
 94
        0
1001
ACAD
1000
AcRTDxfName
1000
SCALE
1000
AcRTDxfName
1000
SCALE
1000
AcRTDxfName
1000
SCALE
1000
AcRTDxfName
1000
SCALE
  0
ACAD_PROXY_OBJECT
  5
2FA7
102
{ACAD_REACTORS
330
2F94
102
}
330
2F94
100
AcDbProxyObject
 90
      499
 91
      510
 95
   983063
 70
     0
 93
      257
310
90E312F363422203D2031272D302200000000000000240FC000000000000284066
 94
        0
1001
ACAD
1000
AcRTDxfName
1000
SCALE
1000
AcRTDxfName
1000
SCALE
1000
AcRTDxfName
1000
SCALE
1000
AcRTDxfName
1000
SCALE
  0
ACAD_PROXY_OBJECT
  5
2FA8
102
{ACAD_REACTORS
330
2F94
102
}
330
2F94
100
AcDbProxyObject
 90
      499
 91
      510
 95
   983063
 70
     0
 93
      257
310
90E312F333222203D2031272D302200000000000000280FC000000000000284000
 94
        0
1001
ACAD
1000
AcRTDxfName
1000
SCALE
1000
AcRTDxfName
1000
SCALE
1000
AcRTDxfName
1000
SCALE
1000
AcRTDxfName
1000
SCALE
  0
ACAD_PROXY_OBJECT
  5
2FA9
102
{ACAD_REACTORS
330
2F94
102
}
330
2F94
100
AcDbProxyObject
 90
      499
 91
      510
 95
   983063
 70
     0
 93
      257
310
90E312F313622203D2031272D3022000000000000002C0FC000000000000284066
 94
        0
1001
ACAD
1000
AcRTDxfName
1000
SCALE
1000
AcRTDxfName
1000
SCALE
1000
AcRTDxfName
1000
SCALE
1000
AcRTDxfName
1000
SCALE
  0
ACAD_PROXY_OBJECT
  5
2FAA
102
{ACAD_REACTORS
330
2F94
102
}
330
2F94
100
AcDbProxyObject
 90
      499
 91
      510
 95
   983063
 70
     0
 93
      257
310
90E332F333222203D2031272D3022000000000000002E0FC000000000000284000
 94
        0
1001
ACAD
1000
AcRTDxfName
1000
SCALE
1000
AcRTDxfName
1000
SCALE
1000
AcRTDxfName
1000
SCALE
1000
AcRTDxfName
1000
SCALE
  0
ACAD_PROXY_OBJECT
  5
2FAB
102
{ACAD_REACTORS
330
2F94
102
}
330
2F94
100
AcDbProxyObject
 90
      499
 91
      510
 95
   983063
 70
     0
 93
      249
310
90D312F3822203D2031272D302200000000000000300FC000000000000284078
 94
        0
1001
ACAD
1000
AcRTDxfName
1000
SCALE
1000
AcRTDxfName
1000
SCALE
1000
AcRTDxfName
1000
SCALE
1000
AcRTDxfName
1000
SCALE
  0
ACAD_PROXY_OBJECT
  5
2FAC
102
{ACAD_REACTORS
330
2F94
102
}
330
2F94
100
AcDbProxyObject
 90
      499
 91
      510
 95
   983063
 70
     0
 93
      257
310
90E332F313622203D2031272D302200000000000000320FC000000000000284040
 94
        0
1001
ACAD
1000
AcRTDxfName
1000
SCALE
1000
AcRTDxfName
1000
SCALE
1000
AcRTDxfName
1000
SCALE
1000
AcRTDxfName
1000
SCALE
  0
ACAD_PROXY_OBJECT
  5
2FAD
102
{ACAD_REACTORS
330
2F94
102
}
330
2F94
100
AcDbProxyObject
 90
      499
 91
      510
 95
   983063
 70
     0
 93
      249
310
90D312F3422203D2031272D302200000000000000340FC000000000000284040
 94
        0
1001
ACAD
1000
AcRTDxfName
1000
SCALE
1000
AcRTDxfName
1000
SCALE
1000
AcRTDxfName
1000
SCALE
1000
AcRTDxfName
1000
SCALE
  0
ACAD_PROXY_OBJECT
  5
2FAE
102
{ACAD_REACTORS
330
2F94
102
}
330
2F94
100
AcDbProxyObject
 90
      499
 91
      510
 95
   983063
 70
     0
 93
      249
310
90D332F3822203D2031272D302200000000000000360FC000000000000284028
 94
        0
1001
ACAD
1000
AcRTDxfName
1000
SCALE
1000
AcRTDxfName
1000
SCALE
1000
AcRTDxfName
1000
SCALE
1000
AcRTDxfName
1000
SCALE
  0
ACAD_PROXY_OBJECT
  5
2FAF
102
{ACAD_REACTORS
330
2F94
102
}
330
2F94
100
AcDbProxyObject
 90
      499
 91
      510
 95
   983063
 70
     0
 93
      249
310
90D312F3222203D2031272D302200000000000000380FC000000000000284040
 94
        0
1001
ACAD
1000
AcRTDxfName
1000
SCALE
1000
AcRTDxfName
1000
SCALE
1000
AcRTDxfName
1000
SCALE
1000
AcRTDxfName
1000
SCALE
  0
ACAD_PROXY_OBJECT
  5
2FB0
102
{ACAD_REACTORS
330
2F94
102
}
330
2F94
100
AcDbProxyObject
 90
      499
 91
      510
 95
   983063
 70
     0
 93
      249
310
90D332F3422203D2031272D3022000000000000003A0FC000000000000284028
 94
        0
1001
ACAD
1000
AcRTDxfName
1000
SCALE
1000
AcRTDxfName
1000
SCALE
1000
AcRTDxfName
1000
SCALE
1000
AcRTDxfName
1000
SCALE
  0
ACAD_PROXY_OBJECT
  5
2FB1
102
{ACAD_REACTORS
330
2F94
102
}
330
2F94
100
AcDbProxyObject
 90
      499
 91
      510
 95
   983063
 70
     0
 93
      169
310
90B3122203D2031272D3022004000000000000284000
 94
        0
1001
ACAD
1000
AcRTDxfName
1000
SCALE
1000
AcRTDxfName
1000
SCALE
1000
AcRTDxfName
1000
SCALE
1000
AcRTDxfName
1000
SCALE
  0
ACAD_PROXY_OBJECT
  5
2FB2
102
{ACAD_REACTORS
330
2F94
102
}
330
2F94
100
AcDbProxyObject
 90
      499
 91
      510
 95
   983063
 70
     0
 93
      265
310
90F312D312F3222203D2031272D3022000000000000003E0FC000000000000284018
 94
        0
1001
ACAD
1000
AcRTDxfName
1000
SCALE
1000
AcRTDxfName
1000
SCALE
1000
AcRTDxfName
1000
SCALE
1000
AcRTDxfName
1000
SCALE
  0
ACAD_PROXY_OBJECT
  5
2FB3
102
{ACAD_REACTORS
330
2F94
102
}
330
2F94
100
AcDbProxyObject
 90
      499
 91
      510
 95
   983063
 70
     0
 93
      233
310
90B3322203D2031272D30220000000000000002100000000000000284000
 94
        0
1001
ACAD
1000
AcRTDxfName
1000
SCALE
1000
AcRTDxfName
1000
SCALE
1000
AcRTDxfName
1000
SCALE
1000
AcRTDxfName
1000
SCALE
  0
ACAD_PROXY_OBJECT
  5
2FB4
102
{ACAD_REACTORS
330
2F94
102
}
330
2F94
100
AcDbProxyObject
 90
      499
 91
      510
 95
   983063
 70
     0
 93
      233
310
90B3622203D2031272D3022000000000000000610000000000000028405D
 94
        0
1001
ACAD
1000
AcRTDxfName
1000
SCALE
1000
AcRTDxfName
1000
SCALE
1000
AcRTDxfName
1000
SCALE
1000
AcRTDxfName
1000
SCALE
  0
ACAD_PROXY_OBJECT
  5
2FB5
102
{ACAD_REACTORS
330
2F94
102
}
330
2F94
100
AcDbProxyObject
 90
      499
 91
      510
 95
   983063
 70
     0
 93
      257
310
90E31272D3022203D2031272D3022000000000000000A100000000000000284000
 94
        0
1001
ACAD
1000
AcRTDxfName
1000
SCALE
1000
AcRTDxfName
1000
SCALE
1000
AcRTDxfName
1000
SCALE
1000
AcRTDxfName
1000
SCALE
  0
TABLESTYLE
  5
2F93
102
{ACAD_XDICTIONARY
360
304A
102
}
102
{ACAD_REACTORS
330
2F92
102
}
330
2F92
100
AcDbTableStyle
  3
Standard
 70
     0
 71
     0
 40
1.5
 41
1.5
280
     0
281
     0
  7
Standard
140
4.5
170
     2
 62
     0
 63
     7
283
     0
274
    -2
284
     1
 64
     0
275
    -2
285
     1
 65
     0
276
    -2
286
     1
 66
     0
277
    -2
287
     1
 67
     0
278
    -2
288
     1
 68
     0
279
    -2
289
     1
 69
     0
  7
Standard
140
6.0
170
     5
 62
     0
 63
     7
283
     0
274
    -2
284
     1
 64
     0
275
    -2
285
     1
 65
     0
276
    -2
286
     1
 66
     0
277
    -2
287
     1
 67
     0
278
    -2
288
     1
 68
     0
279
    -2
289
     1
 69
     0
  7
Standard
140
4.5
170
     5
 62
     0
 63
     7
283
     0
274
    -2
284
     1
 64
     0
275
    -2
285
     1
 65
     0
276
    -2
286
     1
 66
     0
277
    -2
287
     1
 67
     0
278
    -2
288
     1
 68
     0
279
    -2
289
     1
 69
     0
  0
ACAD_PROXY_OBJECT
  5
2F86
102
{ACAD_REACTORS
330
2F80
102
}
330
2F80
100
AcDbProxyObject
 90
      499
 91
      508
 95
   983063
 70
     0
 93
      444
310
430C9915DA5C99599C985B59401049028333333333333E3BF0000000000000FB0107901411070040501600405405064090741402480A0340
 94
        0
1001
ACAD
1000
AcDbSavedByObjectVersion
1070
     0
1000
AcRTDxfName
1000
VISUALSTYLE
1000
AcRTDxfName
1000
VISUALSTYLE
1000
AcRTDxfName
1000
VISUALSTYLE
1000
AcRTDxfName
1000
VISUALSTYLE
  0
ACAD_PROXY_OBJECT
  5
2F88
102
{ACAD_REACTORS
330
2F80
102
}
330
2F80
100
AcDbProxyObject
 90
      499
 91
      508
 95
   983063
 70
     0
 93
      508
310
428CD108121A5919195B8010640502408333333333333E3BF0000000000000FB01079024090700405020000000000001110200405405064090740C02480A0340
 94
        0
1001
ACAD
1000
AcDbSavedByObjectVersion
1070
     0
1000
AcRTDxfName
1000
VISUALSTYLE
1000
AcRTDxfName
1000
VISUALSTYLE
1000
AcRTDxfName
1000
VISUALSTYLE
1000
AcRTDxfName
1000
VISUALSTYLE
  0
ACAD_PROXY_OBJECT
  5
2F87
102
{ACAD_REACTORS
330
2F80
102
}
330
2F80
100
AcDbProxyObject
 90
      499
 91
      508
 95
   983063
 70
     0
 93
      444
310
430CD915DA5C99599C985B59401059028333333333333E3BF0000000000000FB0107901411070040501600405405064090741402480A0340
 94
        0
1001
ACAD
1000
AcDbSavedByObjectVersion
1070
     0
1000
AcRTDxfName
1000
VISUALSTYLE
1000
AcRTDxfName
1000
VISUALSTYLE
1000
AcRTDxfName
1000
VISUALSTYLE
1000
AcRTDxfName
1000
VISUALSTYLE
  0
ACAD_PROXY_OBJECT
  5
2F85
102
{ACAD_REACTORS
330
2F80
102
}
330
2F80
100
AcDbProxyObject
 90
      499
 91
      508
 95
   983063
 70
     0
 93
      396
310
4190985CDA58C0107406404333333333333E3BF0000000000000FB0107A41107004050150841D405064090741402480A0354
 94
        0
1001
ACAD
1000
AcDbSavedByObjectVersion
1070
     0
1000
AcRTDxfName
1000
VISUALSTYLE
1000
AcRTDxfName
1000
VISUALSTYLE
1000
AcRTDxfName
1000
VISUALSTYLE
1000
AcRTDxfName
1000
VISUALSTYLE
  0
ACAD_PROXY_OBJECT
  5
2F8C
102
{ACAD_REACTORS
330
2F80
102
}
330
2F80
100
AcDbProxyObject
 90
      499
 91
      508
 95
   983063
 70
     0
 93
      436
310
42509C9A59DA1D195B8010C409028333333333333E3BF0000000000000FB010790141107004050150841D405064090741402480A02995A
 94
        0
1001
ACAD
1000
AcDbSavedByObjectVersion
1070
     0
1000
AcRTDxfName
1000
VISUALSTYLE
1000
AcRTDxfName
1000
VISUALSTYLE
1000
AcRTDxfName
1000
VISUALSTYLE
1000
AcRTDxfName
1000
VISUALSTYLE
  0
ACAD_PROXY_OBJECT
  5
2F90
102
{ACAD_REACTORS
330
2F80
102
}
330
2F80
100
AcDbProxyObject
 90
      499
 91
      508
 95
   983063
 70
     0
 93
      460
310
4310DBDB1BDC90DA185B99D9401104090240C333333333333E3BF0000000000000FB0108901411070040501508421405064090741402480A0350
 94
        0
1001
ACAD
1000
AcDbSavedByObjectVersion
1070
     0
1000
AcRTDxfName
1000
VISUALSTYLE
1000
AcRTDxfName
1000
VISUALSTYLE
1000
AcRTDxfName
1000
VISUALSTYLE
1000
AcRTDxfName
1000
VISUALSTYLE
  0
ACAD_PROXY_OBJECT
  5
2F89
102
{ACAD_REACTORS
330
2F80
102
}
330
2F80
100
AcDbProxyObject
 90
      499
 91
      508
 95
   983063
 70
     0
 93
      508
310
42D0DBDB98D95C1D1D585B0010940D028333333333333E3BF0000000000000FB0107902409070040501000000000000111010841D405064090740C02480A0340
 94
        0
1001
ACAD
1000
AcDbSavedByObjectVersion
1070
     0
1000
AcRTDxfName
1000
VISUALSTYLE
1000
AcRTDxfName
1000
VISUALSTYLE
1000
AcRTDxfName
1000
VISUALSTYLE
1000
AcRTDxfName
1000
VISUALSTYLE
  0
ACAD_PROXY_OBJECT
  5
2F8B
102
{ACAD_REACTORS
330
2F80
102
}
330
2F80
100
AcDbProxyObject
 90
      499
 91
      508
 95
   983063
 70
     0
 93
      420
310
41111A5B4010B409028333333333333E3BF0000000000000FB010790141107004050150841D405064090741402480A02677FFFFFD2
 94
        0
1001
ACAD
1000
AcDbSavedByObjectVersion
1070
     0
1000
AcRTDxfName
1000
VISUALSTYLE
1000
AcRTDxfName
1000
VISUALSTYLE
1000
AcRTDxfName
1000
VISUALSTYLE
1000
AcRTDxfName
1000
VISUALSTYLE
  0
ACAD_PROXY_OBJECT
  5
2F8F
102
{ACAD_REACTORS
330
2F80
102
}
330
2F80
100
AcDbProxyObject
 90
      499
 91
      508
 95
   983063
 70
     0
 93
      452
310
43119858D95C185D1D195C9B8010F409028333333333333E3BF0000000000000FB010790141107004050150841D405064090741402480A0353
 94
        0
1001
ACAD
1000
AcDbSavedByObjectVersion
1070
     0
1000
AcRTDxfName
1000
VISUALSTYLE
1000
AcRTDxfName
1000
VISUALSTYLE
1000
AcRTDxfName
1000
VISUALSTYLE
1000
AcRTDxfName
1000
VISUALSTYLE
  0
ACAD_PROXY_OBJECT
  5
2F81
102
{ACAD_REACTORS
330
2F80
102
}
330
2F80
100
AcDbProxyObject
 90
      499
 91
      508
 95
   983063
 70
     0
 93
      396
310
41519B185D00240901404333333333333E3BF0000000000000F9010740A41107004050150841D405064090741402480A1B58
 94
        0
1001
ACAD
1000
AcDbSavedByObjectVersion
1070
     0
1000
AcRTDxfName
1000
VISUALSTYLE
1000
AcRTDxfName
1000
VISUALSTYLE
1000
AcRTDxfName
1000
VISUALSTYLE
1000
AcRTDxfName
1000
VISUALSTYLE
  0
ACAD_PROXY_OBJECT
  5
2F82
102
{ACAD_REACTORS
330
2F80
102
}
330
2F80
100
AcDbProxyObject
 90
      499
 91
      508
 95
   983063
 70
     0
 93
      484
310
43919B185D15DA5D1A115919D95CC010140901404333333333333E3BF0000000000000F9010740901411070040501600405405064090741402480A1B58
 94
        0
1001
ACAD
1000
AcDbSavedByObjectVersion
1070
     0
1000
AcRTDxfName
1000
VISUALSTYLE
1000
AcRTDxfName
1000
VISUALSTYLE
1000
AcRTDxfName
1000
VISUALSTYLE
1000
AcRTDxfName
1000
VISUALSTYLE
  0
ACAD_PROXY_OBJECT
  5
2F83
102
{ACAD_REACTORS
330
2F80
102
}
330
2F80
100
AcDbProxyObject
 90
      499
 91
      508
 95
   983063
 70
     0
 93
      420
310
4211DBDD5C985D590010240902404333333333333E3BF0000000000000F9010740A411070040501641D405064090741402480A1B58
 94
        0
1001
ACAD
1000
AcDbSavedByObjectVersion
1070
     0
1000
AcRTDxfName
1000
VISUALSTYLE
1000
AcRTDxfName
1000
VISUALSTYLE
1000
AcRTDxfName
1000
VISUALSTYLE
1000
AcRTDxfName
1000
VISUALSTYLE
  0
ACAD_PROXY_OBJECT
  5
2F84
102
{ACAD_REACTORS
330
2F80
102
}
330
2F80
100
AcDbProxyObject
 90
      499
 91
      508
 95
   983063
 70
     0
 93
      508
310
4451DBDD5C985D5915DA5D1A115919D95CC010340902404333333333333E3BF0000000000000F9010740901411070040501600405405064090741402480A1B50
 94
        0
1001
ACAD
1000
AcDbSavedByObjectVersion
1070
     0
1000
AcRTDxfName
1000
VISUALSTYLE
1000
AcRTDxfName
1000
VISUALSTYLE
1000
AcRTDxfName
1000
VISUALSTYLE
1000
AcRTDxfName
1000
VISUALSTYLE
  0
ACAD_PROXY_OBJECT
  5
2F8E
102
{ACAD_REACTORS
330
2F80
102
}
330
2F80
100
AcDbProxyObject
 90
      499
 91
      508
 95
   983063
 70
     0
 93
      452
310
43131A5B995C185D1D195C9B8010E409028333333333333E3BF0000000000000FB010790141107004050750841D405064090741402483A0354
 94
        0
1001
ACAD
1000
AcDbSavedByObjectVersion
1070
     0
1000
AcRTDxfName
1000
VISUALSTYLE
1000
AcRTDxfName
1000
VISUALSTYLE
1000
AcRTDxfName
1000
VISUALSTYLE
1000
AcRTDxfName
1000
VISUALSTYLE
  0
ACAD_PROXY_OBJECT
  5
2F8A
102
{ACAD_REACTORS
330
2F80
102
}
330
2F80
100
AcDbProxyObject
 90
      499
 91
      508
 95
   983063
 70
     0
 93
      428
310
429499585B1A5CDD1A58C0108409028333333333333E3BF0000000000000FB01079019070040501508421405064090741402480A1B49
 94
        0
1001
ACAD
1000
AcDbSavedByObjectVersion
1070
     0
1000
AcRTDxfName
1000
VISUALSTYLE
1000
AcRTDxfName
1000
VISUALSTYLE
1000
AcRTDxfName
1000
VISUALSTYLE
1000
AcRTDxfName
1000
VISUALSTYLE
  0
ACAD_PROXY_OBJECT
  5
2F8D
102
{ACAD_REACTORS
330
2F80
102
}
330
2F80
100
AcDbProxyObject
 90
      499
 91
      508
 95
   983063
 70
     0
 93
      420
310
42151A1A58DAD95B8010D409028333333333333E3BF0000000000000FB010790141107004050150C41D405064090741402480A0352
 94
        0
1001
ACAD
1000
AcDbSavedByObjectVersion
1070
     0
1000
AcRTDxfName
1000
VISUALSTYLE
1000
AcRTDxfName
1000
VISUALSTYLE
1000
AcRTDxfName
1000
VISUALSTYLE
1000
AcRTDxfName
1000
VISUALSTYLE
  0
DICTIONARYVAR
  5
3087
102
{ACAD_REACTORS
330
3B
102
}
330
3B
100
DictionaryVariables
280
     0
  1
1:1
  0
DICTIONARYVAR
  5
35B1
102
{ACAD_REACTORS
330
3B
102
}
330
3B
100
DictionaryVariables
280
     0
  1
STANDARD
  0
DICTIONARYVAR
  5
3086
102
{ACAD_REACTORS
330
3B
102
}
330
3B
100
DictionaryVariables
280
     0
  1
STANDARD
  0
DICTIONARYVAR
  5
3D
102
{ACAD_REACTORS
330
3B
102
}
330
3B
100
DictionaryVariables
280
     0
  1
2
  0
DICTIONARYVAR
  5
3C
102
{ACAD_REACTORS
330
3B
102
}
330
3B
100
DictionaryVariables
280
     0
  1
1
  0
DICTIONARYVAR
  5
3088
102
{ACAD_REACTORS
330
3B
102
}
330
3B
100
DictionaryVariables
280
     0
  1
0
  0
DICTIONARYVAR
  5
37E3
102
{ACAD_REACTORS
330
3B
102
}
330
3B
100
DictionaryVariables
280
     0
  1

  0
DICTIONARYVAR
  5
2C0C
102
{ACAD_REACTORS
330
3B
102
}
330
3B
100
DictionaryVariables
280
     0
  1
127
  0
DICTIONARY
  5
3C59
330
22
100
AcDbDictionary
280
     1
281
     1
  3
ACAD_XREC_ROUNDTRIP
360
3C5A
  0
DICTIONARY
  5
2FF3
330
2CC2
100
AcDbDictionary
280
     1
281
     1
  3
ACAD_XREC_ROUNDTRIP
360
3C5F
  3
ADSK_XREC_LAYOUTTHUMBNAIL
360
2FF4
  0
DICTIONARY
  5
2F71
330
2F70
100
AcDbDictionary
280
     1
281
     1
  3
ACAD_XREC_ROUNDTRIP
360
3792
  3
BUMPTILE
360
2F73
  3
DIFFUSETILE
360
2F72
  3
OPACITYTILE
360
2F76
  3
REFLECTIONTILE
360
2F75
  3
REFRACTIONTILE
360
2F77
  3
SPECULARTILE
360
2F74
  0
DICTIONARY
  5
2F69
330
2F68
100
AcDbDictionary
280
     1
281
     1
  3
ACAD_XREC_ROUNDTRIP
360
3791
  3
BUMPTILE
360
2F6B
  3
DIFFUSETILE
360
2F6A
  3
OPACITYTILE
360
2F6E
  3
REFLECTIONTILE
360
2F6D
  3
REFRACTIONTILE
360
2F6F
  3
SPECULARTILE
360
2F6C
  0
DICTIONARY
  5
2F79
330
2F78
100
AcDbDictionary
280
     1
281
     1
  3
ACAD_XREC_ROUNDTRIP
360
3793
  3
BUMPTILE
360
2F7B
  3
DIFFUSETILE
360
2F7A
  3
OPACITYTILE
360
2F7E
  3
REFLECTIONTILE
360
2F7D
  3
REFRACTIONTILE
360
2F7F
  3
SPECULARTILE
360
2F7C
  0
DICTIONARY
  5
3C5B
330
297B
100
AcDbDictionary
280
     1
281
     1
  3
ACAD_XREC_ROUNDTRIP
360
3C5C
  0
DICTIONARY
  5
3C5D
330
297C
100
AcDbDictionary
280
     1
281
     1
  3
ACAD_XREC_ROUNDTRIP
360
3C5E
  0
DICTIONARY
  5
304A
330
2F93
100
AcDbDictionary
280
     1
281
     1
  3
ACAD_ROUNDTRIP_2008_TABLESTYLE_CELLSTYLEMAP
360
3775
  3
ACAD_XREC_ROUNDTRIP
360
3794
  0
XRECORD
  5
3C5A
102
{ACAD_REACTORS
330
3C59
102
}
330
3C59
100
AcDbXrecord
280
     1
102
SHADEPLOT
 70
     0
102
SHADEPLOTRESLEVEL
 70
     2
102
SHADEPLOTCUSTOMDPI
 70
   300
  0
XRECORD
  5
3C5F
102
{ACAD_REACTORS
330
2FF3
102
}
330
2FF3
100
AcDbXrecord
280
     1
102
SHADEPLOT
 70
     1
102
SHADEPLOTRESLEVEL
 70
     2
102
SHADEPLOTCUSTOMDPI
 70
   300
  0
XRECORD
  5
2FF4
102
{ACAD_REACTORS
330
2FF3
102
}
330
2FF3
100
AcDbXrecord
280
     1
310
28000000630000008C0000000100080000000000B0360000000000000000000000010000000000000000000000000000FFFFFF000000000000000000000000000000000000000000000000000000000000000000330000006600000099000000CC000000FF00000000330000333300006633000099330000CC330000FF3300
310
0000660000336600006666000099660000CC660000FF66000000990000339900006699000099990000CC990000FF99000000CC000033CC000066CC000099CC0000CCCC0000FFCC000000FF000033FF000066FF000099FF0000CCFF0000FFFF000000003300330033006600330099003300CC003300FF003300003333003333
310
33006633330099333300CC333300FF33330000663300336633006666330099663300CC663300FF66330000993300339933006699330099993300CC993300FF99330000CC330033CC330066CC330099CC3300CCCC3300FFCC330000FF330033FF330066FF330099FF3300CCFF3300FFFF330000006600330066006600660099
310
006600CC006600FF00660000336600333366006633660099336600CC336600FF33660000666600336666006666660099666600CC666600FF66660000996600339966006699660099996600CC996600FF99660000CC660033CC660066CC660099CC6600CCCC6600FFCC660000FF660033FF660066FF660099FF6600CCFF6600
310
FFFF660000009900330099006600990099009900CC009900FF00990000339900333399006633990099339900CC339900FF33990000669900336699006666990099669900CC669900FF66990000999900339999006699990099999900CC999900FF99990000CC990033CC990066CC990099CC9900CCCC9900FFCC990000FF99
310
0033FF990066FF990099FF9900CCFF9900FFFF99000000CC003300CC006600CC009900CC00CC00CC00FF00CC000033CC003333CC006633CC009933CC00CC33CC00FF33CC000066CC003366CC006666CC009966CC00CC66CC00FF66CC000099CC003399CC006699CC009999CC00CC99CC00FF99CC0000CCCC0033CCCC0066CC
310
CC0099CCCC00CCCCCC00FFCCCC0000FFCC0033FFCC0066FFCC0099FFCC00CCFFCC00FFFFCC000000FF003300FF006600FF009900FF00CC00FF00FF00FF000033FF003333FF006633FF009933FF00CC33FF00FF33FF000066FF003366FF006666FF009966FF00CC66FF00FF66FF000099FF003399FF006699FF009999FF00CC
310
99FF00FF99FF0000CCFF0033CCFF0066CCFF0099CCFF00CCCCFF00FFCCFF0000FFFF0033FFFF0066FFFF0099FFFF00CCFFFF00FFFFFF00000000000D0D0D001A1A1A00282828003535350043434300505050005D5D5D006B6B6B00787878008686860093939300A1A1A100AEAEAE00BBBBBB00C9C9C900D6D6D600E4E4E400
310
F1F1F100FFFFFF0000000000000000000000000000000000000000000000000000000000000000000000000000000000F5F5F5F5F5F5F5F5F5F5F5F5F5F5F5F5F5F5F5F5F5F5F5F5F5F5F5F5F5F5F5F5F5F5F5F5F5F5F5F5F5F5F5F5F5F5F5F5F5F5F5F5F5F5F5F5F5F5F5F5F5F5F5F5F5F5F5F5F5F5F5F5F5F5F5F5F5F5F5
310
F5F5F5F5F5F5F5F5F5F5F5F5F5F5F5F5F5F5F5EF00E2E2E2E2E2E2E2E2E2E2E2E2E2E2E2E2E2E2E2E2E2E2E2E2E2E2E2E2E2E2E2E2E2E2E2E2E2E2E2E2E2E2E2E2E2E2E2E2E2E2E2E2E2E2E2E2E2E2E2E2E2E2E2E2E2E2E2E2E2E2E2E2E2E2E2E2E2E2E2E2E2E2E2E2E2E2E2E2E2E2E2E2E2E2E2E2E2F5EF00E2E2E2E2E2E2
310
E2E2E2E2E2E2E2E2E2E2E2E2E2E2E2E2E2E2E2E2E2E2E2E2E2E2E2E2E2E2E2E2E2E2E2E2E2E2E2E2E2E2E2E2E2E2E2E2E2E2E2E2E2E2E2E2E2E2E2E2E2E2E2E2E2E2E2E2E2E2E2E2E2E2E2E2E2E2E2E2E2E2E2E2E2E2E2E2E2E2E2F5EF00E2F5F5F5F5F5F5F5F5E2E2E2E2E2E2E2E2F5F5F5F5F5F5F5F5F5F5F5F5F5F5F5E2
310
E2E2E2E2E2E2E2E2F5F5F5F5F5F5F5F5F5F5F5F5F5F5E2E2E2E2E2E2E2E2E2F5F5F5F5F5F5F5F5F5F5F5F5F5F5F5E2E2E2E2E2E2E2E2F5F5F5F5F5F5F5F5E2E2F5EF00E2F5E2E2E2E2E2E2E2E2E2E2E2E2E2E2E2E2E2E2E2E2E2E2E2E2E2E2F5F5E2E2E2E2E2E2E2E2E2E2E2E2E2E2E2E2E2E2E2E2E2E2E2E2E2E2E2E2E2E2
310
E2E2E2E2E2E2E2E2E2E2E2E2E2E2E2E2E2E2E2E2E2E2E2E2E2E2E2E2E2E2E2E2E2E2F5E2E2F5EF00E2F5E2E2E2E2E2F5F5F5F5F5F5F5F5F5F5F5F5F5F5F5F5F5F5F5F5F5F5F5F5F5F5F5F5F5F5F5F5F5F5F5F5F5F5F5F5F5F5F5F5F5F5F5F5F5F5F5F5F5F5F5F5F5F5F5F5F5F5F5F5F5F5F5F5F5F5F5F5F5F5F5F5F5F5F5F5
310
F5F5F5E2E2E2E2F5E2E2F5EF00E2F5E2E2E2E2E2F5F5F5F5F5F5F5F5F5F5F5F5F5F5F5F5F5F5F5F5F5F5F5F5F5F5F5F5F5F5F5F5F5F5F5F5F5F5F5F5F5F5F5F5F5F5F5F5F5F5F5F5F5F5F5F5F5F5F5F5F5F5F5F5F5F5F5F5F5F5F5F5F5F5F5F5F5F5F5F5F5F5F5F5E2E2E2F5E2E2F5EF00E2F5E2E2E2E2E2E2E2E2E2E2E2E2
310
E2E2E2E2E2E2E2E2E2E2E2E2E2E2E2E2E2E2E2E2E2E2E2E2E2E2E2E2E2E2E2E2E2E2E2E2E2E2E2E2E2E2E2E2E2E2E2E2E2E2E2E2E2E2E2E2E2E2E2E2E2E2E2E2E2E2E2E2E2E2E2E2E2E2E2E2E2E2E2E2F5E2E2F5EF00E2F5E2E2E2E2E2EAEAEAEAEAEAEAEAEAEAEAEAEAEAEAEAEAEAEAEAEAEAEAEAEAEAEAEAEAEAEAEAEAEA
310
EAEAEAEAEAEAEAEAEAEAEAEAEAEAEAEAEAEAEAEAEAEAEAEAEAEAEAEAEAEAEAEAEAEAEAEAEAEAEAEAEAEAEAEAEAEAEAEAEAEAE2E2E2F5E2E2F5EF00E2F5E2E2E2E2E2EAE2E2E2E2E2E2E2E2E2E2E2E2E2E2E2E2E2E2E2E2E2E2F5F5F5F5F5E2E2E2E2E2E2E2E2E2E2E2E2E2E2E2F5F5F5F5F5F5F5F5F5E2E2E2E2E2E2E2E2E2
310
F5F5F5F5F5F5F5F5F5F5F5F5E2E2E2E2E2E2E2E2E2E2EAE2E2E2F5E2E2F5EF00E2F5E2E2E2E2E2EAE2E2E2E2E2E2E2E2E2E2E2E2E2E2E2E2E2E2E228E2E2F5F5F5F5F5E2E2E2E2E2E2E2E2E2E2E2E2E2E2E2F5F5F5F5F5F5F5F5F5E2E2E2E2E2E2E2E2E2F5F5F5F5F5F5F5F5F5F5F5F5E2E2E2E2E2E2E2E2E2E2EAE2E2E2F5
310
E2E2F5EF00E2F5E2E2E2E2E2EAE2E2E2E2E2E2E2E2E2E2E2E2E2E2E2E2E2E2E228E2E2F5F5F5F5E2E2E2E2E2E2E2E2E2E2E2E2E2E2E2E2F5F5F5F5E2E2E2E2E2E2E2E2E2E2E2E2E2E2F5F5F5F5F5E2E2E2E2E2E2E2E2E2E2E2E2E2E2E2E2E2EAE2E2E2F5E2E2F5EF00E2E2E2E2E2E2E2EAE2E2E2E2E2E2E2E2E2E2E2E2E2E2
310
E2E2E2E2E228E2E2E2E2E2E2E2E2E2E2E2E2E2E2E2E2E2E2E2E2E2E2E2E2E2E2E2E2E2E2E2E2E2E2E2E2E2E2E2E2E2E2E2E2E2E2E2E2E2E2E2E2E2E2E2E2E2E2E2E2E2E2EAE2E2E2E2E2E2F5EF00E2E2E2E2E2E2E2EAE2E2E2E2E2E2E2E2E2E2E2E2E2E2E2E2ECE2E2EFEFEFEFEFEFE2E2E2E2E2E2E2E2E2E2EFEFEFEFEFEF
310
EFEFEFEFEFE2E2E2E2E2E2E2E2E2EFEFEFEFEFEFEFEFEFEFEFEFEFEFEFEFE2E2E2E2E2E2E2E2E2E2E2EAE2E2E2E2E2E2F5EF00E2E2E2E2E2E2E2EAE2E2E2E2E2E2E2E2E2E2E2E2E2E2E2ECE2ECECEFEFEFEFEFEFEFE2E2E2E2E2E2E2E2EFEFE2E2E2EFEFEFEFEFEFEFE2E2E2E2E2E2E2E2EFEFEFE2E2E2E2E2E2E2E2E2E2E2
310
EFEFEFEFEFE2E2E2E2E2E2E2E2E2EAE2E2E2E2E2E2F5EF00E2E2E2E2E2E2E2EAE2E2E2E2E2E2E2E2E2E2E2E2E2E2E2ECECE2ECEFEFEFEFEFE2EFE2E2E2E2E2E2E2E2EFE2E2E2E2E2EFEFEFEFE2EFE2E2E2E2E2E2E2E2EFEFE2E2E2E2E2E2E2E2E2E2E2E2E2E2E2EFEFEFE2E2E2E2E2E2E2E2EAE2E2E2E2E2E2F5EF00E2E2E2
310
E2E2E2E2EAE2E2E2E2E2E2E2E2E2E2E2E2E2E2E2ECECECEC28E2E2E2E2E2EFE2E2E2E2E2E2E2E2EFE2E2E2E2E2E2E2E2E2E2EFE2E2E2E2E2E2E2E2EFEFE2E2E2E2E2E2E2E2E2E2E2E2E2E2E2E2EFEFEFE2E2E2E2E2E2E2EAE2E2E2E2E2E2F5EF00E2E2E2E2E2E2E2EAE2E2E2E2E2E2E2E2E2E2E2E2E2E2E2ECECECEC28E2E2
310
E2E2E2EFE2E2E2E2E2E2E2E2EFE2E2E2E2E2E2E2E2E2E2EFE2E2E2E2E2E2E2E2EFEFE2E2E2E2E2E2E2E2E2E2E2E2E2E2E2E2EFEFEFEFE2E2E2E2E2E2EAE2E2E2E2E2E2F5EF00E2E2E2E2E2E2E2EAE2E2E2E2E2E2E2E2E2E2E2E2E2E2ECECECECEC28E2E2E2E2EFEFE2E2E2E2E2E2E2E2EFEFE2E2E2E2E2E2E2E2EFEFE2E2E2
310
E2E2E2E2E2EFEFE2E2E2E2E2E2E2E2E2E2E2E2E2E2E2EFEFEFE2EFEFE2E2E2E2E2EAE2E2E2E2E2E2F5EF00E2E2E2E2E2E2E2EAE2E2E2E2E2E2E2E2E2E2E2E2E2E2E2ECECE2EC28E2E2E2E2EFEFE2E2E2E2E2E2E2E2EFEFE2E2E2E2E2E2E2E2EFEFE2E2E2E2E2E2E2E2EFE2E2E2E2E2E2E2E2E2E2E2E2E2E2E2EFEFEFE2E2EF
310
EFE2E2E2E2E2EAE2E2E2E2E2E2F5EF00E2E2E2E2E2E2E2EAE2E2E2E2E2E2E2E2E2E2E2E2E2E2E2ECECECE228E2E2E2E2EFEFE2E2E2E2E2E2E2E2EFEFE2E2E2E2E2E2E2E2EFEFE2E2E2E2E2E2E2E2EFE2E2E2E2E2E2E2E2E2E2E2E2E2E2EFEFEFE2E2E2E2EFEFE2E2E2E2EAE2E2E2E2E2E2F5EF00E2E2E2E2E2E2E2EAE2E2E2
310
E2E2E2E2E2E2E2E2E2E2E2E2E2ECE2E228E2E2E2E2E2EFE2E2E2E2E2E2E2E2EFE2E2E2E2E2E2E2E2E2E2EFE2E2E2E2E2E2E2E2EFE2E2E2E2E2E2E2E2E2E2E2E2E2EFEFEFE2E2E2E2E2EFEFE2E2E2E2EAE2E2E2E2E2E2F5EF00E2F5E2E2E2E2E2EAE2E2E2E2E2E2E2E2E2E2E2E2E2E2E2E2E2E2E228EFEFEFEFECECECE2E2E2
310
E2E2E2ECECECEFEFEFEFE2EFEFEFECECECE2E2E2E2E2E2E2ECECEFEFEFEFEFE2E2E2E2E2E2EFEFEFE2E2E2E2E2E2EFEFE2E2E2E2EAE2E2E2F5E2E2F5EF00E2F5E2E2E2E2E2EAE2F5F5F5F5F5F5F5F5F5F5F5F5F5E2E2E2E2E228EFEFEFECECECECE2E2E2E2E2E2ECECECECEFEFEFE2EFEFECECECECE2E2E2E2E2E2E2ECECEC
310
EFE2EFEFE2E2E2E2E2EFEFEFE2E2E2E2E2E2E2E2EFE2E2E2E2EAE2E2E2F5E2E2F5EF00E2F5E2E2E2E2E2EAE2F5F5F5F5F5F5F5F5F5F5F5F5F5E2E2E2E2E228EFEFF5ECECECECF5E2E2E2E2F5ECECECECF5EFEFE2EFF5ECECECECF5E2E2E2E2F5F5ECECECF5F5EFEFE2E2E2E2E2EFEFE2E2E2E2E2E2E2E2E2EFE2E2E2E2EAE2
310
E2E2F5E2E2F5EF00E2F5E2E2E2E2E2EAE2F5F5F5F5F5F5F5F5F5F5F5F5F5E2E2E2E2E228EFEFECECECECECECE2E2E2E2ECECECECECECEFEFE2EFECECECECECECE2E2E2E2ECECECECECECECEFEFE2E2E2E2EFEFE2E2E2E2E2E2E2E2E2E2EFE2E2E2E2EAE2E2E2F5E2E2F5EF00E2F5E2E2E2E2E2EAE2F5F5F5F5F5F5F5F5F5F5
310
F5F5F5E2E2E2E2E228EFEFEFECECECECE2E2E2E2E2E2ECECECECEFEFEFE2EFEFECECECECE2E2E2E2E2E2ECECECECEFEFEFEFE2E2EFEFEFE2E2E2E2E2E2E2E2E2E2E2EFE2E2E2E2EAE2E2E2F5E2E2F5EF00E2F5E2E2E2E2E2EAE2E2E2E2E2E2E2E2E2E2E2E2E2E2E2E2E2E2E228E2EFEFEFEFEFE2E2E2E2E2E2E2E2EFEFEFEF
310
EFE2E2EFEFEFEFEFE2E2E2E2E2E2E2E2EFEFEFEFEFEFEFE2EFEFEFE2E2E2E2E2E2E2E2E2E2E2E2EFE2E2E2E2EAE2E2E2F5E2E2F5EF00E2F5E2E2E2E2E2EAE2E2E2E2E2E2E2E2E2E2E2E2E2E2E2E2E2E2E228E2E2E2E2E2EFE2E2E2E2E2E2E2E2EFE2E2E2E2E2E2E2E2E2E2EFE2E2E2E2E2E2E2E2EFE2E2E2E2E2EFEFEFE2E2
310
E2E2E2E2E2E2E2E2E2E2E2E2EFE2E2E2E2EAE2E2E2F5E2E2F5EF00E2F5E2E2E2E2E2EAE2E2E2E2E2E2E2E2E2E2E2E2E2E2E2E2E2E2E228E2E2E2E2EFEFE2E2E2E2E2E2E2E2EFEFE2E2E2E2E2E2E2E2EFEFE2E2E2E2E2E2E2E2EFE2E2E2E2E2EFEFE2E2E2E2E2E2E2E2E2E2E2E2E2E2E2EFE2E2E2E2EAE2E2E2F5E2E2F5EF00
310
E2F5E2E2E2E2E2EAE2E2E2E2E2E2E2E2E2E2E2E2E2E2E2E2ECE2E228E2E2E2E2EFEFE2E2E2E2E2E2E2E2EFEFE2E2E2E2E2E2E2E2EFEFE2E2E2E2E2E2E2E2EFE2E2E2E2EFEFEFEFEFEFEFEFEFEFE2E2E2E2E2E2E2E2EFE2E2E2E2EAE2E2E2F5E2E2F5EF00E2F5E2E2E2E2E2EAE2E2E2E2E2E2E2E2E2E2E2E2E2E2E2ECE2ECEC
310
28E2E2E2E2EFEFE2E2E2E2E2E2E2E2EFEFE2E2E2E2E2E2E2E2EFEFE2E2E2E2E2E2E2E2EFEFE2E2EFEFE2E2E2EFEFEFEFEFEFE2E2E2E2E2E2E2E2EFE2E2E2E2EAE2E2E2F5E2E2F5EF00E2F5E2E2E2E2E2EAE2E2E2E2E2E2E2E2E2E2E2E2E2E2E2ECECECEC28E2E2E2E2E2EFE2E2E2E2E2E2E2E2EFE2E2E2E2E2E2E2E2E2E2EF
310
E2E2E2E2E2E2E2E2EFEFE2EFEFEFE2E2E2EFE2F5ECF5EFE2E2E2E2E2E2E2E2EFE2E2E2E2EAE2E2E2F5E2E2F5EF00E2F5E2E2E2E2E2EAE2E2E2E2E2E2E2E2E2E2E2E2E2E2E2ECECECEC28E2E2E2E2E2EFE2E2E2E2E2E2E2E2EFE2E2E2E2E2E2E2E2E2E2EFE2E2E2E2E2E2E2E2EFEFEFEFEFE2E2E2E2EFECECECF5EFE2E2E2E2
310
E2E2E2E2EFE2E2E2E2EAE2E2E2F5E2E2F5EF00E2F5E2E2E2E2E2EAE2E2E2E2E2E2E2E2E2E2E2E2E2E2E2ECECECECEFEFE2E2E2EFEFE2E2E2E2E2E2E2E2EFEFEFEFEFEFEFE2E2E2E2EFE2E2E2E2E2E2E2E2EFEFEFEFEFEFE2E2E2EFECECECECECE2E2E2EFEFEFE2EFEFE2E2E2E2EAE2E2E2F5E2E2F5EF00E2F5E2E2E2E2E2EA
310
E2E2E2E2E2E2E2E2E2E2E2E2E2E2ECECECECECEFEFEFEFEFEFEFE2E2E2E2E2E2E2E2EFEFEFEFEFEFEFEFEFEFEFEFE2E2E2E2E2E2E2E2EFEFEFEFEFEFEFEFEFEFECECECECECEFEFEFEFEFEFEFEFEFE2E2E2E2EAE2E2E2F5E2E2F5EF00E2F5E2E2E2E2E2EAE2E2E2E2E2E2E2E2E2E2E2E2E2E2E2ECECE2ECEFEFEFEFEFEFE2E2
310
E2E2E2E2E2F5F5F5F5F5EFEFEFEFEFEFEFEFE2E2E2E2E2E2E2E2E2E2EFEFEFF5F5F5F5EFEFECECECECEFEFEFEFEFEFEFEFEFE2E2E2E2E2EAE2E2E2F5E2E2F5EF00E2F5E2E2E2E2E2EAE2E2E2E2E2E2E2E2E2E2E2E2E2E2E2E2ECECE228E2E2E2E2E2E2E2E2E2E2E2E2F5F5F5F5F5E2E2E2E2E2E2E2E2E2E2E2E2E2E2E2E2E2
310
E2E2E2E2F5F5F5F5E2E2E2F5ECF5E2E2E2E2E2E2E2E2E2E2E2E2E2E2EAE2E2E2F5E2E2F5EF00E2F5E2E2E2E2E2EAE2E2E2E2E2E2E2E2E2E2E2E2E2E2E2E2ECE2E228E2E2E2E2E2E2E2E2E2E2E2E2E2E2E2E2E2E2E2E2E2E2E2E2E2E2E2E2E2E2E2E2E2E2E2E2E2E2E2E2E2E2E2E2E2F5ECF5E2E2E2E2E2E2E2E2E2E2E2E2E2
310
E2EAE2E2E2F5E2E2F5EF00E2E2E2E2E2E2E2EAE2E2E2E2E2E2E2E2E2E2E2E2E2E2E2E2E2E2E2E2E2E2E2E2E2E2E2E2E2E2E2E2E2E2E2E2E2E2E2E2E2E2E2E2E2E2E2E2E2E2E2E2E2E2E2E2E2E2E2E2E2E2E2E2E2E2E2E2E2E2E2E2E2E2E2E2E2E2E2E2E2E2EAE2E2E2E2E2E2F5EF00E2E2E2E2E2E2E2EAE2E2E2E2E2E2E2E2
310
E2E2E2E2E2E2E2E2E2E2E2E2E2E2E2E2E2E2E2E2E2E2E2E2E2E2E2E2E2E2E2E2E2E2F5F5F5F5E2E2E2E2E2E2E2F5F5F5F5F5E2E2E2E2E2E2E2E2E2E2E2E2E2E2E2E2E2E2E2E2E2E2E2E2EAE2E2E2E2E2E2F5EF00E2E2E2E2E2E2E2EAE2E2E2E2E2E2E2E2E2E2E2E2E2E2E2E2E2E2E2E2E2E2E2E2E2E2E2E2E2E2E2E2E2E2E2
310
E2E2E2E2E2E2E2F5F5F5F5E2E2E2E2E2E2E2F5F5F5F5F5E2EFEFE2E2E2E2E2E2E2E2E2E2E2E2E2E2E2E2E2E2E2E2E2EAE2E2E2E2E2E2F5EF00E2E2E2E2E2E2E2EAE2E2E2E2E2E2E2E2E2E2E2E2E2E2E2E2E2E2E2E2E2E2E2E2E2E2E2E2E2E2E2E2E2E2E2E2EFEFEFEFEFEFEFEFE2E2E2E2E2E2E2E2E2E2E2EFEFEFEFEFEFEF
310
EFEFEFEFEFEFE2E2E2E2E2E2E2E2E2E2E2E2E2E2EAE2E2E2E2E2E2F5EF00E2E2E2E2E2E2E2EAE2E2E2E2E2E2E2E2E2E2E2E2E2E2E2E2E2E2E2E2E2E2E2E2E2E2E2E2E2E2E2E2E2E2EFEFEFEFEFEFEFEFEFEFEFEFE2E2E2E2E2E2E2E2EFEFEFEFEFEFE2EFEFEFEFEFEFEFEFEFE2E2E2E2E2E2E2E2E2E2E2E2EAE2E2E2E2E2E2
310
F5EF00E2E2E2E2E2E2E2EAE2E2E2E2E2E2E2E2E2E2E2E2E2E2E2E2E2E2E2E2E2E2E2E2E2E2E2E2E2E2E2E2E2E2EFEFE2E2E2EFEFEFEFEFEFEFE2E2E2E2E2E2E2E2EFEFE2E2E2E2E2E2E2E2E2E2EFEFEFEFEFEFE2E2E2E2E2E2E2E2E2E2EAE2E2E2E2E2E2F5EF00E2E2E2E2E2E2E2EAE2E2E2E2E2E2E2E2E2E2E2E2E2E2E2E2
310
E2E2E2E2E2E2E2E2E2E2E2E2E2E2E2E2E2E2EFE2E2E2E2E2E2E2E2E2E2EFE2E2E2E2E2E2E2E2EFE2E2E2E2E2E2E2E2E2E2E2E2E2E2EFEFEFEFEFE2E2E2E2E2E2E2E2EAE2E2E2E2E2E2F5EF00E2E2E2E2E2E2E2EAE2E2E2E2E2E2E2E2E2E2E2E2E2E2E2E2E2E2E2E2E2E2E2E2E2E2E2E2E2E2E2E2E2E2EFE2E2E2E2E2E2E2E2
310
E2E2EFE2E2E2E2E2E2E2E2EFE2E2E2E2E2E2E2E2E2E2E2E2E2E2E2E2EFEFEFEFE2E2E2E2E2E2E2EAE2E2E2E2E2E2F5EF00E2E2E2E2E2E2E2EAE2E2E2E2E2E2E2E2E2E2E2E2E2E2E2E2E2E2E2E2E2E2E2E2E2E2E2E2E2E2E2E2E2E2EFE2E2E2E2E2E2E2E2E2E2EFE2E2E2E2E2E2E2E2EFE2E2E2E2E2E2E2E2E2E2E2E2E2E2E2
310
E2E2E2E2EFEFE2E2E2E2E2E2EAE2E2E2E2E2E2F5EF00E2F5E2E2E2E2E2EAE2E2E2E2E2E2E2E2E2E2E2E2E2E2E2E2E2E2E2E2E2E2E2E2E2E2E2E2E2E2E2E2E2E2EFEFE2E2E2E2E2E2E2E2EFEFE2E2E2E2E2E2E2E2EFEFE2E2E2E2E2E2E2E2E2E2E2E2E2E2E2E2E2E2E2EFEFE2E2E2E2E2EAE2E2E2F5E2E2F5EF00E2F5E2E2E2
310
E2E2EAE2E2E2E2E2E2E2E2E2E2E2E2E2E2E2E2E2E2E2E2E2E2E2E2E2E2E2E2E2E2E2E2E2E2EFEFE2E2E2E2E2E2E2E2EFEFE2E2E2E2E2E2E2E2EFEFE2E2E2E2E2E2E2E2E2E2E2E2E2E2E2E2E2E2E2EFEFE2E2E2E2E2EAE2E2E2F5E2E2F5EF00E2F5E2E2E2E2E2EAE2E2E2E2E2E2E2E2E2E2E2E2E2E2E2E2E2E2E2E2E2E2E2E2
310
E2E2E2E2E2E2E2E2E2E2EFE2E2E2E2E2E2E2E2E2E2EFE2E2E2E2E2E2E2E2EFE2E2E2E2E2E2E2E2E2E2E2E2E2E2E2E2E2E2E2E2EFEFE2E2E2E2E2EAE2E2E2F5E2E2F5EF00E2F5E2E2E2E2E2EAE2E2E2E2E2E2E2E2E2E2E2E2E2E2E2E2E2E2E2E2E2E2E2E2E2E2E2E2E2E2E2E2E2E2EFEFEFEFEFE2E2EFEFEFEFEFE2E2E2E2E2
310
E2E2E2EFEFEFEFEFE2E2E2E2E2E2E2E2E2E2E2E2E2E2E2EFEFE2E2E2E2E2E2EAE2E2E2F5E2E2F5EF00E2F5E2E2E2E2E2EAE2E2E2E2E2E2E2E2E2E2E2E2E2E2E2E2E2E2E2E2E2E2E2E2E2E2E2E2E2E2E2E2E2ECECECECEFEFEFE2EFEFEFECECECE2E2E2E2E2E2E2ECECECEFEFEFEFE2E2E2E2E2E2E2E2E2E2E2EFEFEFE2E2E2
310
E2E2E2E2EAE2E2E2F5E2E2F5EF00E2F5E2E2E2E2E2EAE2E2E2E2E2E2E2E2E2E2E2E2E2E2E2E2E2F5F5F5F5F5F5F5F5F5F5F5F5F5E2E2E2ECECECECE2EFEFE2EFE2ECECECECE2E2E2E2E2E2E2ECECECE2E2EFEFE2E2E2E2E2E2E2E2E2E2E2EFEFEFE2E2E2E2E2E2E2EAE2E2E2F5E2E2F5EF00E2F5E2E2E2E2E2EAE2E2E2E2E2
310
E2E2E2E2E2E2E2E2E2E2E2E2F5F5F5F5F5F5F5F5F5F5F5F5F5E2E2ECECECECECECEFEFE2EFECECECECECECE2E2E2E2ECECECECECECECEFEFE2E2E2E2E2EFEFEFEFE2E2EFEFE2E2E2E2E2E2E2E2EAE2E2E2F5E2E2F5EF00E2F5E2E2E2E2E2EAE2E2E2E2E2E2E2E2E2E2E2E2E2E2E2E2E2F5E2E2E2E2E2E2E2E2E2E2E2F5E2E2
310
ECECECECECECEFEFE2EFECECECECECECE2E2E2E2ECECECECECECECEFEFE2E2E2E2EFEFE2EFEFEFEFEFE2E2E2E2E2E2E2E2E2EAE2E2E2F5E2E2F5EF00E2F5E2E2E2E2E2EAE2E2E2E2E2E2E2E2E2E2E2E2E2E2E2E2E2F5F5F5F5F5F5F5F5F5F5F5F5F5E2E2E2E2ECECECEFEFEFE2EFEFEFECECECE2E2E2E2E2E2E2ECECECEFEF
310
EFEFE2E2E2E2EFEFE2E2ECECEFEFE2E2E2E2E2E2E2E2E2EAE2E2E2F5E2E2F5EF00E2F5E2E2E2E2E2EAE2E2E2E2E2E2E2E2E2E2E2E2E2E2E2E2E2E2E2E2E2E2E2E2E2E2E2E2E2E2E2E2E2E2EFE2E2E2E2E2E2E2E2E2E2EFE2E2E2E2E2E2E2E2EFE2E2E2E2E2E2E2E2E2EFEFE2E2ECECECECE2E2E2E2E2E2E2E2E2E2EAE2E2E2
310
F5E2E2F5EF00E2F5E2E2E2E2E2EAE2E2E2E2E2E2E2E2E2E2E2E2E2E2E2E2E2E2E2E2E2E2E2E2E2E2E2E2E2E2E2E2E2E2EFE2E2E2E2E2E2E2E2E2E2EFE2E2E2E2E2E2E2E2EFE2E2E2E2E2E2E2E2E2EFEFEFF5ECECECECE2E2E2E2E2E2E2E2E2E2EAE2E2E2F5E2E2F5EF00E2F5E2E2E2E2E2EAE2E2E2E2E2E2E2E2E2E2E2E2E2
310
E2E2E2E2E2E2E2E2E2E2E2E2E2E2E2E2E2E2E2E2E2EFEFE2E2E2E2E2E2E2E2EFEFE2E2E2E2E2E2E2E2EFEFE2E2E2E2E2E2E2E2E2EFEFEFECECECECF5E2E2E2E2E2E2E2E2E2EAE2E2E2F5E2E2F5EF00E2F5E2E2E2E2E2EAE2E2E2E2E2E2E2E2E2E2E2E2E2E2E2E2E2E2E2E2E2E2E2E2E2E2E2E2E2E2E2E2E2E2EFEFE2E2E2E2
310
E2E2E2E2EFEFE2E2E2E2E2E2E2E2EFEFE2E2E2E2E2E2E2E2E2E2E2EFECECECECECE2E2E2E2E2E2E2E2E2EAE2E2E2F5E2E2F5EF00E2F5E2E2E2E2E2EAE2E2E2E2E2E2E2E2E2E2E2E2E2E2F5F5F5F5F5F5E2E2E2E2E2E2E2E2E2E2E2E2E2E2EFE2E2E2E2E2E2E2E2E2E2EFE2E2E2E2E2E2E2E2EFE2E2E2E2E2E2E2E2E2E2E2E2
310
E2EFF5F5F5F5F5F5F5F5F5E2E2E2E2EAE2E2E2F5E2E2F5EF00E2F5E2E2E2E2E2EAE2E2E2E2E2E2E2E2E2E2E2E2E2E2F5F5F5F5F5F5E2E2E2E2E2E2E2E2E2E2E2E2E2E2EFE2E2E2E2E2E2E2E2E2E2EFE2E2E2E2E2E2E2E2EFE2E2E2E2E2E2E2E2E2E2E2EFEFEFF5F5F5F5F5F5F5F5F5E2E2E2E2EAE2E2E2F5E2E2F5EF00E2F5
310
E2E2E2E2E2EAE2E2E2E2E2E2E2E2E2E2E2E2E2E2F5F5F5F5E2E2E2E2E2E2E2E2E2E2E2E2E2E2E2E2EFE2EFEFEFEFE2E2E2E2E2EFE2E2E2E2E2E2E2E2EFE2E2E2E2E2E2E2E2E2E2E2EFEFEFF5F5F5F5F5F5F5F5E2E2E2E2E2EAE2E2E2F5E2E2F5EF00E2F5E2E2E2E2E2EAE2E2E2E2E2E2E2EFEFEFEFEFEFEFEFEFEFEFEFEFEF
310
EFEFEFEFEFE2E2E2E2E2E2E2E2EFEFEFEFEFEFEFE2E2E2EFEFE2E2E2E2E2E2E2E2EFEFE2E2E2EFEFEFE2E2E2E2EFEFE2F5F5F5F5F5F5E2E2E2E2E2E2E2EAE2E2E2F5E2E2F5EF00E2E2E2E2E2E2E2EAE2E2F5F5F5F5F5EFEFEFEFEFEFEFEFEFEFEFEFEFEFEFEFEFEFEFE2E2E2E2E2E2E2E2EFEFEFEFEFEFEFEFEFEFEFEFE2E2
310
E2E2E2E2E2E2E2EFEFEFEFEFEFEFE2E2E2E2EFEFE2F5F5F5F5F5F5E2E2E2E2E2E2E2EAE2E2E2E2E2E2F5EF00E2E2E2E2E2E2E2EAE2E2F5F5F5F5F5EFEFEFEFEFEFE2E2E2E2E2E2E2E2EFEFEFE2EFE2E2E2E2E2E2F5F5F5F5F5E2E2E2E2E2E2E2E2E2E2E2E2E2F5F5F5F5F5F5F5F5F5E2EFEFEFEFE2EFEFE2E2F5F5F5F5F5E2
310
E2E2E2E2E2E2E2EAE2E2E2E2E2E2F5EF00E2E2E2E2E2E2E2EAE2E2F5F5F5F5F5EFEFE2E2E2E2E2E2E2E2E2E2E2E2E2E2E2E2EFE2E2E2E2E2E2E2E2E2E2E2E2E2E2E2E2E2E2E2E2E2E2E2E2F5F5F5F5F5F5F5F5E2E2E2E2EFEFEFEFE2E2E2E2E2E2E2E2E2E2E2E2E2E2E2E2EAE2E2E2E2E2E2F5EF00E2E2E2E2E2E2E2EAE2E2
310
F5F5F5F5F5EFEFE2EFEFE2E2E2E2E2E2E2E2E2E2E2E2E2EFE2E2E2E2E2E2E2E2E2E2E2E2E2E2E2E2E2E2E2E2E2E2E2E2F5F5F5F5F5F5F5F5E2E2E2E2E2E2E2E2E2E2E2E2E2E2E2E2E2E2E2E2E2E2E2E2EAE2E2E2E2E2E2F5EF00E2E2E2E2E2E2E2EAE2E2E2E2E2E2E2E2EFEFEFEFEFEFE2E2E2E2E2E2E2E2E2E2EFEFE2E2E2
310
E2E2E2E2E2E2E2E2E2E2E2E2E2E2E2E2E2E2E2E2E2F5F5F5F5E2E2E2E2E2E2E2E2E2E2E2E2E2E2E2E2E2E2E2E2E2E2E2E2E2E2E2E2EAE2E2E2E2E2E2F5EF00E2E2E2E2E2E2E2EAE2E2E2E2E2E2E2E2EFEFEFEFEFEFEFEFEFEFEFE2E2E2E2E2EFEFE2E2E2E2E2E2E2E2E2E2E2E2E2E2E2E2E2E2E2E2E2E2E2E2F5F5F5F5E2E2
310
E2E2E2E2E2E2E2E2E2E2E2E2E2E2E2E2E2E2E2E2E2E2E2E2E2E2EAE2E2E2E2E2E2F5EF00E2E2E2E2E2E2E2EAE2E2E2E2E2E2E2E2EFEFE2E2EFEFEFEFEFEFEFEFE2E2E2E2EFEFE2E2E2E2E2E2E2E2E2E2E2E2E2E2E2E2E2E2E2E2E2E2E2E2F5F5F5F5F5E2E2E2E2E2E2E2E2E2E2E2E2E2E2E2E2E2E2E2E2E2E2E2E2E2E2E2EA
310
E2E2E2E2E2E2F5EF00E2E2E2E2E2E2E2EAE2E2E2E2E2E2E2E2EFEFE2E2EFEFE2E2F5ECEFEFE2E2E2EFEFE2E2E2E2E2E2E2E2E2E2E2E2E2E2E2E2E2E2E2E2E2E2E2E2E2E2E2E2E2E2E2E2E2E2E2E2E2E2E2E2DCDCE2E2E2E2E2E2E2E2E2E2E2E2E2E2E2EAE2E2E2E2E2E2F5EF00E2E2E2E2E2E2E2EAE2E2E2E2E2E2E2E2E2EF
310
EFE2E2EFEFE2F5ECE2EFE2EFEFEFEFE2E2E2E2E2E2E2E2E2E2E2E2E2E2E2E2E2E2E2E2E2E2E2E2E2E2E2E2E2E2E2E2E2E2E2E2E2E2DCDCDCDCDCE2E2E2E2E2E2E2E2E2E2E2E2E2E2EAE2E2E2E2E2E2F5EF00E2E2E2E2E2E2E2EAE2E2E2E2E2F5F5F5F5E2EFEFE2EFEFECECECECEFE2EFEFEFE2E2E2E2E2E2E2E2E2E2E2E2E2
310
E2E2E2E2E2E2E2E2E2E2E2E2E2E2E2E2E2E2E2E2E2E2E2E2DCDCDCDCDCDCDCDCDCE2E2E2E2E2E2E2E2E2E2E2E2EAE2E2E2E2E2E2F5EF00E2F5E2E2E2E2E2EAE2E2E2E2E2E2E2E2E2E2E2EFEFEFECECECECECECEFEFEFE2E2E2E2E2E2E2E2E2E2E2E2E2E2E2E2E2E2E2E2E2E2E2E2E2E2E2E2E2E2E2E2E2E2E2E2DCDCDCDCE2
310
E2DCDCE2E2DCDCDCE2E2E2E2E2E2E2E2E2E2EAE2E2E2F5E2E2F5EF00E2F5E2E2E2E2E2EAE2E2E2E2E2E2E2E2E2E2E2E2EFEFECECECECECEFEFE2E2E2E2E2E2E2E2E2E2E2E2E2E2E2E2E2E2E2E2E2E2E2E2E2E2E2E2E2E2E2E2E2E2E2E2E2DCDCDCE2DCE2E2DCDCE2E2DCE2DCDCDCE2E2E2E2E2E2E2E2EAE2E2E2F5E2E2F5EF
310
00E2F5E2E2E2E2E2EAE2E2E2E2E2E2E2E2E2E2E2E2E2E2E2ECECECECE2E2E2E2E2E2E2E2E2E2E2E2E2E2E2E2E2E2E2E2E2E2E2E2E2E2E2E2E2E2E2E2E2E2E2E2E2E2E2DCE2E2E2DCE2E2DCDCE2E2DCE2E2E2DCE2E2E2E2E2E2E2E2EAE2E2E2F5E2E2F5EF00E2F5E2E2E2E2E2EAE2E2E2E2E2E2E2E2E2E2E2E2E2E2E2E2F5EC
310
E2E2E2E2E2E2E2E2E2E2E2E2E2E2E2E2E2E2E2E2E2E2E2E2E2E2E2E2E2E2E2E2E2E2E2E2E2E2E2E2DCE2E2E2DCE2E2DCDCE2E2DCE2E2E2DCE2E2E2E2E2E2E2E2EAE2E2E2F5E2E2F5EF00E2F5E2E2E2E2E2EAE2E2E2E2E2E2E2E2E2E2E2E2E2E2E2E2E2E2E2E2E2E2E2E2E2E2E2E2E2E2E2E2E2E2E2E2E2E2E2E2E2E2E2E2E2
310
E2E2E2E2E2E2E2E2E2E2E2E2E2DCE2E2E2DCE2E2DCDCE2E2DCE2E2E2DCE2E2E2E2E2E2E2E2EAE2E2E2F5E2E2F5EF00E2F5E2E2E2E2E2EAE2E2E2E2E2E2E2E2E2E2E2E2E2E2E2E2F5ECE2E2E2E2E2E2E2E2E2E2E2E2E2E2E2E2E2E2E2E2E2E2E2E2E2E2E2E2E2E2E2E2E2E2E2E2E2E2E2E2DCE2E2E2DCE2E2DCDCE2E2DCE2E2
310
E2DCE2E2E2E2E2E2E2E2EAE2E2E2F5E2E2F5EF00E2F5E2E2E2E2E2EAE2E2E2E2E2E2E2E2E2E2E2E2E2E2E2E2ECECECE2E2E2E2E2E2E2E2E2E2E2E2E2E2E2E2E2E2E2E2E2E2E2E2E2E2E2E2E2E2E2E2E2E2E2E2E2E2E2DCE2E2E2DCE2E2DCDCE2E2DCE2E2E2DCE2E2E2E2E2E2E2E2EAE2E2E2F5E2E2F5EF00E2F5E2E2E2E2E2
310
EAE2E2E2E2E2E2E2E2E2E2E2E2EFEFECECECECECEFEFE2E2E2E2E2E2E2E2E2E2E2E2E2E2E2E2E2E2E2E2E2E2E2E2E2E2E2E2E2E2E2E2E2E2E2E2E2DCE2E2E2DCDCDCDCDCDCDCDCE2E2E2DCE2E2E2E2E2E2E2E2EAE2E2E2F5E2E2F5EF00E2F5E2E2E2E2E2EAE2E2E2E2E2E2E2E2E2E2E2EFEFEFECECECECECECEFEFEFE2E2E2
310
E2E2E2E2E2E2E2E2E2E2E2E2E2E2E2E2E2E2E2E2E2E2E2E2E2E2E2E2E2E2E2E2DCE2E2E2DCDCECECECDCDCDCE2E2E2DCE2E2E2E2E2E2E2E2EAE2E2E2F5E2E2F5EF00E2F5E2E2E2E2E2EAE2E2E2E2E2E2E2E2E2E2EFEFE2E2EFECECECECEFE2EFEFEFE2E2E2E2E2E2E2E2E2E2E2E2E2E2E2E2E2E2E2E2E2E2E2E2E2E2E2E2E2
310
E2E2E2E2E2DCE2DCDCDCECE2DCDCECECDCDCDCE2DCE2E2E2E2E2E2E2E2EAE2E2E2F5E2E2F5EF00E2F5E2E2E2E2E2EAE2E2E2E2E2E2E2E2E2EFEFEFEFE2EFEFF5ECEFEFE2EFEFEFEFE2E2E2E2E2E2E2E2E2E2E2E2E2E2E2E2E2E2E2E2E2E2E2E2E2E2E2E2E2E2E2E2E2DCDCDCECECE2E2DCDCE2ECDCDCDCDCDCE2E2E2E2E2E2
310
E2E2EAE2E2E2F5E2E2F5EF00E2F5E2E2E2E2E2EAF5F5F5F5F5F5F5E2EFEFE2E2E2E2EFE2F5ECEFEFE2E2E2EFEFE2E2E2E2E2E2E2E2E2E2E2E2E2E2E2E2E2E2E2E2E2E2E2E2E2E2E2E2E2E2E2E2E2DCDCE2ECDCE2E2DCDCF5F5F5E2E2DCDCE2E2E2E2E2E2E2E2EAE2E2E2F5E2E2F5EF00E2F5E2E2E2E2E2EAF5F5F5F5F5F5F5
310
E2EFEFE2E2E2E2EFEFEFEFEFEFE2E2E2E2EFEFE2E2E2E2E2E2E2E2E2E2E2E2E2E2E2E2E2E2E2E2E2E2E2E2E2E2E2E2E2E2E2E2DCE2F5ECDCE2E2DCDCF5F5F5E2E2E2DCE2E2E2E2E2E2E2E2EAE2E2E2F5E2E2F5EF00E2F5E2E2E2E2E2EAE2E2F5F5F5F5F5E2EFE2E2E2E2E2EFEFEFEFEFEFE2E2E2E2EFEFE2E2E2E2E2E2E2E2
310
E2E2E2E2E2E2E2E2E2E2E2E2E2E2E2E2E2E2E2E2E2E2E2E2DCE2F5ECDCE2E2DCDCE2E2DCE2E2E2DCE2E2E2E2E2E2E2E2EAE2E2E2F5E2E2F5EF00E2F5E2E2E2E2E2EAE2E2F5F5F5F5F5E2EFE2E2E2E2E2E2E2E2E2E2E2E2E2E2E2EFEFE2E2E2E2E2E2E2E2E2E2E2E2E2E2E2E2E2E2E2E2E2E2E2E2E2E2E2E2E2E2E2E2DCE2F5
310
F5DCE2E2DCDCE2E2DCE2E2E2DCE2E2E2E2E2E2E2E2EAE2E2E2F5E2E2F5EF00E2F5E2E2E2E2E2EAE2E2E2E2E2E2E2EFEFE2E2E2E2E2E2E2E2E2E2E2E2E2E2E2E2EFE2E2E2E2E2E2E2E2E2E2E2E2E2E2E2E2E2E2E2E2E2E2E2E2E2E2E2E2E2E2E2E2DCE2E2E2DCE2E2DCDCE2E2DCE2E2E2DCE2E2E2E2E2E2E2E2EAE2E2E2F5E2
310
E2F5EF00E2F5E2E2E2E2E2EAE2E2E2E2E2E2E2EFEFE2EFEFEFE2E2E2E2E2E2E2E2E2E2E2E2EFE2E2E2E2E2E2E2E2E2E2F5F5E2E2E2E2E2E2E2E2E2E2E2E2E2E2E2E2E2E2E2E2DCE2E2E2DCDCDCDCDCDCDCDCE2E2E2DCE2E2E2E2E2E2E2E2EAE2E2E2F5E2E2F5EF00E2E2E2E2E2E2E2EAE2E2E2E2E2E2E2E2EFEFEFEFEFEFEF
310
E2E2E2E2E2E2E2E2E2EFEFE2E2E2E2E2E2E2E2E2E2F5F5E2E2E2E2E2E2E2E2E2E2E2E2E2E2E2E2E2E2E2E2DCE2E2DCDCDCDCE2DCDCE2DCDCE2E2DCE2E2E2E2E2E2E2E2EAE2E2E2E2E2E2F5EF00E2E2E2E2E2E2E2EAE2E2E2E2E2E2E2E2EFEFE2E2EFEFEFEFEFEFEFEFE2E2E2E2EFEFE2E2E2E2E2E2E2E2E2E2F5F5ECECE2E2
310
E2E2E2E2E2E2E2E2E2E2E2E2E2E2E2E2DCDCDCDCDCE2E2E2E2E2DCDCE2DCDCDCE2E2E2E2E2E2E2E2EAE2E2E2E2E2E2F5EF00E2E2E2E2E2E2E2EAE2E2E2E2E2E2E2E2EFEFE2E2EFEFE2E2E2E2EFEFE2E2E2E2EFE2E2E2E2E2E2E2E2E2E2E2E2DCDCECDCDCDCDCDCDCDCDCDCDCDCE2E2E2E2E2E2E2DCDCDCE2E2E2E2E2E2E2E2
310
E2DCDCE2DCE2E2E2E2E2E2E2E2EAE2E2E2E2E2E2F5EF00E2E2E2E2E2E2E2EAE2E2E2E2E2E2E2E2E2EFEFE2E2EFEFE2F5ECE2EFE2EFEFEFEFE2E2E2E2E2E2E2E2E2E2E2E2DCDCECDCDCDCDCDCDCDCDCDCDCDCDCDCE2E2E2E2E2DCE2E2E2E2E2E2E2E2E2E2E2E2E2DCDCE2E2E2E2E2E2E2E2EAE2E2E2E2E2E2F5EF00E2E2E2E2
310
E2E2E2EAE2E2E2E2E2F5F5F5F5EFEFEFE2EFEFECECECECEFE2EFEFEFE2E2E2E2E2E2E2E2E2E2E2E2E2DCDCECE2E2E2DCDCE2E2E2E2DCDCDCDCDCDCE2E2E2E2E2E2E2E2E2E2E2E2E2E2E2E2E2E2E2E2E2E2E2E2E2E2E2EAE2E2E2E2E2E2F5EF00E2E2E2E2E2E2E2EAE2E2E2E2E2F5F5F5F5E2EFEFEFE2ECECECECECECE2EFEF
310
E2E2E2E2E2E2E2E2E2E2E2E2E2E2DCDCECE2E2E2DCDCE2E2E2E2DCDCE2E2DCE2DCDCE2E2E2E2E2E2E2E2E2E2E2E2E2E2E2E2E2E2E2E2E2E2E2E2E2EAE2E2E2E2E2E2F5EF00E2E2E2E2E2E2E2EAE2E2E2E2E2E2E2E2E2E2E2EFEFEFECECECECECEFEFEFE2E2E2E2E2E2E2E2E2E2E2E2E2E2E2DCDCE2E2E2E2DCDCE2E2E2E2DC
310
DCE2E2DCDCDCE2DCE2E2E2E2E2E2E2E2E2E2E2E2E2E2E2E2E2E2E2E2E2E2E2E2EAE2E2E2E2E2E2F5EF00E2E2E2E2E2E2E2EAE2E2E2E2E2E2E2E2E2E2E2E2E2EFECECECECECEFE2E2E2E2E2E2E2E2E2E2E2E2E2E2E2E2E2DCDCE2E2E2E2DCDCE2E2E2E2DCDCE2E2DCE2E2DCDCE2E2E2E2E2E2E2E2E2E2E2E2E2E2E2E2E2E2E2
310
E2E2E2E2E2EAE2E2E2E2E2E2F5EF00E2E2E2E2E2E2E2EAE2E2E2E2E2E2E2E2E2E2E2E2E2E2E2E2F5ECE2E2F5F5F5F5F5F5F5F5F5F5F5F5F5E2E2E2E2DCDCE2E2E2E2DCDCE2E2E2E2DCDCE2E2DCE2E2DCDCE2E2E2E2E2E2E2E2E2E2E2E2E2E2E2E2E2E2E2E2E2E2E2E2EAE2E2E2E2E2E2F5EF00E2F5E2E2E2E2E2EAE2E2E2E2
310
E2E2E2E2E2E2E2E2E2E2E2E2E2E2E2E2F5F5F5F5F5F5F5F5F5F5F5E2F5E2E2E2E2DCDCE2E2E2E2DCDCE2E2E2E2DCDCE2E2DCE2E2DCDCE2E2E2E2E2E2E2E2E2E2E2E2E2E2E2E2E2E2E2E2E2E2E2E2EAE2E2E2F5E2E2F5EF00E2F5E2E2E2E2E2EAE2E2E2E2E2F5F5F5F5E2E2E2E2E2E2E2E2E2E2E2F5E2E2E2E2E2E2E2E2E2E2
310
E2F5E2E2E2E2DCDCE2E2E2E2DCDCE2E2E2E2DCDCE2E2DCE2E2DCDCE2F5F5F5F5F5F5F5F5F5F5F5F5F5F5F5F5E2E2E2E2E2E2E2EAE2E2E2F5E2E2F5EF00E2F5E2E2E2E2E2EAE2E2E2E2E2F5F5F5F5E2E2E2E2E2E2E2F5ECE2E2F5F5F5F5F5F5F5F5F5F5F5F5F5E2E2E2E2DCDCDCDCDCDCDCDCDCDCDCDCDCDCE2E2DCE2E2DCDC
310
E2F5F5F5F5F5F5F5F5F5F5F5F5F5F5F5F5E2E2E2E2E2E2E2EAE2E2E2F5E2E2F5EF00E2F5E2E2E2E2E2EAE2E2E2E2F5F5F5F5F5E2E2E2E2E2ECECECECECE2E2E2E2E2E2E2E2E2E2E2E2E2E2E2E2E2E2DCDCDCDCDCDCDCDCDCDCDCDCDCDCDCDCDCE2E2DCDCE2F5F5F5F5F5F5F5F5F5F5F5F5F5F5F5F5F5F5E2E2E2E2E2EAE2E2
310
E2F5E2E2F5EF00E2F5E2E2E2E2E2EAE2E2E2E2E2F5F5F5F5E2E2E2EFEFECECECECECEFEFEFE2E2E2E2E2E2E2E2E2E2E2E2E2E2E2DCDCE2E2E2ECECECECE2E2ECECECE2DCDCE2E2DCDCE2F5F5F5F5F5F5F5F5F5F5F5F5F5F5F5F5F5F5E2E2E2E2E2EAE2E2E2F5E2E2F5EF00E2F5E2E2E2E2E2EAE2E2E2E2E2F5F5F5F5E2EFEF
310
EFE2ECECECECECECEFEFEFE2E2E2E2E2E2E2E2E2E2E2E2E2E2DCDCE2E2F5ECDCDCE2E2E2E2DCDCECECDCDCDCDCDCE2F5F5F5F5F5F5F5F5F5F5F5F5F5F5F5F5F5F5F5F5E2E2E2EAE2E2E2F5E2E2F5EF00E2F5E2E2E2E2E2EAE2E2E2E2E2E2E2E2E2EFEFEFE2EFEFECECECECEFE2EFEFEFE2E2E2E2E2E2E2E2E2E2E2E2E2DCDC
310
E2E2F5ECDCDCE2E2E2E2DCDCE2ECDCDCDCDCDCE2F5F5F5F5F5F5F5F5F5F5F5F5F5F5F5F5F5F5F5F5E2E2E2EAE2E2E2F5E2E2F5EF00E2F5E2E2E2E2E2EAE2E2E2E2E2E2E2E2E2EFEFE2E2EFEFE2F5ECE2EFE2EFEFEFEFE2E2E2E2E2E2E2E2E2E2E2E2DCDCE2E2F5F5DCDCE2E2E2E2DCDCF5F5DCE2E2DCDCE2E2E2E2E2E2E2E2
310
E2E2E2E2E2E2E2E2E2E2E2E2E2E2E2E2EAE2E2E2F5E2E2F5EF00E2F5E2E2E2E2E2EAE2E2E2E2E2E2E2E2EFEFE2E2EFEFE2E2F5ECEFEFE2E2E2EFEFE2E2E2E2E2E2E2E2E2E2E2E2DCDCE2E2E2E2DCDCE2E2E2E2DCDCF5F5DCE2E2DCDCE2E2E2E2E2E2E2E2E2E2E2E2E2E2E2E2E2E2E2E2E2E2E2E2EAE2E2E2F5E2E2F5EF00E2
310
F5E2E2E2E2E2EAE2E2E2E2E2E2E2E2EFEFE2E2EFEFEFEFEFEFEFEFE2E2E2E2EFEFE2E2E2E2E2E2E2E2E2E2E2DCDCECE2E2E2DCDCE2E2E2E2DCDCE2E2DCE2E2DCDCE2F5F5F5F5F5E2E2E2E2E2E2E2E2E2E2E2E2E2E2E2E2E2E2EAE2E2E2F5E2E2F5EF00E2F5E2E2E2E2E2EAE2E2E2E2E2E2E2E2EFEFEFEFEFEFEFE2E2E2E2E2
310
E2E2E2E2EFEFE2E2E2E2E2E2E2E2E2E2E2DCDCECE2E2E2DCDCE2E2E2E2DCDCE2E2DCE2E2DCDCE2F5F5F5F5F5E2E2E2E2E2E2E2E2E2E2E2E2E2E2E2E2E2E2EAE2E2E2F5E2E2F5EF00E2F5E2E2E2E2E2EAE2E2E2E2E2E2E2EFEFE2EFEFEFE2E2E2E2E2E2E2E2E2E2E2E2EFE2E2E2E2E2E2E2E2E2E2F5F5DCECDCDCDCDCDCDCDC
310
DCDCDCDCE2E2DCE2E2DCDCE2E2E2E2E2E2E2E2E2E2E2E2E2E2E2E2E2E2E2E2E2E2E2E2EAE2E2E2F5E2E2F5EF00E2F5E2E2E2E2E2EAE2E2E2E2E2E2E2EFEFE2E2E2E2E2E2E2E2E2E2E2E2E2E2E2E2EFE2E2E2E2E2E2E2E2E2E2F5F5E2ECE2E2E2E2E2E2E2E2E2DCDCDCDCDCE2E2DCDCE2E2E2E2E2E2E2E2E2E2E2E2E2E2E2E2
310
E2E2E2E2E2E2E2E2EAE2E2E2F5E2E2F5EF00E2F5E2E2E2E2E2EAE2E2F5F5F5F5F5EFEFE2E2E2E2E2E2E2E2E2E2E2E2E2E2E2E2EFE2E2E2E2E2E2E2E2E2E2F5F5ECECE2E2E2E2E2E2E2E2E2E2DCDCE2DCE2E2DCDCE2E2E2E2E2E2E2E2E2E2E2E2E2E2E2E2E2E2E2E2E2E2E2E2EAE2E2E2F5E2E2F5EF00E2F5E2E2E2E2E2EAE2
310
E2E2E2E2E2E2EFEFEFEFEFEFE2E2E2E2E2E2E2E2EFEFEFEFEFE2E2E2E2E2E2E2E2E2E2E2E2E2E2E2E2E2E2E2E2E2E2E2E2E2E2DCDCDCDCDCDCE2E2E2E2E2E2E2E2E2E2E2E2E2E2E2E2E2E2E2E2E2E2E2E2EAE2E2E2F5E2E2F5EF00E2F5E2E2E2E2E2EAE2E2E2E2E2E2E2EFEFEFEFEFEFEFF5F5F5F5EFEFEFEFEFEFEFEFE2E2
310
E2E2E2E2E2E2E2E2E2E2E2E2E2E2E2E2E2E2E2E2E2E2E2E2E2E2DCDCDCDCE2E2E2E2E2E2E2E2E2E2E2E2E2E2E2E2E2E2E2E2E2E2E2E2EAE2E2E2F5E2E2F5EF00E2F5E2E2E2E2E2EAE2E2E2E2E2E2E2E2E2E2E2E2E2E2F5F5F5F5E2E2E2E2E2E2E2E2E2E2E2E2E2E2E2E2E2E2E2E2E2E2E2E2E2E2E2E2E2E2E2E2E2E2E2E2E2
310
E2DCDCE2E2E2E2E2E2E2E2E2E2E2E2E2E2E2E2E2E2E2E2E2E2E2E2EAE2E2E2F5E2E2F5EF00E2E2E2E2E2E2E2EAE2E2E2E2E2E2E2E2E2E2E2E2E2E2E2E2E2E2E2E2E2E2E2E2E2E2E2E2E2E2E2E2E2E2E2E2E2E2E2E2E2E2E2E2E2E2E2E2E2E2E2E2E2E2E2E2E2E2E2E2E2E2E2E2E2E2E2E2E2E2E2E2E2E2E2E2E2E2E2E2E2E2
310
EAE2E2E2E2E2E2F5EF00E2E2E2E2E2E2E2EAE2E2E2E2E2E2E2E2E2E2E2E2E2E2E2E2E2E2E2E2E2E2E2E2E2E2E2E2E2E2E2E2E2E2E2E2E2E2E2E2E2E2E2E2E2E2E2E2E2E2E2E2E2E2E2E2E2E2E2E2E2E2E2E2E2E2E2E2E2E2E2E2E2E2E2E2E2E2E2E2E2E2EAE2E2E2E2E2E2F5EF00E2E2E2E2E2E2E2EAEAEAEAEAEAEAEAEAEA
310
EAEAEAEAEAEAEAEAEAEAEAEAEAEAEAEAEAEAEAEAEAEAEAEAEAEAEAEAEAEAEAEAEAEAEAEAEAEAEAEAEAEAEAEAEAEAEAEAEAEAEAEAEAEAEAEAEAEAEAEAEAEAEAEAEAEAEAEAEAEAEAEAEAEAE2E2E2E2E2E2F5EF00E2E2E2E2E2E2E2E2E2E2E2E2E2F5F5F5F5F5F5F5F5F5F5F5F5F5F5F5F5F5F5F5F5F5F5F5F5F5F5F5F5F5F5F5
310
F5F5F5F5F5F5F5F5F5F5F5F5F5F5F5F5F5F5F5F5F5F5F5F5F5F5F5F5F5F5F5F5F5F5F5F5F5F5F5F5F5F5F5F5F5F5F5E2E2E2E2E2E2F5EF00E2E2E2E2E2E2E2E2E2E2E2E2E2F5E2E2E2E2E2E2E2E2E2E2E2E2E2E2E2E2E2E2E2E2E2E2E2E2E2E2E2E2E2E2E2E2E2E2E2E2E2E2E2E2E2E2E2E2E2E2E2E2E2E2E2E2E2E2F5E2F5
310
F5F5F5F5F5F5E2E2F5E2E2E2F5F5E2E2E2E2E2F5E2E2E2E2E2E2F5EF00E2E2E2E2E2E2E2E2E2E2E2E2ECECECE2E2E2E2E2E2E2E2E2E2E2E2E2E2E2E2E2E2E2E2E2E2E2E2E2E2E2E2E2E2E2E2E2E2E2E2E2E2E2E2E2E2E2E2E2E2E2E2E2E2E2E2E2F5E2F5F5F5F5F5F5F5E2E2F5E2E2E2F5F5E2E2E2E2E2F5E2E2E2E2E2E2F5
310
EF00E2E2E2E2E2E2E2E2E2E2E2E2ECECECECE2E2E2E2E2E2E2E2E2E2E2E2E2E2E2E2E2E2E2E2E2E2E2E2E2E2E2E2E2E2E2E2E2E2E2E2E2E2E2E2E2E2E2E2E2E2E2E2E2E2E2E2F5E2E2E2E2E2E2E2E2E2E2F5E2E2E2E2E2E2E2E2E2E2F5E2E2E2E2E2E2F5EF00E2E2E2E2E2E2E2E2E2E2E2ECECECECECE2E2E2E2E2F5F5F5F5
310
F5F5F5F5F5F5F5F5F5F5F5F5E2E2E2E2E2E2E2E2E2E2E2E2E2E2E2E2E2E2E2E2E2E2E2E2E2E2E2E2E2E2E2F5E2E2F5F5F5F5F5E2E2E2F5E2E2F5F5F5F5F5E2E2E2F5E2E2E2E2E2E2F5EF00E2E2E2E2E2E2E2E2E2E2E2ECECECECECECE2E2E2E2F5F5F5F5F5F5F5F5F5F5F5F5F5F5F5F5E2E2E2E2E2E2E2E2E2E2E2E2E2E2E2
310
E2E2E2E2E2E2E2E2E2E2E2E2E2E2E2E2F5E2E2E2E2E2E2E2E2E2E2F5E2E2E2E2E2E2E2E2E2E2F5E2E2E2E2E2E2F5EF00E2E2E2E2E2E2E2E2E2E2ECECECECECECECE2E2E2E2E2E2E2E2E2E2E2E2E2E2E2E2E2E2E2E2E2E2E2E2E2E2E2E2E2E2E2E2E2E2E2E2E2E2E2E2E2E2E2E2E2E2E2E2E2E2E2F5E2E2E2E2E2E2E2E2E2E2
310
F5E2E2E2E2E2E2E2E2E2E2F5E2E2E2E2E2E2F5EF00E2F5E2E2E2E2E2E2E2E2ECECECECECECECECE2E2E2F5F5F5F5F5F5F5F5F5F5F5F5F5F5F5F5F5F5F5F5F5F5F5F5F5F5F5F5F5F5F5E2E2E2E2E2E2E2E2E2E2E2E2E2E2E2E2F5F5F5F5F5F5F5F5F5F5F5F5F5F5F5F5F5F5F5F5F5F5F5E2E2E2F5E2E2F5EF00E2F5E2E2E2E2
310
E2E2E2ECECECECECECECECECE2E2E2F5F5F5F5F5F5F5F5F5F5F5F5F5F5F5F5F5F5F5F5F5F5F5F5F5F5F5F5F5F5F5E2E2E2E2E2E2E2E2E2E2E2E2E2E2E2E2F5E2E2E2E2E2E2E2E2E2E2E2E2E2E2E2E2E2E2E2E2E2F5E2E2E2F5E2E2F5EF00E2F5E2E2E2E2E2E2ECECECECECECECECECECECE2E2E2E2E2E2E2E2E2E2E2E2E2E2
310
E2E2E2E2E2E2E2E2E2E2E2E2E2E2E2E2E2E2E2E2E2E2E2E2E2E2E2E2E2E2E2E2E2E2E2F5E2F5F5F5F5F5F5F5F5E2F5F5F5F5F5F5F5E2E2E2E2F5E2E2E2F5E2E2F5EF00E2F5E2E2E2E2E2E2ECECECECECECECECECECECE2E2E2E2E2E2E2E2E2E2E2E2E2E2E2E2E2E2E2E2E2E2E2E2E2E2E2E2E2E2E2E2E2E2E2E2E2E2E2E2E2
310
E2E2E2E2E2E2E2E2F5E2F5F5F5F5F5F5F5F5E2F5F5F5F5F5F5F5E2E2E2E2F5E2E2E2F5E2E2F5EF00E2F5E2E2E2E2E2ECECECECECECECECECECECECECE2E2E2E2E2E2E2E2E2E2E2E2E2E2E2E2E2E2E2E2E2E2E2E2E2E2E2E2E2E2E2E2E2E2E2E2E2E2E2E2E2E2E2E2E2E2E2E2F5E2E2E2E2E2E2E2E2E2E2E2E2E2E2E2E2E2E2
310
E2E2E2F5E2E2E2F5E2E2F5EF00E2F5E2E2E2E2E2ECECECECECECF5ECECECECECECE2E2E2E2E2E2E2E2E2E2E2E2E2E2E2E2E2E2E2E2E2E2E2E2E2E2E2E2E2E2E2E2E2E2E2E2E2E2E2E2E2E2E2E2E2E2E2E2F5E2E2E2E2E2E2E2E2E2E2E2E2E2E2E2E2E2E2E2E2E2F5E2E2E2F5E2E2F5EF00E2F5E2E2E2E2E2E2E2E2E2E2E2F5
310
F5F5F5F5F5F5F5F5F5F5F5F5F5F5F5F5F5F5F5F5F5F5F5F5F5F5F5F5F5F5F5F5F5F5F5F5F5F5F5F5F5F5F5F5F5F5F5F5F5F5F5F5F5F5F5F5F5F5F5F5F5F5F5F5F5F5F5F5F5F5F5F5F5F5F5F5F5E2E2E2F5E2E2F5EF00E2F5E2E2E2E2E2E2E2E2E2E2E2E2E2E2E2E2E2E2E2E2E2E2E2E2E2E2E2E2E2E2E2E2E2E2E2E2E2E2E2
310
E2E2E2E2E2E2E2E2E2E2E2E2E2E2E2E2E2E2E2E2E2E2E2E2E2E2E2E2E2E2E2E2E2E2E2E2E2E2E2E2E2E2E2E2E2E2E2E2E2E2E2E2E2F5E2E2F5EF00E2F5F5F5F5F5F5F5F5E2E2E2E2E2E2E2E2F5F5F5F5F5F5F5F5F5F5F5F5F5F5F5E2E2E2E2E2E2E2E2E2F5F5F5F5F5F5F5F5F5F5F5F5F5F5E2E2E2E2E2E2E2E2E2F5F5F5F5
310
F5F5F5F5F5F5F5F5F5F5F5E2E2E2E2E2E2E2E2F5F5F5F5F5F5F5F5E2E2F5EF00E2E2E2E2E2E2E2E2E2E2E2E2E2E2E2E2E2E2E2E2E2E2E2E2E2E2E2E2E2E2E2E2E2E2E2E2E2E2E2E2E2E2E2E2E2E2E2E2E2E2E2E2E2E2E2E2E2E2E2E2E2E2E2E2E2E2E2E2E2E2E2E2E2E2E2E2E2E2E2E2E2E2E2E2E2E2E2E2E2E2E2E2E2E2E2
310
E2E2F5EF00E2E2E2E2E2E2E2E2E2E2E2E2E2E2E2E2E2E2E2E2E2E2E2E2E2E2E2E2E2E2E2E2E2E2E2E2E2E2E2E2E2E2E2E2E2E2E2E2E2E2E2E2E2E2E2E2E2E2E2E2E2E2E2E2E2E2E2E2E2E2E2E2E2E2E2E2E2E2E2E2E2E2E2E2E2E2E2E2E2E2E2E2E2E2E2E2E2F5EF00F5F5F5F5F5F5F5F5F5F5F5F5F5F5F5F5F5F5F5F5F5F5
310
F5F5F5F5F5F5F5F5F5F5F5F5F5F5F5F5F5F5F5F5F5F5F5F5F5F5F5F5F5F5F5F5F5F5F5F5F5F5F5F5F5F5F5F5F5F5F5F5F5F5F5F5F5F5F5F5F5F5F5F5F5F5F5F5F5F5F5F5F5F5F5F5F5F5F5F5EF00
  0
XRECORD
  5
3792
102
{ACAD_REACTORS
330
2F71
102
}
330
2F71
100
AcDbXrecord
280
     1
102
MATERIAL
148
0.0
149
0.0
149
0.0
 93
        0
 94
      127
282
     0
 72
     0
 77
     0
171
     0
175
     0
179
     0
273
     0
  0
XRECORD
  5
2F73
102
{ACAD_REACTORS
330
2F71
102
}
330
2F71
100
AcDbXrecord
280
     1
270
     1
271
     1
  0
XRECORD
  5
2F72
102
{ACAD_REACTORS
330
2F71
102
}
330
2F71
100
AcDbXrecord
280
     1
270
     1
271
     1
  0
XRECORD
  5
2F76
102
{ACAD_REACTORS
330
2F71
102
}
330
2F71
100
AcDbXrecord
280
     1
270
     1
271
     1
  0
XRECORD
  5
2F75
102
{ACAD_REACTORS
330
2F71
102
}
330
2F71
100
AcDbXrecord
280
     1
270
     1
271
     1
  0
XRECORD
  5
2F77
102
{ACAD_REACTORS
330
2F71
102
}
330
2F71
100
AcDbXrecord
280
     1
270
     1
271
     1
  0
XRECORD
  5
2F74
102
{ACAD_REACTORS
330
2F71
102
}
330
2F71
100
AcDbXrecord
280
     1
270
     1
271
     1
  0
XRECORD
  5
3791
102
{ACAD_REACTORS
330
2F69
102
}
330
2F69
100
AcDbXrecord
280
     1
102
MATERIAL
148
0.0
149
0.0
149
0.0
 93
        0
 94
      127
282
     0
 72
     0
 77
     0
171
     0
175
     0
179
     0
273
     0
  0
XRECORD
  5
2F6B
102
{ACAD_REACTORS
330
2F69
102
}
330
2F69
100
AcDbXrecord
280
     1
270
     1
271
     1
  0
XRECORD
  5
2F6A
102
{ACAD_REACTORS
330
2F69
102
}
330
2F69
100
AcDbXrecord
280
     1
270
     1
271
     1
  0
XRECORD
  5
2F6E
102
{ACAD_REACTORS
330
2F69
102
}
330
2F69
100
AcDbXrecord
280
     1
270
     1
271
     1
  0
XRECORD
  5
2F6D
102
{ACAD_REACTORS
330
2F69
102
}
330
2F69
100
AcDbXrecord
280
     1
270
     1
271
     1
  0
XRECORD
  5
2F6F
102
{ACAD_REACTORS
330
2F69
102
}
330
2F69
100
AcDbXrecord
280
     1
270
     1
271
     1
  0
XRECORD
  5
2F6C
102
{ACAD_REACTORS
330
2F69
102
}
330
2F69
100
AcDbXrecord
280
     1
270
     1
271
     1
  0
XRECORD
  5
3793
102
{ACAD_REACTORS
330
2F79
102
}
330
2F79
100
AcDbXrecord
280
     1
102
MATERIAL
148
0.0
149
0.0
149
0.0
 93
        0
 94
      127
282
     0
 72
     0
 77
     0
171
     0
175
     0
179
     0
273
     0
  0
XRECORD
  5
2F7B
102
{ACAD_REACTORS
330
2F79
102
}
330
2F79
100
AcDbXrecord
280
     1
270
     1
271
     1
  0
XRECORD
  5
2F7A
102
{ACAD_REACTORS
330
2F79
102
}
330
2F79
100
AcDbXrecord
280
     1
270
     1
271
     1
  0
XRECORD
  5
2F7E
102
{ACAD_REACTORS
330
2F79
102
}
330
2F79
100
AcDbXrecord
280
     1
270
     1
271
     1
  0
XRECORD
  5
2F7D
102
{ACAD_REACTORS
330
2F79
102
}
330
2F79
100
AcDbXrecord
280
     1
270
     1
271
     1
  0
XRECORD
  5
2F7F
102
{ACAD_REACTORS
330
2F79
102
}
330
2F79
100
AcDbXrecord
280
     1
270
     1
271
     1
  0
XRECORD
  5
2F7C
102
{ACAD_REACTORS
330
2F79
102
}
330
2F79
100
AcDbXrecord
280
     1
270
     1
271
     1
  0
XRECORD
  5
3C5C
102
{ACAD_REACTORS
330
3C5B
102
}
330
3C5B
100
AcDbXrecord
280
     1
102
SHADEPLOT
 70
     0
102
SHADEPLOTRESLEVEL
 70
     2
102
SHADEPLOTCUSTOMDPI
 70
   300
  0
XRECORD
  5
3C5E
102
{ACAD_REACTORS
330
3C5D
102
}
330
3C5D
100
AcDbXrecord
280
     1
102
SHADEPLOT
 70
     0
102
SHADEPLOTRESLEVEL
 70
     2
102
SHADEPLOTCUSTOMDPI
 70
   300
  0
ACAD_PROXY_OBJECT
  5
3775
102
{ACAD_REACTORS
330
304A
102
}
330
304A
100
AcDbProxyObject
 90
      499
 91
      515
 95
   983063
 70
     0
 93
     5304
310
40D054060020000020000003200101A000080002A5058000000C10000000000000006101010000000000003E0FC000000000000F83F0000000000003E0FC000000000000F83F000000000000049000000000000001240419019018000000C1003FBFFFFFE0000000000003C8FD029018000000C1003FBFFFFFE00000000000
310
03C8FD049018000000C1003FBFFFFFE0000000000003C8FD089018000000C1003FBFFFFFE0000000000003C8FD109018000000C1003FBFFFFFE0000000000003C8FD209018000000C1003FBFFFFFE0000000000003C8FD01405075F5449544C450041501A8000000C800406800020000A94160000003040000000000000012
310
40404000000000000F83F0000000000003E0FC000000000000F83F0000000000003E0FC0000000000001240000000000000049010640640600000030400FEFFFFFF8000000000000F23F40A40600000030400FEFFFFFF8000000000000F23F41240600000030400FEFFFFFF8000000000000F23F42240600000030400FEFFF
310
FFF8000000000000F23F44240600000030400FEFFFFFF8000000000000F23F48240600000030400FEFFFFFF8000000000000F23F409014217D2115051115480105406A0000003200101A000080002A5028000000C10000000000000004901010000000000003E0FC000000000000F83F0000000000003E0FC000000000000F
310
83F000000000000049000000000000001240419019018000000C1003FBFFFFFE0000000000003C8FD029018000000C1003FBFFFFFE0000000000003C8FD049018000000C1003FBFFFFFE0000000000003C8FD089018000000C1003FBFFFFFE0000000000003C8FD109018000000C1003FBFFFFFE0000000000003C8FD20901
310
8000000C1003FBFFFFFE0000000000003C8FD03409065F444154410000
340
11
340
0
340
0
340
0
340
0
340
0
340
0
340
11
340
0
340
0
340
0
340
0
340
0
340
0
340
11
340
0
340
0
340
0
340
0
340
0
340
0
 94
        0
1001
ACAD
1000
AcRTDxfName
1000
CELLSTYLEMAP
1000
AcRTDxfName
1000
CELLSTYLEMAP
1000
AcRTDxfName
1000
CELLSTYLEMAP
1000
AcRTDxfName
1000
CELLSTYLEMAP
  0
XRECORD
  5
3794
102
{ACAD_REACTORS
330
304A
102
}
330
304A
100
AcDbXrecord
280
     1
102
ACAD_ROUNDTRIP_PRE2007_TABLESTYLE
 90
      512
 91
        0
  1

 92
      512
 93
        0
  2

 94
      512
 95
        0
  3

  0
ENDSEC
  0
EOF
