  0
SECTION
  2
HEADER
  9
$ACADVER
  1
AC1015
  9
$ACADMAINTVER
 70
    20
  9
$DWGCODEPAGE
  3
ANSI_1252
  9
$INSBASE
 10
0.0
 20
0.0
 30
0.0
  9
$EXTMIN
 10
-0.0000008680717656
 20
0.0000002788497113
 30
0.0
  9
$EXTMAX
 10
353.9999991319283
 20
482.0000002788496
 30
0.0
  9
$LIMMIN
 10
0.0
 20
0.0000002788497113
  9
$LIMMAX
 10
353.9999991319283
 20
482.0000002788496
  9
$ORTHOMODE
 70
     0
  9
$REGENMODE
 70
     1
  9
$FILLMODE
 70
     1
  9
$QTEXTMODE
 70
     0
  9
$MIRRTEXT
 70
     0
  9
$LTSCALE
 40
1.0
  9
$ATTMODE
 70
     1
  9
$TEXTSIZE
 40
5.0
  9
$TRACEWID
 40
1.0
  9
$TEXTSTYLE
  7
Arial-Bold
  9
$CLAYER
  8
APL Border
  9
$CELTYPE
  6
ByLayer
  9
$CECOLOR
 62
   256
  9
$CELTSCALE
 40
1.0
  9
$DISPSILH
 70
     0
  9
$DIMSCALE
 40
1.0
  9
$DIMASZ
 40
4.0
  9
$DIMEXO
 40
0.625
  9
$DIMDLI
 40
3.75
  9
$DIMRND
 40
0.0
  9
$DIMDLE
 40
0.0
  9
$DIMEXE
 40
1.25
  9
$DIMTP
 40
0.0
  9
$DIMTM
 40
0.0
  9
$DIMTXT
 40
2.5
  9
$DIMCEN
 40
2.5
  9
$DIMTSZ
 40
0.0
  9
$DIMTOL
 70
     0
  9
$DIMLIM
 70
     0
  9
$DIMTIH
 70
     0
  9
$DIMTOH
 70
     0
  9
$DIMSE1
 70
     0
  9
$DIMSE2
 70
     0
  9
$DIMTAD
 70
     1
  9
$DIMZIN
 70
     8
  9
$DIMBLK
  1

  9
$DIMASO
 70
     1
  9
$DIMSHO
 70
     1
  9
$DIMPOST
  1

  9
$DIMAPOST
  1

  9
$DIMALT
 70
     0
  9
$DIMALTD
 70
     3
  9
$DIMALTF
 40
0.03937007874016
  9
$DIMLFAC
 40
1.0
  9
$DIMTOFL
 70
     1
  9
$DIMTVP
 40
0.0
  9
$DIMTIX
 70
     0
  9
$DIMSOXD
 70
     0
  9
$DIMSAH
 70
     0
  9
$DIMBLK1
  1

  9
$DIMBLK2
  1

  9
$DIMSTYLE
  2
ISO-25
  9
$DIMCLRD
 70
     0
  9
$DIMCLRE
 70
     0
  9
$DIMCLRT
 70
     0
  9
$DIMTFAC
 40
1.0
  9
$DIMGAP
 40
0.625
  9
$DIMJUST
 70
     0
  9
$DIMSD1
 70
     0
  9
$DIMSD2
 70
     0
  9
$DIMTOLJ
 70
     0
  9
$DIMTZIN
 70
     8
  9
$DIMALTZ
 70
     0
  9
$DIMALTTZ
 70
     0
  9
$DIMUPT
 70
     0
  9
$DIMDEC
 70
     2
  9
$DIMTDEC
 70
     2
  9
$DIMALTU
 70
     2
  9
$DIMALTTD
 70
     3
  9
$DIMTXSTY
  7
Standard
  9
$DIMAUNIT
 70
     0
  9
$DIMADEC
 70
     0
  9
$DIMALTRND
 40
0.0
  9
$DIMAZIN
 70
     0
  9
$DIMDSEP
 70
    44
  9
$DIMATFIT
 70
     3
  9
$DIMFRAC
 70
     0
  9
$DIMLDRBLK
  1

  9
$DIMLUNIT
 70
     2
  9
$DIMLWD
 70
    -2
  9
$DIMLWE
 70
    -2
  9
$DIMTMOVE
 70
     0
  9
$LUNITS
 70
     2
  9
$LUPREC
 70
     4
  9
$SKETCHINC
 40
1.0
  9
$FILLETRAD
 40
0.0
  9
$AUNITS
 70
     0
  9
$AUPREC
 70
     0
  9
$MENU
  1
.
  9
$ELEVATION
 40
0.0
  9
$PELEVATION
 40
0.0
  9
$THICKNESS
 40
0.0
  9
$LIMCHECK
 70
     0
  9
$CHAMFERA
 40
10.0
  9
$CHAMFERB
 40
10.0
  9
$CHAMFERC
 40
20.0
  9
$CHAMFERD
 40
0.0
  9
$SKPOLY
 70
     0
  9
$TDCREATE
 40
2452417.391545024
  9
$TDUCREATE
 40
2452416.891545023
  9
$TDUPDATE
 40
2455660.581342812
  9
$TDUUPDATE
 40
2455660.081342813
  9
$TDINDWG
 40
0.9083207176
  9
$TDUSRTIMER
 40
0.9083207176
  9
$USRTIMER
 70
     1
  9
$ANGBASE
 50
0.0
  9
$ANGDIR
 70
     0
  9
$PDMODE
 70
     3
  9
$PDSIZE
 40
2.0
  9
$PLINEWID
 40
0.0
  9
$SPLFRAME
 70
     0
  9
$SPLINETYPE
 70
     6
  9
$SPLINESEGS
 70
     8
  9
$HANDSEED
  5
427D
  9
$SURFTAB1
 70
     6
  9
$SURFTAB2
 70
     6
  9
$SURFTYPE
 70
     6
  9
$SURFU
 70
     6
  9
$SURFV
 70
     6
  9
$UCSBASE
  2

  9
$UCSNAME
  2

  9
$UCSORG
 10
0.0
 20
0.0
 30
0.0
  9
$UCSXDIR
 10
1.0
 20
0.0
 30
0.0
  9
$UCSYDIR
 10
0.0
 20
1.0
 30
0.0
  9
$UCSORTHOREF
  2

  9
$UCSORTHOVIEW
 70
     0
  9
$UCSORGTOP
 10
0.0
 20
0.0
 30
0.0
  9
$UCSORGBOTTOM
 10
0.0
 20
0.0
 30
0.0
  9
$UCSORGLEFT
 10
0.0
 20
0.0
 30
0.0
  9
$UCSORGRIGHT
 10
0.0
 20
0.0
 30
0.0
  9
$UCSORGFRONT
 10
0.0
 20
0.0
 30
0.0
  9
$UCSORGBACK
 10
0.0
 20
0.0
 30
0.0
  9
$PUCSBASE
  2

  9
$PUCSNAME
  2

  9
$PUCSORG
 10
0.0
 20
0.0
 30
0.0
  9
$PUCSXDIR
 10
1.0
 20
0.0
 30
0.0
  9
$PUCSYDIR
 10
0.0
 20
1.0
 30
0.0
  9
$PUCSORTHOREF
  2

  9
$PUCSORTHOVIEW
 70
     0
  9
$PUCSORGTOP
 10
0.0
 20
0.0
 30
0.0
  9
$PUCSORGBOTTOM
 10
0.0
 20
0.0
 30
0.0
  9
$PUCSORGLEFT
 10
0.0
 20
0.0
 30
0.0
  9
$PUCSORGRIGHT
 10
0.0
 20
0.0
 30
0.0
  9
$PUCSORGFRONT
 10
0.0
 20
0.0
 30
0.0
  9
$PUCSORGBACK
 10
0.0
 20
0.0
 30
0.0
  9
$USERI1
 70
     0
  9
$USERI2
 70
     0
  9
$USERI3
 70
     0
  9
$USERI4
 70
     0
  9
$USERI5
 70
     0
  9
$USERR1
 40
0.0
  9
$USERR2
 40
0.0
  9
$USERR3
 40
0.0
  9
$USERR4
 40
0.0
  9
$USERR5
 40
0.0
  9
$WORLDVIEW
 70
     1
  9
$SHADEDGE
 70
     3
  9
$SHADEDIF
 70
    70
  9
$TILEMODE
 70
     0
  9
$MAXACTVP
 70
    64
  9
$PINSBASE
 10
0.0
 20
0.0
 30
0.0
  9
$PLIMCHECK
 70
     0
  9
$PEXTMIN
 10
11.46014299460751
 20
3.285575844812797
 30
-0.0015258207003583
  9
$PEXTMAX
 10
189.6073677543587
 20
282.2033753668244
 30
0.0000000349246037
  9
$PLIMMIN
 10
-5.027082920074462
 20
-5.408084392547607
  9
$PLIMMAX
 10
204.8615736961365
 20
291.6449246406555
  9
$UNITMODE
 70
     0
  9
$VISRETAIN
 70
     1
  9
$PLINEGEN
 70
     0
  9
$PSLTSCALE
 70
     1
  9
$TREEDEPTH
 70
  3020
  9
$CMLSTYLE
  2
Standard
  9
$CMLJUST
 70
     0
  9
$CMLSCALE
 40
20.0
  9
$PROXYGRAPHICS
 70
     1
  9
$MEASUREMENT
 70
     1
  9
$CELWEIGHT
370
    -1
  9
$ENDCAPS
280
     0
  9
$JOINSTYLE
280
     0
  9
$LWDISPLAY
290
     0
  9
$INSUNITS
 70
     4
  9
$HYPERLINKBASE
  1

  9
$STYLESHEET
  1

  9
$XEDIT
290
     1
  9
$CEPSNTYPE
380
     0
  9
$PSTYLEMODE
290
     1
  9
$FINGERPRINTGUID
  2
{D079D194-C9C2-11D5-B123-005004D48FB5}
  9
$VERSIONGUID
  2
{87A151FF-3395-4170-9E78-72045B9CFCFC}
  9
$EXTNAMES
290
     1
  9
$PSVPSCALE
 40
0.0
  9
$OLESTARTUP
290
     0
  0
ENDSEC
  0
SECTION
  2
CLASSES
  0
CLASS
  1
ACDBDICTIONARYWDFLT
  2
AcDbDictionaryWithDefault
  3
ObjectDBX Classes
 90
        0
280
     0
281
     0
  0
CLASS
  1
ACDBPLACEHOLDER
  2
AcDbPlaceHolder
  3
ObjectDBX Classes
 90
        0
280
     0
281
     0
  0
CLASS
  1
LAYOUT
  2
AcDbLayout
  3
ObjectDBX Classes
 90
        0
280
     0
281
     0
  0
CLASS
  1
DICTIONARYVAR
  2
AcDbDictionaryVar
  3
ObjectDBX Classes
 90
        0
280
     0
281
     0
  0
CLASS
  1
PLOTSETTINGS
  2
AcDbPlotSettings
  3
ObjectDBX Classes
 90
    32768
280
     0
281
     0
  0
CLASS
  1
MATERIAL
  2
AcDbMaterial
  3
ObjectDBX Classes
 90
        0
280
     0
281
     0
  0
CLASS
  1
VISUALSTYLE
  2
AcDbVisualStyle
  3
ObjectDBX Classes
 90
     4095
280
     0
281
     0
  0
CLASS
  1
TABLESTYLE
  2
AcDbTableStyle
  3
ObjectDBX Classes
 90
     2047
280
     0
281
     0
  0
CLASS
  1
SCALE
  2
AcDbScale
  3
ObjectDBX Classes
 90
     1153
280
     0
281
     0
  0
CLASS
  1
MLEADERSTYLE
  2
AcDbMLeaderStyle
  3
ACDB_MLEADERSTYLE_CLASS
 90
     4095
280
     0
281
     0
  0
CLASS
  1
EXACTERMXREFMAP
  2
ExAcTermXrefMap
  3
EXAC_SERVICE
 90
    33793
280
     0
281
     0
  0
CLASS
  1
NPOCOLLECTION
  2
AcDbImpNonPersistentObjectsCollection
  3
ObjectDBX Classes
 90
    33921
280
     0
281
     0
  0
CLASS
  1
EXACXREFPANELOBJECT
  2
ExAcXREFPanelObject
  3
EXAC_ESW
 90
    33793
280
     0
281
     0
  0
CLASS
  1
CELLSTYLEMAP
  2
AcDbCellStyleMap
  3
ObjectDBX Classes
 90
     1152
280
     0
281
     0
  0
CLASS
  1
SORTENTSTABLE
  2
AcDbSortentsTable
  3
ObjectDBX Classes
 90
        0
280
     0
281
     0
  0
CLASS
  1
ACAD_EVALUATION_GRAPH
  2
AcDbEvalGraph
  3
ObjectDBX Classes
 90
    33921
280
     0
281
     0
  0
CLASS
  1
ACAECUSTOBJ
  2
AcAeEditorObj
  3
AcAeEditorObj
 90
    33792
280
     0
281
     0
  0
CLASS
  1
ACDB_DYNAMICBLOCKPURGEPREVENTER_VERSION
  2
AcDbDynamicBlockPurgePreventer
  3
ObjectDBX Classes
 90
    33921
280
     0
281
     0
  0
ENDSEC
  0
SECTION
  2
TABLES
  0
TABLE
  2
VPORT
  5
8
102
{ACAD_XDICTIONARY
360
37E3
102
}
330
0
100
AcDbSymbolTable
 70
     1
  0
VPORT
  5
3D0A
330
8
100
AcDbSymbolTableRecord
100
AcDbViewportTableRecord
  2
*Active
 70
     0
 10
0.0
 20
0.0
 11
1.0
 21
1.0
 12
176.9956993215053
 22
241.0000012616685
 13
0.0
 23
0.0
 14
10.0
 24
10.0
 15
10.0
 25
10.0
 16
0.0
 26
0.0
 36
1.0
 17
0.0
 27
0.0
 37
0.0
 40
486.0631382135375
 41
2.243016759776535
 42
50.0
 43
0.0
 44
0.0
 50
0.0
 51
0.0
 71
     0
 72
 20000
 73
     1
 74
     3
 75
     0
 76
     0
 77
     0
 78
     1
281
     0
 65
     1
110
0.0
120
0.0
130
0.0
111
1.0
121
0.0
131
0.0
112
0.0
122
1.0
132
0.0
 79
     0
146
0.0
  0
ENDTAB
  0
TABLE
  2
LTYPE
  5
5
330
0
100
AcDbSymbolTable
 70
     1
  0
LTYPE
  5
14
330
5
100
AcDbSymbolTableRecord
100
AcDbLinetypeTableRecord
  2
ByBlock
 70
     0
  3

 72
    65
 73
     0
 40
0.0
  0
LTYPE
  5
15
330
5
100
AcDbSymbolTableRecord
100
AcDbLinetypeTableRecord
  2
ByLayer
 70
     0
  3

 72
    65
 73
     0
 40
0.0
  0
LTYPE
  5
16
330
5
100
AcDbSymbolTableRecord
100
AcDbLinetypeTableRecord
  2
Continuous
 70
     0
  3
Solid line
 72
    65
 73
     0
 40
0.0
  0
ENDTAB
  0
TABLE
  2
LAYER
  5
2
102
{ACAD_XDICTIONARY
360
3771
102
}
330
0
100
AcDbSymbolTable
 70
     6
  0
LAYER
  5
10
102
{ACAD_XDICTIONARY
360
37AD
102
}
330
2
100
AcDbSymbolTableRecord
100
AcDbLayerTableRecord
  2
0
 70
     4
 62
     7
  6
Continuous
290
     0
370
    -3
390
F
  0
LAYER
  5
2B
102
{ACAD_XDICTIONARY
360
37AF
102
}
330
2
100
AcDbSymbolTableRecord
100
AcDbLayerTableRecord
  2
APL Joinery
 70
     0
 62
     2
  6
Continuous
370
    -3
390
F
  0
LAYER
  5
75
102
{ACAD_XDICTIONARY
360
37B1
102
}
330
2
100
AcDbSymbolTableRecord
100
AcDbLayerTableRecord
  2
APL Notes
 70
     0
 62
     7
  6
Continuous
370
    -3
390
F
  0
LAYER
  5
2C09
102
{ACAD_XDICTIONARY
360
37B3
102
}
330
2
100
AcDbSymbolTableRecord
100
AcDbLayerTableRecord
  2
APL Border
 70
     0
 62
     7
  6
Continuous
370
    -3
390
F
  0
LAYER
  5
375A
102
{ACAD_XDICTIONARY
360
37BF
102
}
330
2
100
AcDbSymbolTableRecord
100
AcDbLayerTableRecord
  2
APL Hatch
 70
     0
 62
   253
  6
Continuous
370
    -3
390
F
  0
ENDTAB
  0
TABLE
  2
STYLE
  5
3
330
0
100
AcDbSymbolTable
 70
     4
  0
STYLE
  5
11
330
3
100
AcDbSymbolTableRecord
100
AcDbTextStyleTableRecord
  2
Standard
 70
     0
 40
0.0
 41
1.0
 50
0.0
 71
     0
 42
3.0
  3
txt.shx
  4

  0
STYLE
  5
2830
330
3
100
AcDbSymbolTableRecord
100
AcDbTextStyleTableRecord
  2
Arial-Bold
 70
     0
 40
0.0
 41
1.0
 50
0.0
 71
     0
 42
5.0
  3
ARIALBD.TTF
  4

1001
ACAD
1000
Arial
1071
 33554466
  0
STYLE
  5
31CB
330
3
100
AcDbSymbolTableRecord
100
AcDbTextStyleTableRecord
  2
Arial-Regular
 70
     0
 40
0.0
 41
1.0
 50
0.0
 71
     0
 42
2.5
  3
ARIAL.TTF
  4

1001
ACAD
1000
Arial
1071
       34
  0
ENDTAB
  0
TABLE
  2
VIEW
  5
6
330
0
100
AcDbSymbolTable
 70
     0
  0
ENDTAB
  0
TABLE
  2
UCS
  5
7
330
0
100
AcDbSymbolTable
 70
     0
  0
ENDTAB
  0
TABLE
  2
APPID
  5
9
330
0
100
AcDbSymbolTable
 70
    10
  0
APPID
  5
12
330
9
100
AcDbSymbolTableRecord
100
AcDbRegAppTableRecord
  2
ACAD
 70
     0
  0
APPID
  5
36E7
330
9
100
AcDbSymbolTableRecord
100
AcDbRegAppTableRecord
  2
DCO15
 70
     0
  0
APPID
  5
374D
330
9
100
AcDbSymbolTableRecord
100
AcDbRegAppTableRecord
  2
ACAD_MLEADERVER
 70
     0
  0
APPID
  5
397D
330
9
100
AcDbSymbolTableRecord
100
AcDbRegAppTableRecord
  2
ACAD_PSEXT
 70
     0
  0
APPID
  5
3BB8
330
9
100
AcDbSymbolTableRecord
100
AcDbRegAppTableRecord
  2
ACAUTHENVIRON
 70
     0
  0
APPID
  5
3BB9
330
9
100
AcDbSymbolTableRecord
100
AcDbRegAppTableRecord
  2
AcDbDynamicBlockTrueName
 70
     0
  0
APPID
  5
3BBA
330
9
100
AcDbSymbolTableRecord
100
AcDbRegAppTableRecord
  2
AcDbDynamicBlockGUID
 70
     0
  0
APPID
  5
3BBB
330
9
100
AcDbSymbolTableRecord
100
AcDbRegAppTableRecord
  2
AcDbBlockRepETag
 70
     0
  0
APPID
  5
3BBC
330
9
100
AcDbSymbolTableRecord
100
AcDbRegAppTableRecord
  2
AcDbBlockRepBTag
 70
     0
  0
APPID
  5
3BBD
330
9
100
AcDbSymbolTableRecord
100
AcDbRegAppTableRecord
  2
ACAD_EXEMPT_FROM_CAD_STANDARDS
 70
     0
  0
ENDTAB
  0
TABLE
  2
DIMSTYLE
  5
A
330
0
100
AcDbSymbolTable
 70
     2
100
AcDbDimStyleTable
 71
     1
340
27
  0
DIMSTYLE
105
27
330
A
100
AcDbSymbolTableRecord
100
AcDbDimStyleTableRecord
  2
ISO-25
 70
     0
 41
4.0
 42
0.625
 43
3.75
 44
1.25
 73
     0
 74
     0
 77
     1
 78
     8
140
2.5
141
2.5
143
0.03937007874016
147
0.625
171
     3
172
     1
271
     2
272
     2
274
     3
278
    44
283
     0
284
     8
340
11
  0
ENDTAB
  0
TABLE
  2
BLOCK_RECORD
  5
1
330
0
100
AcDbSymbolTable
 70
    24
  0
BLOCK_RECORD
  5
1F
102
{ACAD_XDICTIONARY
360
382E
102
}
330
1
100
AcDbSymbolTableRecord
100
AcDbBlockTableRecord
  2
*Model_Space
340
22
  0
BLOCK_RECORD
  5
318C
330
1
100
AcDbSymbolTableRecord
100
AcDbBlockTableRecord
  2
*Paper_Space
340
318D
  0
BLOCK_RECORD
  5
269A
330
1
100
AcDbSymbolTableRecord
100
AcDbBlockTableRecord
  2
9010312l
340
0
102
{BLKREFS
331
3D56
331
3D61
102
}
1001
ACAD
1000
DesignCenter Data
1002
{
1070
     1
1070
     4
1002
}
  0
BLOCK_RECORD
  5
270B
330
1
100
AcDbSymbolTableRecord
100
AcDbBlockTableRecord
  2
08025
340
0
102
{BLKREFS
331
33E6
102
}
1001
ACAD
1000
DesignCenter Data
1002
{
1070
     1
1070
     4
1002
}
  0
BLOCK_RECORD
  5
3197
330
1
100
AcDbSymbolTableRecord
100
AcDbBlockTableRecord
  2
vantage a4 SM border
340
0
102
{BLKREFS
331
319C
102
}
1001
ACAD
1000
DesignCenter Data
1002
{
1070
     1
1070
     4
1002
}
  0
BLOCK_RECORD
  5
33DD
330
1
100
AcDbSymbolTableRecord
100
AcDbBlockTableRecord
  2
08028
340
0
102
{BLKREFS
331
33E2
331
33E8
331
33EE
102
}
1001
ACAD
1000
DesignCenter Data
1002
{
1070
     1
1070
     4
1002
}
  0
BLOCK_RECORD
  5
33FD
330
1
100
AcDbSymbolTableRecord
100
AcDbBlockTableRecord
  2
6Glass
340
0
102
{BLKREFS
331
35E6
331
35E7
331
3D54
331
3D57
102
}
1001
ACAD
1000
DesignCenter Data
1002
{
1070
     1
1070
     4
1002
}
  0
BLOCK_RECORD
  5
35D5
102
{ACAD_XDICTIONARY
360
423E
102
}
330
1
100
AcDbSymbolTableRecord
100
AcDbBlockTableRecord
  2
08024
340
0
102
{BLKREFS
331
3D60
102
}
1001
ACAD
1000
DesignCenter Data
1002
{
1070
     1
1070
     4
1002
}
  0
BLOCK_RECORD
  5
35DE
330
1
100
AcDbSymbolTableRecord
100
AcDbBlockTableRecord
  2
9010250l
340
0
102
{BLKREFS
331
3D62
102
}
1001
ACAD
1000
DesignCenter Data
1002
{
1070
     1
1070
     4
1002
}
  0
BLOCK_RECORD
  5
35E3
330
1
100
AcDbSymbolTableRecord
100
AcDbBlockTableRecord
  2
20mm igu
340
0
102
{BLKREFS
331
3D5F
102
}
1001
ACAD
1000
DesignCenter Data
1002
{
1070
     1
1070
     4
1002
}
  0
BLOCK_RECORD
  5
35EA
102
{ACAD_XDICTIONARY
360
3D63
102
}
330
1
100
AcDbSymbolTableRecord
100
AcDbBlockTableRecord
  2
08024glaze
340
0
310
2800000020000000200000000100080000000000000400000000000000000000000000000000000000000000000080000080000000808000800000008000800080800000C0C0C000C0DCC000F0CAA6000020400000206000002080000020A0000020C0000020E00000400000004020000040400000406000004080000040A0
310
000040C0000040E00000600000006020000060400000606000006080000060A0000060C0000060E00000800000008020000080400000806000008080000080A0000080C0000080E00000A0000000A0200000A0400000A0600000A0800000A0A00000A0C00000A0E00000C0000000C0200000C0400000C0600000C0800000C0
310
A00000C0C00000C0E00000E0000000E0200000E0400000E0600000E0800000E0A00000E0C00000E0E00040000000400020004000400040006000400080004000A0004000C0004000E00040200000402020004020400040206000402080004020A0004020C0004020E000404000004040200040404000404060004040800040
310
40A0004040C0004040E00040600000406020004060400040606000406080004060A0004060C0004060E00040800000408020004080400040806000408080004080A0004080C0004080E00040A0000040A0200040A0400040A0600040A0800040A0A00040A0C00040A0E00040C0000040C0200040C0400040C0600040C08000
310
40C0A00040C0C00040C0E00040E0000040E0200040E0400040E0600040E0800040E0A00040E0C00040E0E00080000000800020008000400080006000800080008000A0008000C0008000E00080200000802020008020400080206000802080008020A0008020C0008020E00080400000804020008040400080406000804080
310
008040A0008040C0008040E00080600000806020008060400080606000806080008060A0008060C0008060E00080800000808020008080400080806000808080008080A0008080C0008080E00080A0000080A0200080A0400080A0600080A0800080A0A00080A0C00080A0E00080C0000080C0200080C0400080C0600080C0
310
800080C0A00080C0C00080C0E00080E0000080E0200080E0400080E0600080E0800080E0A00080E0C00080E0E000C0000000C0002000C0004000C0006000C0008000C000A000C000C000C000E000C0200000C0202000C0204000C0206000C0208000C020A000C020C000C020E000C0400000C0402000C0404000C0406000C0
310
408000C040A000C040C000C040E000C0600000C0602000C0604000C0606000C0608000C060A000C060C000C060E000C0800000C0802000C0804000C0806000C0808000C080A000C080C000C080E000C0A00000C0A02000C0A04000C0A06000C0A08000C0A0A000C0A0C000C0A0E000C0C00000C0C02000C0C04000C0C06000
310
C0C08000C0C0A000F0FBFF00A4A0A000808080000000FF0000FF000000FFFF00FF000000FF00FF00FFFF0000FFFFFF000000000000000000000000000000000000000000000000000000000000000000000000000000FBFBFBFBFBFBFBFBFBFBFBFBFBFBFBFBFB000000000000000000000000000000FB0000000000000000
310
00000000000000FB00000000000000000000000000FB00FB00FBFBFBFBFBFB00A4A4A4A4A4FBFBA4000000000000000000000000FB00FBFB00FB00000000FB00A4A400A4A4A4A4A4000000000000000000000000FBFBFBFBFB0000000000FBFBFBA400A4A4A40000A400000000000000000000000000FBFB00000000A4A4A4
310
A4A4A4A4A4A4A40000A4A4000000000000000000000000FBFB00000000A4A4A4A4A4A4FFA4A4A4A4A4A4A4FFFFFFFF0000000000000000FBFB00000000FFA4A4A4A4A4A4A4A4A4A4A4A4A4A4A4A4A40000000000000000FBFB00000000FF00000000000000000000000000000000000000000000000000FBFB00000000FFA4
310
A4A4A4A4A4A4A4A4A4A4A4A4A4A4A4A40000000000000000FBFB00000000FF00000000000000000000000000000000000000000000000000FBFB00000000FFFFFFFFFFFFFFFFFFFFFFFFFFFFFFFFFFFF0000000000000000FBFB00000000FF00000000FF0000000000000000000000000000000000000000FBFB00000000FF
310
00000000FF0000000000000000000000000000000000000000FBFB00000000FF00000000FF000000000000000000000000000000000000FBFBFB0000000000FF00000000FF000000000000000000000000000000000000FBFB000000000000FF00000000FF00000000000000000000000000000000000000FB000000000000
310
FF00000000FF00000000000000000000000000000000000000FB000000000000FFFFFFFFFFFFFFFFFFFFFFFFFFFFFFFFFFFF0000000000000000000000000000A4A4A4A4A4A4A4A4A4A4A4A4A4A4A4A4A4A40000000000000000000000000000FF000000000000000000000000000000000000000000000000000000000000
310
00A4A4A4A4A4A4A4A4A4A4A4A4A4A4A4A4A4A40000000000000000000000000000FF00000000000000000000000000000000000000000000000000000000000000FFFFFFFFA4A4FFA4A4FFA4A4A4FFFFFFFFFF000000000000000000000000000000000000A4A400A4A400A400A40000000000000000000000000000000000
310
00000000A4A4A4A4A4A4A4A40000A4000000000000000000000000000000000000000000A40000000000000000A40000000000000000000000000000000000000000000000A4A4A400A4A4A400A40000000000000000000000000000000000000000000000000000A4A400A400A40000000000000000000000000000000000
310
00000000000000000000000000A4A40000000000000000000000000000000000000000000000000000000000000000000000000000000000
102
{BLKREFS
331
35FA
331
35FF
331
3602
331
38D3
102
}
1001
AcDbDynamicBlockGUID
1000
{21FADF11-7DDB-4550-B601-3EF652BC1174}
1001
AcDbBlockRepETag
1070
     1
1071
        4
1001
ACAD
1000
DesignCenter Data
1002
{
1070
     1
1070
     4
1002
}
  0
BLOCK_RECORD
  5
3606
102
{ACAD_XDICTIONARY
360
4246
102
}
330
1
100
AcDbSymbolTableRecord
100
AcDbBlockTableRecord
  2
08023
340
0
102
{BLKREFS
331
3D55
102
}
1001
ACAD
1000
DesignCenter Data
1002
{
1070
     1
1070
     4
1002
}
  0
BLOCK_RECORD
  5
360F
330
1
100
AcDbSymbolTableRecord
100
AcDbBlockTableRecord
  2
9010240R
340
0
102
{BLKREFS
331
3D53
102
}
1001
ACAD
1000
DesignCenter Data
1002
{
1070
     1
1070
     4
1002
}
  0
BLOCK_RECORD
  5
3668
102
{ACAD_XDICTIONARY
360
3D58
102
}
330
1
100
AcDbSymbolTableRecord
100
AcDbBlockTableRecord
  2
08023glaze
340
0
310
2800000020000000200000000100080000000000000400000000000000000000000000000000000000000000000080000080000000808000800000008000800080800000C0C0C000C0DCC000F0CAA6000020400000206000002080000020A0000020C0000020E00000400000004020000040400000406000004080000040A0
310
000040C0000040E00000600000006020000060400000606000006080000060A0000060C0000060E00000800000008020000080400000806000008080000080A0000080C0000080E00000A0000000A0200000A0400000A0600000A0800000A0A00000A0C00000A0E00000C0000000C0200000C0400000C0600000C0800000C0
310
A00000C0C00000C0E00000E0000000E0200000E0400000E0600000E0800000E0A00000E0C00000E0E00040000000400020004000400040006000400080004000A0004000C0004000E00040200000402020004020400040206000402080004020A0004020C0004020E000404000004040200040404000404060004040800040
310
40A0004040C0004040E00040600000406020004060400040606000406080004060A0004060C0004060E00040800000408020004080400040806000408080004080A0004080C0004080E00040A0000040A0200040A0400040A0600040A0800040A0A00040A0C00040A0E00040C0000040C0200040C0400040C0600040C08000
310
40C0A00040C0C00040C0E00040E0000040E0200040E0400040E0600040E0800040E0A00040E0C00040E0E00080000000800020008000400080006000800080008000A0008000C0008000E00080200000802020008020400080206000802080008020A0008020C0008020E00080400000804020008040400080406000804080
310
008040A0008040C0008040E00080600000806020008060400080606000806080008060A0008060C0008060E00080800000808020008080400080806000808080008080A0008080C0008080E00080A0000080A0200080A0400080A0600080A0800080A0A00080A0C00080A0E00080C0000080C0200080C0400080C0600080C0
310
800080C0A00080C0C00080C0E00080E0000080E0200080E0400080E0600080E0800080E0A00080E0C00080E0E000C0000000C0002000C0004000C0006000C0008000C000A000C000C000C000E000C0200000C0202000C0204000C0206000C0208000C020A000C020C000C020E000C0400000C0402000C0404000C0406000C0
310
408000C040A000C040C000C040E000C0600000C0602000C0604000C0606000C0608000C060A000C060C000C060E000C0800000C0802000C0804000C0806000C0808000C080A000C080C000C080E000C0A00000C0A02000C0A04000C0A06000C0A08000C0A0A000C0A0C000C0A0E000C0C00000C0C02000C0C04000C0C06000
310
C0C08000C0C0A000F0FBFF00A4A0A000808080000000FF0000FF000000FFFF00FF000000FF00FF00FFFF0000FFFFFF0000000000000000000000000000000000000000000000000000000000000000000000000000000000000000000000000000000000000000000000000000000000000000000000000000000000000000
310
000000000000000000000000000000000000000000F7F7000000000000000000F7F7F7F7F7F70000000000000000000000000000F700F7000000000000000000F7F7F7F7F7F7000000000000000000000000000000F7F70000000000000000F7000000F7F700000000000000000000000000F7F7F7F7F700000000000000F7
310
00000000000000000000000000000000000000F700F7F700000000000000F70000000000000000000000000000000000000000F70000F7000000000000F7000000000000000000000000000000000000000000F70000F70000000000F700000000000000000000000000000000000000000000F7F7F700F700000000F70000
310
0000000000000000000000000000000000000000F7F700F7F700000000F7000000FFFFFFFFFFFFFFA4FFA4FFFF00000000000000F7F700F700F7000000F7000000FF00A400A400FFA400A400FF00000000000000F7F70000F7F7000000F7F7F7A4FF00A400A400FFA400A400FF00000000000000F7F70000F700F70000F700
310
F7A4FF00A400A400FFA400A400FF00A40000000000F7F7000000F7F70000F7A4F7A4FF00A400A400FFA400A400FFA400A400000000F7F700000000F7F700F7A4A4A4FF00A400A400FFA400A400FFA400A400000000F7F700000000F7F700F7A400A4FF00A400A400FFA400A400FFA40000A4000000F7F70000000000F7F7F7
310
A4A4A4FF00A400A400FFA400A400FFA400A4A4000000F7F70000000000F700F7A4F7A4FF00A400A400FFA400A400FFA400A400000000F7F7000000000000F700A4A4A4FF00A400A400FFA400A400FFA400A4A4000000F7F7F7F7F7F7F7F7F700A40000FF00A400A400FFA400A400FF00000000A40000F7F7F7F7F7F7F7F7F7
310
F7A40000FF00A400A400FFA400A400FF0000A4A4A400000000000000000000000000A4A4FF00A400A400FFA400A400FFA4A4000000000000000000000000000000000000FF00A400A400FFA400A400FF0000000000000000000000000000000000000000FF00A400A400FFA400A400FF000000000000000000000000000000
310
0000000000FF00A400A400FFA400A400FF0000000000000000000000000000000000000000FF00A400A400FFA400A400FF0000000000000000000000000000000000000000FF00A400A400FFA400A400FF00000000000000000000000000000000000000000000000000000000000000000000000000000000000000000000
310
0000000000000000000000000000000000000000000000000000000000000000000000000000000000000000000000000000000000000000
102
{BLKREFS
331
3670
331
3671
102
}
1001
AcDbDynamicBlockGUID
1000
{CC2DB3FA-D1B0-463F-8DB4-658D0DC01542}
1001
AcDbBlockRepETag
1070
     1
1071
        5
1001
ACAD
1000
DesignCenter Data
1002
{
1070
     1
1070
     4
1002
}
  0
BLOCK_RECORD
  5
36C4
102
{ACAD_XDICTIONARY
360
424E
102
}
330
1
100
AcDbSymbolTableRecord
100
AcDbBlockTableRecord
  2
08061
340
0
102
{BLKREFS
331
36C9
331
36D1
102
}
1001
ACAD
1000
DesignCenter Data
1002
{
1070
     1
1070
     4
1002
}
  0
BLOCK_RECORD
  5
36CA
102
{ACAD_XDICTIONARY
360
4254
102
}
330
1
100
AcDbSymbolTableRecord
100
AcDbBlockTableRecord
  2
08060
340
0
102
{BLKREFS
331
36CF
331
36D3
102
}
1001
ACAD
1000
DesignCenter Data
1002
{
1070
     1
1070
     4
1002
}
  0
BLOCK_RECORD
  5
3C61
102
{ACAD_XDICTIONARY
360
3C6B
102
}
330
1
100
AcDbSymbolTableRecord
100
AcDbBlockTableRecord
  2
vantage a4 SM attributes (4)
340
0
102
{BLKREFS
331
3C6E
102
}
1001
ACAD
1000
DesignCenter Data
1002
{
1070
     1
1070
     4
1002
}
  0
BLOCK_RECORD
  5
3E60
102
{ACAD_XDICTIONARY
360
3E61
102
}
330
1
100
AcDbSymbolTableRecord
100
AcDbBlockTableRecord
  2
vantage black & white logo
340
0
310
2800000020000000200000000100080000000000000400000000000000000000000000000000000000000000000080000080000000808000800000008000800080800000C0C0C000C0DCC000F0CAA6000020400000206000002080000020A0000020C0000020E00000400000004020000040400000406000004080000040A0
310
000040C0000040E00000600000006020000060400000606000006080000060A0000060C0000060E00000800000008020000080400000806000008080000080A0000080C0000080E00000A0000000A0200000A0400000A0600000A0800000A0A00000A0C00000A0E00000C0000000C0200000C0400000C0600000C0800000C0
310
A00000C0C00000C0E00000E0000000E0200000E0400000E0600000E0800000E0A00000E0C00000E0E00040000000400020004000400040006000400080004000A0004000C0004000E00040200000402020004020400040206000402080004020A0004020C0004020E000404000004040200040404000404060004040800040
310
40A0004040C0004040E00040600000406020004060400040606000406080004060A0004060C0004060E00040800000408020004080400040806000408080004080A0004080C0004080E00040A0000040A0200040A0400040A0600040A0800040A0A00040A0C00040A0E00040C0000040C0200040C0400040C0600040C08000
310
40C0A00040C0C00040C0E00040E0000040E0200040E0400040E0600040E0800040E0A00040E0C00040E0E00080000000800020008000400080006000800080008000A0008000C0008000E00080200000802020008020400080206000802080008020A0008020C0008020E00080400000804020008040400080406000804080
310
008040A0008040C0008040E00080600000806020008060400080606000806080008060A0008060C0008060E00080800000808020008080400080806000808080008080A0008080C0008080E00080A0000080A0200080A0400080A0600080A0800080A0A00080A0C00080A0E00080C0000080C0200080C0400080C0600080C0
310
800080C0A00080C0C00080C0E00080E0000080E0200080E0400080E0600080E0800080E0A00080E0C00080E0E000C0000000C0002000C0004000C0006000C0008000C000A000C000C000C000E000C0200000C0202000C0204000C0206000C0208000C020A000C020C000C020E000C0400000C0402000C0404000C0406000C0
310
408000C040A000C040C000C040E000C0600000C0602000C0604000C0606000C0608000C060A000C060C000C060E000C0800000C0802000C0804000C0806000C0808000C080A000C080C000C080E000C0A00000C0A02000C0A04000C0A06000C0A08000C0A0A000C0A0C000C0A0E000C0C00000C0C02000C0C04000C0C06000
310
C0C08000C0C0A000F0FBFF00A4A0A000808080000000FF0000FF000000FFFF00FF000000FF00FF00FFFF0000FFFFFF0000000000000000000000000000000000000000000000000000000000000000000000000000000000000000000000000000000000000000000000000000000000000000000000000000000000000000
310
0000000000000000000000000000000000000000000000000000000000000000A4A40000000000000000000000000000000000000000000000000000000000A400000700000000000000000000000000000000000000000000000000000000A4000707000000000000000000000000000000000000000000000000000000A4
310
00A4A407070000000000000000000000000000000000000000000000000000A400A400A40700000000000000000000000000000000000000000000000000A400A4A400A407070000000000000000000000000000000000000000000000A40700A4000000A4070000000000000000000000000000000000000000000000A400
310
A4A4000000A40707000000000000000000000000000000000000000000A400A4A4000000A4A4A400070000000000000000000000000000000000000000A400A400000000A400A4070700000000000000000000000000000000000000A400A4A4000000A4A40000A40007000000000000000000000000000000000000A400A4
310
A4A4A4A4A4A4A4A4A407070000000000000000000000000000000000A400A4A4A4A4A4A4A4A4A4A4A4A40007000000000000000000000000000000A40000A4A4A4A4A4A4A4A4A4A4A4A40700070000000000000000000000000000A400A4A400A4A4A4A4A4A4A4A4A4A4A4070700000000000000000000000000A400A4A4A4
310
A4A4A4A4A4A4A4A4A4A4A4A4070007000000000000000000000000A400A4A4A4A4A4A4A4A4A4A4A4A4A4A4A4A407070000000000000000000000A400A4A400A4A4A4A4A4A4A4A4A4A4A4A4A4A4070007000000000000000000A40700A4A400A4A4A4A4A4A4A4A4A4A4A4A4A400A40707000000000000000000A400A4A4A4A4
310
A4A4A4A4A4A4A4A4A4A4A4A4A4A4A407000700000000000000A400A4A4A4A4A4A4A4A4A4A4A4A4A4A4A4A4A4A4A4A4A4070007000000000000A400A4A4A4A4A4A4A4A4A4A4A4A4A4A4A4A4A4A4A4A4A40700070000000000A400A4A400A4A4A4A4A4A4A4A4A4A4A4A4A4A4A4A4A4A4A40007000700000000A400A4A4A400A4
310
A4A4A4A4A4A4A4A4A4A4A4A4A4A4A4A4A4000700070000000700A4A4A4A4A4A4A4A4A4A4A4A4A4A4A4A4A4A4A4A4A4A4A4A4A40700070000A407A4A4A4A4A4A4A4A4A4A4A4A4A4A4A4A4A4A4A4A4A4A4A4A4A4A407A40000000000000000000000000000000000000000000000000000000000000000000000000000000000
310
0000000000000000000000000000000000000000000000000000000000000000000000000000000000000000000000000000000000000000
102
{BLKREFS
331
3E5E
102
}
1001
AcDbDynamicBlockGUID
1000
{7D04BC3F-8AE2-40EA-A482-CE6E620AF154}
1001
AcDbBlockRepETag
1070
     1
1071
      907
1001
ACAD
1000
DesignCenter Data
1002
{
1070
     1
1070
     4
1002
}
  0
ENDTAB
  0
ENDSEC
  0
SECTION
  2
BLOCKS
  0
BLOCK
  5
20
330
1F
100
AcDbEntity
  8
0
100
AcDbBlockBegin
  2
*Model_Space
 70
     0
 10
0.0
 20
0.0
 30
0.0
  3
*Model_Space
  1

  0
ENDBLK
  5
21
330
1F
100
AcDbEntity
  8
0
100
AcDbBlockEnd
  0
BLOCK
  5
318E
330
318C
100
AcDbEntity
 67
     1
  8
0
100
AcDbBlockBegin
  2
*Paper_Space
 70
     0
 10
0.0
 20
0.0
 30
0.0
  3
*Paper_Space
  1

  0
ENDBLK
  5
318F
330
318C
100
AcDbEntity
 67
     1
  8
0
100
AcDbBlockEnd
  0
BLOCK
  5
269B
330
269A
100
AcDbEntity
  8
0
100
AcDbBlockBegin
  2
9010312l
 70
     0
 10
365.0634067278241
 20
339.4121540145173
 30
0.0
  3
9010312l
  1
9010312l.dwg
  0
LWPOLYLINE
  5
3E4A
330
269A
100
AcDbEntity
  8
APL Joinery
  6
Continuous
 62
   252
100
AcDbPolyline
 90
       28
 70
   128
 43
0.0
 10
368.7634067278242
 20
336.2999919725366
 10
368.7634067278242
 20
343.1621540145172
 42
0.7673269879789622
 10
368.2969003768781
 20
343.2871540145172
 10
367.7417988747633
 20
342.3256900094965
 10
365.2336571919708
 20
341.6536354710895
 42
0.3626955242591878
 10
365.0492176629833
 20
341.3914870691883
 10
365.2134067278238
 20
339.4121540145172
 10
366.7634067278242
 20
339.4121540145172
 10
366.7634067278242
 20
336.5121540145171
 10
365.513243805812
 20
336.5121540145171
 10
365.2515573605315
 20
337.3376963843301
 42
0.6640183420487276
 10
364.792655570518
 20
337.3798010733406
 42
0.250000000000001
 10
364.7926555705179
 20
333.1445069556935
 42
0.6640183420487097
 10
365.2515573605313
 20
333.1866116447042
 10
365.513243805812
 20
334.0121540145171
 10
367.0632438058122
 20
334.0121540145171
 10
367.3369346947806
 20
334.2858449034854
 42
-0.6681785464135807
 10
367.7637113900772
 20
334.1090682714504
 10
367.7637118012051
 20
332.4843569389277
 10
368.2660718660176
 20
329.0715154000631
 42
0.9294717386060577
 10
368.7634067278242
 20
329.1079223518048
 10
368.7634067278242
 20
334.5749919747145
 42
0.3563939586926081
 10
367.9634067278242
 20
335.5547878718279
 42
-0.3563939586925715
 10
367.7634067278242
 20
335.7997368461061
 10
367.7634067278241
 20
339.3871540145172
 42
-0.9999999999999998
 10
367.8134067278242
 20
339.3871540145172
 10
367.8134067278242
 20
336.2999919725366
 42
0.9999999999999998
 10
368.7634067234684
 20
336.2999919725366
  0
ENDBLK
  5
269C
330
269A
100
AcDbEntity
  8
0
100
AcDbBlockEnd
  0
BLOCK
  5
270C
330
270B
100
AcDbEntity
  8
0
100
AcDbBlockBegin
  2
08025
 70
     0
 10
0.0
 20
0.0
 30
0.0
  3
08025
  1
08025.dwg
  0
LWPOLYLINE
  5
3E4D
330
270B
100
AcDbEntity
  8
APL Joinery
  6
Continuous
100
AcDbPolyline
 90
       71
 70
     1
 43
0.0
 10
-5.976415094338976
 20
75.74503062088307
 42
-1.0
 10
-7.123584905659339
 20
76.86037873873407
 42
2.366997536942897
 10
-9.776415094338592
 20
76.86037873873384
 42
-0.9999999999999996
 10
-10.92358490565921
 20
75.74503062088247
 42
-0.1380297893446888
 10
-11.81481481481364
 20
77.38808054099871
 42
0.8944271909998759
 10
-12.99999999999966
 20
77.25557280899869
 10
-13.0
 20
73.19999999999983
 42
-0.4142135623731034
 10
-14.29999999999927
 20
71.8999999999998
 10
-16.75
 20
71.89999999999963
 42
-0.4142135623730951
 10
-17.0
 20
72.14999999999964
 10
-17.0
 20
73.94999999999981
 42
-0.9999999999999998
 10
-16.0
 20
73.94999999999981
 10
-16.0
 20
73.19999999999982
 10
-14.5
 20
73.19999999999982
 10
-14.5
 20
78.69999999999982
 10
-16.0
 20
78.69999999999982
 10
-16.0
 20
77.94999999999982
 42
-0.9999999999999998
 10
-17.0
 20
77.94999999999982
 10
-17.0
 20
79.75
 42
-0.4142135623730951
 10
-16.75
 20
80.0
 10
-15.29999999999927
 20
80.0
 10
-15.29999999999927
 20
81.75
 42
-0.4142135623730951
 10
-15.04999999999927
 20
82.0
 10
-0.5
 20
82.0
 42
-0.4142135623730951
 10
0.0
 20
81.5
 10
0.0
 20
0.25
 42
-0.4142135623730951
 10
-0.25
 20
0.0
 10
-1.75
 20
0.0
 42
-0.4142135623730951
 10
-2.0
 20
0.25
 10
-2.0
 20
3.0
 10
-2.716506350946133
 20
4.241025403784078
 42
-0.5773502691899033
 10
-2.5
 20
4.616025403784078
 10
-2.0
 20
4.616025403784078
 10
-2.0
 20
15.0
 42
0.4142135623730951
 10
-3.0
 20
16.0
 10
-45.0
 20
16.0
 42
0.4142135623730951
 10
-46.0
 20
15.0
 10
-46.0
 20
4.616025403784078
 10
-45.49999999999999
 20
4.616025403784078
 42
-0.5773502691899033
 10
-45.28349364905387
 20
4.241025403784078
 10
-46.0
 20
3.0
 10
-46.0
 20
0.25
 42
-0.4142135623730951
 10
-46.25
 20
0.0
 10
-47.75
 20
0.0
 42
-0.4142135623730951
 10
-48.0
 20
0.25
 10
-48.0
 20
62.75
 42
-0.4142135623730951
 10
-47.75
 20
62.99999999999977
 10
-46.97474487139152
 20
62.99999999999977
 42
-0.3563939586925993
 10
-45.50505102572162
 20
61.79999999999978
 42
-0.4744978678080451
 10
-45.75
 20
61.49999999999977
 10
-46.5
 20
61.49999999999977
 10
-46.5
 20
58.49999999999977
 10
-46.19999999999982
 20
58.49999999999977
 10
-46.19999999999959
 20
54.9999999999998
 42
0.4142135623731365
 10
-45.99999999999954
 20
54.79999999999995
 10
-34.04999999999973
 20
54.79999999999995
 42
0.4142135623730951
 10
-33.79999999999973
 20
55.04999999999995
 10
-33.79999999999973
 20
58.69999999999959
 42
-0.4142135623730951
 10
-33.30000000000018
 20
59.19999999999982
 10
-27.0
 20
59.19999999999982
 42
0.4142135623730951
 10
-26.5
 20
59.69999999999981
 10
-26.5
 20
61.5
 42
0.4142135623730951
 10
-27.0
 20
62.0
 10
-29.5
 20
62.0
 42
-0.9999999999999998
 10
-29.5
 20
63.0
 10
-4.0
 20
63.0
 42
0.4142135623730951
 10
-2.0
 20
65.0
 10
-2.0
 20
79.0
 42
0.4142135623730951
 10
-3.0
 20
80.0
 10
-4.737857761345367
 20
80.0
 42
0.5204832016756438
 10
-5.207749183959784
 20
79.32911392405056
 42
-0.2875912244633886
  0
LWPOLYLINE
  5
3E4E
330
270B
100
AcDbEntity
  8
APL Joinery
  6
Continuous
100
AcDbPolyline
 90
       38
 70
     1
 43
0.0
 10
-21.20500000000003
 20
52.38007812612234
 42
-1.000000000000035
 10
-22.49500000000033
 20
53.63542668329647
 42
2.368487253623623
 10
-25.50499999999999
 20
53.63542668329679
 42
-0.9999999999999998
 10
-26.7949999999997
 20
52.38007812612203
 42
-0.294049235910349
 10
-27.63300981702219
 20
56.51818181818175
 42
0.5279300905746681
 10
-28.09878030638401
 20
57.19999999999981
 10
-31.29999999999973
 20
57.19999999999981
 42
0.4142135623730953
 10
-31.79999999999973
 20
56.69999999999959
 10
-31.79999999999973
 20
55.04999999999916
 42
-0.4142135623730951
 10
-34.04999999999973
 20
52.79999999999915
 10
-35.83785776134539
 20
52.79999999999915
 42
0.5204832016756554
 10
-36.30774918395978
 20
52.12911392404979
 42
-0.2875912244633451
 10
-37.07641509433859
 20
48.54503062088269
 42
-0.9999999999999447
 10
-38.22358490566007
 20
49.66037873873442
 42
2.366997536942683
 10
-40.87641509433962
 20
49.6603787387341
 42
-0.9999999999999996
 10
-42.02358490566015
 20
48.54503062088284
 42
-0.2875912244633512
 10
-42.79225081603982
 20
52.12911392405
 42
0.5204832016754871
 10
-43.26214223865429
 20
52.79999999999995
 10
-45.0
 20
52.79999999999995
 42
0.4142135623730951
 10
-46.0
 20
51.79999999999996
 10
-46.0
 20
19.0
 42
0.4142135623730951
 10
-45.0
 20
18.0
 10
-28.0987803063835
 20
18.0
 42
0.5279300905750312
 10
-27.633009817022
 20
18.68181818181804
 42
-0.2940492359103961
 10
-26.79499999999963
 20
22.81992187387788
 42
-0.999999999999995
 10
-25.50500000000003
 20
21.56457331670345
 42
2.368487253623622
 10
-22.49499999999944
 20
21.56457331670337
 42
-0.9999999999999998
 10
-21.20500000000003
 20
22.81992187387796
 42
-0.2940492359103895
 10
-20.36699018297821
 20
18.68181818181819
 42
0.5279300905750869
 10
-19.90121969361644
 20
18.00000000000003
 10
-3.0
 20
18.0
 42
0.4142135623730951
 10
-2.0
 20
19.0
 10
-2.0
 20
60.0
 42
0.4142135623730951
 10
-3.0
 20
61.0
 10
-24.0
 20
61.0
 42
0.4142135623730951
 10
-24.5
 20
60.5
 10
-24.5
 20
59.50000000000091
 42
0.4142135623733615
 10
-23.99999999999999
 20
59.00000000000045
 42
-0.6632671881071989
  0
LWPOLYLINE
  5
3E4F
330
270B
100
AcDbEntity
  8
APL Joinery
  6
Continuous
100
AcDbPolyline
 90
        2
 70
     0
 43
0.0
 10
-46.19999999999982
 20
58.49999999999977
 10
-46.5
 20
58.49999999999977
  0
HATCH
  5
3E50
330
270B
100
AcDbEntity
  8
APL Hatch
100
AcDbHatch
 10
0.0
 20
0.0
 30
0.0
210
0.0
220
0.0
230
1.0
  2
SOLID
 70
     1
 71
     0
 91
        3
 92
       16
 93
       38
 72
     2
 10
-21.8500000000002
 20
53.00775240470938
 40
0.8999999999999918
 50
44.22004442766737
 51
224.220044427671
 73
     0
 72
     2
 10
-24.0
 20
55.10000000000001
 40
2.099999999999763
 50
315.7799555723104
 51
584.2200444276774
 73
     1
 72
     2
 10
-26.14999999999984
 20
53.00775240470941
 40
0.8999999999999982
 50
315.7799555723034
 51
495.7799555723034
 73
     0
 72
     2
 10
-23.99999999999955
 20
55.10000000000042
 40
3.900000000000371
 50
135.779955572314
 51
201.323686263488
 73
     0
 72
     2
 10
-28.09878030638424
 20
56.69999999999967
 40
0.5000000000001489
 50
338.6763137365396
 51
449.9999999999739
 73
     1
 72
     1
 10
-28.09878030638401
 20
57.19999999999981
 11
-31.29999999999973
 21
57.19999999999981
 72
     2
 10
-31.29999999999962
 20
56.6999999999997
 40
0.5000000000001137
 50
90.00000000001303
 51
180.000000000013
 73
     1
 72
     1
 10
-31.79999999999973
 20
56.69999999999959
 11
-31.79999999999973
 21
55.04999999999916
 72
     2
 10
-34.04999999999973
 20
55.04999999999916
 40
2.25
 50
360.0
 51
450.0
 73
     0
 72
     1
 10
-34.04999999999973
 20
52.79999999999915
 11
-35.83785776134539
 21
52.79999999999915
 72
     2
 10
-35.83785776134542
 20
52.29999999999922
 40
0.4999999999999432
 50
89.99999999999674
 51
199.9848799707318
 73
     1
 72
     2
 10
-39.54999999999883
 20
50.94999999999886
 40
3.449999999999511
 50
340.0151200292695
 51
404.1942037229234
 73
     0
 72
     2
 10
-37.6499999999993
 20
49.10270467980859
 40
0.8000000000004362
 50
44.19420372292659
 51
224.1942037229201
 73
     0
 72
     2
 10
-39.55
 20
50.9499999999999
 40
1.850000000000208
 50
315.8057962770787
 51
584.1942037229356
 73
     1
 72
     2
 10
-41.44999999999988
 20
49.10270467980847
 40
0.7999999999999274
 50
315.8057962770656
 51
495.8057962770651
 73
     0
 72
     2
 10
-39.55000000000037
 20
50.94999999999972
 40
3.449999999999667
 50
135.8057962770628
 51
199.9848799707181
 73
     0
 72
     2
 10
-43.26214223865456
 20
52.2999999999996
 40
0.5000000000003546
 50
340.0151200292636
 51
449.999999999969
 73
     1
 72
     1
 10
-43.26214223865429
 20
52.79999999999995
 11
-45.0
 21
52.79999999999995
 72
     2
 10
-45.0
 20
51.79999999999996
 40
1.0
 50
90.0
 51
180.0
 73
     1
 72
     1
 10
-46.0
 20
51.79999999999996
 11
-46.0
 21
19.0
 72
     2
 10
-45.0
 20
19.0
 40
1.0
 50
180.0
 51
270.0
 73
     1
 72
     1
 10
-45.0
 20
18.0
 11
-28.0987803063835
 21
18.0
 72
     2
 10
-28.0987803063836
 20
18.49999999999982
 40
0.4999999999998224
 50
270.000000000011
 51
381.3236862635102
 73
     1
 72
     2
 10
-23.99999999999994
 20
20.09999999999965
 40
3.899999999999941
 50
158.6763137365051
 51
224.2200444276891
 73
     0
 72
     2
 10
-26.14999999999983
 20
22.19224759529066
 40
0.8999999999998459
 50
224.2200444276918
 51
404.2200444276912
 73
     0
 72
     2
 10
-23.99999999999977
 20
20.09999999999958
 40
2.100000000000411
 50
135.7799555723148
 51
404.220044427682
 73
     1
 72
     2
 10
-21.84999999999974
 20
22.19224759529067
 40
0.8999999999998367
 50
135.7799555723003
 51
315.7799555723006
 73
     0
 72
     2
 10
-24.00000000000003
 20
20.10000000000017
 40
3.899999999999854
 50
315.7799555723187
 51
381.3236862635013
 73
     0
 72
     2
 10
-19.90121969361648
 20
18.49999999999998
 40
0.4999999999999444
 50
158.6763137364954
 51
270.0000000000049
 73
     1
 72
     1
 10
-19.90121969361644
 20
18.00000000000003
 11
-3.0
 21
18.0
 72
     2
 10
-3.0
 20
19.0
 40
1.0
 50
270.0
 51
360.0
 73
     1
 72
     1
 10
-2.0
 20
19.0
 11
-2.0
 21
60.0
 72
     2
 10
-3.0
 20
60.0
 40
1.0
 50
0.0
 51
90.0
 73
     1
 72
     1
 10
-3.0
 20
61.0
 11
-24.0
 21
61.0
 72
     2
 10
-24.0
 20
60.5
 40
0.5
 50
90.0
 51
180.0
 73
     1
 72
     1
 10
-24.5
 20
60.5
 11
-24.5
 21
59.50000000000091
 72
     2
 10
-24.0
 20
59.50000000000045
 40
0.5000000000000036
 50
179.9999999999479
 51
270.0000000000004
 73
     1
 72
     2
 10
-23.99999999999971
 20
55.10000000000054
 40
3.899999999999906
 50
269.9999999999958
 51
404.2200444276889
 73
     0
 97
        0
 92
        1
 93
       71
 72
     2
 10
-6.549999999999158
 20
76.30270467980857
 40
0.7999999999997759
 50
44.19420372293214
 51
224.1942037229322
 73
     0
 72
     2
 10
-8.449999999999075
 20
78.14999999999961
 40
1.850000000000109
 50
315.805796277073
 51
584.1942037229367
 73
     1
 72
     2
 10
-10.3499999999989
 20
76.30270467980816
 40
0.7999999999999951
 50
315.8057962770647
 51
495.8057962770648
 73
     0
 72
     2
 10
-8.449999999998937
 20
78.1499999999994
 40
3.450000000000063
 50
135.8057962770678
 51
167.2412595831016
 73
     0
 72
     2
 10
-12.39999999999924
 20
77.25557280899863
 40
0.6000000000004224
 50
12.7587404168854
 51
179.9999999999945
 73
     1
 72
     1
 10
-12.99999999999966
 20
77.25557280899869
 11
-13.0
 21
73.19999999999983
 72
     2
 10
-14.29999999999963
 20
73.19999999999943
 40
1.299999999999631
 50
359.9999999999824
 51
449.9999999999841
 73
     0
 72
     1
 10
-14.29999999999927
 20
71.8999999999998
 11
-16.75
 21
71.89999999999963
 72
     2
 10
-16.75
 20
72.14999999999964
 40
0.25
 50
90.0
 51
180.0
 73
     0
 72
     1
 10
-17.0
 20
72.14999999999964
 11
-17.0
 21
73.94999999999981
 72
     2
 10
-16.5
 20
73.94999999999981
 40
0.5
 50
180.0
 51
360.0
 73
     0
 72
     1
 10
-16.0
 20
73.94999999999981
 11
-16.0
 21
73.19999999999982
 72
     1
 10
-16.0
 20
73.19999999999982
 11
-14.5
 21
73.19999999999982
 72
     1
 10
-14.5
 20
73.19999999999982
 11
-14.5
 21
78.69999999999982
 72
     1
 10
-14.5
 20
78.69999999999982
 11
-16.0
 21
78.69999999999982
 72
     1
 10
-16.0
 20
78.69999999999982
 11
-16.0
 21
77.94999999999982
 72
     2
 10
-16.5
 20
77.94999999999982
 40
0.5
 50
360.0
 51
540.0
 73
     0
 72
     1
 10
-17.0
 20
77.94999999999982
 11
-17.0
 21
79.75
 72
     2
 10
-16.75
 20
79.75
 40
0.25
 50
180.0
 51
270.0
 73
     0
 72
     1
 10
-16.75
 20
80.0
 11
-15.29999999999927
 21
80.0
 72
     1
 10
-15.29999999999927
 20
80.0
 11
-15.29999999999927
 21
81.75
 72
     2
 10
-15.04999999999927
 20
81.75
 40
0.25
 50
180.0
 51
270.0
 73
     0
 72
     1
 10
-15.04999999999927
 20
82.0
 11
-0.5
 21
82.0
 72
     2
 10
-0.5
 20
81.5
 40
0.5
 50
270.0
 51
360.0
 73
     0
 72
     1
 10
0.0
 20
81.5
 11
0.0
 21
0.25
 72
     2
 10
-0.25
 20
0.25
 40
0.25
 50
360.0
 51
450.0
 73
     0
 72
     1
 10
-0.25
 20
0.0
 11
-1.75
 21
0.0
 72
     2
 10
-1.75
 20
0.25
 40
0.25
 50
90.0
 51
180.0
 73
     0
 72
     1
 10
-2.0
 20
0.25
 11
-2.0
 21
3.0
 72
     1
 10
-2.0
 20
3.0
 11
-2.716506350946133
 21
4.241025403784078
 72
     2
 10
-2.500000000000115
 20
4.366025403784131
 40
0.2499999999999467
 50
149.9999999999788
 51
270.0000000000265
 73
     0
 72
     1
 10
-2.5
 20
4.616025403784078
 11
-2.0
 21
4.616025403784078
 72
     1
 10
-2.0
 20
4.616025403784078
 11
-2.0
 21
15.0
 72
     2
 10
-3.0
 20
15.0
 40
1.0
 50
0.0
 51
90.0
 73
     1
 72
     1
 10
-3.0
 20
16.0
 11
-45.0
 21
16.0
 72
     2
 10
-45.0
 20
15.0
 40
1.0
 50
90.0
 51
180.0
 73
     1
 72
     1
 10
-46.0
 20
15.0
 11
-46.0
 21
4.616025403784078
 72
     1
 10
-46.0
 20
4.616025403784078
 11
-45.49999999999999
 21
4.616025403784078
 72
     2
 10
-45.49999999999989
 20
4.366025403784131
 40
0.2499999999999467
 50
269.9999999999739
 51
390.0000000000209
 73
     0
 72
     1
 10
-45.28349364905387
 20
4.241025403784078
 11
-46.0
 21
3.0
 72
     1
 10
-46.0
 20
3.0
 11
-46.0
 21
0.25
 72
     2
 10
-46.25
 20
0.25
 40
0.25
 50
360.0
 51
450.0
 73
     0
 72
     1
 10
-46.25
 20
0.0
 11
-47.75
 21
0.0
 72
     2
 10
-47.75
 20
0.25
 40
0.25
 50
90.0
 51
180.0
 73
     0
 72
     1
 10
-48.0
 20
0.25
 11
-48.0
 21
62.75
 72
     2
 10
-47.75000000000011
 20
62.74999999999988
 40
0.2499999999998863
 50
180.000000000026
 51
270.000000000026
 73
     0
 72
     1
 10
-47.75
 20
62.99999999999977
 11
-46.97474487139152
 21
62.99999999999977
 72
     2
 10
-46.97474487139152
 20
61.49999999999979
 40
1.499999999999985
 50
270.0
 51
348.4630409671845
 73
     0
 72
     2
 10
-45.74999999999999
 20
61.74999999999982
 40
0.2500000000000405
 50
348.4630409671937
 51
450.0000000000016
 73
     0
 72
     1
 10
-45.75
 20
61.49999999999977
 11
-46.5
 21
61.49999999999977
 72
     1
 10
-46.5
 20
61.49999999999977
 11
-46.5
 21
58.49999999999977
 72
     1
 10
-46.5
 20
58.49999999999977
 11
-46.19999999999982
 21
58.49999999999977
 72
     1
 10
-46.19999999999982
 20
58.49999999999977
 11
-46.19999999999959
 21
54.9999999999998
 72
     2
 10
-45.99999999999965
 20
54.99999999999989
 40
0.1999999999999318
 50
180.0000000000244
 51
270.0000000000326
 73
     1
 72
     1
 10
-45.99999999999954
 20
54.79999999999995
 11
-34.04999999999973
 21
54.79999999999995
 72
     2
 10
-34.04999999999973
 20
55.04999999999995
 40
0.25
 50
270.0
 51
360.0
 73
     1
 72
     1
 10
-33.79999999999973
 20
55.04999999999995
 11
-33.79999999999973
 21
58.69999999999959
 72
     2
 10
-33.29999999999984
 20
58.69999999999993
 40
0.4999999999998864
 50
179.9999999999609
 51
269.9999999999609
 73
     0
 72
     1
 10
-33.30000000000018
 20
59.19999999999982
 11
-27.0
 21
59.19999999999982
 72
     2
 10
-27.0
 20
59.69999999999981
 40
0.5
 50
270.0
 51
360.0
 73
     1
 72
     1
 10
-26.5
 20
59.69999999999981
 11
-26.5
 21
61.5
 72
     2
 10
-27.0
 20
61.5
 40
0.5
 50
0.0
 51
90.0
 73
     1
 72
     1
 10
-27.0
 20
62.0
 11
-29.5
 21
62.0
 72
     2
 10
-29.5
 20
62.5
 40
0.5
 50
90.0
 51
270.0
 73
     0
 72
     1
 10
-29.5
 20
63.0
 11
-4.0
 21
63.0
 72
     2
 10
-4.0
 20
65.0
 40
2.0
 50
270.0
 51
360.0
 73
     1
 72
     1
 10
-2.0
 20
65.0
 11
-2.0
 21
79.0
 72
     2
 10
-3.0
 20
79.0
 40
1.0
 50
0.0
 51
90.0
 73
     1
 72
     1
 10
-3.0
 20
80.0
 11
-4.737857761345367
 21
80.0
 72
     2
 10
-4.737857761345374
 20
79.5
 40
0.5
 50
89.9999999999992
 51
199.9848799707316
 73
     1
 72
     2
 10
-8.449999999998823
 20
78.14999999999963
 40
3.449999999999505
 50
340.0151200292695
 51
404.1942037229326
 73
     0
 97
        0
 92
       49
 93
        2
 72
     2
 10
-8.450000000000816
 20
78.15000000000171
 40
10.30000000000014
 50
219.8497603995988
 51
220.578211739637
 73
     1
 72
     1
 10
-46.19999999999982
 20
58.49999999999977
 11
-46.5
 21
58.49999999999977
 97
        0
 75
     0
 76
     1
 98
        1
 10
0.0
 20
0.0
  0
ENDBLK
  5
270D
330
270B
100
AcDbEntity
  8
0
100
AcDbBlockEnd
  0
BLOCK
  5
3198
330
3197
100
AcDbEntity
  8
0
100
AcDbBlockBegin
  2
vantage a4 SM border
 70
     0
 10
0.0
 20
0.0
 30
0.0
  3
vantage a4 SM border
  1
vantage a4 SM border.dwg
  0
TEXT
  5
3E52
330
3197
100
AcDbEntity
  8
APL Border
100
AcDbText
 10
11.59500000000003
 20
3.979818213543524
 30
0.0
 40
1.5
  1
VANTAGE SPECIFIER'S GUIDE 2011:1     ARCHITECTURAL PROFILES LTD. NB. TECHNICAL SPECIFICATIONS SUBJECT TO CHANGE WITHOUT NOTICE.
 41
1.175568529931163
  7
Arial-Regular
 72
     5
 11
189.595
 21
3.979818213543524
 31
0.0
100
AcDbText
  0
LINE
  5
3E53
330
3197
100
AcDbEntity
  8
APL Border
100
AcDbLine
 10
11.59500000000003
 20
6.189999999999997
 30
0.0
 11
189.595
 21
6.189999999999997
 31
0.0
  0
MTEXT
  5
3E54
330
3197
100
AcDbEntity
  8
APL Border
100
AcDbMText
 10
57.55102029361978
 20
3.879818213543526
 30
0.0
 40
1.5
 41
0.0
 71
     8
 72
     5
  1
{\fCommercialPi BT|b0|i0|c2|p18;a}
  7
Arial-Regular
 73
     1
 44
1.0
1001
ACAD
1000
MTEXTBEGIN
1070
    73
1070
     1
1070
    44
1040
1.0
1070
    74
1070
     0
1000
MTEXTEND
  0
LINE
  5
3E55
330
3197
100
AcDbEntity
  8
APL Border
100
AcDbLine
 10
189.595
 20
268.19
 30
0.0
 11
142.595
 21
268.19
 31
0.0
  0
LINE
  5
3E56
330
3197
100
AcDbEntity
  8
APL Border
100
AcDbLine
 10
189.595
 20
282.19
 30
0.0
 11
189.595
 21
254.19
 31
0.0
  0
LINE
  5
3E57
330
3197
100
AcDbEntity
  8
APL Border
100
AcDbLine
 10
166.095
 20
268.19
 30
0.0
 11
166.095
 21
254.19
 31
0.0
  0
LINE
  5
3E58
330
3197
100
AcDbEntity
  8
APL Border
100
AcDbLine
 10
189.595
 20
254.19
 30
0.0
 11
24.99473224900737
 21
254.19
 31
0.0
  0
LINE
  5
3E59
330
3197
100
AcDbEntity
  8
APL Border
100
AcDbLine
 10
189.595
 20
282.19
 30
0.0
 11
24.99473224900737
 21
282.19
 31
0.0
  0
LINE
  5
3E5A
330
3197
100
AcDbEntity
  8
APL Border
100
AcDbLine
 10
142.595
 20
282.19
 30
0.0
 11
142.595
 21
254.19
 31
0.0
  0
TEXT
  5
3E5B
330
3197
100
AcDbEntity
  8
APL Border
100
AcDbText
 10
147.845
 20
273.69
 30
0.0
 40
2.5
  1
CAD REF.
  7
Arial-Regular
100
AcDbText
  0
TEXT
  5
3E5C
330
3197
100
AcDbEntity
  8
APL Border
100
AcDbText
 10
149.6877694406548
 20
262.19
 30
0.0
 40
2.5
  1
DATE
  7
Arial-Regular
 72
     1
 11
154.345
 21
262.19
 31
0.0
100
AcDbText
  0
TEXT
  5
3E5D
330
3197
100
AcDbEntity
  8
APL Border
100
AcDbText
 10
172.1185334242838
 20
262.19
 30
0.0
 40
2.5
  1
SCALE
  7
Arial-Regular
 72
     1
 11
177.845
 21
262.19
 31
0.0
100
AcDbText
  0
INSERT
  5
3E5E
102
{ACAD_XDICTIONARY
360
3E5F
102
}
330
3197
100
AcDbEntity
  8
APL Border
100
AcDbBlockReference
  2
vantage black & white logo
 10
24.99473224900737
 20
256.19
 30
0.0
 41
0.5
 42
0.5
 43
0.5
  0
LINE
  5
3EA3
330
3197
100
AcDbEntity
  8
APL Border
100
AcDbLine
 10
24.99473224900737
 20
256.19
 30
0.0
 11
24.99473224900737
 21
254.19
 31
0.0
  0
LINE
  5
3EA4
330
3197
100
AcDbEntity
  8
APL Border
100
AcDbLine
 10
24.99473224900716
 20
279.6304177948761
 30
0.0
 11
24.99473224900737
 21
282.19
 31
0.0
  0
ENDBLK
  5
3199
330
3197
100
AcDbEntity
  8
0
100
AcDbBlockEnd
  0
BLOCK
  5
33DE
330
33DD
100
AcDbEntity
  8
0
100
AcDbBlockBegin
  2
08028
 70
     0
 10
0.0
 20
0.0
 30
0.0
  3
08028
  1
08028.dwg
  0
LWPOLYLINE
  5
4239
102
{ACAD_REACTORS
330
423A
102
}
330
33DD
100
AcDbEntity
  8
APL Joinery
  6
Continuous
100
AcDbPolyline
 90
       92
 70
     1
 43
0.0
 10
-5.976415094339434
 20
-19.24503062088344
 42
-0.287591224463355
 10
-5.207749183960693
 20
-22.82911392405058
 42
0.5204832016756236
 10
-4.737857761346282
 20
-23.49999999999997
 10
-3.000000000000005
 20
-23.49999999999997
 42
0.4142135623730951
 10
-2.000000000000005
 20
-22.49999999999997
 10
-2.000000000000002
 20
-8.499999999999971
 42
0.4142135623730951
 10
-4.000000000000001
 20
-6.49999999999997
 10
-29.5
 20
-6.499999999999964
 42
-0.9999999999999998
 10
-29.5
 20
-5.499999999999964
 10
-27.0
 20
-5.499999999999965
 42
0.4142135623730784
 10
-26.5
 20
-4.999999999999993
 10
-26.5
 20
-3.199999999999811
 42
0.4142135623730951
 10
-27.0
 20
-2.699999999999811
 10
-33.30000000000018
 20
-2.69999999999981
 10
-33.30000000000018
 20
-1.999999999999991
 10
-46.5
 20
-1.999999999999988
 10
-46.5
 20
-4.999999999999988
 10
-45.75
 20
-4.999999999999988
 42
-0.474497867808111
 10
-45.50505102572174
 20
-5.299999999999966
 42
-0.3563939586925968
 10
-46.97474487139152
 20
-6.49999999999996
 10
-47.75
 20
-6.49999999999996
 42
-0.4142135623730951
 10
-48.0
 20
-6.24999999999996
 10
-48.0
 20
-0.2499999999999883
 42
-0.4142135623730951
 10
-47.75
 20
0.0000000000000117
 10
-43.26214223865463
 20
0.0000000000000106
 42
0.52048320167551
 10
-42.79225081604022
 20
0.6708860759492989
 42
-0.0095012459315703
 10
-42.83470979081903
 20
0.7949257892927483
 42
0.3258489490147197
 10
-43.31075468803908
 20
1.142016483393273
 10
-44.04999999999972
 20
1.142016483393217
 42
-0.4142135623730868
 10
-45.24999999999977
 20
2.342016483393206
 10
-45.25
 20
4.766025403784635
 10
-45.75
 20
4.766025403784635
 42
-0.5773502691898991
 10
-45.96650635094613
 20
5.141025403784635
 10
-44.98301270189221
 20
6.84448637286734
 42
-0.7673269879789692
 10
-44.05000000000018
 20
6.594486372867333
 10
-44.05000000000018
 20
2.942016483393222
 42
0.8720293134168585
 10
-42.87222222222204
 20
2.780236263631226
 42
-0.1252289701624561
 10
-42.02358490566029
 20
4.254969379117072
 42
-0.9999999999999895
 10
-40.87641509433956
 20
3.13962126126575
 42
2.366997536943132
 10
-38.22358490566058
 20
3.139621261265705
 42
-1.00000000000009
 10
-37.07641509433988
 20
4.254969379116912
 42
-0.2875912244633857
 10
-36.30774918396105
 20
0.6708860759492619
 42
0.5204832016756226
 10
-35.83785776134664
 20
0.0000000000000088
 10
-31.30000000000018
 20
0.0000000000000077
 10
-31.30000000000018
 20
-0.6999999999998105
 10
-28.09878030638447
 20
-0.6999999999998112
 42
0.5279300905751231
 10
-27.63300981702265
 20
-0.0181818181814769
 42
-0.2940492359103537
 10
-26.79499999999995
 20
4.119921873877713
 42
-0.9999999999999998
 10
-25.50500000000059
 20
2.864573316703526
 42
2.368487253623623
 10
-22.49500000000001
 20
2.864573316703207
 42
-1.0
 10
-21.20499999999947
 20
4.119921873878044
 42
-0.6632671881071854
 10
-24.00000000000046
 20
-2.500000000000363
 42
0.4142135623730783
 10
-24.50000000000091
 20
-3.000000000000448
 10
-24.5
 20
-3.999999999999993
 42
0.4142135623730951
 10
-24.0
 20
-4.499999999999993
 10
-2.0
 20
-4.499999999999999
 10
-2.0
 20
-1.999999999999999
 10
-2.749999999999545
 20
-2.000000000000027
 42
-0.4142135623730784
 10
-3.94999999999959
 20
-0.8000000000000671
 10
-3.949999999999816
 20
6.594486372867323
 42
-0.7673269879789694
 10
-3.016987298107776
 20
6.844486372867323
 10
-2.033493649053863
 20
5.141025403784622
 42
-0.5773502691898991
 10
-2.249999999999998
 20
4.766025403784625
 10
-2.749999999999998
 20
4.766025403784625
 10
-2.75
 20
0.2500000000000007
 42
0.4142135623730951
 10
-2.5
 20
0.0000000000000006
 10
-0.5000000000000001
 20
0.0000000000000001
 42
-0.4142135623730951
 10
-0.0000000000000001
 20
-0.5
 10
-0.0000000000000061
 20
-24.99999999999997
 42
-0.4142135623730951
 10
-0.5000000000000063
 20
-25.49999999999997
 10
-15.05000000000019
 20
-25.49999999999997
 42
-0.4142135623730951
 10
-15.30000000000019
 20
-25.24999999999997
 10
-15.30000000000019
 20
-23.49999999999997
 10
-16.75
 20
-23.49999999999997
 42
-0.4142135623730951
 10
-17.00000000000001
 20
-23.24999999999997
 10
-17.0
 20
-21.44999999999979
 42
-0.9999999999999998
 10
-16.0
 20
-21.44999999999979
 10
-16.0
 20
-22.19999999999979
 10
-14.5
 20
-22.19999999999979
 10
-14.5
 20
-16.69999999999978
 10
-16.0
 20
-16.69999999999978
 10
-16.0
 20
-17.44999999999978
 42
-0.9999999999999998
 10
-17.0
 20
-17.44999999999978
 10
-17.0
 20
-16.40000000000006
 42
-0.4142135623730951
 10
-16.0
 20
-15.40000000000006
 10
-14.0
 20
-15.40000000000006
 42
-0.4142135623730951
 10
-13.0
 20
-16.40000000000006
 10
-13.00000000000057
 20
-20.75557280899918
 42
0.8944271909998311
 10
-11.81481481481455
 20
-20.8880805409991
 42
-0.1380297893446718
 10
-10.92358490565993
 20
-19.24503062088315
 42
-0.9999999999999996
 10
-9.776415094339409
 20
-20.36037873873437
 42
2.366997536942965
 10
-7.12358490565999
 20
-20.36037873873451
 42
-1.00000000000009
  0
HATCH
  5
423A
330
33DD
100
AcDbEntity
  8
APL Hatch
100
AcDbHatch
 10
0.0
 20
0.0
 30
0.0
210
0.0
220
0.0
230
1.0
  2
SOLID
 70
     1
 71
     1
 91
        1
 92
        1
 93
       92
 72
     2
 10
-8.449999999999619
 20
-21.64999999999956
 40
3.44999999999943
 50
315.8057962770766
 51
379.9848799707327
 73
     0
 72
     2
 10
-4.737857761346287
 20
-22.99999999999999
 40
0.4999999999999798
 50
160.0151200292709
 51
270.0000000000006
 73
     1
 72
     1
 10
-4.737857761346282
 20
-23.49999999999997
 11
-3.000000000000005
 21
-23.49999999999997
 72
     2
 10
-3.000000000000005
 20
-22.49999999999997
 40
1.0
 50
270.0
 51
360.0
 73
     1
 72
     1
 10
-2.000000000000005
 20
-22.49999999999997
 11
-2.000000000000002
 21
-8.499999999999971
 72
     2
 10
-4.000000000000001
 20
-8.499999999999971
 40
1.999999999999999
 50
0.0
 51
90.0
 73
     1
 72
     1
 10
-4.000000000000001
 20
-6.49999999999997
 11
-29.5
 21
-6.499999999999964
 72
     2
 10
-29.5
 20
-5.999999999999964
 40
0.5
 50
90.0
 51
270.0
 73
     0
 72
     1
 10
-29.5
 20
-5.499999999999964
 11
-27.0
 21
-5.499999999999965
 72
     2
 10
-27.0
 20
-4.999999999999965
 40
0.5
 50
270.0
 51
359.9999999999968
 73
     1
 72
     1
 10
-26.5
 20
-4.999999999999993
 11
-26.5
 21
-3.199999999999811
 72
     2
 10
-27.0
 20
-3.199999999999811
 40
0.5
 50
0.0
 51
90.0
 73
     1
 72
     1
 10
-27.0
 20
-2.699999999999811
 11
-33.30000000000018
 21
-2.69999999999981
 72
     1
 10
-33.30000000000018
 20
-2.69999999999981
 11
-33.30000000000018
 21
-1.999999999999991
 72
     1
 10
-33.30000000000018
 20
-1.999999999999991
 11
-46.5
 21
-1.999999999999988
 72
     1
 10
-46.5
 20
-1.999999999999988
 11
-46.5
 21
-4.999999999999988
 72
     1
 10
-46.5
 20
-4.999999999999988
 11
-45.75
 21
-4.999999999999988
 72
     2
 10
-45.75000000000001
 20
-5.249999999999943
 40
0.2499999999999547
 50
270.0000000000017
 51
371.536959032823
 73
     0
 72
     2
 10
-46.97474487139159
 20
-5.000000000000027
 40
1.499999999999933
 50
11.53695903281361
 51
89.99999999999729
 73
     0
 72
     1
 10
-46.97474487139152
 20
-6.49999999999996
 11
-47.75
 21
-6.49999999999996
 72
     2
 10
-47.75
 20
-6.24999999999996
 40
0.25
 50
90.0
 51
180.0
 73
     0
 72
     1
 10
-48.0
 20
-6.24999999999996
 11
-48.0
 21
-0.2499999999999884
 72
     2
 10
-47.75
 20
-0.2499999999999883
 40
0.25
 50
180.0
 51
270.0
 73
     0
 72
     1
 10
-47.75
 20
0.0000000000000117
 11
-43.26214223865463
 21
0.0000000000000106
 72
     2
 10
-43.26214223865468
 20
0.4999999999999995
 40
0.4999999999999889
 50
270.0000000000057
 51
379.9848799707145
 73
     1
 72
     2
 10
-39.55000000000288
 20
1.849999999991814
 40
3.449999999995035
 50
160.015120029391
 51
162.1925796765199
 73
     0
 72
     2
 10
-43.31075468803919
 20
0.6420164833932662
 40
0.5000000000000102
 50
17.80742032358159
 51
89.99999999998779
 73
     1
 72
     1
 10
-43.31075468803908
 20
1.142016483393273
 11
-44.04999999999972
 21
1.142016483393217
 72
     2
 10
-44.04999999999974
 20
2.342016483393251
 40
1.200000000000034
 50
89.99999999999934
 51
179.9999999999978
 73
     0
 72
     1
 10
-45.24999999999977
 20
2.342016483393206
 11
-45.25
 21
4.766025403784635
 72
     1
 10
-45.25
 20
4.766025403784635
 11
-45.75
 21
4.766025403784635
 72
     2
 10
-45.75000000000011
 20
5.016025403784583
 40
0.2499999999999476
 50
89.99999999997395
 51
210.0000000000207
 73
     0
 72
     1
 10
-45.96650635094613
 20
5.141025403784635
 11
-44.98301270189221
 21
6.84448637286734
 72
     2
 10
-44.55000000000008
 20
6.594486372867367
 40
0.4999999999999046
 50
210.0000000000028
 51
360.0000000000039
 73
     0
 72
     1
 10
-44.05000000000018
 20
6.594486372867333
 11
-44.05000000000018
 21
2.942016483393222
 72
     2
 10
-43.44999999999997
 20
2.942016483393233
 40
0.6000000000002075
 50
180.0000000000011
 51
344.3575289869845
 73
     1
 72
     2
 10
-39.55000000000012
 20
1.850000000000288
 40
3.449999999999888
 50
195.642471013011
 51
224.1942037229315
 73
     0
 72
     2
 10
-41.44999999999994
 20
3.697295320191405
 40
0.8000000000000159
 50
224.1942037229321
 51
404.1942037229308
 73
     0
 72
     2
 10
-39.5500000000001
 20
1.850000000000012
 40
1.850000000000062
 50
135.8057962770628
 51
404.1942037229352
 73
     1
 72
     2
 10
-37.65000000000028
 20
3.697295320191361
 40
0.7999999999999674
 50
135.8057962770656
 51
315.8057962770763
 73
     0
 72
     2
 10
-39.55000000000007
 20
1.850000000000544
 40
3.449999999999608
 50
315.8057962770736
 51
379.9848799707363
 73
     0
 72
     2
 10
-35.83785776134669
 20
0.499999999999918
 40
0.499999999999912
 50
160.0151200292767
 51
270.0000000000057
 73
     1
 72
     1
 10
-35.83785776134664
 20
0.0000000000000088
 11
-31.30000000000018
 21
0.0000000000000077
 72
     1
 10
-31.30000000000018
 20
0.0000000000000077
 11
-31.30000000000018
 21
-0.6999999999998105
 72
     1
 10
-31.30000000000018
 20
-0.6999999999998105
 11
-28.09878030638447
 21
-0.6999999999998112
 72
     2
 10
-28.09878030638444
 20
-0.1999999999997827
 40
0.5000000000000285
 50
269.9999999999959
 51
381.323686263512
 73
     1
 72
     2
 10
-24.00000000000038
 20
1.399999999999434
 40
3.899999999999888
 50
158.6763137365157
 51
224.2200444276908
 73
     0
 72
     2
 10
-26.15000000000027
 20
3.492247595290619
 40
0.8999999999996774
 50
224.2200444276912
 51
404.2200444276912
 73
     0
 72
     2
 10
-24.00000000000045
 20
1.399999999999537
 40
2.100000000000411
 50
135.7799555723103
 51
404.2200444276775
 73
     1
 72
     2
 10
-21.84999999999974
 20
3.492247595290626
 40
0.9000000000003216
 50
135.7799555723198
 51
315.77995557232
 73
     0
 72
     2
 10
-23.99999999999979
 20
1.399999999999939
 40
3.900000000000304
 50
315.7799555723188
 51
450.0000000000097
 73
     0
 72
     2
 10
-24.00000000000062
 20
-3.000000000000647
 40
0.5000000000002838
 50
89.99999999998046
 51
179.9999999999772
 73
     1
 72
     1
 10
-24.50000000000091
 20
-3.000000000000448
 11
-24.5
 21
-3.999999999999993
 72
     2
 10
-24.0
 20
-3.999999999999993
 40
0.5
 50
180.0
 51
270.0
 73
     1
 72
     1
 10
-24.0
 20
-4.499999999999993
 11
-2.0
 21
-4.499999999999999
 72
     1
 10
-2.0
 20
-4.499999999999999
 11
-2.0
 21
-1.999999999999999
 72
     1
 10
-2.0
 20
-1.999999999999999
 11
-2.749999999999545
 21
-2.000000000000027
 72
     2
 10
-2.749999999999553
 20
-0.7999999999999908
 40
1.200000000000036
 50
89.99999999999959
 51
179.9999999999963
 73
     0
 72
     1
 10
-3.94999999999959
 20
-0.8000000000000671
 11
-3.949999999999816
 21
6.594486372867323
 72
     2
 10
-3.449999999999907
 20
6.594486372867352
 40
0.4999999999999086
 50
179.9999999999966
 51
329.9999999999978
 73
     0
 72
     1
 10
-3.016987298107776
 20
6.844486372867323
 11
-2.033493649053863
 21
5.141025403784622
 72
     2
 10
-2.249999999999883
 20
5.016025403784571
 40
0.249999999999947
 50
329.9999999999796
 51
450.0000000000264
 73
     0
 72
     1
 10
-2.249999999999998
 20
4.766025403784625
 11
-2.749999999999998
 21
4.766025403784625
 72
     1
 10
-2.749999999999998
 20
4.766025403784625
 11
-2.75
 21
0.2500000000000009
 72
     2
 10
-2.5
 20
0.2500000000000007
 40
0.25
 50
180.0
 51
270.0
 73
     1
 72
     1
 10
-2.5
 20
0.0000000000000006
 11
-0.5
 21
0.0000000000000001
 72
     2
 10
-0.5000000000000002
 20
-0.5
 40
0.5000000000000001
 50
270.0
 51
360.0
 73
     0
 72
     1
 10
-0.0000000000000001
 20
-0.5
 11
-0.0000000000000061
 21
-24.99999999999997
 72
     2
 10
-0.5000000000000063
 20
-24.99999999999997
 40
0.5000000000000001
 50
360.0
 51
450.0
 73
     0
 72
     1
 10
-0.5000000000000063
 20
-25.49999999999997
 11
-15.05000000000019
 21
-25.49999999999997
 72
     2
 10
-15.05000000000019
 20
-25.24999999999997
 40
0.2499999999999964
 50
90.0
 51
180.0000000000008
 73
     0
 72
     1
 10
-15.30000000000019
 20
-25.24999999999997
 11
-15.30000000000019
 21
-23.49999999999997
 72
     1
 10
-15.30000000000019
 20
-23.49999999999997
 11
-16.75
 21
-23.49999999999997
 72
     2
 10
-16.75
 20
-23.24999999999997
 40
0.25
 50
90.0
 51
180.0
 73
     0
 72
     1
 10
-17.00000000000001
 20
-23.24999999999997
 11
-17.0
 21
-21.44999999999979
 72
     2
 10
-16.5
 20
-21.44999999999979
 40
0.5
 50
180.0
 51
360.0
 73
     0
 72
     1
 10
-16.0
 20
-21.44999999999979
 11
-16.0
 21
-22.19999999999979
 72
     1
 10
-16.0
 20
-22.19999999999979
 11
-14.5
 21
-22.19999999999979
 72
     1
 10
-14.5
 20
-22.19999999999979
 11
-14.5
 21
-16.69999999999978
 72
     1
 10
-14.5
 20
-16.69999999999978
 11
-16.0
 21
-16.69999999999978
 72
     1
 10
-16.0
 20
-16.69999999999978
 11
-16.0
 21
-17.44999999999978
 72
     2
 10
-16.5
 20
-17.44999999999978
 40
0.5
 50
360.0
 51
540.0
 73
     0
 72
     1
 10
-17.0
 20
-17.44999999999978
 11
-17.0
 21
-16.40000000000006
 72
     2
 10
-16.0
 20
-16.40000000000006
 40
1.0
 50
180.0
 51
270.0
 73
     0
 72
     1
 10
-16.0
 20
-15.40000000000006
 11
-14.0
 21
-15.40000000000006
 72
     2
 10
-14.0
 20
-16.40000000000006
 40
1.0
 50
270.0
 51
360.0
 73
     0
 72
     1
 10
-13.0
 20
-16.40000000000006
 11
-13.00000000000057
 21
-20.75557280899918
 72
     2
 10
-12.40000000000015
 20
-20.75557280899904
 40
0.6000000000004225
 50
180.0000000000132
 51
347.241259583117
 73
     1
 72
     2
 10
-8.449999999999906
 20
-21.65000000000047
 40
3.450000000000153
 50
192.7587404169097
 51
224.1942037229396
 73
     0
 72
     2
 10
-10.34999999999967
 20
-19.80270467980876
 40
0.7999999999999087
 50
224.1942037229339
 51
404.1942037229337
 73
     0
 72
     2
 10
-8.449999999999768
 20
-21.65000000000024
 40
1.850000000000269
 50
135.8057962770636
 51
404.1942037229302
 73
     1
 72
     2
 10
-6.549999999999763
 20
-19.80270467980892
 40
0.7999999999998677
 50
135.8057962770657
 51
315.8057962770761
 73
     0
 97
        1
330
4239
 75
     0
 76
     1
 98
        1
 10
0.0
 20
0.0
  0
ENDBLK
  5
33DF
330
33DD
100
AcDbEntity
  8
0
100
AcDbBlockEnd
  0
BLOCK
  5
3403
330
33FD
100
AcDbEntity
  8
0
100
AcDbBlockBegin
  2
6Glass
 70
     0
 10
0.0
 20
0.0
 30
0.0
  3
6Glass
  1

  0
LINE
  5
33FE
330
33FD
100
AcDbEntity
  8
APL Joinery
 62
     7
100
AcDbLine
 10
-6.499999999999943
 20
12.99999999999983
 30
0.0
 11
-6.499999999999943
 21
-7.00000000000017
 31
0.0
  0
LINE
  5
33FF
330
33FD
100
AcDbEntity
  8
APL Joinery
 62
     7
100
AcDbLine
 10
-12.49999999999994
 20
12.99999999999983
 30
0.0
 11
-6.499999999999943
 21
12.99999999999983
 31
0.0
  0
LINE
  5
3400
330
33FD
100
AcDbEntity
  8
APL Joinery
 62
     8
100
AcDbLine
 10
-8.499999999999943
 20
12.99999999999983
 30
0.0
 11
-8.499999999999943
 21
-7.00000000000017
 31
0.0
  0
LINE
  5
3401
330
33FD
100
AcDbEntity
  8
APL Joinery
 62
     7
100
AcDbLine
 10
-12.49999999999994
 20
12.99999999999983
 30
0.0
 11
-12.49999999999994
 21
-7.00000000000017
 31
0.0
  0
LINE
  5
3402
330
33FD
100
AcDbEntity
  8
APL Joinery
 62
     8
100
AcDbLine
 10
-10.49999999999994
 20
12.99999999999983
 30
0.0
 11
-10.49999999999994
 21
-7.00000000000017
 31
0.0
  0
ENDBLK
  5
3404
330
33FD
100
AcDbEntity
  8
0
100
AcDbBlockEnd
  0
BLOCK
  5
35D6
330
35D5
100
AcDbEntity
  8
0
100
AcDbBlockBegin
  2
08024
 70
     0
 10
0.0
 20
0.0
 30
0.0
  3
08024
  1
08024.dwg
  0
LWPOLYLINE
  5
423C
102
{ACAD_REACTORS
330
423D
102
}
330
35D5
100
AcDbEntity
  8
APL Joinery
  6
Continuous
100
AcDbPolyline
 90
       40
 70
     1
 43
0.0
 10
2.073223304703276
 20
-2.133883476492311
 10
3.173223304703242
 20
-3.233883476489548
 42
0.6681786379193478
 10
3.600000000000306
 20
-3.057106781193393
 10
3.600000000000306
 20
-1.100000000000189
 10
15.90999999999866
 20
-1.100000000000417
 42
-0.4142135623730951
 10
16.40999999999862
 20
-1.600000000000431
 42
0.414213562373195
 10
17.50999999999857
 20
-2.6999999999997
 10
18.65004950616254
 20
-2.699999999999729
 42
3.927182716063912
 10
18.65004950616316
 20
-1.59999999999945
 10
17.50999999999868
 20
-1.600000000000814
 42
0.414213562372829
 10
15.90999999999889
 20
-0.0000000000007923
 10
4.699999999999988
 20
-0.0000000000002238
 10
4.700000000000038
 20
0.0198364968875957
 42
0.3814371313442931
 10
3.72424057796347
 20
1.112797739927518
 42
-0.3886847959560829
 10
1.950769923104132
 20
3.150488954916941
 10
1.950769923104083
 20
7.900002040453632
 42
-0.4142135623730937
 10
2.950769923104069
 20
8.900002040453646
 10
3.750039940743285
 20
8.900002040453674
 42
0.4142135623730951
 10
4.000039940743285
 20
9.150002040453674
 10
4.000039940743285
 20
10.95000204045366
 42
0.9999999999999998
 10
3.000039940743285
 20
10.95000204045366
 10
3.000039940743285
 20
10.20000204045365
 10
1.500039940743171
 20
10.20000204045365
 10
1.500039940743171
 20
15.70000204045365
 10
3.000039940743285
 20
15.70000204045365
 10
3.000039940743285
 20
14.95000204045366
 42
0.9999999999999998
 10
4.000039940743285
 20
14.95000204045366
 10
4.000039940743285
 20
16.75000204045367
 42
0.4142135623730951
 10
3.750039940743285
 20
17.00000204045367
 10
2.300039940743239
 20
17.00000204045367
 10
2.300039940743239
 20
18.75000204045367
 42
0.4142135623730951
 10
2.050039940743239
 20
19.00000204045367
 10
0.2500000000000071
 20
19.00000204045365
 42
0.414213562373094
 10
0.000000000000008
 20
18.75000204045365
 10
0.0
 20
0.287867965644697
 42
0.4142135623730951
 10
0.2878679656441249
 20
0.0000000000001172
 10
2.249999999999943
 20
0.000000000000913
 42
-0.4142135623730951
 10
2.499999999999943
 20
-0.2499999999990869
 10
2.499999999999943
 20
-1.353553390602424
 10
2.073223304703738
 20
-1.780330085899489
 42
0.4142135623730831
  0
HATCH
  5
423D
330
35D5
100
AcDbEntity
  8
APL Hatch
100
AcDbHatch
 10
0.0
 20
0.0
 30
0.0
210
0.0
220
0.0
230
1.0
  2
SOLID
 70
     1
 71
     1
 91
        1
 92
        1
 93
       40
 72
     1
 10
2.073223304703276
 20
-2.133883476492311
 11
3.173223304703242
 21
-3.233883476489548
 72
     2
 10
3.350000000000199
 20
-3.05710678119308
 40
0.2500000000001072
 50
224.9999999999206
 51
359.9999999999283
 73
     1
 72
     1
 10
3.600000000000306
 20
-3.057106781193393
 11
3.600000000000306
 21
-1.100000000000189
 72
     1
 10
3.600000000000306
 20
-1.100000000000189
 11
15.90999999999866
 21
-1.100000000000417
 72
     2
 10
15.90999999999863
 20
-1.600000000000402
 40
0.4999999999999858
 50
270.0000000000033
 51
360.0000000000032
 73
     0
 72
     2
 10
17.50999999999804
 20
-1.600000000000277
 40
1.099999999999422
 50
180.000000000008
 51
270.0000000000276
 73
     1
 72
     1
 10
17.50999999999857
 20
-2.6999999999997
 11
18.65004950616254
 21
-2.699999999999729
 72
     2
 10
19.65999999999875
 20
-2.15000000000015
 40
1.149999999999797
 50
208.5718781422904
 51
511.428121857646
 73
     1
 72
     1
 10
18.65004950616316
 20
-1.59999999999945
 11
17.50999999999868
 21
-1.600000000000814
 72
     2
 10
15.90999999999804
 20
-1.600000000001428
 40
1.600000000000635
 50
0.0000000000219538
 51
89.99999999996992
 73
     1
 72
     1
 10
15.90999999999889
 20
-0.0000000000007923
 11
4.699999999999988
 21
-0.0000000000002238
 72
     1
 10
4.699999999999988
 20
-0.0000000000002238
 11
4.700000000000038
 21
0.0198364968875957
 72
     2
 10
3.600000000000025
 20
0.0198364968876124
 40
1.100000000000012
 50
359.9999999999992
 51
443.514833546125
 73
     1
 72
     2
 10
3.950132537897039
 20
3.10000000000008
 40
2.000000000000031
 50
96.48516645387577
 51
181.4465556865123
 73
     0
 72
     1
 10
1.950769923104132
 20
3.150488954916941
 11
1.950769923104083
 21
7.900002040453632
 72
     2
 10
2.950769923104085
 20
7.900002040453643
 40
1.000000000000002
 50
179.9999999999993
 51
269.9999999999991
 73
     0
 72
     1
 10
2.950769923104069
 20
8.900002040453646
 11
3.750039940743285
 21
8.900002040453674
 72
     2
 10
3.750039940743285
 20
9.150002040453674
 40
0.25
 50
270.0
 51
360.0
 73
     1
 72
     1
 10
4.000039940743285
 20
9.150002040453674
 11
4.000039940743285
 21
10.95000204045366
 72
     2
 10
3.500039940743285
 20
10.95000204045366
 40
0.5
 50
0.0
 51
180.0
 73
     1
 72
     1
 10
3.000039940743285
 20
10.95000204045366
 11
3.000039940743285
 21
10.20000204045365
 72
     1
 10
3.000039940743285
 20
10.20000204045365
 11
1.500039940743171
 21
10.20000204045365
 72
     1
 10
1.500039940743171
 20
10.20000204045365
 11
1.500039940743171
 21
15.70000204045365
 72
     1
 10
1.500039940743171
 20
15.70000204045365
 11
3.000039940743285
 21
15.70000204045365
 72
     1
 10
3.000039940743285
 20
15.70000204045365
 11
3.000039940743285
 21
14.95000204045366
 72
     2
 10
3.500039940743285
 20
14.95000204045366
 40
0.5
 50
180.0
 51
360.0
 73
     1
 72
     1
 10
4.000039940743285
 20
14.95000204045366
 11
4.000039940743285
 21
16.75000204045367
 72
     2
 10
3.750039940743285
 20
16.75000204045367
 40
0.25
 50
0.0
 51
90.0
 73
     1
 72
     1
 10
3.750039940743285
 20
17.00000204045367
 11
2.300039940743239
 21
17.00000204045367
 72
     1
 10
2.300039940743239
 20
17.00000204045367
 11
2.300039940743239
 21
18.75000204045367
 72
     2
 10
2.050039940743239
 20
18.75000204045367
 40
0.25
 50
0.0
 51
90.0
 73
     1
 72
     1
 10
2.050039940743239
 20
19.00000204045367
 11
0.2500000000000071
 21
19.00000204045365
 72
     2
 10
0.250000000000008
 20
18.75000204045365
 40
0.25
 50
90.00000000000019
 51
180.0
 73
     1
 72
     1
 10
0.000000000000008
 20
18.75000204045365
 11
0.0
 21
0.287867965644697
 72
     2
 10
0.2878679656443523
 20
0.2878679656444695
 40
0.2878679656443523
 50
179.9999999999547
 51
269.9999999999548
 73
     1
 72
     1
 10
0.2878679656441249
 20
0.0000000000001172
 11
2.249999999999943
 21
0.000000000000913
 72
     2
 10
2.249999999999943
 20
-0.2499999999990869
 40
0.25
 50
270.0
 51
360.0
 73
     0
 72
     1
 10
2.499999999999943
 20
-0.2499999999990869
 11
2.499999999999943
 21
-1.353553390602424
 72
     1
 10
2.499999999999943
 20
-1.353553390602424
 11
2.073223304703738
 21
-1.780330085899489
 72
     2
 10
2.249999999999925
 20
-1.957106781196131
 40
0.2499999999996855
 50
134.9999999999263
 51
224.999999999924
 73
     1
 97
        1
330
423C
 75
     0
 76
     1
 98
        1
 10
0.0
 20
0.0
  0
ENDBLK
  5
35D7
330
35D5
100
AcDbEntity
  8
0
100
AcDbBlockEnd
  0
BLOCK
  5
35DF
330
35DE
100
AcDbEntity
  8
0
100
AcDbBlockBegin
  2
9010250l
 70
     0
 10
121.7743665915091
 20
118.4609762649905
 30
0.0
  3
9010250l
  1
9010250l.dwg
  0
LWPOLYLINE
  5
4240
330
35DE
100
AcDbEntity
  8
APL Joinery
  6
Continuous
 62
   252
100
AcDbPolyline
 90
       35
 70
   129
 43
0.0
 10
128.2214041892004
 20
113.237162025908
 42
0.4340964952257526
 10
127.8564264353586
 20
113.2516672307586
 42
-0.1536145893906839
 10
126.1665848234194
 20
112.3836279395214
 42
-0.4648333009751577
 10
125.8743665871533
 20
112.6300373965773
 10
125.8743665871533
 20
113.8094047359767
 42
-0.2915390373815183
 10
126.1631670868723
 20
114.2626097349353
 42
0.122912838877769
 10
128.3370962921861
 20
116.0230618678046
 42
0.3152263475814818
 10
128.3643015296608
 20
116.8050726870086
 10
128.3054542116656
 20
116.895689610204
 42
0.3630140704661038
 10
127.9375672903661
 20
117.0088437804028
 42
-0.1219902707494916
 10
126.1935750224063
 20
116.0026940736885
 42
-0.4989702342470917
 10
125.8743665871533
 20
116.2429235316861
 10
125.8743665871534
 20
117.2881686513476
 42
-0.3136800272017972
 10
126.2005910348754
 20
117.7569991723576
 42
0.1785411124350255
 10
128.4109533989318
 20
119.6504102703136
 42
0.1279718777770435
 10
128.4743665871533
 20
119.8941149189789
 10
128.4743665871533
 20
121.1878456480732
 42
0.4607623830565047
 10
128.1854567012142
 20
121.4347991270448
 10
121.9854567055696
 20
120.4579297439621
 42
0.3941429072290372
 10
121.7753179169858
 20
120.1891873293035
 10
121.9265167932934
 20
118.4609762649903
 10
123.4743665871533
 20
118.4609762649903
 10
123.4743665871533
 20
115.5609762649902
 10
122.9743665871533
 20
115.5609762649902
 42
0.5486826681767417
 10
122.7478103958356
 20
115.2052772007768
 10
123.9743665871533
 20
112.5762671786926
 10
123.9743665871533
 20
112.0965836934555
 10
123.710969127532
 20
112.0965836934555
 42
0.5773502691896264
 10
123.5060653169642
 20
111.7416798828875
 10
124.600199612073
 20
109.8465836934555
 42
0.2487009021145858
 10
124.997156080752
 20
109.597885439953
 42
0.3109226116934106
 10
125.8972608716131
 20
110.2877394163853
 42
-0.2088596723963019
 10
126.1629196373118
 20
110.5871267326566
 42
0.1426663047989766
 10
128.4040654372803
 20
112.5394783919284
 42
0.3321417186747404
 10
128.3666167137426
 20
113.0688908313857
  0
ENDBLK
  5
35E0
330
35DE
100
AcDbEntity
  8
0
100
AcDbBlockEnd
  0
BLOCK
  5
35E8
330
35E3
100
AcDbEntity
  8
0
100
AcDbBlockBegin
  2
20mm igu
 70
     0
 10
0.0
 20
0.0
 30
0.0
  3
20mm igu
  1

  0
LINE
  5
35E4
330
35E3
100
AcDbEntity
  8
APL Joinery
 62
     7
100
AcDbLine
 10
-10.29999999999995
 20
6.000000000000028
 30
0.0
 11
-18.29999999999995
 21
6.000000000000028
 31
0.0
  0
LINE
  5
35E5
330
35E3
100
AcDbEntity
  8
APL Joinery
 62
     7
100
AcDbLine
 10
-10.29999999999995
 20
12.00000000000003
 30
0.0
 11
-18.29999999999995
 21
12.00000000000003
 31
0.0
  0
INSERT
  5
35E6
330
35E3
100
AcDbEntity
  8
APL Joinery
100
AcDbBlockReference
  2
6Glass
 10
-30.7999999999999
 20
18.9999999999998
 30
0.0
 50
180.0
  0
INSERT
  5
35E7
330
35E3
100
AcDbEntity
  8
APL Joinery
100
AcDbBlockReference
  2
6Glass
 10
-16.7999999999999
 20
18.9999999999998
 30
0.0
 50
180.0
  0
ENDBLK
  5
35E9
330
35E3
100
AcDbEntity
  8
0
100
AcDbBlockEnd
  0
BLOCK
  5
35EF
330
35EA
100
AcDbEntity
  8
0
100
AcDbBlockBegin
  2
08024glaze
 70
     0
 10
0.0
 20
0.0
 30
0.0
  3
08024glaze
  1

  0
INSERT
  5
3D5F
330
35EA
100
AcDbEntity
  8
APL Joinery
100
AcDbBlockReference
  2
20mm igu
 10
-0.0000000000000568
 20
33.30003994509855
 30
0.0
 41
-1.0
 50
270.0
1001
AcDbBlockRepETag
1070
     1
1071
        0
1005
3D5F
  0
INSERT
  5
3D60
330
35EA
100
AcDbEntity
  8
APL Joinery
100
AcDbBlockReference
  2
08024
 10
0.0
 20
0.0
 30
0.0
 41
-1.0
 50
270.0
1001
AcDbBlockRepETag
1070
     1
1071
        1
1005
3D60
  0
INSERT
  5
3D61
330
35EA
100
AcDbEntity
  8
APL Joinery
100
AcDbBlockReference
  2
9010312l
 10
17.00000204045369
 20
32.70000000435557
 30
0.0
 50
270.0
1001
AcDbBlockRepETag
1070
     1
1071
        2
1005
3D61
  0
INSERT
  5
3D62
330
35EA
100
AcDbEntity
  8
APL Joinery
100
AcDbBlockReference
  2
9010250l
 10
17.00000000000011
 20
2.300039945099034
 30
0.0
 41
-1.0
 50
270.0
1001
AcDbBlockRepETag
1070
     1
1071
        3
1005
3D62
  0
ENDBLK
  5
35F0
330
35EA
100
AcDbEntity
  8
0
100
AcDbBlockEnd
  0
BLOCK
  5
3607
330
3606
100
AcDbEntity
  8
0
100
AcDbBlockBegin
  2
08023
 70
     0
 10
0.0
 20
0.0
 30
0.0
  3
08023
  1
08023.dwg
  0
LWPOLYLINE
  5
4243
102
{ACAD_REACTORS
330
4245
102
}
330
3606
100
AcDbEntity
  8
APL Joinery
  6
Continuous
100
AcDbPolyline
 90
       41
 70
     1
 43
0.0
 10
8.467025150934375
 20
13.93400695701261
 42
-0.7673269879789587
 10
9.400037852826599
 20
13.6840069570126
 10
9.400037852826599
 20
3.976504223373503
 42
0.1989123673796221
 10
9.546484462233493
 20
3.622950832780567
 10
15.7229563248094
 20
-2.553521029796428
 42
0.1989123673796955
 10
16.07650971540273
 20
-2.699967639203201
 10
19.05008735898931
 20
-2.699967639203114
 42
3.92718271606404
 10
19.05008735899004
 20
-1.599967639202837
 10
16.32503785282678
 20
-1.599967639202837
 10
10.50003785282696
 20
4.225032360796923
 10
10.50003785282696
 20
8.900032360797617
 10
12.50003785282696
 20
8.900032360797162
 42
0.4142135623730951
 10
13.00003785282696
 20
9.400032360797162
 10
13.00003785282696
 20
10.95003236079734
 42
0.9999999999999998
 10
12.00003785282696
 20
10.95003236079734
 10
12.00003785282696
 20
10.20003236079689
 10
10.50003785282696
 20
10.20003236079734
 10
10.50003785282696
 20
15.70003236079734
 10
12.00003785282696
 20
15.70003236079734
 10
12.00003785282696
 20
14.95003236079734
 42
0.9999999999999998
 10
13.00003785282696
 20
14.95003236079734
 10
13.00003785282696
 20
16.50003236079752
 42
0.4142135623730951
 10
12.50003785282696
 20
17.00003236079752
 10
11.30003785282714
 20
17.00003236079752
 10
11.30003785282692
 20
18.5000323607973
 42
0.4142135623729619
 10
10.80003785282714
 20
19.00003236079707
 10
0.2500378528269636
 20
19.00003236079713
 42
0.4142135623730951
 10
0.0000378528269636
 20
18.75003236079713
 10
0.000037852826793
 20
0.2879003264413598
 42
0.4142135623730603
 10
0.2879058184711454
 20
0.0000323607967858
 10
2.250037852826963
 20
0.000032360797583
 42
-0.4142135623730951
 10
2.500037852826963
 20
-0.249967639202417
 10
2.500037852826963
 20
-1.353521029805754
 10
2.073261157530737
 20
-1.780297725102858
 42
0.4142135623730038
 10
2.073261157530296
 20
-2.133851115695641
 10
3.173261157530177
 20
-3.2338511156929
 42
0.6681786379193122
 10
3.600037852827327
 20
-3.057074420396723
 10
3.600037852827327
 20
0.6000323607970373
 42
0.4142135623730951
 10
3.100037852827327
 20
1.100032360797037
 10
1.923351866820993
 20
1.100032360797523
 42
-0.5773502691894855
 10
1.490339164928982
 20
1.850032360797526
  0
LWPOLYLINE
  5
4244
102
{ACAD_REACTORS
330
4245
102
}
330
3606
100
AcDbEntity
  8
APL Joinery
 48
10.0
100
AcDbPolyline
 90
        6
 70
     1
 43
0.0
 10
1.150037852826955
 20
17.35003236079713
 42
-0.4142135623730919
 10
1.650037852826955
 20
17.85003236079712
 10
8.534012449042165
 20
17.85003236079709
 42
-0.5773502691896273
 10
8.967025150934389
 20
17.10003236079708
 10
2.083050554719065
 20
5.176638602138758
 42
-0.7673269879789613
 10
1.150037852826855
 20
5.426638602138755
  0
HATCH
  5
4245
330
3606
100
AcDbEntity
  8
APL Hatch
 48
10.0
100
AcDbHatch
 10
0.0
 20
0.0
 30
0.0
210
0.0
220
0.0
230
1.0
  2
SOLID
 70
     1
 71
     1
 91
        2
 92
       16
 93
        6
 72
     2
 10
1.650037852826954
 20
17.35003236079712
 40
0.4999999999999992
 50
180.0000000000008
 51
270.0000000000001
 73
     0
 72
     1
 10
1.650037852826955
 20
17.85003236079712
 11
8.534012449042165
 21
17.85003236079709
 72
     2
 10
8.534012449042167
 20
17.35003236079708
 40
0.5000000000000036
 50
269.9999999999998
 51
390.0000000000002
 73
     0
 72
     1
 10
8.967025150934389
 20
17.10003236079708
 11
2.083050554719065
 21
5.176638602138758
 72
     2
 10
1.65003785282685
 20
5.426638602138755
 40
0.4999999999999946
 50
29.99999999999987
 51
180.0
 73
     0
 72
     1
 10
1.150037852826855
 20
5.426638602138755
 11
1.150037852826955
 21
17.35003236079713
 97
        1
330
4244
 92
        1
 93
       41
 72
     2
 10
8.900037852826596
 20
13.6840069570126
 40
0.5000000000000019
 50
210.0000000000001
 51
360.0
 73
     0
 72
     1
 10
9.400037852826599
 20
13.6840069570126
 11
9.400037852826599
 21
3.976504223373503
 72
     2
 10
9.900037852826358
 20
3.976504223373908
 40
0.4999999999997585
 50
180.0000000000465
 51
225.0000000000387
 73
     1
 72
     1
 10
9.546484462233493
 20
3.622950832780567
 11
15.7229563248094
 21
-2.553521029796428
 72
     2
 10
16.07650971540272
 20
-2.199967639203193
 40
0.5000000000000075
 50
224.9999999999929
 51
270.0000000000012
 73
     1
 72
     1
 10
16.07650971540273
 20
-2.699967639203201
 11
19.05008735898931
 21
-2.699967639203114
 72
     2
 10
20.06003785282562
 20
-2.149967639203641
 40
1.149999999999828
 50
208.5718781422836
 51
511.4281218576409
 73
     1
 72
     1
 10
19.05008735899004
 20
-1.599967639202837
 11
16.32503785282678
 21
-1.599967639202837
 72
     1
 10
16.32503785282678
 20
-1.599967639202837
 11
10.50003785282696
 21
4.225032360796923
 72
     1
 10
10.50003785282696
 20
4.225032360796923
 11
10.50003785282696
 21
8.900032360797617
 72
     1
 10
10.50003785282696
 20
8.900032360797617
 11
12.50003785282696
 21
8.900032360797162
 72
     2
 10
12.50003785282696
 20
9.400032360797162
 40
0.5
 50
270.0
 51
360.0
 73
     1
 72
     1
 10
13.00003785282696
 20
9.400032360797162
 11
13.00003785282696
 21
10.95003236079734
 72
     2
 10
12.50003785282696
 20
10.95003236079734
 40
0.5
 50
0.0
 51
180.0
 73
     1
 72
     1
 10
12.00003785282696
 20
10.95003236079734
 11
12.00003785282696
 21
10.20003236079689
 72
     1
 10
12.00003785282696
 20
10.20003236079689
 11
10.50003785282696
 21
10.20003236079734
 72
     1
 10
10.50003785282696
 20
10.20003236079734
 11
10.50003785282696
 21
15.70003236079734
 72
     1
 10
10.50003785282696
 20
15.70003236079734
 11
12.00003785282696
 21
15.70003236079734
 72
     1
 10
12.00003785282696
 20
15.70003236079734
 11
12.00003785282696
 21
14.95003236079734
 72
     2
 10
12.50003785282696
 20
14.95003236079734
 40
0.5
 50
180.0
 51
360.0
 73
     1
 72
     1
 10
13.00003785282696
 20
14.95003236079734
 11
13.00003785282696
 21
16.50003236079752
 72
     2
 10
12.50003785282696
 20
16.50003236079752
 40
0.5
 50
0.0
 51
90.0
 73
     1
 72
     1
 10
12.50003785282696
 20
17.00003236079752
 11
11.30003785282714
 21
17.00003236079752
 72
     1
 10
11.30003785282714
 20
17.00003236079752
 11
11.30003785282692
 21
18.5000323607973
 72
     2
 10
10.80003785282703
 20
18.50003236079718
 40
0.4999999999998864
 50
0.0000000000130276
 51
89.99999999998697
 73
     1
 72
     1
 10
10.80003785282714
 20
19.00003236079707
 11
0.2500378528269636
 21
19.00003236079713
 72
     2
 10
0.2500378528269636
 20
18.75003236079713
 40
0.25
 50
90.0
 51
180.0
 73
     1
 72
     1
 10
0.0000378528269636
 20
18.75003236079713
 11
0.000037852826793
 21
0.2879003264413598
 72
     2
 10
0.2879058184712733
 20
0.2879003264412661
 40
0.2878679656444802
 50
179.9999999999813
 51
269.9999999999745
 73
     1
 72
     1
 10
0.2879058184711454
 20
0.0000323607967858
 11
2.250037852826963
 21
0.000032360797583
 72
     2
 10
2.250037852826963
 20
-0.249967639202417
 40
0.25
 50
270.0
 51
360.0
 73
     0
 72
     1
 10
2.500037852826963
 20
-0.249967639202417
 11
2.500037852826963
 21
-1.353521029805754
 72
     1
 10
2.500037852826963
 20
-1.353521029805754
 11
2.073261157530737
 21
-1.780297725102858
 72
     2
 10
2.250037852826963
 20
-1.95707442039947
 40
0.2499999999996918
 50
134.9999999999375
 51
224.9999999999197
 73
     1
 72
     1
 10
2.073261157530296
 20
-2.133851115695641
 11
3.173261157530177
 21
-3.2338511156929
 72
     2
 10
3.350037852827167
 20
-3.057074420396391
 40
0.2500000000001593
 50
224.9999999999219
 51
359.9999999999239
 73
     1
 72
     1
 10
3.600037852827327
 20
-3.057074420396723
 11
3.600037852827327
 21
0.6000323607970373
 72
     2
 10
3.100037852827327
 20
0.6000323607970373
 40
0.5
 50
0.0
 51
90.0
 73
     1
 72
     1
 10
3.100037852827327
 20
1.100032360797037
 11
1.923351866820993
 21
1.100032360797523
 72
     2
 10
1.923351866821203
 20
1.600032360797525
 40
0.500000000000002
 50
90.00000000002406
 51
210.0
 73
     0
 72
     1
 10
1.490339164928982
 20
1.850032360797526
 11
8.467025150934375
 21
13.93400695701261
 97
        1
330
4243
 75
     0
 76
     1
 98
        1
 10
0.0
 20
0.0
  0
ENDBLK
  5
3608
330
3606
100
AcDbEntity
  8
0
100
AcDbBlockEnd
  0
BLOCK
  5
3610
330
360F
100
AcDbEntity
  8
0
100
AcDbBlockBegin
  2
9010240R
 70
     0
 10
156.1743665915094
 20
318.4609762649905
 30
0.0
  3
9010240R
  1
9010240R.dwg
  0
LWPOLYLINE
  5
4248
330
360F
100
AcDbEntity
  8
APL Joinery
  6
Continuous
 62
   252
100
AcDbPolyline
 90
       30
 70
   129
 43
0.0
 10
152.4743665915094
 20
314.4561557475136
 42
0.2835524870706084
 10
152.3090534442411
 20
314.7242218805875
 42
-0.090264552398502
 10
150.573248584903
 20
316.3445044937532
 42
-0.1613192047802217
 10
150.4743665958649
 20
316.6430079967175
 10
150.4743665958649
 20
317.3876867032266
 42
-0.7182204474982408
 10
150.8335600691301
 20
317.5087546100796
 42
0.1023621877757452
 10
152.17628176657
 20
316.3391728353994
 42
0.5736819561067595
 10
152.4743665915094
 20
316.5134696142469
 10
152.4743665915094
 20
317.4272819212232
 42
0.200745967951675
 10
152.3254176783857
 20
317.7833200293
 10
150.5857936151364
 20
319.4985772006699
 42
-0.1718314268301038
 10
150.4743665958649
 20
319.8132373961948
 10
150.4743665958649
 20
321.0651669139914
 42
-0.4607623830565127
 10
150.763276481804
 20
321.3121203929631
 10
155.9632764774486
 20
320.4579297439622
 42
-0.3941429072290425
 10
156.1734152660324
 20
320.1891873293035
 10
156.0222163897248
 20
318.4609762649903
 10
154.4743665958649
 20
318.4609762649903
 10
154.4743665958649
 20
315.5609762649902
 10
154.9743665958649
 20
315.5609762649902
 42
-0.548682668176752
 10
155.2009227871826
 20
315.2052772007767
 10
153.4995414230077
 20
311.5585232326624
 42
-0.5205046449868807
 10
152.8210219276282
 20
311.4389506414458
 10
152.4743665915094
 20
311.7856059775647
 42
-0.0847796409423466
 10
150.5747444927452
 20
313.5798636206072
 42
-0.1626006128156383
 10
150.4743665958649
 20
313.880366823083
 10
150.4743665958649
 20
314.5348039882088
 42
-0.686801817931351
 10
150.8228211947866
 20
314.668823509395
 42
0.0728137603887274
 10
152.1705608692208
 20
313.554024525722
 42
0.5847457288354972
 10
152.4743665915093
 20
313.7249758989839
  0
ENDBLK
  5
3611
330
360F
100
AcDbEntity
  8
0
100
AcDbBlockEnd
  0
BLOCK
  5
3669
330
3668
100
AcDbEntity
  8
0
100
AcDbBlockBegin
  2
08023glaze
 70
     0
 10
0.0
 20
0.0
 30
0.0
  3
08023glaze
  1

  0
INSERT
  5
3D53
330
3668
100
AcDbEntity
  8
APL Joinery
100
AcDbBlockReference
  2
9010240R
 10
11.30003785718248
 20
17.00000000000003
 30
0.0
 41
-1.0
1001
AcDbBlockRepETag
1070
     1
1071
        0
1005
3D53
  0
INSERT
  5
3D54
330
3668
100
AcDbEntity
  8
APL Joinery
100
AcDbBlockReference
  2
6Glass
 10
29.4998370823434
 20
18.99999999999977
 30
0.0
 41
-1.0
 50
180.0
1001
AcDbBlockRepETag
1070
     1
1071
        1
1005
3D54
  0
INSERT
  5
3D55
330
3668
100
AcDbEntity
  8
APL Joinery
100
AcDbBlockReference
  2
08023
 10
0.0
 20
0.0
 30
0.0
1001
AcDbBlockRepETag
1070
     1
1071
        2
1005
3D55
  0
INSERT
  5
3D56
330
3668
100
AcDbEntity
  8
APL Joinery
100
AcDbBlockReference
  2
9010312l
 10
32.69983708234351
 20
16.99999999999988
 30
0.0
 41
-1.0
1001
AcDbBlockRepETag
1070
     1
1071
        3
1005
3D56
  0
INSERT
  5
3D57
330
3668
100
AcDbEntity
  8
APL Joinery
100
AcDbBlockReference
  2
6Glass
 10
35.49983708234341
 20
18.99999999999977
 30
0.0
 41
-1.0
 50
180.0
1001
AcDbBlockRepETag
1070
     1
1071
        4
1005
3D57
  0
ENDBLK
  5
366A
330
3668
100
AcDbEntity
  8
0
100
AcDbBlockEnd
  0
BLOCK
  5
36C5
330
36C4
100
AcDbEntity
  8
0
100
AcDbBlockBegin
  2
08061
 70
     0
 10
0.0
 20
0.0
 30
0.0
  3
08061
  1
08061.dwg
  0
LWPOLYLINE
  5
424B
102
{ACAD_REACTORS
330
424D
102
}
330
36C4
100
AcDbEntity
  8
APL Joinery
100
AcDbPolyline
 90
       42
 70
     1
 43
0.0
 10
-45.50000000000046
 20
4.616025403800009
 10
-46.0
 20
4.616025403800009
 10
-46.0
 20
37.0
 42
-0.4142135623730951
 10
-45.0
 20
38.0
 10
-3.0
 20
38.0
 42
-0.4142135623730951
 10
-2.0
 20
37.0
 10
-2.0
 20
4.616025403800009
 10
-2.499999999999545
 20
4.616025403800009
 42
0.5773502691902067
 10
-2.716506350899976
 20
4.241025403800009
 10
-2.0
 20
3.000000000000014
 10
-2.0
 20
0.2000000000000028
 42
0.4142135623730533
 10
-1.799999999999954
 20
0.0000000000000142
 10
-0.2000000000000456
 20
0.0
 42
0.4142135623730743
 10
0.0
 20
0.2000000000000028
 10
0.0
 20
99.80000000000002
 42
0.414213562372554
 10
-0.2000000000000455
 20
100.0
 10
-2.100000000000022
 20
100.0
 10
-2.099999999999909
 20
101.8
 42
0.414213562372554
 10
-2.299999999999954
 20
102.0
 10
-3.899999999999977
 20
102.0
 42
0.4142135623730534
 10
-4.100000000000022
 20
101.8
 10
-4.100000000000022
 20
100.0
 10
-15.89999999999562
 20
99.99999999999594
 42
0.4142135623729885
 10
-16.09999999999555
 20
99.79999999999593
 10
-16.09999999999555
 20
98.09224759528902
 10
-31.8999999999955
 20
98.09224759529584
 10
-31.8999999999955
 20
99.79999999999595
 42
0.414213562372991
 10
-32.09999999999542
 20
99.99999999999594
 10
-43.89999999999997
 20
100.0
 10
-43.89999999999997
 20
101.8
 42
0.414213562372554
 10
-44.09999999999968
 20
102.0
 10
-45.70000000000004
 20
102.0
 42
0.4142135623730534
 10
-45.90000000000009
 20
101.8
 10
-45.89999999999998
 20
100.0
 10
-47.79999999999995
 20
100.0
 42
0.4142135623730534
 10
-48.0
 20
99.80000000000002
 10
-48.0
 20
0.2000000000000029
 42
0.4142135623730743
 10
-47.79999999999995
 20
0.0
 10
-46.20000000000004
 20
0.0000000000000142
 42
0.4142135623730534
 10
-46.0
 20
0.2000000000000028
 10
-46.0
 20
3.000000000000014
 10
-45.28349364899997
 20
4.241025403800009
 42
0.5773502691901993
  0
LWPOLYLINE
  5
424C
102
{ACAD_REACTORS
330
424D
102
}
330
36C4
100
AcDbEntity
  8
APL Joinery
100
AcDbPolyline
 90
       38
 70
     1
 43
0.0
 10
-46.0
 20
97.0
 10
-46.0
 20
41.5
 42
0.4142135623730951
 10
-45.0
 20
40.49999999999999
 10
-27.88026361955703
 20
40.49999961935646
 42
0.6226718666060451
 10
-27.08837285955385
 20
42.11066239390689
 42
-0.3731760821528767
 10
-26.79499889554046
 20
47.21216908853005
 42
-1.000000000000001
 10
-25.50499889554084
 20
45.95682053135609
 42
0.4062616689884841
 10
-25.50499889554043
 20
43.02767389794909
 42
-0.1648355108495973
 10
-25.25629131897049
 20
42.50623881919371
 42
0.2897347765159786
 10
-22.74370647211048
 20
42.50623881919367
 42
-0.164835510849573
 10
-22.49499889554078
 20
43.02767389794907
 42
0.4062616689884877
 10
-22.49499889554119
 20
45.95682053135563
 42
-1.000000000000001
 10
-21.2049988955407
 20
47.21216908853049
 42
-0.373176082152878
 10
-20.91162493152783
 20
42.11066239390685
 42
0.6226718666060896
 10
-20.11973417152457
 20
40.49999961935657
 10
-3.0
 20
40.49999999999999
 42
0.4142135623730951
 10
-2.0
 20
41.5
 10
-2.0
 20
97.0
 42
0.4142135623730951
 10
-3.0
 20
98.0
 10
-14.09999999999555
 20
97.99999999999588
 10
-14.1000000000008
 20
96.19999999999427
 42
-0.4142135623722366
 10
-14.3000000000008
 20
95.99999999999484
 10
-20.09999999999584
 20
95.99999999999484
 10
-20.09999999999584
 20
93.99224579811232
 42
-0.1953768974546906
 10
-21.20499999999589
 20
91.2723239242344
 42
-1.000000000000001
 10
-22.49499999999553
 20
92.52767248140834
 42
0.4062616689884841
 10
-22.49499999999593
 20
95.45681911481535
 42
-0.1648355108495973
 10
-22.74370757656587
 20
95.97825419357073
 42
0.2897347765159787
 10
-25.25629242342588
 20
95.97825419357077
 42
-0.1648355108495728
 10
-25.50499999999558
 20
95.45681911481537
 42
0.4062616689884877
 10
-25.50499999999517
 20
92.52767248140882
 42
-1.000000000000001
 10
-26.79499999999567
 20
91.27232392423394
 42
-0.195376897454664
 10
-27.89999999999553
 20
93.99224579811182
 10
-27.89999999999553
 20
95.99999999999482
 10
-33.69999999999553
 20
95.99999999999582
 42
-0.414213562372991
 10
-33.89999999999549
 20
96.19999999999583
 10
-33.89999999999549
 20
97.99999999999588
 10
-45.0
 20
98.0
 42
0.4142135623730951
  0
HATCH
  5
424D
330
36C4
100
AcDbEntity
  8
APL Hatch
100
AcDbHatch
 10
0.0
 20
0.0
 30
0.0
210
0.0
220
0.0
230
1.0
  2
SOLID
 70
     1
 71
     1
 91
        2
 92
       16
 93
       38
 72
     1
 10
-46.0
 20
97.0
 11
-46.0
 21
41.5
 72
     2
 10
-45.0
 20
41.5
 40
1.0
 50
180.0
 51
270.0
 73
     1
 72
     1
 10
-45.0
 20
40.49999999999999
 11
-27.88026361955703
 21
40.49999961935646
 72
     2
 10
-27.88026361955717
 20
41.49999961935654
 40
1.000000000000085
 50
270.0000000000081
 51
397.637441322342
 73
     1
 72
     2
 10
-23.99999889554083
 20
44.49224721465212
 40
3.899999999999685
 50
142.3625586776715
 51
224.2200444276865
 73
     0
 72
     2
 10
-26.14999889554065
 20
46.58449480994307
 40
0.8999999999996926
 50
224.2200444276802
 51
404.2200444276804
 73
     0
 72
     2
 10
-23.99999889554059
 20
44.4922472146528
 40
2.099999999999997
 50
135.779955572326
 51
224.22004442769
 73
     1
 72
     2
 10
-26.1499988955407
 20
42.39999961936227
 40
0.8999999999999072
 50
315.7799555723476
 51
353.2207959830085
 73
     0
 72
     2
 10
-23.99999889554046
 20
44.49224721465308
 40
2.35000000000059
 50
237.683718614824
 51
302.3162813851744
 73
     1
 72
     2
 10
-21.84999889554024
 20
42.39999961936255
 40
0.8999999999999012
 50
186.7792040169719
 51
224.2200444276274
 73
     0
 72
     2
 10
-23.99999889554077
 20
44.49224721465214
 40
2.099999999999666
 50
315.7799555723256
 51
404.2200444276903
 73
     1
 72
     2
 10
-21.84999889554094
 20
46.58449480994306
 40
0.9000000000003179
 50
135.7799555723181
 51
315.7799555723183
 73
     0
 72
     2
 10
-23.99999889554085
 20
44.49224721465262
 40
3.900000000000018
 50
315.7799555723195
 51
397.6374413223346
 73
     0
 72
     2
 10
-20.11973417152457
 20
41.49999961935657
 40
0.9999999999999984
 50
142.3625586776587
 51
270.0
 73
     1
 72
     1
 10
-20.11973417152457
 20
40.49999961935657
 11
-3.0
 21
40.49999999999999
 72
     2
 10
-3.0
 20
41.5
 40
1.0
 50
270.0
 51
360.0
 73
     1
 72
     1
 10
-2.0
 20
41.5
 11
-2.0
 21
97.0
 72
     2
 10
-3.0
 20
97.0
 40
1.0
 50
0.0
 51
90.0
 73
     1
 72
     1
 10
-3.0
 20
98.0
 11
-14.09999999999555
 21
97.99999999999588
 72
     1
 10
-14.09999999999555
 20
97.99999999999588
 11
-14.1000000000008
 21
96.19999999999427
 72
     2
 10
-14.3000000000008
 20
96.19999999999485
 40
0.2000000000000028
 50
0.0000000001669155
 51
89.99999999999898
 73
     0
 72
     1
 10
-14.3000000000008
 20
95.99999999999484
 11
-20.09999999999584
 21
95.99999999999484
 72
     1
 10
-20.09999999999584
 20
95.99999999999484
 11
-20.09999999999584
 21
93.99224579811232
 72
     2
 10
-23.99999999999552
 20
93.99224579811232
 40
3.899999999999682
 50
360.0
 51
404.2200444276864
 73
     0
 72
     2
 10
-21.84999999999571
 20
91.89999820282137
 40
0.8999999999996827
 50
44.22004442767954
 51
224.2200444276802
 73
     0
 72
     2
 10
-23.99999999999577
 20
93.99224579811164
 40
2.100000000000003
 50
315.7799555723259
 51
404.2200444276899
 73
     1
 72
     2
 10
-21.84999999999565
 20
96.08449339340216
 40
0.8999999999999124
 50
135.7799555723485
 51
173.2207959830095
 73
     0
 72
     2
 10
-23.9999999999959
 20
93.99224579811136
 40
2.3500000000006
 50
57.68371861482425
 51
122.3162813851745
 73
     1
 72
     2
 10
-26.1499999999961
 20
96.08449339340189
 40
0.8999999999998809
 50
6.779204016972552
 51
44.22004442762808
 73
     0
 72
     2
 10
-23.99999999999558
 20
93.9922457981123
 40
2.099999999999668
 50
135.7799555723257
 51
224.2200444276904
 73
     1
 72
     2
 10
-26.14999999999542
 20
91.89999820282137
 40
0.9000000000003179
 50
315.7799555723181
 51
495.7799555723182
 73
     0
 72
     2
 10
-23.9999999999955
 20
93.9922457981118
 40
3.90000000000002
 50
135.7799555723196
 51
180.0000000000002
 73
     0
 72
     1
 10
-27.89999999999553
 20
93.99224579811182
 11
-27.89999999999553
 21
95.99999999999482
 72
     1
 10
-27.89999999999553
 20
95.99999999999482
 11
-33.69999999999553
 21
95.99999999999582
 72
     2
 10
-33.69999999999547
 20
96.19999999999585
 40
0.200000000000017
 50
90.00000000001628
 51
179.9999999999959
 73
     0
 72
     1
 10
-33.89999999999549
 20
96.19999999999583
 11
-33.89999999999549
 21
97.99999999999588
 72
     1
 10
-33.89999999999549
 20
97.99999999999588
 11
-45.0
 21
98.0
 72
     2
 10
-45.0
 20
97.0
 40
1.0
 50
90.0
 51
180.0
 73
     1
 97
        1
330
424C
 92
        1
 93
       42
 72
     1
 10
-45.50000000000046
 20
4.616025403800009
 11
-46.0
 21
4.616025403800009
 72
     1
 10
-46.0
 20
4.616025403800009
 11
-46.0
 21
37.0
 72
     2
 10
-45.0
 20
37.0
 40
1.0
 50
180.0
 51
270.0
 73
     0
 72
     1
 10
-45.0
 20
38.0
 11
-3.0
 21
38.0
 72
     2
 10
-3.0
 20
37.0
 40
1.0
 50
270.0
 51
360.0
 73
     0
 72
     1
 10
-2.0
 20
37.0
 11
-2.0
 21
4.616025403800009
 72
     1
 10
-2.0
 20
4.616025403800009
 11
-2.499999999999545
 21
4.616025403800009
 72
     2
 10
-2.499999999976923
 20
4.366025403813321
 40
0.249999999986688
 50
90.00000000518445
 51
210.0000000052843
 73
     1
 72
     1
 10
-2.716506350899976
 20
4.241025403800009
 11
-2.0
 21
3.000000000000014
 72
     1
 10
-2.0
 20
3.000000000000014
 11
-2.0
 21
0.2000000000000028
 72
     2
 10
-1.799999999999968
 20
0.2000000000000455
 40
0.2000000000000313
 50
180.0000000000122
 51
270.0000000000041
 73
     1
 72
     1
 10
-1.799999999999954
 20
0.0000000000000142
 11
-0.2000000000000455
 21
0.0
 72
     2
 10
-0.2000000000000313
 20
0.2000000000000313
 40
0.2000000000000313
 50
269.9999999999959
 51
359.9999999999919
 73
     1
 72
     1
 10
0.0
 20
0.2000000000000028
 11
0.0
 21
99.80000000000002
 72
     2
 10
-0.2000000000002018
 20
99.7999999999998
 40
0.2000000000002018
 50
0.0000000000610666
 51
89.99999999995521
 73
     1
 72
     1
 10
-0.2000000000000455
 20
100.0
 11
-2.100000000000022
 21
100.0
 72
     1
 10
-2.100000000000022
 20
100.0
 11
-2.099999999999909
 21
101.8
 72
     2
 10
-2.30000000000011
 20
101.7999999999998
 40
0.2000000000002018
 50
0.0000000000610666
 51
89.99999999995521
 73
     1
 72
     1
 10
-2.299999999999954
 20
102.0
 11
-3.899999999999977
 21
102.0
 72
     2
 10
-3.899999999999991
 20
101.8
 40
0.2000000000000313
 50
89.99999999999593
 51
179.9999999999878
 73
     1
 72
     1
 10
-4.100000000000022
 20
101.8
 11
-4.100000000000022
 21
100.0
 72
     1
 10
-4.100000000000022
 20
100.0
 11
-15.89999999999562
 21
99.99999999999594
 72
     2
 10
-15.89999999999555
 20
99.79999999999593
 40
0.2000000000000028
 50
90.00000000002087
 51
180.0
 73
     1
 72
     1
 10
-16.09999999999555
 20
99.79999999999593
 11
-16.09999999999555
 21
98.09224759528902
 72
     1
 10
-16.09999999999555
 20
98.09224759528902
 11
-31.8999999999955
 21
98.09224759529584
 72
     1
 10
-31.8999999999955
 20
98.09224759529584
 11
-31.8999999999955
 21
99.79999999999595
 72
     2
 10
-32.0999999999955
 20
99.79999999999595
 40
0.1999999999999993
 50
0.0
 51
89.99999999997966
 73
     1
 72
     1
 10
-32.09999999999542
 20
99.99999999999594
 11
-43.89999999999997
 21
100.0
 72
     1
 10
-43.89999999999997
 20
100.0
 11
-43.89999999999997
 21
101.8
 72
     2
 10
-44.10000000000001
 20
101.8
 40
0.2000000000000313
 50
0.0000000000122133
 51
89.99999999990636
 73
     1
 72
     1
 10
-44.09999999999968
 20
102.0
 11
-45.70000000000004
 21
102.0
 72
     2
 10
-45.70000000000006
 20
101.8
 40
0.2000000000000313
 50
89.99999999999593
 51
179.9999999999878
 73
     1
 72
     1
 10
-45.90000000000009
 20
101.8
 11
-45.89999999999998
 21
100.0
 72
     1
 10
-45.89999999999998
 20
100.0
 11
-47.79999999999995
 21
100.0
 72
     2
 10
-47.79999999999996
 20
99.79999999999996
 40
0.2000000000000313
 50
89.99999999999593
 51
179.9999999999878
 73
     1
 72
     1
 10
-48.0
 20
99.80000000000002
 11
-48.0
 21
0.2000000000000028
 72
     2
 10
-47.79999999999996
 20
0.2000000000000313
 40
0.2000000000000313
 50
180.0000000000081
 51
270.0000000000041
 73
     1
 72
     1
 10
-47.79999999999995
 20
0.0
 11
-46.20000000000004
 21
0.0000000000000142
 72
     2
 10
-46.20000000000003
 20
0.2000000000000455
 40
0.2000000000000313
 50
269.9999999999959
 51
359.9999999999878
 73
     1
 72
     1
 10
-46.0
 20
0.2000000000000028
 11
-46.0
 21
3.000000000000014
 72
     1
 10
-46.0
 20
3.000000000000014
 11
-45.28349364899997
 21
4.241025403800009
 72
     2
 10
-45.49999999997305
 20
4.366025403784439
 40
0.2500000000155691
 50
330.0000000061807
 51
450.0000000062792
 73
     1
 97
        1
330
424B
 75
     0
 76
     1
 98
        1
 10
0.0
 20
0.0
  0
ENDBLK
  5
36C6
330
36C4
100
AcDbEntity
  8
0
100
AcDbBlockEnd
  0
BLOCK
  5
36CB
330
36CA
100
AcDbEntity
  8
0
100
AcDbBlockBegin
  2
08060
 70
     0
 10
0.0
 20
0.0
 30
0.0
  3
08060
  1
08060.dwg
  0
LWPOLYLINE
  5
4251
102
{ACAD_REACTORS
330
4253
102
}
330
36CA
100
AcDbEntity
  8
APL Joinery
  6
Continuous
100
AcDbPolyline
 90
       78
 70
     1
 43
0.0
 10
2.716506441404304
 20
4.24102563763432
 42
0.5773502691901973
 10
2.50000009050376
 20
4.616025637634322
 10
2.000000090504215
 20
4.616025637634322
 10
2.000000090504215
 20
37.00000023383433
 42
-0.4142135623730951
 10
3.000000090504215
 20
38.00000023383433
 10
45.00000009050433
 20
38.00000023383433
 42
-0.4142135623730951
 10
46.00000009050432
 20
37.00000023383433
 10
46.00000009050432
 20
4.616025637634322
 10
45.50000009050478
 20
4.616025637634322
 42
0.5773502691902004
 10
45.28349373950431
 20
4.241025637634322
 10
46.00000009050432
 20
3.000000233834327
 10
46.00000009050432
 20
0.2500002338343279
 42
0.4142135623730951
 10
46.25000009050433
 20
0.0000002338343279
 10
47.75000009050432
 20
0.0000002338343279
 42
0.4142135623730951
 10
48.00000009050433
 20
0.2500002338343279
 10
48.00000009050433
 20
118.5000002338343
 42
0.4142135623730951
 10
47.50000009050433
 20
119.0000002338343
 10
32.95000009050426
 20
119.0000002338343
 42
0.4142135623730951
 10
32.70000009050426
 20
118.7500002338343
 10
32.70000009050426
 20
117.0000002338343
 10
31.25000009050422
 20
117.0000002338343
 42
0.4142135623730951
 10
31.00000009050422
 20
116.7500002338343
 10
31.00000009050422
 20
114.9500002338343
 42
0.9999999999999998
 10
32.00000009050422
 20
114.9500002338343
 10
32.00000009050422
 20
115.7000002338343
 10
33.50000009050433
 20
115.7000002338343
 10
33.50000009050433
 20
110.2000002338343
 10
32.00000009050422
 20
110.2000002338343
 10
32.00000009050422
 20
110.9500002338343
 42
0.9999999999999998
 10
31.00000009050422
 20
110.9500002338343
 10
31.00000009050422
 20
109.1500002338343
 42
0.4142135623730951
 10
31.25000009050422
 20
108.9000002338343
 10
33.70000009050425
 20
108.9000002338343
 42
0.4142135623731046
 10
35.00000009050433
 20
110.2000002338343
 10
35.00000009050433
 20
114.2555730428343
 42
-0.8944271909998079
 10
36.18518527568967
 20
114.3880807748335
 42
0.1380297893445362
 10
37.07641518484365
 20
112.745030854709
 42
0.9999999999999589
 10
38.223584996164
 20
113.8603789725695
 42
-0.4357933229586278
 10
38.36071437622143
 20
116.5670745049206
 42
0.2216708542867743
 10
38.45000009050688
 20
116.7585710280411
 10
38.45000009050688
 20
116.997295554019
 42
-0.2751860725536734
 10
40.65000009050787
 20
116.9972955540204
 10
40.65000009050786
 20
116.7585710280432
 42
0.2216708542871808
 10
40.73928580479361
 20
116.5670745049224
 42
-0.435793322961291
 10
40.87641518484359
 20
113.8603789725596
 42
0.9999999999999781
 10
42.02358499616589
 20
112.7450308547188
 42
0.2875912244630845
 10
42.79225090648975
 20
116.3291141578851
 42
-0.5204832016754491
 10
43.26214232910428
 20
117.0000002338343
 10
45.00000009050433
 20
117.0000002338343
 42
-0.4142135623730951
 10
46.00000009050432
 20
116.0000002338343
 10
46.00000009050432
 20
102.0000002338343
 42
-0.4142135623730951
 10
44.00000009050432
 20
100.0000002338343
 10
18.50000009050421
 20
100.0000002338343
 42
0.9999999999999998
 10
18.50000009050421
 20
99.00000023383434
 10
21.00000009050422
 20
99.00000023383434
 42
-0.4142135623730951
 10
21.50000009050422
 20
98.50000023383433
 10
21.50000009050422
 20
97.70000023383431
 42
-0.4142135623730951
 10
20.00000009050422
 20
96.20000023383433
 10
14.70000009050426
 20
96.20000023383433
 42
0.4142135623730951
 10
14.20000009050426
 20
95.70000023383432
 10
14.20000009050426
 20
92.05000023383433
 42
-0.4142135623730951
 10
13.95000009050426
 20
91.80000023383433
 10
2.000000090504215
 20
91.80000023383433
 42
-0.4142135623730118
 10
1.800000090504227
 20
92.00000023383433
 10
1.800000090504279
 20
95.25000023383434
 42
0.4142135623730961
 10
1.550000090504279
 20
95.50000023383434
 10
1.500000090504215
 20
95.50000023383432
 10
1.500000090504215
 20
98.50000023383433
 10
2.250000090504215
 20
98.50000023383433
 42
0.474497867807973
 10
2.494949064782535
 20
98.80000023383425
 42
0.3563939586926799
 10
1.025255219104281
 20
100.0000002338343
 10
0.2500000905042157
 20
100.0000002338343
 42
0.4142135623730951
 10
0.0000000905042157
 20
99.75000023383433
 10
0.0000000905042157
 20
0.2500002338343279
 42
0.4142135623730951
 10
0.2500000905042156
 20
0.0000002338343279
 10
1.750000090504215
 20
0.0000002338343279
 42
0.4142135623730951
 10
2.000000090504215
 20
0.2500002338343279
 10
2.000000090504215
 20
3.000000233834327
  0
LWPOLYLINE
  5
4252
102
{ACAD_REACTORS
330
4253
102
}
330
36CA
100
AcDbEntity
  8
APL Joinery
  6
Continuous
100
AcDbPolyline
 90
       52
 70
     1
 43
0.0
 10
10.92358499616154
 20
85.54503085471882
 42
-0.9999999999999756
 10
9.776415184839287
 20
86.66037897255966
 42
0.4357933229612831
 10
9.639285804789256
 20
89.36707450492241
 42
-0.2216708542871708
 10
9.550000090503509
 20
89.55857102804321
 10
9.550000090503511
 20
89.7972955540205
 42
0.2751860725536727
 10
7.350000090502534
 20
89.79729555401904
 10
7.350000090502533
 20
89.55857102804115
 42
-0.2216708542867702
 10
7.260714376217057
 20
89.36707450492063
 42
0.4357933229586294
 10
7.123584996159658
 20
86.66037897256948
 42
-0.9999999999999753
 10
5.976415184839268
 20
85.54503085470903
 42
-0.2875912244630766
 10
5.207749274459786
 20
89.12911415788366
 42
0.5204832016754516
 10
4.737857851799901
 20
89.80000023383434
 10
3.000000090504215
 20
89.80000023383434
 42
0.4142135623730951
 10
2.000000090504215
 20
88.80000023383434
 10
2.000000090504215
 20
41.50000023383433
 42
0.4142135623730951
 10
3.000000090504215
 20
40.50000023383432
 10
20.11973552598683
 20
40.50000018083347
 10
20.11973553399332
 20
40.50000018083347
 42
0.6226718666060426
 10
20.91162629399651
 20
42.11066295538378
 42
-0.3731760821528771
 10
21.20500025800988
 20
47.21216965000695
 42
-0.9999999999999943
 10
22.49500025800951
 20
45.95682109283298
 42
0.4062616689884817
 10
22.49500025800992
 20
43.02767445942598
 42
-0.164835510849597
 10
22.74370783457984
 20
42.50623938067062
 42
0.289734776515985
 10
25.25629268143987
 20
42.50623938067056
 42
-0.1648355108495696
 10
25.50500025800959
 20
43.02767445942598
 42
0.4062616689884833
 10
25.50500025800916
 20
45.95682109283252
 42
-0.9999999999999998
 10
26.79500025800965
 20
47.21216965000738
 42
-0.3731760821528768
 10
27.08837422202252
 20
42.11066295538375
 42
0.6226718666060896
 10
27.88026498202578
 20
40.50000018083347
 10
45.00000009050433
 20
40.50000023383432
 42
0.4142135623730951
 10
46.00000009050432
 20
41.50000023383433
 10
46.00000009050432
 20
97.00000023383433
 42
0.4142135623730951
 10
45.00000009050433
 20
98.00000023383432
 10
26.65592478820435
 20
98.00000023383432
 42
0.7190391214360917
 10
26.35411516346274
 20
97.10136387019781
 42
-0.4509422221058406
 10
26.79500009050341
 20
91.27207835995552
 42
-0.9999999999999888
 10
25.50500009050449
 20
92.52742691712176
 42
0.40626147443424
 10
25.5050002580096
 20
95.45657355053327
 42
-0.1648355108495689
 10
25.25629268143986
 20
95.97800862928869
 42
0.2897347765159864
 10
22.74370783457984
 20
95.97800862928862
 42
-0.1648355108495965
 10
22.49500025801019
 20
95.45657355053327
 42
0.4062614744342402
 10
22.49500042551531
 20
92.52742691712176
 10
22.49500009050463
 20
92.52742691713034
 42
-0.9999999999999941
 10
21.20500009050444
 20
91.27207835994694
 42
-0.1781941694399857
 10
20.10859762497057
 20
93.73318205201773
 42
0.394892904749646
 10
19.60969987290429
 20
94.20000023383432
 10
16.70000009050426
 20
94.20000023383432
 42
0.4142135623730951
 10
16.20000009050426
 20
93.70000023383431
 10
16.20000009050426
 20
92.05000023383433
 42
-0.4142135623730951
 10
13.95000009050426
 20
89.80000023383434
 10
12.16214232909993
 20
89.80000023383434
 42
0.5204832016754404
 10
11.69225090648539
 20
89.12911415788519
 42
-0.2875912244630881
  0
HATCH
  5
4253
330
36CA
100
AcDbEntity
  8
APL Hatch
100
AcDbHatch
 10
0.0
 20
0.0
 30
0.0
210
0.0
220
0.0
230
1.0
  2
SOLID
 70
     1
 71
     1
 91
        2
 92
        1
 93
       78
 72
     2
 10
2.500000090481191
 20
4.366025637647599
 40
0.2499999999867235
 50
329.9999999947293
 51
449.9999999948275
 73
     1
 72
     1
 10
2.50000009050376
 20
4.616025637634322
 11
2.000000090504215
 21
4.616025637634322
 72
     1
 10
2.000000090504215
 20
4.616025637634322
 11
2.000000090504215
 21
37.00000023383433
 72
     2
 10
3.000000090504215
 20
37.00000023383433
 40
1.0
 50
180.0
 51
270.0
 73
     0
 72
     1
 10
3.000000090504215
 20
38.00000023383433
 11
45.00000009050433
 21
38.00000023383433
 72
     2
 10
45.00000009050433
 20
37.00000023383433
 40
1.0
 50
270.0
 51
360.0
 73
     0
 72
     1
 10
46.00000009050432
 20
37.00000023383433
 11
46.00000009050432
 21
4.616025637634322
 72
     1
 10
46.00000009050432
 20
4.616025637634322
 11
45.50000009050478
 21
4.616025637634322
 72
     2
 10
45.50000009047738
 20
4.366025637618752
 40
0.2500000000155698
 50
89.99999999372072
 51
209.9999999938195
 73
     1
 72
     1
 10
45.28349373950431
 20
4.241025637634322
 11
46.00000009050432
 21
3.000000233834327
 72
     1
 10
46.00000009050432
 20
3.000000233834327
 11
46.00000009050432
 21
0.2500002338343279
 72
     2
 10
46.25000009050433
 20
0.2500002338343279
 40
0.25
 50
180.0
 51
270.0
 73
     1
 72
     1
 10
46.25000009050433
 20
0.0000002338343279
 11
47.75000009050432
 21
0.0000002338343279
 72
     2
 10
47.75000009050432
 20
0.2500002338343279
 40
0.25
 50
270.0
 51
360.0
 73
     1
 72
     1
 10
48.00000009050433
 20
0.2500002338343279
 11
48.00000009050433
 21
118.5000002338343
 72
     2
 10
47.50000009050433
 20
118.5000002338343
 40
0.5
 50
0.0
 51
90.0
 73
     1
 72
     1
 10
47.50000009050433
 20
119.0000002338343
 11
32.95000009050426
 21
119.0000002338343
 72
     2
 10
32.95000009050426
 20
118.7500002338343
 40
0.25
 50
90.0
 51
180.0
 73
     1
 72
     1
 10
32.70000009050426
 20
118.7500002338343
 11
32.70000009050426
 21
117.0000002338343
 72
     1
 10
32.70000009050426
 20
117.0000002338343
 11
31.25000009050422
 21
117.0000002338343
 72
     2
 10
31.25000009050422
 20
116.7500002338343
 40
0.25
 50
90.0
 51
180.0
 73
     1
 72
     1
 10
31.00000009050422
 20
116.7500002338343
 11
31.00000009050422
 21
114.9500002338343
 72
     2
 10
31.50000009050422
 20
114.9500002338343
 40
0.5
 50
180.0
 51
360.0
 73
     1
 72
     1
 10
32.00000009050422
 20
114.9500002338343
 11
32.00000009050422
 21
115.7000002338343
 72
     1
 10
32.00000009050422
 20
115.7000002338343
 11
33.50000009050433
 21
115.7000002338343
 72
     1
 10
33.50000009050433
 20
115.7000002338343
 11
33.50000009050433
 21
110.2000002338343
 72
     1
 10
33.50000009050433
 20
110.2000002338343
 11
32.00000009050422
 21
110.2000002338343
 72
     1
 10
32.00000009050422
 20
110.2000002338343
 11
32.00000009050422
 21
110.9500002338343
 72
     2
 10
31.50000009050422
 20
110.9500002338343
 40
0.5
 50
0.0
 51
180.0
 73
     1
 72
     1
 10
31.00000009050422
 20
110.9500002338343
 11
31.00000009050422
 21
109.1500002338343
 72
     2
 10
31.25000009050422
 20
109.1500002338343
 40
0.25
 50
180.0
 51
270.0
 73
     1
 72
     1
 10
31.25000009050422
 20
108.9000002338343
 11
33.70000009050425
 21
108.9000002338343
 72
     2
 10
33.70000009050431
 20
110.2000002338343
 40
1.300000000000025
 50
269.9999999999975
 51
359.9999999999994
 73
     1
 72
     1
 10
35.00000009050433
 20
110.2000002338343
 11
35.00000009050433
 21
114.2555730428343
 72
     2
 10
35.60000009050437
 20
114.2555730428338
 40
0.600000000000037
 50
180.0000000000448
 51
347.2412595831455
 73
     0
 72
     2
 10
39.5500000905222
 20
115.1500002338311
 40
3.450000000016756
 50
192.7587404167826
 51
224.1942037227821
 73
     1
 72
     2
 10
37.65000009050381
 20
113.3027049136392
 40
0.8000000000030802
 50
224.194203723179
 51
404.1942037231743
 73
     1
 72
     2
 10
39.5500000905086
 20
115.1500002338289
 40
1.849999999999335
 50
135.8057962773135
 51
229.9947991150637
 73
     0
 72
     2
 10
38.20000009050689
 20
116.7585710280411
 40
0.2499999999999938
 50
310.0052008849355
 51
360.0
 73
     1
 72
     1
 10
38.45000009050688
 20
116.7585710280411
 11
38.45000009050688
 21
116.997295554019
 72
     2
 10
39.55000009050859
 20
115.1500002338289
 40
2.149999999999999
 50
239.2276752320019
 51
300.7723247679227
 73
     0
 72
     1
 10
40.65000009050787
 20
116.9972955540204
 11
40.65000009050786
 21
116.7585710280432
 72
     2
 10
40.90000009050784
 20
116.7585710280432
 40
0.2499999999999858
 50
180.0000000000032
 51
229.9947991151558
 73
     1
 72
     2
 10
39.5500000905086
 20
115.1500002338289
 40
1.849999999999339
 50
310.0052008848493
 51
404.1942037231124
 73
     0
 72
     2
 10
41.45000009050476
 20
113.3027049136392
 40
0.7999999999968989
 50
135.8057962773799
 51
315.8057962773775
 73
     1
 72
     2
 10
39.55000009047578
 20
115.1500002337915
 40
3.449999999990563
 50
315.8057962779411
 51
379.98487997154
 73
     1
 72
     2
 10
43.26214232910428
 20
116.5000002338343
 40
0.5000000000000062
 50
160.0151200293018
 51
270.0
 73
     0
 72
     1
 10
43.26214232910428
 20
117.0000002338343
 11
45.00000009050433
 21
117.0000002338343
 72
     2
 10
45.00000009050433
 20
116.0000002338343
 40
1.0
 50
270.0
 51
360.0
 73
     0
 72
     1
 10
46.00000009050432
 20
116.0000002338343
 11
46.00000009050432
 21
102.0000002338343
 72
     2
 10
44.00000009050432
 20
102.0000002338343
 40
2.0
 50
360.0
 51
450.0
 73
     0
 72
     1
 10
44.00000009050432
 20
100.0000002338343
 11
18.50000009050421
 21
100.0000002338343
 72
     2
 10
18.50000009050421
 20
99.50000023383433
 40
0.5
 50
90.0
 51
270.0
 73
     1
 72
     1
 10
18.50000009050421
 20
99.00000023383434
 11
21.00000009050422
 21
99.00000023383434
 72
     2
 10
21.00000009050422
 20
98.50000023383433
 40
0.5
 50
270.0
 51
360.0
 73
     0
 72
     1
 10
21.50000009050422
 20
98.50000023383433
 11
21.50000009050422
 21
97.70000023383431
 72
     2
 10
20.00000009050422
 20
97.70000023383431
 40
1.5
 50
360.0
 51
450.0
 73
     0
 72
     1
 10
20.00000009050422
 20
96.20000023383433
 11
14.70000009050426
 21
96.20000023383433
 72
     2
 10
14.70000009050426
 20
95.70000023383432
 40
0.5
 50
90.0
 51
180.0
 73
     1
 72
     1
 10
14.20000009050426
 20
95.70000023383432
 11
14.20000009050426
 21
92.05000023383433
 72
     2
 10
13.95000009050426
 20
92.05000023383433
 40
0.25
 50
360.0
 51
450.0
 73
     0
 72
     1
 10
13.95000009050426
 20
91.80000023383433
 11
2.000000090504215
 21
91.80000023383433
 72
     2
 10
2.000000090504244
 20
92.00000023383436
 40
0.200000000000017
 50
90.00000000000815
 51
179.9999999999918
 73
     0
 72
     1
 10
1.800000090504227
 20
92.00000023383433
 11
1.800000090504279
 21
95.25000023383434
 72
     2
 10
1.55000009050428
 20
95.25000023383434
 40
0.2499999999999996
 50
0.0
 51
90.0000000000001
 73
     1
 72
     1
 10
1.550000090504279
 20
95.50000023383434
 11
1.500000090504215
 21
95.50000023383432
 72
     1
 10
1.500000090504215
 20
95.50000023383432
 11
1.500000090504215
 21
98.50000023383433
 72
     1
 10
1.500000090504215
 20
98.50000023383433
 11
2.250000090504215
 21
98.50000023383433
 72
     2
 10
2.250000090504203
 20
98.75000023383433
 40
0.25
 50
270.0000000000027
 51
371.5369590327982
 73
     1
 72
     2
 10
1.02525521910862
 20
98.50000023382945
 40
1.50000000000489
 50
11.53695903296505
 51
90.00000000016576
 73
     1
 72
     1
 10
1.025255219104281
 20
100.0000002338343
 11
0.2500000905042157
 21
100.0000002338343
 72
     2
 10
0.2500000905042157
 20
99.75000023383433
 40
0.25
 50
90.0
 51
180.0
 73
     1
 72
     1
 10
0.0000000905042157
 20
99.75000023383433
 11
0.0000000905042157
 21
0.2500002338343279
 72
     2
 10
0.2500000905042157
 20
0.2500002338343279
 40
0.25
 50
180.0
 51
270.0
 73
     1
 72
     1
 10
0.2500000905042156
 20
0.0000002338343279
 11
1.750000090504215
 21
0.0000002338343279
 72
     2
 10
1.750000090504215
 20
0.2500002338343279
 40
0.25
 50
270.0
 51
360.0
 73
     1
 72
     1
 10
2.000000090504215
 20
0.2500002338343279
 11
2.000000090504215
 21
3.000000233834327
 72
     1
 10
2.000000090504215
 20
3.000000233834327
 11
2.716506441404304
 21
4.24102563763432
 97
        1
330
4251
 92
       16
 93
       52
 72
     2
 10
10.35000009050043
 20
86.10270491363925
 40
0.7999999999969166
 50
44.19420372262589
 51
224.1942037226229
 73
     0
 72
     2
 10
8.450000090504241
 20
87.95000023382891
 40
1.849999999999332
 50
315.8057962768893
 51
409.9947991151507
 73
     1
 72
     2
 10
9.800000090503505
 20
89.55857102804321
 40
0.2499999999999961
 50
130.00520088485
 51
180.0
 73
     0
 72
     1
 10
9.550000090503509
 20
89.55857102804321
 11
9.550000090503511
 21
89.7972955540205
 72
     2
 10
8.450000090504239
 20
87.95000023382895
 40
2.149999999999998
 50
59.22767523207737
 51
120.7723247679981
 73
     1
 72
     1
 10
7.350000090502534
 20
89.79729555401904
 11
7.350000090502533
 21
89.55857102804115
 72
     2
 10
7.100000090502551
 20
89.5585710280412
 40
0.2499999999999813
 50
0.0000000000097707
 51
49.99479911507141
 73
     0
 72
     2
 10
8.45000009050425
 20
87.95000023382895
 40
1.849999999999354
 50
130.0052008849368
 51
224.1942037226872
 73
     1
 72
     2
 10
6.550000090499448
 20
86.10270491363927
 40
0.8000000000030844
 50
315.8057962768269
 51
495.8057962768239
 73
     0
 72
     2
 10
8.450000090508329
 20
87.95000023383019
 40
3.450000000009315
 50
135.8057962771191
 51
199.9848799707163
 73
     0
 72
     2
 10
4.737857851822059
 20
89.3000002338177
 40
0.50000000001664
 50
340.0151200318405
 51
450.000000002539
 73
     1
 72
     1
 10
4.737857851799901
 20
89.80000023383434
 11
3.000000090504215
 21
89.80000023383434
 72
     2
 10
3.000000090504215
 20
88.80000023383434
 40
1.0
 50
90.0
 51
180.0
 73
     1
 72
     1
 10
2.000000090504215
 20
88.80000023383434
 11
2.000000090504215
 21
41.50000023383433
 72
     2
 10
3.000000090504215
 20
41.50000023383433
 40
1.0
 50
180.0
 51
270.0
 73
     1
 72
     1
 10
3.000000090504215
 20
40.50000023383432
 11
20.11973552598683
 21
40.50000018083347
 72
     1
 10
20.11973552598683
 20
40.50000018083347
 11
20.11973553399332
 21
40.50000018083347
 72
     2
 10
20.11973553399321
 20
41.50000018083349
 40
1.000000000000028
 50
270.0000000000065
 51
397.63744132234
 73
     1
 72
     2
 10
24.00000025800951
 20
44.49224777612902
 40
3.899999999999686
 50
142.3625586776714
 51
224.2200444276865
 73
     0
 72
     2
 10
21.85000025800969
 20
46.58449537141996
 40
0.8999999999996951
 50
224.2200444276807
 51
404.22004442768
 73
     0
 72
     2
 10
24.00000025800976
 20
44.49224777612969
 40
2.100000000000005
 50
135.7799555723262
 51
224.2200444276897
 73
     1
 72
     2
 10
21.85000025800965
 20
42.40000018083921
 40
0.8999999999998722
 50
315.7799555723492
 51
353.2207959830101
 73
     0
 72
     2
 10
24.0000002580099
 20
44.49224777612994
 40
2.350000000000568
 50
237.6837186148229
 51
302.3162813851748
 73
     1
 72
     2
 10
26.15000025801016
 20
42.40000018083941
 40
0.8999999999999504
 50
186.7792040169733
 51
224.2200444276281
 73
     0
 72
     2
 10
24.00000025800957
 20
44.49224777612903
 40
2.099999999999669
 50
315.7799555723265
 51
404.2200444276903
 73
     1
 72
     2
 10
26.15000025800941
 20
46.58449537141995
 40
0.9000000000003129
 50
135.7799555723184
 51
315.7799555723185
 73
     0
 72
     2
 10
24.00000025800949
 20
44.49224777612951
 40
3.90000000000002
 50
315.7799555723196
 51
397.6374413223346
 73
     0
 72
     2
 10
27.88026498202578
 20
41.50000018083346
 40
0.9999999999999984
 50
142.3625586776587
 51
270.0
 73
     1
 72
     1
 10
27.88026498202578
 20
40.50000018083347
 11
45.00000009050433
 21
40.50000023383432
 72
     2
 10
45.00000009050433
 20
41.50000023383433
 40
1.0
 50
270.0
 51
360.0
 73
     1
 72
     1
 10
46.00000009050432
 20
41.50000023383433
 11
46.00000009050432
 21
97.00000023383433
 72
     2
 10
45.00000009050433
 20
97.00000023383433
 40
1.0
 50
0.0
 51
90.0
 73
     1
 72
     1
 10
45.00000009050433
 20
98.00000023383432
 11
26.65592478820435
 21
98.00000023383432
 72
     2
 10
26.65592478820432
 20
97.50000023383433
 40
0.5
 50
89.99999999999714
 51
232.8704505589972
 73
     1
 72
     2
 10
24.00000009049201
 20
93.99200023382226
 40
3.900000000000328
 50
307.1295494407483
 51
404.2200444274482
 73
     0
 72
     2
 10
26.15000009050396
 20
91.89975263853865
 40
0.8999999999967471
 50
44.22004442752061
 51
224.2200444275198
 73
     0
 72
     2
 10
23.99999916858739
 20
93.99200031989195
 40
2.100000720731582
 50
315.7799714317424
 51
404.2200220152665
 73
     1
 72
     2
 10
26.15000025801017
 20
96.08424782911987
 40
0.8999999999999648
 50
135.7799555723707
 51
173.2207959830254
 73
     0
 72
     2
 10
24.0000002580099
 20
93.99200023382931
 40
2.350000000000556
 50
57.68371861482531
 51
122.3162813851772
 73
     1
 72
     2
 10
21.8500002580098
 20
96.08424782911964
 40
0.8999999999996822
 50
6.779204016965834
 51
44.22004442762661
 73
     0
 72
     2
 10
24.0000013474324
 20
93.99200031989195
 40
2.100000720731578
 50
135.7799779847334
 51
224.2200285682577
 73
     1
 72
     1
 10
22.49500042551531
 20
92.52742691712176
 11
22.49500009050463
 21
92.52742691713034
 72
     2
 10
21.85000009050453
 20
91.89975263853865
 40
0.9000000000031869
 50
315.7799555721171
 51
495.7799555721162
 73
     0
 72
     2
 10
24.00000009051562
 20
93.99200023382931
 40
3.900000000011067
 50
135.7799555723849
 51
176.1948471640845
 73
     0
 72
     2
 10
19.60969987294263
 20
93.70000023379523
 40
0.5000000000390785
 50
3.80515284039623
 51
90.00000000439396
 73
     1
 72
     1
 10
19.60969987290429
 20
94.20000023383432
 11
16.70000009050426
 21
94.20000023383432
 72
     2
 10
16.70000009050426
 20
93.70000023383431
 40
0.5
 50
90.0
 51
180.0
 73
     1
 72
     1
 10
16.20000009050426
 20
93.70000023383431
 11
16.20000009050426
 21
92.05000023383433
 72
     2
 10
13.95000009050426
 20
92.05000023383433
 40
2.25
 50
360.0
 51
450.0
 73
     0
 72
     1
 10
13.95000009050426
 20
89.80000023383434
 11
12.16214232909993
 21
89.80000023383434
 72
     2
 10
12.16214232909992
 20
89.30000023383433
 40
0.5
 50
89.99999999999857
 51
199.9848799706949
 73
     1
 72
     2
 10
8.450000090471387
 20
87.95000023379145
 40
3.449999999990615
 50
340.0151200284591
 51
404.1942037220588
 73
     0
 97
        1
330
4252
 75
     0
 76
     1
 98
        1
 10
0.0
 20
0.0
  0
ENDBLK
  5
36CC
330
36CA
100
AcDbEntity
  8
0
100
AcDbBlockEnd
  0
BLOCK
  5
3C6C
330
3C61
100
AcDbEntity
  8
0
100
AcDbBlockBegin
  2
vantage a4 SM attributes (4)
 70
     2
 10
0.0
 20
0.0
 30
0.0
  3
vantage a4 SM attributes (4)
  1

  0
ATTDEF
  5
3C62
330
3C61
100
AcDbEntity
  8
APL Border
100
AcDbText
 10
41.78979785863009
 20
276.19
 30
0.0
 40
3.5
  1
DRAWING TITLE LINE 1
  7
Arial-Bold
100
AcDbAttributeDefinition
  3
Drawing Title Line 1
  2
DRAWINGTITLE_1
 70
     0
1001
AcDbBlockRepETag
1070
     1
1071
        0
1005
0
  0
ATTDEF
  5
3C63
330
3C61
100
AcDbEntity
  8
APL Border
100
AcDbText
 10
41.78979785863009
 20
270.19
 30
0.0
 40
3.5
  1
DRAWING TITLE LINE 2
  7
Arial-Bold
100
AcDbAttributeDefinition
  3
Drawing Title Line 2
  2
DRAWINGTITLE_2
 70
     0
1001
AcDbBlockRepETag
1070
     1
1071
        1
1005
0
  0
ATTDEF
  5
3C64
330
3C61
100
AcDbEntity
  8
APL Border
100
AcDbText
 10
41.78979785863009
 20
264.19
 30
0.0
 40
3.5
  1
DRAWING TITLE LINE 3
  7
Arial-Bold
100
AcDbAttributeDefinition
  3
Drawing Title Line 3
  2
DRAWINGTITLE_3
 70
     0
1001
AcDbBlockRepETag
1070
     1
1071
        2
1005
0
  0
ATTDEF
  5
3C65
330
3C61
100
AcDbEntity
  8
APL Border
100
AcDbText
 10
41.78979785863009
 20
258.19
 30
0.0
 40
3.0
  1
CROSS SECTION
  7
Arial-Regular
100
AcDbAttributeDefinition
  3
Drawing Title Line 4
  2
DRAWINGTITLE_4
 70
     0
1001
AcDbBlockRepETag
1070
     1
1071
        3
1005
0
  0
ATTDEF
  5
3C66
330
3C61
100
AcDbEntity
  8
APL Border
100
AcDbText
 10
165.845
 20
273.69
 30
0.0
 40
2.5
  1
AW123-456
  7
Arial-Regular
100
AcDbAttributeDefinition
  3
CAD Reference
  2
AW12-0
 70
     0
1001
AcDbBlockRepETag
1070
     1
1071
        4
1005
0
  0
ATTDEF
  5
3C67
330
3C61
100
AcDbEntity
  8
APL Border
100
AcDbText
 10
147.5475920873124
 20
257.1899999999999
 30
0.0
 40
2.5
  1
25.07.08
  7
Arial-Regular
 72
     1
 11
154.345
 21
257.1899999999999
 31
0.0
100
AcDbAttributeDefinition
  3
Date
  2
25.07.08
 70
     0
1001
AcDbBlockRepETag
1070
     1
1071
        5
1005
0
  0
ATTDEF
  5
3C68
330
3C61
100
AcDbEntity
  8
APL Border
100
AcDbText
 10
175.4174761255116
 20
257.1899999999999
 30
0.0
 40
2.5
  1
1:2
  7
Arial-Regular
 72
     1
 11
177.845
 21
257.1899999999999
 31
0.0
100
AcDbAttributeDefinition
  3
Scale
  2
1:2
 70
     0
1001
AcDbBlockRepETag
1070
     1
1071
        6
1005
0
  0
ATTDEF
  5
3C69
330
3C61
100
AcDbEntity
  8
APL Border
100
AcDbText
 10
189.595
 20
1.189999999999997
 30
0.0
 40
3.75
  1

  7
Arial-Bold
 72
     2
 11
189.595
 21
1.189999999999997
 31
0.0
100
AcDbAttributeDefinition
  3
Page Number (Right)
  2
1.2.34
 70
     0
1001
AcDbBlockRepETag
1070
     1
1071
        7
1005
0
  0
ATTDEF
  5
3C6A
330
3C61
100
AcDbEntity
  8
APL Border
100
AcDbText
 10
11.59500000000003
 20
1.189999999999997
 30
0.0
 40
3.75
  1

  7
Arial-Bold
100
AcDbAttributeDefinition
  3
Page Number (Left)
  2
1.2.34
 70
     0
1001
AcDbBlockRepETag
1070
     1
1071
        8
1005
0
  0
ENDBLK
  5
3C6D
330
3C61
100
AcDbEntity
  8
0
100
AcDbBlockEnd
  0
BLOCK
  5
3E63
330
3E60
100
AcDbEntity
  8
0
 62
     9
100
AcDbBlockBegin
  2
vantage black & white logo
 70
     0
 10
0.0
 20
0.0
 30
0.0
  3
vantage black & white logo
  1

  0
SPLINE
  5
3E64
102
{ACAD_REACTORS
330
3E94
102
}
330
3E60
100
AcDbEntity
  8
APL Border
 62
     8
100
AcDbSpline
210
0.0
220
0.0
230
1.0
 70
     8
 71
     3
 72
    16
 73
    12
 74
    10
 42
0.0000000001
 43
0.0000000001
 44
0.0000000001
 40
0.0
 40
0.0
 40
0.0
 40
0.0
 40
0.1978277931646383
 40
0.361463118001824
 40
0.5540499897785108
 40
0.7796220130725381
 40
0.979106605438038
 40
1.222151590302332
 40
1.40748727220097
 40
1.607226525619232
 40
1.815049166761618
 40
1.815049166761618
 40
1.815049166761618
 40
1.815049166761618
 10
-6.679452083611295
 20
24.89125032803118
 30
0.0
 10
-6.685371732996674
 20
24.82559351525051
 30
0.0
 10
-6.696187882184245
 20
24.70562798418881
 30
0.0
 10
-6.721757155054659
 20
24.52229576436942
 30
0.0
 10
-6.768469983285688
 20
24.33480615160983
 30
0.0
 10
-6.86071972339088
 20
24.14153771241002
 30
0.0
 10
-7.051789745146238
 20
24.01851519430105
 30
0.0
 10
-7.233921808197289
 20
23.91285203345822
 30
0.0
 10
-7.443451931375125
 20
23.87675735439051
 30
0.0
 10
-7.641222718647389
 20
23.88093312949101
 30
0.0
 10
-7.776581895343343
 20
23.89281010788354
 30
0.0
 10
-7.845603808282817
 20
23.89886637823479
 30
0.0
 11
-6.679452083611295
 21
24.89125032803118
 31
0.0
 11
-6.698967886443824
 21
24.69438750983487
 31
0.0
 11
-6.7229873764864
 21
24.53252465544059
 31
0.0
 11
-6.771947617386814
 21
24.34626516442952
 31
0.0
 11
-6.880972027936735
 21
24.14879006322128
 31
0.0
 11
-7.039699899396197
 21
24.02796140183178
 31
0.0
 11
-7.25666078222261
 21
23.91842218515177
 31
0.0
 11
-7.438645676318543
 21
23.88333923622035
 31
0.0
 11
-7.638384704687155
 21
23.88303939885124
 31
0.0
 11
-7.845603808282817
 21
23.89886637823479
 31
0.0
1001
AcDbBlockRepETag
1070
     1
1071
      590
1005
3E64
  0
SPLINE
  5
3E65
102
{ACAD_REACTORS
330
3E94
102
}
330
3E60
100
AcDbEntity
  8
APL Border
 62
     8
100
AcDbSpline
210
0.0
220
0.0
230
1.0
 70
     8
 71
     3
 72
    11
 73
     7
 74
     5
 42
0.0000000001
 43
0.0000000001
 44
0.0000000001
 40
0.0
 40
0.0
 40
0.0
 40
0.0
 40
0.0680840587483313
 40
0.1752723045973904
 40
0.2784233367375334
 40
0.4826852714337078
 40
0.4826852714337078
 40
0.4826852714337078
 40
0.4826852714337078
 10
-7.465264214605014
 20
24.80065518845331
 30
0.0
 10
-7.468646137215252
 20
24.77808681972154
 30
0.0
 10
-7.47735239504952
 20
24.719987903891
 30
0.0
 10
-7.524447891091254
 20
24.63752792323728
 30
0.0
 10
-7.635129760920157
 20
24.54333837224584
 30
0.0
 10
-7.743266182308203
 20
24.55714977626708
 30
0.0
 10
-7.815117916056323
 20
24.56632682606847
 30
0.0
 11
-7.465264214605014
 21
24.80065518845331
 31
0.0
 11
-7.478569823577657
 21
24.73388393846117
 31
0.0
 11
-7.530473398252325
 21
24.64010046985295
 31
0.0
 11
-7.611072397370236
 21
24.57572705319073
 31
0.0
 11
-7.815117916056323
 21
24.56632682606847
 31
0.0
1001
AcDbBlockRepETag
1070
     1
1071
      593
1005
3E65
  0
SPLINE
  5
3E66
102
{ACAD_REACTORS
330
3E94
102
}
330
3E60
100
AcDbEntity
  8
APL Border
 62
     8
100
AcDbSpline
210
0.0
220
0.0
230
1.0
 70
     8
 71
     3
 72
    20
 73
    16
 74
     0
 42
0.0000000001
 43
0.0000000001
 40
0.0
 40
0.0
 40
0.0
 40
0.0
 40
0.1774120264923274
 40
0.3258093286713144
 40
0.4834060703451958
 40
0.6311237014699663
 40
0.811161917566129
 40
0.9605198197290178
 40
1.289502400757101
 40
1.459697744220917
 40
1.604754171475458
 40
1.794797311213428
 40
2.030760379210173
 40
2.301729078160567
 40
2.393267743077617
 40
2.393267743077617
 40
2.393267743077617
 40
2.393267743077617
 10
5.780015564168593
 20
26.87985997284487
 30
0.0
 10
5.839056126904296
 20
26.87337384475878
 30
0.0
 10
5.947481505327601
 20
26.86146235781404
 30
0.0
 10
6.098807931884806
 20
26.80185114122353
 30
0.0
 10
6.227972759762906
 20
26.72168911843352
 30
0.0
 10
6.347510602881385
 20
26.61140356622764
 30
0.0
 10
6.442310149474394
 20
26.48207375794227
 30
0.0
 10
6.536759215535255
 20
26.28338234239492
 30
0.0
 10
6.578465181725675
 20
26.06469589684353
 30
0.0
 10
6.553150099427256
 20
25.85079503063701
 30
0.0
 10
6.524121382020268
 20
25.68499989147718
 30
0.0
 10
6.464236525716046
 20
25.50199988960434
 30
0.0
 10
6.327150620479812
 20
25.31187331731421
 30
0.0
 10
6.179477266233362
 20
25.17172660684537
 30
0.0
 10
6.072729148555964
 20
25.11631253421805
 30
0.0
 10
6.045077525535504
 20
25.10350570839811
 30
0.0
1001
AcDbBlockRepETag
1070
     1
1071
      594
1005
3E66
  0
SPLINE
  5
3E67
102
{ACAD_REACTORS
330
3E94
102
}
330
3E60
100
AcDbEntity
  8
APL Border
 62
     8
100
AcDbSpline
210
0.0
220
0.0
230
1.0
 70
     8
 71
     3
 72
    17
 73
    13
 74
    11
 42
0.0000000001
 43
0.0000000001
 44
0.0000000001
 40
0.0
 40
0.0
 40
0.0
 40
0.0
 40
0.0975027714782739
 40
0.2117924486065133
 40
0.317678689712162
 40
0.4843960423119905
 40
0.5983164751676271
 40
0.7475672999664091
 40
0.8854036234346642
 40
1.040732215041493
 40
1.197661337444246
 40
1.243973057737614
 40
1.243973057737614
 40
1.243973057737614
 40
1.243973057737614
 10
5.580769717272147
 20
26.18861664944085
 30
0.0
 10
5.613502616848285
 20
26.1875961553427
 30
0.0
 10
5.684603990133519
 20
26.18537947021098
 30
0.0
 10
5.781919321100519
 20
26.1258482190374
 30
0.0
 10
5.832561030472812
 20
26.0011917111029
 30
0.0
 10
5.820388894698232
 20
25.86817511516085
 30
0.0
 10
5.765298612935113
 20
25.7349784962169
 30
0.0
 10
5.67725421213275
 20
25.62965962372396
 30
0.0
 10
5.546675458142082
 20
25.55725132865025
 30
0.0
 10
5.401760839408257
 20
25.51345804330555
 30
0.0
 10
5.281860155064943
 20
25.50729075876586
 30
0.0
 10
5.21427201805345
 20
25.50302975767877
 30
0.0
 10
5.198870965514487
 20
25.50205881951548
 30
0.0
 11
5.580769717272147
 21
26.18861664944085
 31
0.0
 11
5.67764963039707
 21
26.17761333726443
 31
0.0
 11
5.774085473546278
 21
26.11627608549865
 31
0.0
 11
5.81791994770495
 21
26.01988918322082
 31
0.0
 11
5.809153052873227
 21
25.85340249542595
 31
0.0
 11
5.765318578714499
 21
25.74825305939683
 31
0.0
 11
5.668882735565347
 21
25.63434108961652
 31
0.0
 11
5.55010046754208
 21
25.56441523695462
 31
0.0
 11
5.401316428353624
 21
25.51980267086244
 31
0.0
 11
5.245093480229996
 21
25.50493189624708
 31
0.0
 11
5.198870965514487
 21
25.50205881951548
 31
0.0
1001
AcDbBlockRepETag
1070
     1
1071
      595
1005
3E67
  0
SPLINE
  5
3E68
102
{ACAD_REACTORS
330
3E9E
330
3E9F
102
}
330
3E60
100
AcDbEntity
  8
APL Border
 62
     8
100
AcDbSpline
210
0.0
220
0.0
230
1.0
 70
     8
 71
     3
 72
    25
 73
    21
 74
     0
 42
0.0000000001
 43
0.0000000001
 40
0.0289432764998855
 40
0.0289432764998855
 40
0.0289432764998855
 40
0.0289432764998855
 40
0.7134165119202287
 40
1.411731005087882
 40
2.041147618059464
 40
3.036171077105474
 40
3.957911241576911
 40
4.83592253147705
 40
5.676684481733094
 40
6.271141751551381
 40
6.974058201941041
 40
7.825808739104269
 40
8.5265481701528
 40
9.125733480364379
 40
9.891766509798275
 40
10.6767880070383
 40
11.66821110410527
 40
12.42950909475574
 40
13.09855121203093
 40
13.70132750762923
 40
13.70132750762923
 40
13.70132750762923
 40
13.70132750762923
 10
13.141643811855
 20
43.40554077871886
 30
0.0
 10
12.91988216430481
 20
43.459256627421
 30
0.0
 10
12.47168844867874
 20
43.5669624691983
 30
0.0
 10
11.80600758681791
 20
43.66484839798013
 30
0.0
 10
11.02988777388427
 20
43.6649333207477
 30
0.0
 10
10.1361516270939
 20
43.55263717791944
 30
0.0
 10
9.306733533720876
 20
43.19741938393827
 30
0.0
 10
8.599762003673276
 20
42.45478219212527
 30
0.0
 10
8.236440109363229
 20
41.77191325718488
 30
0.0
 10
8.073464067873601
 20
41.07996170309042
 30
0.0
 10
8.007035995439764
 20
40.3638923215899
 30
0.0
 10
7.98103501985804
 20
39.60493317412716
 30
0.0
 10
8.107710769833204
 20
38.92055182387923
 30
0.0
 10
8.442098079777224
 20
38.21445924826959
 30
0.0
 10
9.036296716232907
 20
37.66873436641545
 30
0.0
 10
9.909689132144507
 20
37.42421376773082
 30
0.0
 10
10.75775873959412
 20
37.35554609345542
 30
0.0
 10
11.56487972715851
 20
37.38454149767491
 30
0.0
 10
12.23983007222788
 20
37.44815687239099
 30
0.0
 10
12.66077873273661
 20
37.49837935861893
 30
0.0
 10
12.86026661033734
 20
37.52234731786496
 30
0.0
1001
AcDbBlockRepETag
1070
     1
1071
      596
1005
3E68
  0
SPLINE
  5
3E69
102
{ACAD_REACTORS
330
3E9E
330
3E9F
102
}
330
3E60
100
AcDbEntity
  8
APL Border
 62
     8
100
AcDbSpline
210
0.0
220
0.0
230
1.0
 70
     8
 71
     3
 72
    19
 73
    15
 74
     0
 42
0.0000000001
 43
0.0000000001
 40
1.529304964685563
 40
1.529304964685563
 40
1.529304964685563
 40
1.529304965389289
 40
2.032016958536417
 40
2.556791262130423
 40
2.964493033520332
 40
3.465275586793771
 40
4.160836826595903
 40
4.71800698457321
 40
5.304510401169525
 40
5.733359288828643
 40
6.099728421126306
 40
6.422629926283571
 40
6.722447272622213
 40
6.957123473755099
 40
6.957123473755099
 40
6.957123473755099
 40
6.957123473755099
 10
11.64369617822672
 20
42.03297741382947
 30
0.0
 10
11.47589856643677
 20
42.04574754506741
 30
0.0
 10
11.13485165915975
 20
42.01473204050012
 30
0.0
 10
10.65553906793815
 20
41.91613810684326
 30
0.0
 10
10.23036575101369
 20
41.67654609785123
 30
0.0
 10
9.854221329784113
 20
41.27113304911427
 30
0.0
 10
9.717431528044755
 20
40.66388266631498
 30
0.0
 10
9.641062203095145
 20
40.05806431643046
 30
0.0
 10
9.716968816830743
 20
39.48770259248511
 30
0.0
 10
10.00680770225198
 20
39.09661486818469
 30
0.0
 10
10.3797311442331
 20
38.98358798973799
 30
0.0
 10
10.70216182646531
 20
38.92661434152812
 30
0.0
 10
10.99026249243499
 20
38.92783484269152
 30
0.0
 10
11.24302802126629
 20
38.95177692242413
 30
0.0
 10
11.33360452536307
 20
38.96406177273881
 30
0.0
1001
AcDbBlockRepETag
1070
     1
1071
      597
1005
3E69
  0
LWPOLYLINE
  5
3E6A
102
{ACAD_REACTORS
330
3E9B
102
}
330
3E60
100
AcDbEntity
  8
APL Border
 62
     8
100
AcDbPolyline
 90
       12
 70
     1
 43
0.0
 10
14.13627631352983
 20
43.61979184908029
 10
18.38986203356285
 20
43.61979184908029
 10
18.21321428445671
 20
41.9726305274507
 10
15.84058876400877
 20
41.9726305274507
 10
15.75340373709809
 20
41.15966911198297
 10
17.71732334684157
 20
41.15966911198297
 10
17.56969663746741
 20
39.57967635988449
 10
15.58395939694927
 20
39.57967635988449
 10
15.5052467299167
 20
38.84571591422678
 10
17.87787225036464
 20
38.84571591422678
 10
17.72077299807506
 20
37.38083558975206
 10
13.46718727804204
 20
37.38083558975206
1001
AcDbBlockRepETag
1070
     1
1071
      599
1005
3E6A
  0
LWPOLYLINE
  5
3E6B
102
{ACAD_REACTORS
330
3E9E
330
3E9F
102
}
330
3E60
100
AcDbEntity
  8
APL Border
 62
     8
100
AcDbPolyline
 90
        2
 70
     0
 43
0.0
 10
13.141643811855
 20
43.40554077871887
 10
13.141643811855
 20
41.76981947766621
1001
AcDbBlockRepETag
1070
     1
1071
      600
1005
3E6B
  0
LWPOLYLINE
  5
3E6C
102
{ACAD_REACTORS
330
3E9E
330
3E9F
102
}
330
3E60
100
AcDbEntity
  8
APL Border
 62
     8
100
AcDbPolyline
 90
        6
 70
     0
 43
0.0
 10
11.33358781659778
 20
38.96390597096916
 10
11.39962533929804
 20
39.57967635988449
 10
10.96889270630695
 20
39.57967635988449
 10
11.12639005748273
 20
41.04826877857415
 10
13.23839963312048
 20
41.04826877857415
 10
12.86026661033734
 20
37.52234731786496
1001
AcDbBlockRepETag
1070
     1
1071
      601
1005
3E6C
  0
LWPOLYLINE
  5
3E6D
102
{ACAD_REACTORS
330
3E98
102
}
330
3E60
100
AcDbEntity
  8
APL Border
 62
     8
100
AcDbPolyline
 90
        8
 70
     1
 43
0.0
 10
3.105743226874893
 20
43.61998313276061
 10
2.929095477768755
 20
41.97282181113101
 10
1.466301152475638
 20
41.97282181113101
 10
0.9741138955425029
 20
37.38339558452146
 10
-0.867968570535281
 20
37.38102687343238
 10
-0.3755272841536326
 20
41.97282181113101
 10
-1.891167362926863
 20
41.97282181113101
 10
-1.725754035154749
 20
43.61998313276061
1001
AcDbBlockRepETag
1070
     1
1071
      604
1005
3E6D
  0
LWPOLYLINE
  5
3E6E
102
{ACAD_REACTORS
330
3E97
102
}
330
3E60
100
AcDbEntity
  8
APL Border
 62
     8
100
AcDbPolyline
 90
       10
 70
     1
 43
0.0
 10
-4.228474015381578
 20
40.14164596649268
 10
-3.855464624526035
 20
43.61979184908029
 10
-2.181839912298443
 20
43.61979184908029
 10
-2.850928947786229
 20
37.38083558975206
 10
-5.032306754624556
 20
37.38083558975206
 10
-6.131920885667284
 20
40.6246666384634
 10
-6.479801476178323
 20
37.38083558975206
 10
-8.135186891292875
 20
37.38083558975206
 10
-7.466097855805088
 20
43.61979184908029
 10
-5.40751765387219
 20
43.61979184908029
1001
AcDbBlockRepETag
1070
     1
1071
      605
1005
3E6E
  0
LWPOLYLINE
  5
3E6F
102
{ACAD_REACTORS
330
3E9E
102
}
330
3E60
100
AcDbEntity
  8
APL Border
  6
Continuous
 62
     8
100
AcDbPolyline
 90
        8
 70
     1
 43
0.0
 10
-8.449177928734428
 20
37.38083558975206
 10
-9.847253547555595
 20
43.61979184908029
 10
-12.02298966350147
 20
43.61979184908029
 10
-14.82679588919473
 20
37.38083558975206
 10
-12.95240022532295
 20
37.38083558975206
 10
-12.35252874042399
 20
38.71565392391761
 10
-10.64639685172309
 20
38.71565392391761
 10
-10.34727999772013
 20
37.38083558975206
1001
AcDbBlockRepETag
1070
     1
1071
      606
1005
3E6F
  0
LWPOLYLINE
  5
3E70
330
3E60
100
AcDbEntity
  8
APL Border
  6
Continuous
 62
     8
100
AcDbPolyline
 90
        7
 70
     1
 43
0.0
 10
-18.99614352503855
 20
43.61979184908029
 10
-17.7875751270476
 20
37.38083558975206
 10
-15.77022638070494
 20
37.38083558975206
 10
-12.96642015501169
 20
43.61979184908029
 10
-14.7664201550117
 20
43.61979184908029
 10
-16.54136876356097
 20
39.42215966960597
 10
-17.19614352503853
 20
43.61979184908029
1001
AcDbBlockRepETag
1070
     1
1071
      608
1005
3E70
  0
LWPOLYLINE
  5
3E71
102
{ACAD_REACTORS
330
3EA1
102
}
330
3E60
100
AcDbEntity
  8
APL Border
  6
Continuous
 62
     8
100
AcDbPolyline
 90
        4
 70
     1
 43
0.0
 10
16.33779773177886
 20
35.29789574745093
 10
-16.33747952551644
 20
35.29789574745093
 10
-12.98884796421711
 20
29.49789574745094
 10
12.98916617047902
 20
29.49789574745094
1001
AcDbBlockRepETag
1070
     1
1071
      609
1005
3E71
  0
LWPOLYLINE
  5
3E72
102
{ACAD_REACTORS
330
3E94
102
}
330
3E60
100
AcDbEntity
  8
APL Border
 62
     8
100
AcDbPolyline
 90
        9
 70
     1
 43
0.0
 10
7.455500104221528
 20
25.00957443408062
 10
6.800478684667126
 20
26.87985997284487
 10
7.607536311785906
 20
26.87985997284487
 10
7.963471882016364
 20
25.86355557445326
 10
8.538893993587493
 20
26.87985997284487
 10
9.414203966725494
 20
26.87985997284487
 10
8.232331174709315
 20
25.00957443408062
 10
8.120338037129926
 20
23.87985997284487
 10
7.343506966642138
 20
23.87985997284487
1001
AcDbBlockRepETag
1070
     1
1071
      611
1005
3E72
  0
LWPOLYLINE
  5
3E73
102
{ACAD_REACTORS
330
3E94
102
}
330
3E60
100
AcDbEntity
  8
APL Border
 62
     8
100
AcDbPolyline
 90
        4
 70
     1
 43
0.0
 10
12.20974330707307
 20
28.14789574745094
 10
8.850698786449385
 20
22.32985997284487
 10
-8.850380580188158
 20
22.32985997284487
 10
-12.20942510081127
 20
28.14789574745094
1001
AcDbBlockRepETag
1070
     1
1071
      613
1005
3E73
  0
LWPOLYLINE
  5
3E74
102
{ACAD_REACTORS
330
3E94
102
}
330
3E60
100
AcDbEntity
  8
APL Border
 62
     8
100
AcDbPolyline
 90
        6
 70
     0
 43
0.0
 10
5.580769717272147
 20
26.18861664944085
 10
5.137953374950967
 20
26.18861664944085
 10
4.909077041159065
 20
23.87985997284487
 10
4.132245970671277
 20
23.87985997284487
 10
4.429648034880159
 20
26.87985997284487
 10
5.793677369303878
 20
26.87985997284487
1001
AcDbBlockRepETag
1070
     1
1071
      614
1005
3E74
  0
LWPOLYLINE
  5
3E75
102
{ACAD_REACTORS
330
3EA1
102
}
330
3E60
100
AcDbEntity
  8
APL Border
  6
Continuous
 62
     8
100
AcDbPolyline
 90
        4
 70
     1
 43
0.0
 10
1.119422795136273
 20
34.02289574745092
 10
0.3425917246484857
 20
34.02289574745092
 10
0.0451896604396041
 20
31.02289574745093
 10
0.8220207309273916
 20
31.02289574745093
1001
AcDbBlockRepETag
1070
     1
1071
      620
1005
3E75
  0
LWPOLYLINE
  5
3E76
102
{ACAD_REACTORS
330
3E94
102
}
330
3E60
100
AcDbEntity
  8
APL Border
 62
     8
100
AcDbPolyline
 90
        4
 70
     0
 43
0.0
 10
6.045077525535504
 20
25.1035057083981
 10
6.339444173005233
 20
23.87985997284487
 10
5.532386545886623
 20
23.87985997284487
 10
5.142141867913778
 20
25.50205881951548
1001
AcDbBlockRepETag
1070
     1
1071
      621
1005
3E76
  0
LWPOLYLINE
  5
3E77
102
{ACAD_REACTORS
330
3E95
102
}
330
3E60
100
AcDbEntity
  8
APL Border
 62
     8
100
AcDbPolyline
 90
        4
 70
     1
 43
0.0
 10
0.0001591031300165
 20
7.000275566930961
 10
3.563095122801513
 20
13.17146177711931
 10
-0.9450856774407441
 20
20.97985997284487
 10
-8.070957716782203
 20
20.97985997284487
1001
AcDbBlockRepETag
1070
     1
1071
      622
1005
3E77
  0
LWPOLYLINE
  5
3E78
102
{ACAD_REACTORS
330
3E99
102
}
330
3E60
100
AcDbEntity
  8
APL Border
 62
     8
100
AcDbPolyline
 90
        3
 70
     1
 43
0.0
 10
0.8484489512626112
 20
20.97985997284487
 10
4.459862437153191
 20
14.72470832814346
 10
8.071275923043373
 20
20.97985997284487
1001
AcDbBlockRepETag
1070
     1
1071
      623
1005
3E78
  0
LWPOLYLINE
  5
3E79
102
{ACAD_REACTORS
330
3E94
102
}
330
3E60
100
AcDbEntity
  8
APL Border
 62
     8
100
AcDbPolyline
 90
        4
 70
     0
 43
0.0
 10
-7.465264214605014
 20
24.80065518845331
 10
-7.259144283007998
 20
26.87985997284487
 10
-6.48231321252021
 20
26.87985997284487
 10
-6.679452083611295
 20
24.89125032803118
1001
AcDbBlockRepETag
1070
     1
1071
      626
1005
3E79
  0
LWPOLYLINE
  5
3E7A
102
{ACAD_REACTORS
330
3E94
102
}
330
3E60
100
AcDbEntity
  8
APL Border
 62
     8
100
AcDbPolyline
 90
        4
 70
     0
 43
0.0
 10
-7.845603808282817
 20
23.89886637823479
 10
-8.399876560405061
 20
23.98304774476413
 10
-8.399876560405061
 20
24.64579492155148
 10
-7.81511791605564
 20
24.56632682606838
1001
AcDbBlockRepETag
1070
     1
1071
      627
1005
3E7A
  0
LWPOLYLINE
  5
3E7B
102
{ACAD_REACTORS
330
3EA1
102
}
330
3E60
100
AcDbEntity
  8
APL Border
  6
Continuous
 62
     8
100
AcDbPolyline
 90
        6
 70
     1
 43
0.0
 10
-7.549934049473819
 20
34.02289574745092
 10
-8.326765119961606
 20
34.02289574745092
 10
-8.624167184170488
 20
31.02289574745093
 10
-6.770246795158442
 20
31.02289574745093
 10
-6.700109532938455
 20
31.73039516316516
 10
-7.777198851462713
 20
31.73039516316516
1001
AcDbBlockRepETag
1070
     1
1071
      628
1005
3E7B
  0
LWPOLYLINE
  5
3E7C
102
{ACAD_REACTORS
330
3EA1
102
}
330
3E60
100
AcDbEntity
  8
APL Border
  6
Continuous
 62
     8
100
AcDbPolyline
 90
        3
 70
     1
 43
0.0
 10
-10.14693849009504
 20
33.12550842600547
 10
-10.00044093617224
 20
32.51653621849665
 10
-10.45444607654239
 20
32.51653621849665
1001
AcDbBlockRepETag
1070
     1
1071
      629
1005
3E7C
  0
LWPOLYLINE
  5
3E7D
102
{ACAD_REACTORS
330
3EA1
102
}
330
3E60
100
AcDbEntity
  8
APL Border
  6
Continuous
 62
     8
100
AcDbPolyline
 90
        8
 70
     1
 43
0.0
 10
-8.834065309397374
 20
31.02289574745093
 10
-9.555761072109191
 20
34.02289574745092
 10
-10.50084997043805
 20
34.02289574745092
 10
-12.01573480092304
 20
31.02289574745093
 10
-11.20867717380426
 20
31.02289574745093
 10
-10.74455961985978
 20
31.94201027933759
 10
-9.862229957552528
 20
31.94201027933759
 10
-9.641122936515984
 20
31.02289574745093
1001
AcDbBlockRepETag
1070
     1
1071
      630
1005
3E7D
  0
LWPOLYLINE
  5
3E7E
102
{ACAD_REACTORS
330
3E9A
102
}
330
3E60
100
AcDbEntity
  8
APL Border
 62
     8
100
AcDbPolyline
 90
        3
 70
     1
 43
0.0
 10
0.0000000003145431
 20
4.000000000000009
 10
23.60256143704041
 20
44.88083558975217
 10
-23.60256142783933
 20
44.88083558975206
1001
AcDbBlockRepETag
1070
     1
1071
      631
1005
3E7E
  0
LWPOLYLINE
  5
3E7F
102
{ACAD_REACTORS
330
3E9A
102
}
330
3E60
100
AcDbEntity
  8
APL Border
 62
     8
100
AcDbPolyline
 90
        3
 70
     1
 43
0.0
 10
27.06666305249243
 20
46.88083558975206
 10
-27.06666304266244
 20
46.88083558975206
 10
-0.0000000000000284
 20
0.0000000000000238
1001
AcDbBlockRepETag
1070
     1
1071
      703
1005
3E7F
  0
LWPOLYLINE
  5
3E80
102
{ACAD_REACTORS
330
3E9E
330
3EA0
102
}
330
3E60
100
AcDbEntity
  8
APL Border
  6
Continuous
 62
     8
100
AcDbPolyline
 90
        8
 70
     1
 43
0.0
 10
7.980630193374565
 20
37.38083558975206
 10
6.582554574553398
 20
43.61979184908029
 10
4.406818458607517
 20
43.61979184908029
 10
1.603012232914267
 20
37.38083558975206
 10
3.477407896786047
 20
37.38083558975206
 10
4.077279381685002
 20
38.71565392391761
 10
5.783411270385897
 20
38.71565392391761
 10
6.082528124388858
 20
37.38083558975206
1001
AcDbBlockRepETag
1070
     1
1071
      760
1005
3E80
  0
LWPOLYLINE
  5
3E81
102
{ACAD_REACTORS
330
3E9E
330
3EA0
102
}
330
3E60
100
AcDbEntity
  8
APL Border
  6
Continuous
 62
     8
100
AcDbPolyline
 90
        3
 70
     1
 43
0.0
 10
5.206046831612667
 20
41.69367581194667
 10
5.552066120962537
 20
40.14955389030274
 10
4.512113667606024
 20
40.14955389030274
1001
AcDbBlockRepETag
1070
     1
1071
      761
1005
3E81
  0
LWPOLYLINE
  5
3E82
102
{ACAD_REACTORS
330
3EA1
102
}
330
3E60
100
AcDbEntity
  8
APL Border
  6
Continuous
 62
     8
100
AcDbPolyline
 90
        4
 70
     1
 43
0.0
 10
5.615530392135354
 20
34.02289574745092
 10
4.838699321647567
 20
34.02289574745092
 10
4.541297257438685
 20
31.02289574745093
 10
5.318128327926473
 20
31.02289574745093
1001
AcDbBlockRepETag
1070
     1
1071
      785
1005
3E82
  0
LWPOLYLINE
  5
3E83
102
{ACAD_REACTORS
330
3EA1
102
}
330
3E60
100
AcDbEntity
  8
APL Border
 62
     8
100
AcDbPolyline
 90
       13
 70
     0
 43
0.0
 10
-5.535628094882099
 20
32.1870929174454
 10
-5.353790768486447
 20
34.02289574745092
 10
-6.130425112774389
 20
34.0248801943346
 10
-6.333826921263238
 20
31.9730940808461
 42
0.1695250701542156
 10
-6.106840682758871
 20
31.39301551086222
 42
0.0826087127293405
 10
-5.813961912619959
 20
31.13108995311734
 42
0.1017056431856583
 10
-5.510404689928634
 20
31.02488019433462
 10
-4.760057203160528
 20
31.0248801943346
 42
0.1918846087154957
 10
-4.136172756560569
 20
31.41919793838074
 42
0.1021851328841131
 10
-3.889225876952792
 20
31.97309408084612
 10
-3.685824068463887
 20
34.0248801943346
 10
-4.462655138951674
 20
34.0248801943346
 10
-4.65073703420694
 20
32.12763147393075
1001
AcDbBlockRepETag
1070
     1
1071
      866
1005
3E83
  0
SPLINE
  5
3E84
102
{ACAD_REACTORS
330
3EA1
102
}
330
3E60
100
AcDbEntity
  8
APL Border
 62
     8
100
AcDbSpline
210
0.0
220
0.0
230
1.0
 70
     8
 71
     3
 72
    24
 73
    20
 74
    18
 42
0.0000000001
 43
0.0000000001
 44
0.0000000001
 40
0.0
 40
0.0
 40
0.0
 40
0.0
 40
0.1612668085855933
 40
0.2532303870616441
 40
0.3214574742553387
 40
0.4101806452459026
 40
0.5031588697521256
 40
0.5664511009171887
 40
0.624871878778038
 40
0.6731644290699905
 40
0.7797386132933425
 40
0.9206747739903356
 40
1.025058962643435
 40
1.116412352300609
 40
1.212929457806147
 40
1.276240530363035
 40
1.339961572016457
 40
1.386280507025952
 40
1.435584820291647
 40
1.435584820291647
 40
1.435584820291647
 40
1.435584820291647
 10
-5.535628094882099
 20
32.1870929174454
 30
0.0
 10
-5.53213414748617
 20
32.13312332644234
 30
0.0
 10
-5.526647751003197
 20
32.04837718097616
 30
0.0
 10
-5.488860432547518
 20
31.94683424540268
 30
0.0
 10
-5.447171648840961
 20
31.8753242559261
 30
0.0
 10
-5.395818187958767
 20
31.80737001333622
 30
0.0
 10
-5.320761662408248
 20
31.77062767698265
 30
0.0
 10
-5.254477128417399
 20
31.74466351916423
 30
0.0
 10
-5.200112096792143
 20
31.72723210184819
 30
0.0
 10
-5.128888988289486
 20
31.72198763189771
 30
0.0
 10
-5.030042811850907
 20
31.72786870372271
 30
0.0
 10
-4.915707066470194
 20
31.75812586881066
 30
0.0
 10
-4.815771266393483
 20
31.81405298527761
 30
0.0
 10
-4.754740567305573
 20
31.89193427605802
 30
0.0
 10
-4.714673995441981
 20
31.96546823314959
 30
0.0
 10
-4.683526695854578
 20
32.03313813212702
 30
0.0
 10
-4.662006183068958
 20
32.08703079743258
 30
0.0
 10
-4.651792807669443
 20
32.13930455656534
 30
0.0
 10
-4.647206914869654
 20
32.17083533130903
 30
0.0
 10
-4.644842382192905
 20
32.1870929174454
 30
0.0
 11
-5.535628094882099
 21
32.1870929174454
 31
0.0
 11
-5.515298846223288
 21
32.02711258990369
 31
0.0
 11
-5.483433995220536
 21
31.94084596230824
 31
0.0
 11
-5.44947766231354
 21
31.88166908437061
 31
0.0
 11
-5.392321718875223
 21
31.8138089399536
 31
0.0
 11
-5.311535231450477
 21
31.76778184269665
 31
0.0
 11
-5.252609732475718
 21
31.74468006578604
 31
0.0
 11
-5.196420818688864
 21
31.72868652792477
 31
0.0
 11
-5.148347479287053
 21
31.72409039341204
 31
0.0
 11
-5.041949649235618
 21
31.73021889267523
 31
0.0
 11
-4.906104524581394
 21
31.76775692005663
 31
0.0
 11
-4.816802280674096
 21
31.82180475140893
 31
0.0
 11
-4.758009512288197
 21
31.89172507883507
 31
0.0
 11
-4.710553499371997
 21
31.97576958188711
 31
0.0
 11
-4.684063009443377
 21
32.03327215445256
 31
0.0
 11
-4.662061522518769
 21
32.09307437617135
 31
0.0
 11
-4.652346246099511
 21
32.13836297456555
 31
0.0
 11
-4.644842382192905
 21
32.1870929174454
 31
0.0
1001
AcDbBlockRepETag
1070
     1
1071
      827
1005
3E84
  0
LWPOLYLINE
  5
3E85
102
{ACAD_REACTORS
330
3EA1
102
}
330
3E60
100
AcDbEntity
  8
APL Border
 62
     8
100
AcDbPolyline
 90
       13
 70
     0
 43
0.0
 10
6.787553510813182
 20
32.18510847056172
 10
6.969390837208834
 20
34.02091130056725
 10
6.192756492920892
 20
34.02289574745092
 10
5.989354684432043
 20
31.97110963396243
 42
0.1695250701542156
 10
6.21634092293641
 20
31.39103106397854
 42
0.0826087127293405
 10
6.509219693075323
 20
31.12910550623367
 42
0.1017056431856583
 10
6.812776915766647
 20
31.02289574745094
 10
7.563124402534754
 20
31.02289574745093
 42
0.1918846087154957
 10
8.187008849134713
 20
31.41721349149707
 42
0.1021851328841131
 10
8.433955728742489
 20
31.97110963396244
 10
8.637357537231395
 20
34.02289574745092
 10
7.860526466743607
 20
34.02289574745092
 10
7.672444571488341
 20
32.12564702704707
1001
AcDbBlockRepETag
1070
     1
1071
      837
1005
3E85
  0
LWPOLYLINE
  5
3E86
102
{ACAD_REACTORS
330
3EA1
102
}
330
3E60
100
AcDbEntity
  8
APL Border
  6
Continuous
 62
     8
100
AcDbPolyline
 90
       13
 70
     1
 43
0.0
 10
-1.295012624591635
 20
34.02807364104484
 10
-0.1975458970834154
 20
34.0280551402308
 10
-0.4949479612922972
 20
31.0280551402308
 10
-1.115886909891884
 20
31.0280551402308
 10
-0.9222174129992311
 20
32.98166797820307
 10
-1.611942464131544
 20
31.0280551402308
 10
-2.344230471214956
 20
31.0280551402308
 10
-2.63016252924163
 20
32.98166797820306
 10
-2.823832026134283
 20
31.0280551402308
 10
-3.44477097473387
 20
31.0280551402308
 10
-3.147349004861581
 20
34.02825593571061
 10
-2.047349004861558
 20
34.02825593571061
 10
-1.8272453185659
 20
32.52441131541936
1001
AcDbBlockRepETag
1070
     1
1071
      867
1005
3E86
  0
LWPOLYLINE
  5
3E87
102
{ACAD_REACTORS
330
3EA1
102
}
330
3E60
100
AcDbEntity
  8
APL Border
  6
Continuous
 62
     8
100
AcDbPolyline
 90
       10
 70
     1
 43
0.0
 10
1.724974710806094
 20
34.02289574745092
 10
1.427552740933805
 20
31.02269495197112
 10
2.048491689533392
 20
31.02269495197112
 10
2.231899581960561
 20
32.87279534971117
 10
3.051434648859952
 20
31.02269495197112
 10
3.902826396438257
 20
31.02269495197112
 10
4.200228460647139
 20
34.02269495197112
 10
3.580266230192904
 20
34.02269495197112
 10
3.395920304875374
 20
32.17298478610545
 10
2.576558098165463
 20
34.02269495197112
1001
AcDbBlockRepETag
1070
     1
1071
      616
1005
3E87
  0
LWPOLYLINE
  5
3E88
102
{ACAD_REACTORS
330
3EA1
102
}
330
3E60
100
AcDbEntity
  8
APL Border
  6
Continuous
 62
     8
100
AcDbPolyline
 90
       13
 70
     1
 43
0.0
 10
11.01183437133605
 20
34.02271345278515
 10
12.10930109884427
 20
34.02269495197111
 10
11.81189903463539
 20
31.02269495197111
 10
11.1909600860358
 20
31.02269495197111
 10
11.38462958292845
 20
32.97630778994339
 10
10.69490453179614
 20
31.02269495197111
 10
9.962616524712728
 20
31.02269495197111
 10
9.676684466686054
 20
32.97630778994338
 10
9.483014969793401
 20
31.02269495197111
 10
8.862076021193814
 20
31.02269495197111
 10
9.159497991066103
 20
34.02289574745092
 10
10.25949799106612
 20
34.02289574745092
 10
10.47960167736178
 20
32.51905112715967
1001
AcDbBlockRepETag
1070
     1
1071
      847
1005
3E88
  0
SPLINE
  5
3E89
102
{ACAD_REACTORS
330
3EA1
102
}
330
3E60
100
AcDbEntity
  8
APL Border
 62
     8
100
AcDbSpline
210
0.0
220
0.0
230
1.0
 70
     8
 71
     3
 72
    24
 73
    20
 74
    18
 42
0.0000000001
 43
0.0000000001
 44
0.0000000001
 40
0.0
 40
0.0
 40
0.0
 40
0.0
 40
0.1612668085856004
 40
0.2532303870616512
 40
0.3214574742553458
 40
0.4101806452458731
 40
0.5031588697521455
 40
0.5664511009172086
 40
0.6248718787780579
 40
0.6731644290699537
 40
0.7797386132933625
 40
0.9206747739903555
 40
1.025058962643406
 40
1.116412352300617
 40
1.212929457806155
 40
1.276240530363043
 40
1.339961572016455
 40
1.386280507025956
 40
1.435584820291643
 40
1.435584820291643
 40
1.435584820291643
 40
1.435584820291643
 10
6.787553510813182
 20
32.18510847056172
 30
0.0
 10
6.791047458209138
 20
32.13113887955867
 30
0.0
 10
6.796533854692151
 20
32.04639273409249
 30
0.0
 10
6.834321173147815
 20
31.94484979851901
 30
0.0
 10
6.876009956854381
 20
31.87333980904243
 30
0.0
 10
6.927363417736518
 20
31.80538556645249
 30
0.0
 10
7.002419943287081
 20
31.76864323009899
 30
0.0
 10
7.068704477277941
 20
31.74267907228054
 30
0.0
 10
7.123069508903178
 20
31.72524765496453
 30
0.0
 10
7.194292617405833
 20
31.72000318501402
 30
0.0
 10
7.293138793844411
 20
31.72588425683905
 30
0.0
 10
7.407474539225143
 20
31.75614142192696
 30
0.0
 10
7.507410339301799
 20
31.81206853839397
 30
0.0
 10
7.568441038389779
 20
31.88994982917432
 30
0.0
 10
7.608507610253345
 20
31.96348378626594
 30
0.0
 10
7.639654909840773
 20
32.03115368524333
 30
0.0
 10
7.661175422626328
 20
32.08504635054892
 30
0.0
 10
7.671388798025919
 20
32.13732010968165
 30
0.0
 10
7.675974690825655
 20
32.16885088442535
 30
0.0
 10
7.678339223502376
 20
32.18510847056172
 30
0.0
 11
6.787553510813182
 21
32.18510847056172
 31
0.0
 11
6.80788275947205
 21
32.02512814302002
 31
0.0
 11
6.839747610474802
 21
31.93886151542456
 31
0.0
 11
6.873703943381798
 21
31.87968463748693
 31
0.0
 11
6.930859886820059
 21
31.81182449306993
 31
0.0
 11
7.011646374244861
 21
31.76579739581298
 31
0.0
 11
7.07057187321962
 21
31.74269561890237
 31
0.0
 11
7.126760787006475
 21
31.72670208104109
 31
0.0
 11
7.174834126408228
 21
31.72210594652836
 31
0.0
 11
7.28123195645972
 21
31.72823444579155
 31
0.0
 11
7.417077081113944
 21
31.76577247317295
 31
0.0
 11
7.506379325021185
 21
31.81982030452526
 31
0.0
 11
7.565172093407142
 21
31.88974063195139
 31
0.0
 11
7.612628106323342
 21
31.97378513500343
 31
0.0
 11
7.639118596251961
 21
32.03128770756889
 31
0.0
 11
7.661120083176541
 21
32.09108992928768
 31
0.0
 11
7.670835359595827
 21
32.13637852768188
 31
0.0
 11
7.678339223502376
 21
32.18510847056172
 31
0.0
1001
AcDbBlockRepETag
1070
     1
1071
      848
1005
3E89
  0
LWPOLYLINE
  5
3E8A
102
{ACAD_REACTORS
330
3E94
102
}
330
3E60
100
AcDbEntity
  8
APL Border
  6
Continuous
 62
     8
100
AcDbPolyline
 90
        4
 70
     1
 43
0.0
 10
-1.87552020613694
 20
26.87985997284487
 10
-2.652351276624727
 20
26.87985997284487
 10
-2.949753340833609
 20
23.87985997284487
 10
-2.172922270345821
 20
23.87985997284487
1001
AcDbBlockRepETag
1070
     1
1071
      851
1005
3E8A
  0
LWPOLYLINE
  5
3E8B
102
{ACAD_REACTORS
330
3E94
102
}
330
3E60
100
AcDbEntity
  8
APL Border
  6
Continuous
 62
     8
100
AcDbPolyline
 90
       10
 70
     1
 43
0.0
 10
-1.269968290467119
 20
26.87985997284487
 10
-1.567390260339408
 20
23.87965917736506
 10
-0.9464513117398212
 20
23.87965917736506
 10
-0.7630434193126519
 20
25.72975957510511
 10
0.0564916475867392
 20
23.87965917736506
 10
0.9078833951650437
 20
23.87965917736506
 10
1.205285459373925
 20
26.87965917736506
 10
0.5853232289196911
 20
26.87965917736506
 10
0.4009773036021614
 20
25.0299490114994
 10
-0.41838490310775
 20
26.87965917736506
1001
AcDbBlockRepETag
1070
     1
1071
      852
1005
3E8B
  0
LWPOLYLINE
  5
3E8C
102
{ACAD_REACTORS
330
3E94
102
}
330
3E60
100
AcDbEntity
  8
APL Border
 62
     8
100
AcDbPolyline
 90
       13
 70
     0
 43
0.0
 10
1.882971499788112
 20
26.87985997284487
 10
3.847979515363789
 20
26.87985997284487
 10
3.788499102522024
 20
26.27985997284487
 10
2.600322157434135
 20
26.27985997284487
 10
2.540562294183217
 20
25.67704105755032
 10
3.542578834455781
 20
25.67704105755032
 10
3.476410183919
 20
25.07985997284487
 10
2.474393643646379
 20
25.07985997284487
 10
2.421932428393546
 20
24.48037956726917
 10
3.610109373481435
 20
24.48037956726917
 10
3.550577451154907
 20
23.87985997284487
 10
1.58556943557923
 20
23.87985997284487
 10
1.882971499788112
 20
26.87985997284487
1001
AcDbBlockRepETag
1070
     1
1071
      864
1005
3E8C
  0
LINE
  5
3E8D
102
{ACAD_REACTORS
330
3E94
102
}
330
3E60
100
AcDbEntity
  8
APL Border
 62
     8
100
AcDbLine
 10
5.198870965514487
 20
25.50205881951548
 30
0.0
 11
5.142141867913778
 21
25.50205881951548
 31
0.0
1001
AcDbBlockRepETag
1070
     1
1071
      865
1005
3E8D
  0
SPLINE
  5
3E8E
102
{ACAD_REACTORS
330
3E94
102
}
330
3E60
100
AcDbEntity
  8
APL Border
 62
     8
100
AcDbSpline
210
0.0
220
0.0
230
1.0
 70
     8
 71
     3
 72
    25
 73
    21
 74
     0
 42
0.0000000001
 43
0.0000000001
 40
0.0
 40
0.0
 40
0.0
 40
0.0
 40
0.3463130802699203
 40
0.6043703055549736
 40
0.8524756959462802
 40
1.099102870182333
 40
1.318598063912852
 40
1.521064627602771
 40
1.694788988362445
 40
1.912615757663666
 40
2.142780600046976
 40
2.483378398179008
 40
2.873129106540456
 40
3.09179617846886
 40
3.322387155839943
 40
3.509181810940893
 40
3.69147909649244
 40
3.927844502409028
 40
4.143063657146388
 40
4.406491840702669
 40
4.406491840702669
 40
4.406491840702669
 40
4.406491840702669
 10
-5.114032196843737
 20
23.8798599728377
 30
0.0
 10
-5.228982970363915
 20
23.89503832123493
 30
0.0
 10
-5.429589987754155
 20
23.92152690506636
 30
0.0
 10
-5.693675021857103
 20
24.03567408988205
 30
0.0
 10
-5.892941488864977
 20
24.19306688135278
 30
0.0
 10
-6.036314150572081
 20
24.38541826526996
 30
0.0
 10
-6.137502326421099
 20
24.58575647986304
 30
0.0
 10
-6.184089306330008
 20
24.77995730666768
 30
0.0
 10
-6.209030826709039
 20
24.97670983726675
 30
0.0
 10
-6.206060891535827
 20
25.18442176502657
 30
0.0
 10
-6.186178297010457
 20
25.44676950423098
 30
0.0
 10
-6.128537036390639
 20
25.76177491648128
 30
0.0
 10
-6.024273636684796
 20
26.06592307272473
 30
0.0
 10
-5.858617591962229
 20
26.29271170654482
 30
0.0
 10
-5.725334295882049
 20
26.45803039682342
 30
0.0
 10
-5.575727893531166
 20
26.59168695454355
 30
0.0
 10
-5.409633372236157
 20
26.70740493083671
 30
0.0
 10
-5.217340570729675
 20
26.79721770551459
 30
0.0
 10
-4.988026372094168
 20
26.86731869684436
 30
0.0
 10
-4.849424991220388
 20
26.87777876054341
 30
0.0
 10
-4.7645039250757
 20
26.87985997283595
 30
0.0
1001
AcDbBlockRepETag
1070
     1
1071
      875
1005
3E8E
  0
ELLIPSE
  5
3E8F
102
{ACAD_REACTORS
330
3E93
330
3E94
102
}
330
3E60
100
AcDbEntity
  8
APL Border
 62
     8
100
AcDbEllipse
 10
-4.728528852722632
 20
25.3825150979867
 30
0.0
 11
-0.2732326585474372
 21
-0.8283682112856686
 31
0.0
210
0.0
220
0.0
230
-1.0
 40
0.767138872147242
 41
0.0
 42
6.283185307179586
1001
AcDbBlockRepETag
1070
     1
1071
      876
1005
3E8F
  0
SPLINE
  5
3E90
102
{ACAD_REACTORS
330
3E94
102
}
330
3E60
100
AcDbEntity
  8
APL Border
 62
     8
100
AcDbSpline
210
0.0
220
0.0
230
1.0
 70
     8
 71
     3
 72
    26
 73
    22
 74
     0
 42
0.0000000001
 43
0.0000000001
 40
4.60284491300692
 40
4.60284491300692
 40
4.60284491300692
 40
4.60284491300692
 40
4.695921259854779
 40
4.963507654731998
 40
5.182979392648435
 40
5.397234555269768
 40
5.619529682274728
 40
5.869260387557257
 40
6.093250787730498
 40
6.263427758207029
 40
6.582064557968705
 40
6.800458868269094
 40
7.179401531729983
 40
7.575889850719137
 40
7.787844664578662
 40
8.01909420716162
 40
8.205730502580088
 40
8.387453763945252
 40
8.621856230932909
 40
8.833419194479944
 40
8.988019761194074
 40
8.988019761194074
 40
8.988019761194074
 40
8.988019761194074
 10
-4.486699891621668
 20
26.8798599728377
 30
0.0
 10
-4.440001835107608
 20
26.87954742494388
 30
0.0
 10
-4.335540249228728
 20
26.87475925711838
 30
0.0
 10
-4.164200665084621
 20
26.85307202884131
 30
0.0
 10
-3.96932086400659
 20
26.77880589501945
 30
0.0
 10
-3.766465201232762
 20
26.6658847706859
 30
0.0
 10
-3.60114437794968
 20
26.50570040783856
 30
0.0
 10
-3.471205788265336
 20
26.31143584383913
 30
0.0
 10
-3.381388817883674
 20
26.11392472080339
 30
0.0
 10
-3.317144182132551
 20
25.88552622199355
 30
0.0
 10
-3.281793375658168
 20
25.65006475492956
 30
0.0
 10
-3.30137826591374
 20
25.34538614523087
 30
0.0
 10
-3.327064239225308
 20
25.0112478652753
 30
0.0
 10
-3.471288581215731
 20
24.71021445059323
 30
0.0
 10
-3.60460091530777
 20
24.4641890220082
 30
0.0
 10
-3.737092402415015
 20
24.29954990084814
 30
0.0
 10
-3.882945983371143
 20
24.16225529150343
 30
0.0
 10
-4.046861838463826
 20
24.04508050911121
 30
0.0
 10
-4.233796525969012
 20
23.94884265716423
 30
0.0
 10
-4.427631511903911
 20
23.89220734010023
 30
0.0
 10
-4.549580407823555
 20
23.882511578974
 30
0.0
 10
-4.601116794093542
 20
23.87985997285202
 30
0.0
1001
AcDbBlockRepETag
1070
     1
1071
      877
1005
3E90
  0
LWPOLYLINE
  5
3E91
102
{ACAD_REACTORS
330
3E94
102
}
330
3E60
100
AcDbEntity
  8
APL Border
 62
     8
100
AcDbPolyline
 90
        2
 70
     0
 43
0.0
 10
-4.764503925211641
 20
26.8798599728377
 10
-4.486699891621924
 20
26.8798599728377
1001
AcDbBlockRepETag
1070
     1
1071
      878
1005
3E91
  0
LWPOLYLINE
  5
3E92
102
{ACAD_REACTORS
330
3E94
102
}
330
3E60
100
AcDbEntity
  8
APL Border
 62
     8
100
AcDbPolyline
 90
        2
 70
     0
 43
0.0
 10
-5.114032196843737
 20
23.8798599728377
 10
-4.601116794093513
 20
23.87985997285202
1001
AcDbBlockRepETag
1070
     1
1071
      879
1005
3E92
  0
HATCH
  5
3E93
330
3E60
100
AcDbEntity
  8
APL Border
 62
     8
100
AcDbHatch
 10
0.0
 20
0.0
 30
0.0
210
0.0
220
0.0
230
1.0
  2
SOLID
 70
     1
 71
     1
 91
        1
 92
        5
 93
        1
 72
     3
 10
-4.728528852722632
 20
25.3825150979867
 11
-0.2732326585474372
 21
-0.8283682112856686
 40
0.767138872147242
 50
0.0
 51
360.0
 73
     0
 97
        1
330
3E8F
 75
     0
 76
     1
 47
0.0172809346375552
 98
        1
 10
-4.520972790815363
 20
25.15086651129009
1001
ACAD
1010
0.0
1020
0.0
1030
0.0
1001
AcDbBlockRepETag
1070
     1
1071
      880
1005
3E93
  0
HATCH
  5
3E94
330
3E60
100
AcDbEntity
  8
APL Border
 62
     8
100
AcDbHatch
 10
0.0
 20
0.0
 30
0.0
210
0.0
220
0.0
230
1.0
  2
SOLID
 70
     1
 71
     1
 91
        9
 92
        7
 72
     0
 73
     1
 93
        4
 10
-12.20942510081127
 20
28.14789574745095
 10
-8.85038058018816
 20
22.32985997284487
 10
8.850698786449385
 20
22.32985997284487
 10
12.20974330707306
 20
28.14789574745094
 97
        1
330
3E73
 92
       20
 93
        4
 72
     4
 94
        3
 73
     0
 74
     0
 95
       25
 96
       21
 40
0.0
 40
0.0
 40
0.0
 40
0.0
 40
0.3463130802699203
 40
0.6043703055549736
 40
0.8524756959462802
 40
1.099102870182333
 40
1.318598063912852
 40
1.521064627602771
 40
1.694788988362445
 40
1.912615757663666
 40
2.142780600046976
 40
2.483378398179008
 40
2.873129106540456
 40
3.09179617846886
 40
3.322387155839943
 40
3.509181810940893
 40
3.69147909649244
 40
3.927844502409028
 40
4.143063657146388
 40
4.406491840702669
 40
4.406491840702669
 40
4.406491840702669
 40
4.406491840702669
 10
-5.114032196843737
 20
23.8798599728377
 10
-5.228982970363915
 20
23.89503832123493
 10
-5.429589987754155
 20
23.92152690506636
 10
-5.693675021857103
 20
24.03567408988205
 10
-5.892941488864977
 20
24.19306688135278
 10
-6.036314150572081
 20
24.38541826526996
 10
-6.137502326421099
 20
24.58575647986304
 10
-6.184089306330008
 20
24.77995730666768
 10
-6.209030826709039
 20
24.97670983726675
 10
-6.206060891535827
 20
25.18442176502657
 10
-6.186178297010457
 20
25.44676950423098
 10
-6.128537036390639
 20
25.76177491648128
 10
-6.024273636684796
 20
26.06592307272473
 10
-5.858617591962229
 20
26.29271170654482
 10
-5.725334295882049
 20
26.45803039682342
 10
-5.575727893531166
 20
26.59168695454355
 10
-5.409633372236157
 20
26.70740493083671
 10
-5.217340570729675
 20
26.79721770551459
 10
-4.988026372094168
 20
26.86731869684436
 10
-4.849424991220388
 20
26.87777876054341
 10
-4.7645039250757
 20
26.87985997283595
 72
     1
 10
-4.764503925020689
 20
26.87985997283771
 11
-4.486699891621347
 21
26.8798599728377
 72
     4
 94
        3
 73
     0
 74
     0
 95
       26
 96
       22
 40
4.60284491300692
 40
4.60284491300692
 40
4.60284491300692
 40
4.60284491300692
 40
4.695921259854779
 40
4.963507654731998
 40
5.182979392648435
 40
5.397234555269768
 40
5.619529682274728
 40
5.869260387557257
 40
6.093250787730498
 40
6.263427758207029
 40
6.582064557968705
 40
6.800458868269094
 40
7.179401531729983
 40
7.575889850719137
 40
7.787844664578662
 40
8.01909420716162
 40
8.205730502580088
 40
8.387453763945252
 40
8.621856230932909
 40
8.833419194479944
 40
8.988019761194074
 40
8.988019761194074
 40
8.988019761194074
 40
8.988019761194074
 10
-4.486699891621668
 20
26.8798599728377
 10
-4.440001835107608
 20
26.87954742494388
 10
-4.335540249228728
 20
26.87475925711838
 10
-4.164200665084621
 20
26.85307202884131
 10
-3.96932086400659
 20
26.77880589501945
 10
-3.766465201232762
 20
26.6658847706859
 10
-3.60114437794968
 20
26.50570040783856
 10
-3.471205788265336
 20
26.31143584383913
 10
-3.381388817883674
 20
26.11392472080339
 10
-3.317144182132551
 20
25.88552622199355
 10
-3.281793375658168
 20
25.65006475492956
 10
-3.30137826591374
 20
25.34538614523087
 10
-3.327064239225308
 20
25.0112478652753
 10
-3.471288581215731
 20
24.71021445059323
 10
-3.60460091530777
 20
24.4641890220082
 10
-3.737092402415015
 20
24.29954990084814
 10
-3.882945983371143
 20
24.16225529150343
 10
-4.046861838463826
 20
24.04508050911121
 10
-4.233796525969012
 20
23.94884265716423
 10
-4.427631511903911
 20
23.89220734010023
 10
-4.549580407823555
 20
23.882511578974
 10
-4.601116794093542
 20
23.87985997285202
 72
     1
 10
-4.601116794093525
 20
23.87985997285202
 11
-5.114032196843729
 21
23.8798599728377
 97
        4
330
3E8E
330
3E91
330
3E90
330
3E92
 92
        4
 93
        1
 72
     3
 10
-4.728528852722632
 20
25.3825150979867
 11
-0.2732326585474372
 21
-0.8283682112856686
 40
0.767138872147242
 50
0.0
 51
360.0
 73
     0
 97
        1
330
3E8F
 92
       20
 93
        8
 72
     1
 10
-6.482313212520211
 20
26.87985997284487
 11
-6.679452083611267
 21
24.89125032803125
 72
     4
 94
        3
 73
     0
 74
     0
 95
       16
 96
       12
 40
0.0
 40
0.0
 40
0.0
 40
0.0
 40
0.1978277931646383
 40
0.361463118001824
 40
0.5540499897785108
 40
0.7796220130725381
 40
0.979106605438038
 40
1.222151590302332
 40
1.40748727220097
 40
1.607226525619232
 40
1.815049166761618
 40
1.815049166761618
 40
1.815049166761618
 40
1.815049166761618
 10
-6.679452083611295
 20
24.89125032803118
 10
-6.685371732996685
 20
24.82559351525052
 10
-6.696187882184318
 20
24.70562798418881
 10
-6.721757155054632
 20
24.52229576436942
 10
-6.768469983285655
 20
24.33480615160982
 10
-6.860719723390843
 20
24.14153771241002
 10
-7.051789745146265
 20
24.01851519430106
 10
-7.233921808197266
 20
23.91285203345821
 10
-7.443451931375136
 20
23.87675735439051
 10
-7.641222718647384
 20
23.88093312949101
 10
-7.776581895343355
 20
23.89281010788354
 10
-7.845603808282817
 20
23.89886637823479
 72
     1
 10
-7.845603808282787
 20
23.89886637823479
 11
-8.399876560405061
 21
23.98304774476413
 72
     1
 10
-8.399876560405061
 20
23.98304774476413
 11
-8.399876560405061
 21
24.64579492155148
 72
     1
 10
-8.399876560405061
 20
24.64579492155148
 11
-7.815117916056302
 21
24.56632682606845
 72
     4
 94
        3
 73
     0
 74
     0
 95
       11
 96
        7
 40
0.0
 40
0.0
 40
0.0
 40
0.0
 40
0.2042619346961744
 40
0.3074129668363174
 40
0.4146012126853764
 40
0.4826852714337078
 40
0.4826852714337078
 40
0.4826852714337078
 40
0.4826852714337078
 10
-7.815117916056323
 20
24.56632682606847
 10
-7.743266182308218
 20
24.55714977626708
 10
-7.635129760920136
 20
24.54333837224583
 10
-7.524447891091284
 20
24.63752792323729
 10
-7.477352395049535
 20
24.71998790389099
 10
-7.468646137215245
 20
24.77808681972154
 10
-7.465264214605014
 20
24.80065518845331
 72
     1
 10
-7.465264214605014
 20
24.80065518845333
 11
-7.259144283007996
 21
26.87985997284487
 72
     1
 10
-7.259144283007996
 20
26.87985997284487
 11
-6.482313212520211
 21
26.87985997284487
 97
        4
330
3E79
330
3E64
330
3E7A
330
3E65
 92
       22
 72
     0
 73
     1
 93
        4
 10
-2.652351276624725
 20
26.87985997284486
 10
-1.87552020613694
 20
26.87985997284486
 10
-2.172922270345821
 20
23.87985997284487
 10
-2.949753340833609
 20
23.87985997284487
 97
        1
330
3E8A
 92
       22
 72
     0
 73
     1
 93
       10
 10
-1.269968290467114
 20
26.87985997284487
 10
-0.4183849031077484
 20
26.87965917736506
 10
0.4009773036021615
 20
25.0299490114994
 10
0.5853232289196909
 20
26.87965917736506
 10
1.205285459373925
 20
26.87965917736506
 10
0.9078833951650439
 20
23.87965917736506
 10
0.056491647586738
 20
23.87965917736506
 10
-0.7630434193126518
 20
25.72975957510511
 10
-0.946451311739821
 20
23.87965917736506
 10
-1.567390260339408
 20
23.87965917736506
 97
        1
330
3E8B
 92
       22
 72
     0
 73
     1
 93
       12
 10
1.882971499788112
 20
26.87985997284486
 10
3.847979515363789
 20
26.87985997284486
 10
3.788499102522024
 20
26.27985997284486
 10
2.600322157434135
 20
26.27985997284487
 10
2.540562294183218
 20
25.67704105755032
 10
3.542578834455781
 20
25.67704105755032
 10
3.476410183919
 20
25.07985997284487
 10
2.47439364364638
 20
25.07985997284487
 10
2.421932428393546
 20
24.48037956726917
 10
3.610109373481436
 20
24.48037956726917
 10
3.550577451154907
 20
23.87985997284487
 10
1.585569435579231
 20
23.87985997284487
 97
        1
330
3E8C
 92
       20
 93
       11
 72
     1
 10
4.429648034880159
 20
26.87985997284486
 11
5.780015564168562
 21
26.87985997284487
 72
     4
 94
        3
 73
     0
 74
     0
 95
       20
 96
       16
 40
0.0
 40
0.0
 40
0.0
 40
0.0
 40
0.1774120264923274
 40
0.3258093286713144
 40
0.4834060703451958
 40
0.6311237014699663
 40
0.811161917566129
 40
0.9605198197290178
 40
1.289502400757101
 40
1.459697744220917
 40
1.604754171475458
 40
1.794797311213428
 40
2.030760379210173
 40
2.301729078160567
 40
2.393267743077617
 40
2.393267743077617
 40
2.393267743077617
 40
2.393267743077617
 10
5.780015564168593
 20
26.87985997284487
 10
5.839056126904296
 20
26.87337384475878
 10
5.947481505327601
 20
26.86146235781404
 10
6.098807931884806
 20
26.80185114122353
 10
6.227972759762906
 20
26.72168911843352
 10
6.347510602881385
 20
26.61140356622764
 10
6.442310149474394
 20
26.48207375794227
 10
6.536759215535255
 20
26.28338234239492
 10
6.578465181725675
 20
26.06469589684353
 10
6.553150099427256
 20
25.85079503063701
 10
6.524121382020268
 20
25.68499989147718
 10
6.464236525716046
 20
25.50199988960434
 10
6.327150620479812
 20
25.31187331731421
 10
6.179477266233362
 20
25.17172660684537
 10
6.072729148555964
 20
25.11631253421805
 10
6.045077525535504
 20
25.10350570839811
 72
     1
 10
6.045077525535502
 20
25.1035057083981
 11
6.339444173005232
 21
23.87985997284487
 72
     1
 10
6.339444173005232
 20
23.87985997284487
 11
5.532386545886621
 21
23.87985997284487
 72
     1
 10
5.532386545886621
 20
23.87985997284487
 11
5.142141867913776
 21
25.50205881951548
 72
     1
 10
5.142141867913776
 20
25.50205881951548
 11
5.19887096551445
 21
25.50205881951548
 72
     4
 94
        3
 73
     0
 74
     0
 95
       17
 96
       13
 40
0.0
 40
0.0
 40
0.0
 40
0.0
 40
0.0463117202933683
 40
0.2032408426961212
 40
0.3585694343029505
 40
0.4964057577712057
 40
0.6456565825699876
 40
0.7595770154256244
 40
0.9262943680254526
 40
1.032180609131101
 40
1.14647028625934
 40
1.243973057737614
 40
1.243973057737614
 40
1.243973057737614
 40
1.243973057737614
 10
5.198870965514487
 20
25.50205881951548
 10
5.214272018053407
 20
25.50302975767877
 10
5.28186015506489
 20
25.50729075876586
 10
5.40176083940824
 20
25.51345804330556
 10
5.546675458142118
 20
25.55725132865025
 10
5.67725421213268
 20
25.62965962372397
 10
5.765298612935083
 20
25.7349784962169
 10
5.820388894698254
 20
25.86817511516085
 10
5.832561030472788
 20
26.0011917111029
 10
5.781919321100474
 20
26.1258482190374
 10
5.684603990133524
 20
26.18537947021099
 10
5.613502616848251
 20
26.1875961553427
 10
5.580769717272147
 20
26.18861664944085
 72
     1
 10
5.580769717272125
 20
26.18861664944085
 11
5.137953374950967
 21
26.18861664944085
 72
     1
 10
5.137953374950967
 20
26.18861664944085
 11
4.909077041159065
 21
23.87985997284487
 72
     1
 10
4.909077041159065
 20
23.87985997284487
 11
4.132245970671278
 21
23.87985997284487
 72
     1
 10
4.132245970671278
 20
23.87985997284487
 11
4.429648034880159
 21
26.87985997284486
 97
        5
330
3E74
330
3E66
330
3E76
330
3E8D
330
3E67
 92
       22
 72
     0
 73
     1
 93
        9
 10
6.800478684667179
 20
26.87985997284487
 10
7.607536311785904
 20
26.87985997284487
 10
7.963471882016363
 20
25.86355557445326
 10
8.538893993587493
 20
26.87985997284487
 10
9.414203966725493
 20
26.87985997284487
 10
8.232331174709315
 20
25.00957443408062
 10
8.120338037129924
 20
23.87985997284486
 10
7.343506966642139
 20
23.87985997284486
 10
7.455500104221528
 20
25.00957443408062
 97
        1
330
3E72
 75
     0
 76
     1
 47
0.0276408434878157
 98
        9
 10
-5.110068937762804
 20
27.30829258594788
 10
-5.110068937762804
 20
27.30829258594788
 10
-5.110068937762804
 20
27.30829258594788
 10
-5.110068937762804
 20
27.30829258594788
 10
-5.110068937762804
 20
27.30829258594788
 10
-5.110068937762804
 20
27.30829258594788
 10
-5.110068937762804
 20
27.30829258594788
 10
-5.110068937762804
 20
27.30829258594788
 10
-5.110068937762804
 20
27.30829258594788
1001
ACAD
1010
0.0
1020
0.0
1030
0.0
1001
AcDbBlockRepETag
1070
     1
1071
      881
1005
3E94
  0
HATCH
  5
3E95
330
3E60
100
AcDbEntity
  8
APL Border
 62
     8
100
AcDbHatch
 10
0.0
 20
0.0
 30
0.0
210
0.0
220
0.0
230
1.0
  2
SOLID
 70
     1
 71
     1
 91
        1
 92
        7
 72
     0
 73
     1
 93
        4
 10
0.0001591031300169
 20
7.000275566930961
 10
3.563095122801513
 20
13.17146177711931
 10
-0.9450856774407473
 20
20.97985997284487
 10
-8.070957716782199
 20
20.97985997284487
 97
        1
330
3E77
 75
     0
 76
     1
 47
0.0707162833847576
 98
        3
 10
-2.675438732228172
 20
16.47794635472378
 10
6.312751868664321
 20
42.28939048605213
 10
-9.894301834166896
 20
39.60217176706084
1001
ACAD
1010
0.0
1020
0.0
1030
0.0
1001
AcDbBlockRepETag
1070
     1
1071
      883
1005
3E95
  0
HATCH
  5
3E96
330
3E60
100
AcDbEntity
  8
APL Border
 62
     8
100
AcDbHatch
 10
0.0
 20
0.0
 30
0.0
210
0.0
220
0.0
230
1.0
  2
SOLID
 70
     1
 71
     0
 91
        1
 92
        7
 72
     0
 73
     1
 93
        7
 10
-12.96642015501169
 20
43.61979184908029
 10
-14.7664201550117
 20
43.61979184908029
 10
-16.54136876356097
 20
39.42215966960598
 10
-17.19614352503853
 20
43.61979184908029
 10
-18.99614352503854
 20
43.61979184908029
 10
-17.7875751270476
 20
37.38083558975206
 10
-15.77022638070493
 20
37.38083558975206
 97
        0
 75
     0
 76
     1
 47
0.0707162833847576
 98
        3
 10
6.249678794057444
 20
42.28939048605213
 10
-9.957374908773772
 20
39.60217176706084
 10
-16.39773218462096
 20
38.68285940442952
1001
ACAD
1010
0.0
1020
0.0
1030
0.0
1001
AcDbBlockRepETag
1070
     1
1071
      884
1005
3E96
  0
HATCH
  5
3E97
330
3E60
100
AcDbEntity
  8
APL Border
 62
     8
100
AcDbHatch
 10
0.0
 20
0.0
 30
0.0
210
0.0
220
0.0
230
1.0
  2
SOLID
 70
     1
 71
     1
 91
        1
 92
        7
 72
     0
 73
     1
 93
       10
 10
-2.850928947786229
 20
37.38083558975206
 10
-2.181839912298442
 20
43.6197918490803
 10
-3.855464624526036
 20
43.61979184908029
 10
-4.228474015381578
 20
40.14164596649268
 10
-5.40751765387219
 20
43.61979184908029
 10
-7.466097855805088
 20
43.61979184908029
 10
-8.135186891292875
 20
37.38083558975206
 10
-6.479801476178323
 20
37.38083558975206
 10
-6.131920885667285
 20
40.6246666384634
 10
-5.032306754624555
 20
37.38083558975206
 97
        1
330
3E6E
 75
     0
 76
     1
 47
0.0707162833847576
 98
        3
 10
6.312751868664321
 20
42.28939048605213
 10
-5.364819983741796
 20
40.80434854252457
 10
-9.894301834166896
 20
39.60217176706084
1001
ACAD
1010
0.0
1020
0.0
1030
0.0
1001
AcDbBlockRepETag
1070
     1
1071
      886
1005
3E97
  0
HATCH
  5
3E98
330
3E60
100
AcDbEntity
  8
APL Border
 62
     8
100
AcDbHatch
 10
0.0
 20
0.0
 30
0.0
210
0.0
220
0.0
230
1.0
  2
SOLID
 70
     1
 71
     1
 91
        1
 92
        7
 72
     0
 73
     1
 93
        8
 10
2.929095477768755
 20
41.97282181113101
 10
3.105743226874893
 20
43.6199831327606
 10
-1.725754035154748
 20
43.61998313276061
 10
-1.891167362926863
 20
41.97282181113101
 10
-0.3755272841536335
 20
41.97282181113101
 10
-0.8679685705352806
 20
37.38102687343239
 10
0.9741138955425025
 20
37.38339558452146
 10
1.466301152475638
 20
41.97282181113101
 97
        1
330
3E6D
 75
     0
 76
     1
 47
0.0707162833847576
 98
        3
 10
6.461508006627583
 20
42.28958176973246
 10
0.3042431306128051
 20
42.36029787294049
 10
-9.745545696203633
 20
39.60236305074117
1001
ACAD
1010
0.0
1020
0.0
1030
0.0
1001
AcDbBlockRepETag
1070
     1
1071
      887
1005
3E98
  0
HATCH
  5
3E99
330
3E60
100
AcDbEntity
  8
APL Border
 62
     8
100
AcDbHatch
 10
0.0
 20
0.0
 30
0.0
210
0.0
220
0.0
230
1.0
  2
SOLID
 70
     1
 71
     1
 91
        1
 92
        7
 72
     0
 73
     1
 93
        3
 10
8.071275923043375
 20
20.97985997284487
 10
0.8484489512626126
 20
20.97985997284487
 10
4.459862437153192
 20
14.72470832814346
 97
        1
330
3E78
 75
     0
 76
     1
 47
0.0707162833847576
 98
        3
 10
4.897289869501349
 20
18.17513736310713
 10
6.312751868664321
 20
42.28939048605213
 10
-9.894301834166896
 20
39.60217176706084
1001
ACAD
1010
0.0
1020
0.0
1030
0.0
1001
AcDbBlockRepETag
1070
     1
1071
      891
1005
3E99
  0
HATCH
  5
3E9A
330
3E60
100
AcDbEntity
  8
APL Border
 62
     8
100
AcDbHatch
 10
0.0
 20
0.0
 30
0.0
210
0.0
220
0.0
230
1.0
  2
SOLID
 70
     1
 71
     1
 91
        2
 92
       16
 93
        3
 72
     1
 10
0.0000000003145431
 20
4.000000000000009
 11
23.60256143704041
 21
44.88083558975217
 72
     1
 10
23.60256143704041
 20
44.88083558975217
 11
-23.60256142783933
 21
44.88083558975206
 72
     1
 10
-23.60256142783933
 20
44.88083558975206
 11
0.0000000003145431
 21
4.000000000000007
 97
        1
330
3E7E
 92
        1
 93
        3
 72
     1
 10
27.06666305249243
 20
46.88083558975206
 11
-27.06666304266244
 21
46.88083558975206
 72
     1
 10
-27.06666304266244
 20
46.88083558975206
 11
-0.0000000000000284
 21
0.0000000000000213
 72
     1
 10
-0.0000000000000284
 20
0.0000000000000238
 11
27.06666305249243
 21
46.88083558975206
 97
        1
330
3E7F
 75
     0
 76
     1
 98
        1
 10
-236.5641112216887
 20
1.231020082252661
1001
ACAD
1010
0.0
1020
0.0
1030
0.0
1001
AcDbBlockRepETag
1070
     1
1071
      892
1005
3E9A
  0
HATCH
  5
3E9B
330
3E60
100
AcDbEntity
  8
APL Border
 62
     8
100
AcDbHatch
 10
0.0
 20
0.0
 30
0.0
210
0.0
220
0.0
230
1.0
  2
SOLID
 70
     1
 71
     1
 91
        1
 92
        7
 72
     0
 73
     1
 93
       12
 10
15.84058876400877
 20
41.9726305274507
 10
18.21321428445671
 20
41.9726305274507
 10
18.38986203356285
 20
43.61979184908029
 10
14.13627631352983
 20
43.61979184908029
 10
13.46718727804204
 20
37.38083558975206
 10
17.72077299807506
 20
37.38083558975207
 10
17.87787225036464
 20
38.84571591422678
 10
15.50524672991671
 20
38.84571591422678
 10
15.58395939694927
 20
39.5796763598845
 10
17.56969663746741
 20
39.57967635988449
 10
17.71732334684157
 20
41.15966911198297
 10
15.75340373709809
 20
41.15966911198297
 97
        1
330
3E6A
 75
     0
 76
     1
 47
0.0265225354961204
 98
        1
 10
15.74642260871314
 20
42.54140343148856
1001
ACAD
1010
0.0
1020
0.0
1030
0.0
1001
AcDbBlockRepETag
1070
     1
1071
      895
1005
3E9B
  0
SPLINE
  5
3E9C
102
{ACAD_REACTORS
330
3E9E
330
3E9F
102
}
330
3E60
100
AcDbEntity
  8
APL Border
 62
     8
100
AcDbSpline
210
0.0
220
0.0
230
1.0
 70
     8
 71
     3
 72
    12
 73
     8
 74
     0
 42
0.0000000001
 43
0.0000000001
 40
0.0
 40
0.0
 40
0.0
 40
0.0
 40
0.6153828260925694
 40
0.6153828260925694
 40
1.184895113366773
 40
1.184895113366773
 40
1.406874102447421
 40
1.406874102447421
 40
1.406874102447421
 40
1.406874102447421
 10
13.141643811855
 20
41.76981947766621
 30
0.0
 10
12.65093549588437
 20
41.90084145687704
 30
0.0
 10
12.40139116615246
 20
41.94113120867605
 30
0.0
 10
12.08548087756223
 20
41.99544455363318
 30
0.0
 10
11.92864742837253
 20
42.01465504085827
 30
0.0
 10
11.75444086026641
 20
42.02973960983341
 30
0.0
 10
11.75444086026641
 20
42.02973960983341
 30
0.0
 10
11.64369617822672
 20
42.03297741382947
 30
0.0
1001
AcDbBlockRepETag
1070
     1
1071
      898
1005
3E9C
  0
LWPOLYLINE
  5
3E9D
102
{ACAD_REACTORS
330
3E9E
102
}
330
3E60
100
AcDbEntity
  8
APL Border
  6
Continuous
 62
     8
100
AcDbPolyline
 90
        3
 70
     1
 43
0.0
 10
-11.22376129049633
 20
41.69367581194667
 10
-10.87774200114645
 20
40.14955389030274
 10
-11.91769445450297
 20
40.14955389030274
1001
AcDbBlockRepETag
1070
     1
1071
      902
1005
3E9D
  0
HATCH
  5
3E9E
330
3E60
100
AcDbEntity
  8
APL Border
 62
     8
100
AcDbHatch
 10
0.0
 20
0.0
 30
0.0
210
0.0
220
0.0
230
1.0
  2
SOLID
 70
     1
 71
     1
 91
        2
 92
        7
 72
     0
 73
     1
 93
        8
 10
-9.847253547555595
 20
43.61979184908029
 10
-12.02298966350147
 20
43.61979184908029
 10
-14.82679588919472
 20
37.38083558975206
 10
-12.95240022532295
 20
37.38083558975206
 10
-12.352528740424
 20
38.71565392391761
 10
-10.64639685172309
 20
38.71565392391761
 10
-10.34727999772013
 20
37.38083558975206
 10
-8.449177928734428
 20
37.38083558975207
 97
        1
330
3E6F
 92
       22
 72
     0
 73
     1
 93
        3
 10
-11.22376129049633
 20
41.69367581194668
 10
-10.87774200114645
 20
40.14955389030274
 10
-11.91769445450297
 20
40.14955389030274
 97
        1
330
3E9D
 75
     0
 76
     1
 47
0.0464409783890934
 98
        3
 10
-10.7866676671747
 20
42.18285929720354
 10
-10.7866676671747
 20
42.18285929720354
 10
4.318789658947025
 20
41.34692151769582
1001
ACAD
1010
0.0
1020
0.0
1030
0.0
1001
AcDbBlockRepETag
1070
     1
1071
      903
1005
3E9E
  0
HATCH
  5
3E9F
330
3E60
100
AcDbEntity
  8
APL Border
 62
     8
100
AcDbHatch
 10
0.0
 20
0.0
 30
0.0
210
0.0
220
0.0
230
1.0
  2
SOLID
 70
     1
 71
     1
 91
        1
 92
        5
 93
        9
 72
     4
 94
        3
 73
     0
 74
     0
 95
       25
 96
       21
 40
0.0289432764998855
 40
0.0289432764998855
 40
0.0289432764998855
 40
0.0289432764998855
 40
0.7134165119202287
 40
1.411731005087882
 40
2.041147618059464
 40
3.036171077105474
 40
3.957911241576911
 40
4.83592253147705
 40
5.676684481733094
 40
6.271141751551381
 40
6.974058201941041
 40
7.825808739104269
 40
8.5265481701528
 40
9.125733480364379
 40
9.891766509798275
 40
10.6767880070383
 40
11.66821110410527
 40
12.42950909475574
 40
13.09855121203093
 40
13.70132750762923
 40
13.70132750762923
 40
13.70132750762923
 40
13.70132750762923
 10
13.141643811855
 20
43.40554077871886
 10
12.91988216430481
 20
43.459256627421
 10
12.47168844867874
 20
43.5669624691983
 10
11.80600758681791
 20
43.66484839798013
 10
11.02988777388427
 20
43.6649333207477
 10
10.1361516270939
 20
43.55263717791944
 10
9.306733533720876
 20
43.19741938393827
 10
8.599762003673276
 20
42.45478219212527
 10
8.236440109363229
 20
41.77191325718488
 10
8.073464067873601
 20
41.07996170309042
 10
8.007035995439764
 20
40.3638923215899
 10
7.98103501985804
 20
39.60493317412716
 10
8.107710769833204
 20
38.92055182387923
 10
8.442098079777224
 20
38.21445924826959
 10
9.036296716232907
 20
37.66873436641545
 10
9.909689132144507
 20
37.42421376773082
 10
10.75775873959412
 20
37.35554609345542
 10
11.56487972715851
 20
37.38454149767491
 10
12.23983007222788
 20
37.44815687239099
 10
12.66077873273661
 20
37.49837935861893
 10
12.86026661033734
 20
37.52234731786496
 72
     1
 10
12.86026661033734
 20
37.52234731786496
 11
13.23839963312048
 21
41.04826877857415
 72
     1
 10
13.23839963312048
 20
41.04826877857415
 11
11.12639005748273
 21
41.04826877857415
 72
     1
 10
11.12639005748273
 20
41.04826877857415
 11
10.96889270630695
 21
39.57967635988449
 72
     1
 10
10.96889270630695
 20
39.57967635988449
 11
11.39962533929804
 21
39.57967635988449
 72
     1
 10
11.39962533929804
 20
39.57967635988449
 11
11.33360452536307
 21
38.96406177273883
 72
     4
 94
        3
 73
     0
 74
     0
 95
       19
 96
       15
 40
1.529304964685562
 40
1.529304964685562
 40
1.529304964685562
 40
1.529304964685562
 40
1.763981165818448
 40
2.06379851215709
 40
2.386700017314354
 40
2.753069149612017
 40
3.181918037271135
 40
3.768421453867451
 40
4.325591611844758
 40
5.021152851646889
 40
5.521935404920329
 40
5.929637176310238
 40
6.454411479904243
 40
6.957123473051371
 40
6.957123473755098
 40
6.957123473755098
 40
6.957123473755098
 10
11.33360452536307
 20
38.96406177273881
 10
11.24302802126629
 20
38.95177692242413
 10
10.99026249243499
 20
38.92783484269152
 10
10.70216182646531
 20
38.92661434152812
 10
10.3797311442331
 20
38.98358798973799
 10
10.00680770225198
 20
39.09661486818469
 10
9.716968816830743
 20
39.48770259248511
 10
9.641062203095145
 20
40.05806431643046
 10
9.717431528044755
 20
40.66388266631498
 10
9.854221329784113
 20
41.27113304911427
 10
10.23036575101369
 20
41.67654609785123
 10
10.65553906793815
 20
41.91613810684326
 10
11.13485165915975
 20
42.01473204050012
 10
11.47589856643677
 20
42.04574754506741
 10
11.64369617822672
 20
42.03297741382947
 72
     4
 94
        3
 73
     0
 74
     0
 95
       12
 96
        8
 40
0.0
 40
0.0
 40
0.0
 40
0.0
 40
0.2219789890806476
 40
0.2219789890806476
 40
0.7914912763548521
 40
0.7914912763548521
 40
1.406874102447421
 40
1.406874102447421
 40
1.406874102447421
 40
1.406874102447421
 10
11.64369617822672
 20
42.03297741382947
 10
11.75444086026641
 20
42.02973960983341
 10
11.75444086026641
 20
42.02973960983341
 10
11.92864742837253
 20
42.01465504085827
 10
12.08548087756223
 20
41.99544455363318
 10
12.40139116615246
 20
41.94113120867605
 10
12.65093549588437
 20
41.90084145687704
 10
13.141643811855
 20
41.76981947766621
 72
     1
 10
13.14164381185501
 20
41.76981947766621
 11
13.141643811855
 21
43.40554077871886
 97
        5
330
3E68
330
3E6C
330
3E69
330
3E9C
330
3E6B
 75
     0
 76
     1
 47
0.0464409783890934
 98
        3
 10
-10.7866676671747
 20
42.18285929720354
 10
4.318789658947025
 20
41.34692151769582
 10
10.26801654887663
 20
42.50794595375691
1001
ACAD
1010
0.0
1020
0.0
1030
0.0
1001
AcDbBlockRepETag
1070
     1
1071
      904
1005
3E9F
  0
HATCH
  5
3EA0
330
3E60
100
AcDbEntity
  8
APL Border
 62
     8
100
AcDbHatch
 10
0.0
 20
0.0
 30
0.0
210
0.0
220
0.0
230
1.0
  2
SOLID
 70
     1
 71
     1
 91
        2
 92
        7
 72
     0
 73
     1
 93
        8
 10
6.582554574553399
 20
43.61979184908029
 10
4.406818458607519
 20
43.6197918490803
 10
1.603012232914266
 20
37.38083558975206
 10
3.477407896786048
 20
37.38083558975206
 10
4.077279381684999
 20
38.71565392391761
 10
5.783411270385895
 20
38.71565392391761
 10
6.082528124388858
 20
37.38083558975206
 10
7.980630193374566
 20
37.38083558975207
 97
        1
330
3E80
 92
       22
 72
     0
 73
     1
 93
        3
 10
5.206046831612668
 20
41.69367581194667
 10
5.552066120962536
 20
40.14955389030274
 10
4.512113667606024
 20
40.14955389030274
 97
        1
330
3E81
 75
     0
 76
     1
 47
0.0464409783890934
 98
        3
 10
-10.7866676671747
 20
42.18285929720354
 10
4.318789658947025
 20
41.34692151769582
 10
4.318789658947025
 20
41.34692151769582
1001
ACAD
1010
0.0
1020
0.0
1030
0.0
1001
AcDbBlockRepETag
1070
     1
1071
      905
1005
3EA0
  0
HATCH
  5
3EA1
330
3E60
100
AcDbEntity
  8
APL Border
 62
     8
100
AcDbHatch
 10
0.0
 20
0.0
 30
0.0
210
0.0
220
0.0
230
1.0
  2
SOLID
 70
     1
 71
     1
 91
       11
 92
        7
 72
     0
 73
     1
 93
        4
 10
-16.33747952551644
 20
35.29789574745092
 10
-12.98884796421712
 20
29.49789574745095
 10
12.98916617047902
 20
29.49789574745094
 10
16.33779773177886
 20
35.29789574745093
 97
        1
330
3E71
 92
       22
 72
     0
 73
     1
 93
        8
 10
-10.50084997043805
 20
34.02289574745092
 10
-9.555761072109191
 20
34.02289574745092
 10
-8.834065309397374
 20
31.02289574745093
 10
-9.641122936515984
 20
31.02289574745093
 10
-9.86222995755253
 20
31.94201027933759
 10
-10.74455961985978
 20
31.94201027933758
 10
-11.20867717380426
 20
31.02289574745093
 10
-12.01573480092304
 20
31.02289574745093
 97
        1
330
3E7D
 92
        6
 72
     0
 73
     1
 93
        3
 10
-10.14693849009504
 20
33.12550842600547
 10
-10.00044093617224
 20
32.51653621849666
 10
-10.45444607654239
 20
32.51653621849665
 97
        1
330
3E7C
 92
       22
 72
     0
 73
     1
 93
        6
 10
-8.326765119961606
 20
34.02289574745092
 10
-7.549934049473819
 20
34.02289574745092
 10
-7.777198851462713
 20
31.73039516316516
 10
-6.700109532938454
 20
31.73039516316516
 10
-6.770246795158442
 20
31.02289574745093
 10
-8.624167184170486
 20
31.02289574745092
 97
        1
330
3E7B
 92
       20
 93
       13
 72
     1
 10
-6.13042511277439
 20
34.02488019433461
 11
-5.353790768486449
 21
34.02289574745093
 72
     1
 10
-5.353790768486449
 20
34.02289574745093
 11
-5.5356280948821
 21
32.18709291744541
 72
     4
 94
        3
 73
     0
 74
     0
 95
       24
 96
       20
 40
0.0
 40
0.0
 40
0.0
 40
0.0
 40
0.1612668085855933
 40
0.2532303870616441
 40
0.3214574742553387
 40
0.4101806452459026
 40
0.5031588697521256
 40
0.5664511009171887
 40
0.624871878778038
 40
0.6731644290699905
 40
0.7797386132933425
 40
0.9206747739903356
 40
1.025058962643435
 40
1.116412352300609
 40
1.212929457806147
 40
1.276240530363035
 40
1.339961572016457
 40
1.386280507025952
 40
1.435584820291647
 40
1.435584820291647
 40
1.435584820291647
 40
1.435584820291647
 10
-5.535628094882099
 20
32.1870929174454
 10
-5.53213414748617
 20
32.13312332644234
 10
-5.526647751003197
 20
32.04837718097616
 10
-5.488860432547518
 20
31.94683424540268
 10
-5.447171648840961
 20
31.8753242559261
 10
-5.395818187958767
 20
31.80737001333622
 10
-5.320761662408248
 20
31.77062767698265
 10
-5.254477128417399
 20
31.74466351916423
 10
-5.200112096792143
 20
31.72723210184819
 10
-5.128888988289486
 20
31.72198763189771
 10
-5.030042811850907
 20
31.72786870372271
 10
-4.915707066470194
 20
31.75812586881066
 10
-4.815771266393483
 20
31.81405298527762
 10
-4.754740567305573
 20
31.89193427605802
 10
-4.71467399544198
 20
31.96546823314959
 10
-4.683526695854578
 20
32.03313813212702
 10
-4.662006183068958
 20
32.08703079743258
 10
-4.651792807669443
 20
32.13930455656534
 10
-4.647206914869654
 20
32.17083533130903
 10
-4.644842382192905
 20
32.1870929174454
 72
     1
 10
-4.644842382192908
 20
32.18709291744538
 11
-4.462655138951674
 21
34.0248801943346
 72
     1
 10
-4.462655138951674
 20
34.0248801943346
 11
-3.685824068463886
 21
34.0248801943346
 72
     1
 10
-3.685824068463886
 20
34.0248801943346
 11
-3.889225876952792
 21
31.97309408084612
 72
     2
 10
-5.35367831607159
 20
32.29400281725688
 40
1.499200908332752
 50
12.35998596222624
 51
34.57361697223234
 73
     0
 72
     2
 10
-4.942942423735221
 20
32.00494866311196
 40
0.9969860617863467
 50
34.29038331790704
 51
79.42991665428312
 73
     0
 72
     1
 10
-4.760057203160528
 20
31.0248801943346
 11
-5.510404689928634
 21
31.02488019433462
 72
     2
 10
-5.403812384664131
 20
31.8164328281441
 40
0.7986973717449786
 50
97.66944495435136
 51
120.898786067779
 73
     0
 72
     2
 10
-5.173141343771899
 20
32.14234761068797
 40
1.197202176515717
 50
122.3618931068037
 51
141.2515245137382
 73
     0
 72
     2
 10
-5.389471681131198
 20
32.00817328375058
 40
0.9450065449727091
 50
139.3862736078239
 51
177.8726579657922
 73
     0
 72
     1
 10
-6.333826921263238
 20
31.9730940808461
 11
-6.13042511277439
 21
34.02488019433461
 97
        2
330
3E83
330
3E84
 92
       22
 72
     0
 73
     1
 93
       13
 10
-3.14734900486158
 20
34.02825593571061
 10
-2.047349004861559
 20
34.02825593571061
 10
-1.827245318565901
 20
32.52441131541936
 10
-1.295012624591634
 20
34.02807364104484
 10
-0.1975458970834157
 20
34.0280551402308
 10
-0.4949479612922965
 20
31.0280551402308
 10
-1.115886909891883
 20
31.02805514023081
 10
-0.9222174129992312
 20
32.98166797820307
 10
-1.611942464131546
 20
31.02805514023081
 10
-2.344230471214956
 20
31.0280551402308
 10
-2.630162529241629
 20
32.98166797820306
 10
-2.823832026134283
 20
31.02805514023081
 10
-3.444770974733871
 20
31.0280551402308
 97
        1
330
3E86
 92
       22
 72
     0
 73
     1
 93
        4
 10
0.342591724648486
 20
34.02289574745092
 10
1.119422795136273
 20
34.02289574745092
 10
0.822020730927392
 20
31.02289574745093
 10
0.045189660439604
 20
31.02289574745093
 97
        1
330
3E75
 92
       22
 72
     0
 73
     1
 93
       10
 10
1.724974710806094
 20
34.02289574745093
 10
2.57655809816546
 20
34.02269495197112
 10
3.395920304875375
 20
32.17298478610545
 10
3.580266230192904
 20
34.02269495197112
 10
4.200228460647139
 20
34.02269495197112
 10
3.902826396438257
 20
31.02269495197112
 10
3.051434648859951
 20
31.02269495197112
 10
2.231899581960561
 20
32.87279534971117
 10
2.048491689533392
 20
31.02269495197111
 10
1.427552740933804
 20
31.02269495197111
 97
        1
330
3E87
 92
       22
 72
     0
 73
     1
 93
        4
 10
4.838699321647566
 20
34.02289574745092
 10
5.615530392135354
 20
34.02289574745092
 10
5.318128327926473
 20
31.02289574745093
 10
4.541297257438685
 20
31.02289574745093
 97
        1
330
3E82
 92
       20
 93
       13
 72
     1
 10
6.192756492920892
 20
34.02289574745092
 11
6.969390837208833
 21
34.02091130056725
 72
     1
 10
6.969390837208833
 20
34.02091130056725
 11
6.787553510813181
 21
32.18510847056173
 72
     4
 94
        3
 73
     0
 74
     0
 95
       24
 96
       20
 40
0.0
 40
0.0
 40
0.0
 40
0.0
 40
0.1612668085856004
 40
0.2532303870616512
 40
0.3214574742553458
 40
0.4101806452458731
 40
0.5031588697521455
 40
0.5664511009172086
 40
0.6248718787780579
 40
0.6731644290699537
 40
0.7797386132933625
 40
0.9206747739903555
 40
1.025058962643406
 40
1.116412352300617
 40
1.212929457806155
 40
1.276240530363043
 40
1.339961572016455
 40
1.386280507025956
 40
1.435584820291643
 40
1.435584820291643
 40
1.435584820291643
 40
1.435584820291643
 10
6.787553510813182
 20
32.18510847056172
 10
6.791047458209138
 20
32.13113887955868
 10
6.796533854692151
 20
32.04639273409249
 10
6.834321173147815
 20
31.944849798519
 10
6.876009956854381
 20
31.87333980904244
 10
6.927363417736517
 20
31.80538556645249
 10
7.002419943287081
 20
31.76864323009899
 10
7.068704477277941
 20
31.74267907228055
 10
7.123069508903178
 20
31.72524765496452
 10
7.194292617405833
 20
31.72000318501404
 10
7.293138793844411
 20
31.72588425683904
 10
7.407474539225143
 20
31.75614142192696
 10
7.507410339301799
 20
31.81206853839398
 10
7.568441038389779
 20
31.88994982917431
 10
7.608507610253345
 20
31.96348378626593
 10
7.639654909840775
 20
32.03115368524333
 10
7.661175422626328
 20
32.08504635054892
 10
7.671388798025919
 20
32.13732010968165
 10
7.675974690825655
 20
32.16885088442535
 10
7.678339223502376
 20
32.18510847056172
 72
     1
 10
7.678339223502373
 20
32.1851084705617
 11
7.860526466743608
 21
34.02289574745092
 72
     1
 10
7.860526466743608
 20
34.02289574745092
 11
8.637357537231395
 21
34.02289574745092
 72
     1
 10
8.637357537231395
 20
34.02289574745092
 11
8.433955728742489
 21
31.97110963396244
 72
     2
 10
6.969503289623695
 20
32.29201837037321
 40
1.499200908332751
 50
12.35998596222655
 51
34.57361697220028
 73
     0
 72
     2
 10
7.38023918196006
 20
32.00296421622829
 40
0.9969860617863467
 50
34.2903833178587
 51
79.42991665428322
 73
     0
 72
     1
 10
7.563124402534754
 20
31.02289574745093
 11
6.812776915766647
 21
31.02289574745094
 72
     2
 10
6.919369221031151
 20
31.81444838126043
 40
0.7986973717449786
 50
97.66944495435136
 51
120.898786067779
 73
     0
 72
     2
 10
7.150040261923383
 20
32.14036316380429
 40
1.197202176515717
 50
122.3618931068037
 51
141.2515245137382
 73
     0
 72
     2
 10
6.933709924564084
 20
32.0061888368669
 40
0.9450065449727091
 50
139.3862736078239
 51
177.8726579657922
 73
     0
 72
     1
 10
5.989354684432043
 20
31.97110963396243
 11
6.192756492920892
 21
34.02289574745092
 97
        2
330
3E85
330
3E89
 92
       22
 72
     0
 73
     1
 93
       13
 10
9.159497991066102
 20
34.02289574745092
 10
10.25949799106612
 20
34.02289574745092
 10
10.47960167736178
 20
32.51905112715967
 10
11.01183437133604
 20
34.02271345278515
 10
12.10930109884427
 20
34.02269495197111
 10
11.81189903463539
 20
31.02269495197112
 10
11.1909600860358
 20
31.02269495197111
 10
11.38462958292845
 20
32.97630778994339
 10
10.69490453179614
 20
31.02269495197111
 10
9.962616524712728
 20
31.02269495197112
 10
9.676684466686056
 20
32.97630778994339
 10
9.4830149697934
 20
31.02269495197111
 10
8.862076021193814
 20
31.02269495197111
 97
        1
330
3E88
 75
     0
 76
     1
 47
0.0356978143457059
 98
       11
 10
-12.74387987022192
 20
34.13164800304253
 10
-12.74387987022192
 20
34.13164800304253
 10
-12.74387987022192
 20
34.13164800304253
 10
-12.74387987022192
 20
34.13164800304253
 10
-12.74387987022192
 20
34.13164800304253
 10
-12.74387987022192
 20
34.13164800304253
 10
-12.74387987022192
 20
34.13164800304253
 10
-12.74387987022192
 20
34.13164800304253
 10
-12.74387987022192
 20
34.13164800304253
 10
-12.74387987022192
 20
34.13164800304253
 10
-12.74387987022192
 20
34.13164800304253
1001
ACAD
1010
0.0
1020
0.0
1030
0.0
1001
AcDbBlockRepETag
1070
     1
1071
      906
1005
3EA1
  0
ENDBLK
  5
3EA2
330
3E60
100
AcDbEntity
  8
0
 62
     9
100
AcDbBlockEnd
  0
ENDSEC
  0
SECTION
  2
ENTITIES
  0
TEXT
  5
3087
330
1F
100
AcDbEntity
  8
APL Notes
100
AcDbText
 10
93.20346591969189
 20
284.8750002788497
 30
0.0
 40
5.0
  1
08060
  7
Arial-Bold
100
AcDbText
  0
LWPOLYLINE
  5
32C7
330
1F
100
AcDbEntity
  8
APL Notes
100
AcDbPolyline
 90
        4
 70
     1
 43
0.3
 10
92.7034659196919
 20
60.00000027884974
 10
92.7034659196919
 20
71.00000027884973
 10
41.70346591969189
 20
71.00000027884973
 10
41.70346591969189
 20
60.00000027884974
  0
TEXT
  5
32C8
330
1F
100
AcDbEntity
  8
APL Notes
100
AcDbText
 10
44.70346591969189
 20
63.00000027884974
 30
0.0
 40
5.0
  1
SECTION A-A
  7
Arial-Bold
100
AcDbText
  0
INSERT
  5
33E2
330
1F
100
AcDbEntity
  8
APL Joinery
100
AcDbBlockReference
  2
08028
 10
91.20346591969189
 20
125.5000002788497
 30
0.0
  0
TEXT
  5
33E3
330
1F
100
AcDbEntity
  8
APL Notes
100
AcDbText
 10
93.20346591969189
 20
175.5000002788497
 30
0.0
 40
5.0
  1
08061
  7
Arial-Bold
100
AcDbText
  0
TEXT
  5
33E4
330
1F
100
AcDbEntity
  8
APL Notes
100
AcDbText
 10
93.20346591969189
 20
112.7500002788497
 30
0.0
 40
5.0
  1
08028
  7
Arial-Bold
100
AcDbText
  0
INSERT
  5
33E6
330
1F
100
AcDbEntity
  8
APL Joinery
100
AcDbBlockReference
  2
08025
 10
201.2034659196919
 20
225.5000002788497
 30
0.0
  0
INSERT
  5
33E8
330
1F
100
AcDbEntity
  8
APL Joinery
100
AcDbBlockReference
  2
08028
 10
201.2034659196919
 20
125.5000002788497
 30
0.0
  0
TEXT
  5
33E9
330
1F
100
AcDbEntity
  8
APL Notes
100
AcDbText
 10
203.2034659196919
 20
112.7500002788497
 30
0.0
 40
5.0
  1
08028
  7
Arial-Bold
100
AcDbText
  0
TEXT
  5
33EA
330
1F
100
AcDbEntity
  8
APL Notes
100
AcDbText
 10
203.2034659196919
 20
175.5000002788497
 30
0.0
 40
5.0
  1
08061
  7
Arial-Bold
100
AcDbText
  0
TEXT
  5
33EC
330
1F
100
AcDbEntity
  8
APL Notes
100
AcDbText
 10
203.2034659196919
 20
266.3750002788497
 30
0.0
 40
5.0
  1
08025
  7
Arial-Bold
100
AcDbText
  0
TEXT
  5
33ED
330
1F
100
AcDbEntity
  8
APL Notes
100
AcDbText
 10
313.2034659196919
 20
112.7500002788497
 30
0.0
 40
5.0
  1
08028
  7
Arial-Bold
100
AcDbText
  0
INSERT
  5
33EE
330
1F
100
AcDbEntity
  8
APL Joinery
100
AcDbBlockReference
  2
08028
 10
311.2034659196919
 20
125.5000002788497
 30
0.0
  0
TEXT
  5
33F0
330
1F
100
AcDbEntity
  8
APL Notes
100
AcDbText
 10
313.2034659196919
 20
184.8750002788497
 30
0.0
 40
5.0
  1
08060
  7
Arial-Bold
100
AcDbText
  0
TEXT
  5
3433
330
1F
100
AcDbEntity
  8
APL Notes
100
AcDbText
 10
241.7798642782286
 20
103.7803577262078
 30
0.0
 40
5.0
  1
08024
  7
Arial-Bold
 72
     2
 11
261.2034659153364
 21
103.7803577262078
 31
0.0
100
AcDbText
  0
TEXT
  5
3438
330
1F
100
AcDbEntity
  8
APL Notes
100
AcDbText
 10
21.80789207197495
 20
335.7196428314916
 30
0.0
 40
5.0
  1
08023
  7
Arial-Bold
100
AcDbText
  0
TEXT
  5
343D
330
1F
100
AcDbEntity
  8
APL Notes
100
AcDbText
 10
131.8078920719749
 20
298.7196428314914
 30
0.0
 40
5.0
  1
08024
  7
Arial-Bold
100
AcDbText
  0
TEXT
  5
3442
330
1F
100
AcDbEntity
  8
APL Notes
100
AcDbText
 10
241.807892071975
 20
235.7196428314916
 30
0.0
 40
5.0
  1
08023
  7
Arial-Bold
100
AcDbText
  0
LWPOLYLINE
  5
3447
330
1F
100
AcDbEntity
  8
APL Notes
100
AcDbPolyline
 90
        4
 70
     1
 43
0.3
 10
202.7034659196919
 20
60.00000027884974
 10
202.7034659196919
 20
71.00000027884973
 10
151.7034659196919
 20
71.00000027884973
 10
151.7034659196919
 20
60.00000027884974
  0
TEXT
  5
3448
330
1F
100
AcDbEntity
  8
APL Notes
100
AcDbText
 10
154.7034659196919
 20
63.00000027884974
 30
0.0
 40
5.0
  1
SECTION A-A
  7
Arial-Bold
100
AcDbText
  0
LWPOLYLINE
  5
3449
330
1F
100
AcDbEntity
  8
APL Notes
100
AcDbPolyline
 90
        4
 70
     1
 43
0.3
 10
312.7034659196919
 20
60.00000027884974
 10
312.7034659196919
 20
71.00000027884973
 10
261.7034659196919
 20
71.00000027884973
 10
261.7034659196919
 20
60.00000027884974
  0
TEXT
  5
344A
330
1F
100
AcDbEntity
  8
APL Notes
100
AcDbText
 10
264.7034659196919
 20
63.00000027884974
 30
0.0
 40
5.0
  1
SECTION A-A
  7
Arial-Bold
100
AcDbText
  0
LINE
  5
34BC
330
1F
100
AcDbEntity
  8
APL Notes
  6
Continuous
 62
     2
100
AcDbLine
 10
265.9868853371025
 20
458.1482273883367
 30
0.0
 11
302.0995584850275
 21
458.1482273883367
 31
0.0
  0
LINE
  5
34BD
330
1F
100
AcDbEntity
  8
APL Notes
  6
Continuous
 62
     2
100
AcDbLine
 10
265.9868853371025
 20
407.9249525951865
 30
0.0
 11
302.0995584850275
 21
407.9249525951865
 31
0.0
  0
LINE
  5
34BE
330
1F
100
AcDbEntity
  8
APL Notes
  6
Continuous
 62
     2
100
AcDbLine
 10
265.9868853371025
 20
415.6749525951865
 30
0.0
 11
302.0995584850275
 21
415.6749525951865
 31
0.0
  0
LINE
  5
34BF
330
1F
100
AcDbEntity
  8
APL Notes
  6
Continuous
 62
     2
100
AcDbLine
 10
302.0995584850275
 20
383.9569239207366
 30
0.0
 11
265.9868853371025
 21
383.9569239207366
 31
0.0
  0
LINE
  5
34C0
330
1F
100
AcDbEntity
  8
APL Notes
  6
Continuous
 62
     2
100
AcDbLine
 10
187.7747425533275
 20
382.3069239207368
 30
0.0
 11
338.699028120878
 21
382.3069239207368
 31
0.0
  0
LINE
  5
34C1
330
1F
100
AcDbEntity
  8
APL Notes
  6
Continuous
 62
     2
100
AcDbLine
 10
338.699028120878
 20
459.7982273883368
 30
0.0
 11
187.7747425533275
 21
459.7982273883368
 31
0.0
  0
LINE
  5
34C2
330
1F
100
AcDbEntity
  8
APL Notes
  6
Continuous
 62
     2
100
AcDbLine
 10
341.449028120878
 20
379.5569239207368
 30
0.0
 11
283.8618853371025
 21
379.5569239207368
 31
0.0
  0
LINE
  5
34C3
330
1F
100
AcDbEntity
  8
APL Notes
  6
Continuous
 62
     2
100
AcDbLine
 10
283.8618853371025
 20
462.5482273883368
 30
0.0
 11
341.449028120878
 21
462.5482273883368
 31
0.0
  0
LINE
  5
34C5
330
1F
100
AcDbEntity
  8
APL Notes
  6
Continuous
 62
     2
100
AcDbLine
 10
224.3742121891776
 20
382.3069239207368
 30
0.0
 11
224.3742121891776
 21
459.7982273883368
 31
0.0
  0
LINE
  5
34C6
330
1F
100
AcDbEntity
  8
APL Notes
  6
Continuous
 62
     2
100
AcDbLine
 10
222.7242121891775
 20
382.3069239207368
 30
0.0
 11
222.7242121891775
 21
459.7982273883368
 31
0.0
  0
LINE
  5
34C7
330
1F
100
AcDbEntity
  8
APL Notes
  6
Continuous
 62
     2
100
AcDbLine
 10
187.7747425533275
 20
459.7982273883368
 30
0.0
 11
187.7747425533275
 21
382.3069239207368
 31
0.0
  0
LINE
  5
34C8
330
1F
100
AcDbEntity
  8
APL Notes
  6
Continuous
 62
     2
100
AcDbLine
 10
185.0247425533274
 20
462.5482273883368
 30
0.0
 11
185.0247425533274
 21
379.5569239207368
 31
0.0
  0
LINE
  5
34C9
330
1F
100
AcDbEntity
  8
APL Notes
  6
Continuous
 62
     2
100
AcDbLine
 10
265.9868853371025
 20
459.7982273883368
 30
0.0
 11
265.9868853371025
 21
382.3069239207368
 31
0.0
  0
LINE
  5
34CA
330
1F
100
AcDbEntity
  8
APL Notes
  6
Continuous
 62
     2
100
AcDbLine
 10
263.2368853371025
 20
459.7982273883368
 30
0.0
 11
263.2368853371025
 21
382.3069239207368
 31
0.0
  0
LINE
  5
34CB
330
1F
100
AcDbEntity
  8
APL Notes
  6
Continuous
 62
     2
100
AcDbLine
 10
260.4868853371026
 20
459.7982273883368
 30
0.0
 11
260.4868853371026
 21
382.3069239207368
 31
0.0
  0
LINE
  5
34CC
330
1F
100
AcDbEntity
  8
APL Notes
  6
Continuous
 62
     2
100
AcDbLine
 10
263.2368853371025
 20
459.7982273883368
 30
0.0
 11
263.2368853371025
 21
382.3069239207368
 31
0.0
  0
LINE
  5
34CD
330
1F
100
AcDbEntity
  8
APL Notes
  6
Continuous
 62
     2
100
AcDbLine
 10
222.7242121891775
 20
407.9249525951865
 30
0.0
 11
187.7747425533275
 21
407.9249525951865
 31
0.0
  0
LINE
  5
34CE
330
1F
100
AcDbEntity
  8
APL Notes
  6
Continuous
 62
     2
100
AcDbLine
 10
222.7242121891775
 20
415.6749525951865
 30
0.0
 11
187.7747425533275
 21
415.6749525951865
 31
0.0
  0
LINE
  5
34CF
330
1F
100
AcDbEntity
  8
APL Notes
  6
Continuous
 62
     2
100
AcDbLine
 10
185.0247425533274
 20
379.5569239207368
 30
0.0
 11
283.8618853371025
 21
379.5569239207368
 31
0.0
  0
LINE
  5
34D0
330
1F
100
AcDbEntity
  8
APL Notes
  6
Continuous
 62
     8
100
AcDbLine
 10
228.7857253111848
 20
404.1749525951865
 30
0.0
 11
228.7857253111848
 21
396.0885916399521
 31
0.0
  0
LEADER
  5
34D1
330
1F
100
AcDbEntity
  8
APL Notes
 62
     8
100
AcDbLeader
  3
ISO-25
 76
     2
 10
214.6443386962843
 20
396.0885916399521
 30
0.0
 10
228.7857253111848
 20
396.0885916399521
 30
0.0
211
-0.0000000000000001
221
1.0
231
0.0
210
0.0
220
0.0
230
-1.0
1001
ACAD
1000
DSTYLE
1002
{
1070
   147
1040
0.625
1070
    77
1070
     0
1002
}
  0
TEXT
  5
34D2
330
1F
100
AcDbEntity
  8
APL Notes
100
AcDbText
 10
208.6326131655773
 20
393.23157762168
 30
0.0
 40
5.0
  1
A
  7
Arial-Bold
100
AcDbText
  0
LINE
  5
34D3
330
1F
100
AcDbEntity
  8
APL Notes
  6
Continuous
 62
     2
100
AcDbLine
 10
260.4868853371026
 20
415.6749525951865
 30
0.0
 11
224.3742121891776
 21
415.6749525951865
 31
0.0
  0
LINE
  5
34D4
330
1F
100
AcDbEntity
  8
APL Notes
  6
Continuous
 62
     2
100
AcDbLine
 10
260.4868853371026
 20
407.9249525951865
 30
0.0
 11
224.3742121891776
 21
407.9249525951865
 31
0.0
  0
LINE
  5
34D5
330
1F
100
AcDbEntity
  8
APL Notes
  6
Continuous
 62
     2
100
AcDbLine
 10
224.3742121891776
 20
383.9569239207366
 30
0.0
 11
260.4868853371026
 21
383.9569239207366
 31
0.0
  0
LINE
  5
34D6
330
1F
100
AcDbEntity
  8
APL Notes
  6
Continuous
100
AcDbLine
 10
234.5726795462775
 20
427.8269542840938
 30
0.0
 11
243.2351795462777
 21
423.0144542840938
 31
0.0
  0
LINE
  5
34D7
330
1F
100
AcDbEntity
  8
APL Notes
  6
Continuous
100
AcDbLine
 10
234.5726795462775
 20
427.8269542840938
 30
0.0
 11
243.2351795462777
 21
432.6394542840938
 31
0.0
  0
LINE
  5
34D8
330
1F
100
AcDbEntity
  8
APL Notes
  6
Continuous
100
AcDbLine
 10
243.2351795462777
 20
425.9019542840939
 30
0.0
 11
250.9351795462775
 21
425.9019542840939
 31
0.0
  0
LINE
  5
34D9
330
1F
100
AcDbEntity
  8
APL Notes
  6
Continuous
100
AcDbLine
 10
243.2351795462777
 20
429.7519542840939
 30
0.0
 11
250.9351795462775
 21
429.7519542840939
 31
0.0
  0
LINE
  5
34DA
330
1F
100
AcDbEntity
  8
APL Notes
  6
Continuous
100
AcDbLine
 10
243.2351795462777
 20
432.6394542840938
 30
0.0
 11
243.2351795462777
 21
429.7519542840939
 31
0.0
  0
LINE
  5
34DB
330
1F
100
AcDbEntity
  8
APL Notes
  6
Continuous
100
AcDbLine
 10
243.2351795462777
 20
423.0144542840938
 30
0.0
 11
243.2351795462777
 21
425.9019542840939
 31
0.0
  0
LINE
  5
34DC
330
1F
100
AcDbEntity
  8
APL Notes
  6
Continuous
100
AcDbLine
 10
250.9351795462775
 20
425.9019542840939
 30
0.0
 11
250.9351795462775
 21
427.8269542840938
 31
0.0
  0
LINE
  5
34DD
330
1F
100
AcDbEntity
  8
APL Notes
  6
Continuous
100
AcDbLine
 10
250.9351795462775
 20
429.7519542840939
 30
0.0
 11
250.9351795462775
 21
427.8269542840938
 31
0.0
  0
LINE
  5
34DE
330
1F
100
AcDbEntity
  8
APL Notes
  6
Continuous
100
AcDbLine
 10
283.2385911279275
 20
425.9019542840939
 30
0.0
 11
275.5385911279275
 21
425.9019542840939
 31
0.0
  0
LINE
  5
34DF
330
1F
100
AcDbEntity
  8
APL Notes
  6
Continuous
100
AcDbLine
 10
283.2385911279275
 20
429.7519542840939
 30
0.0
 11
275.5385911279275
 21
429.7519542840939
 31
0.0
  0
LINE
  5
34E0
330
1F
100
AcDbEntity
  8
APL Notes
  6
Continuous
100
AcDbLine
 10
275.5385911279275
 20
425.9019542840939
 30
0.0
 11
275.5385911279275
 21
427.8269542840938
 31
0.0
  0
LINE
  5
34E1
330
1F
100
AcDbEntity
  8
APL Notes
  6
Continuous
100
AcDbLine
 10
275.5385911279275
 20
429.7519542840939
 30
0.0
 11
275.5385911279275
 21
427.8269542840938
 31
0.0
  0
LINE
  5
34E2
330
1F
100
AcDbEntity
  8
APL Notes
  6
Continuous
100
AcDbLine
 10
291.9010911279276
 20
427.8269542840938
 30
0.0
 11
283.2385911279275
 21
432.6394542840938
 31
0.0
  0
LINE
  5
34E3
330
1F
100
AcDbEntity
  8
APL Notes
  6
Continuous
100
AcDbLine
 10
291.9010911279276
 20
427.8269542840938
 30
0.0
 11
283.2385911279275
 21
423.0144542840938
 31
0.0
  0
LINE
  5
34E4
330
1F
100
AcDbEntity
  8
APL Notes
  6
Continuous
100
AcDbLine
 10
283.2385911279275
 20
432.6394542840938
 30
0.0
 11
283.2385911279275
 21
429.7519542840939
 31
0.0
  0
LINE
  5
34E5
330
1F
100
AcDbEntity
  8
APL Notes
  6
Continuous
100
AcDbLine
 10
283.2385911279275
 20
423.0144542840938
 30
0.0
 11
283.2385911279275
 21
425.9019542840939
 31
0.0
  0
LINE
  5
34E6
330
1F
100
AcDbEntity
  8
APL Notes
  6
Continuous
 62
     2
100
AcDbLine
 10
283.8618853371025
 20
462.5482273883368
 30
0.0
 11
185.0247425533274
 21
462.5482273883368
 31
0.0
  0
LINE
  5
34E9
330
1F
100
AcDbEntity
  8
APL Notes
  6
Continuous
 62
     2
100
AcDbLine
 10
260.4868853371026
 20
458.1482273883367
 30
0.0
 11
224.3742121891776
 21
458.1482273883367
 31
0.0
  0
LINE
  5
34EA
330
1F
100
AcDbEntity
  8
APL Notes
  6
Continuous
 62
     2
100
AcDbLine
 10
338.699028120878
 20
459.7982273883368
 30
0.0
 11
338.699028120878
 21
382.3069239207368
 31
0.0
  0
LINE
  5
34EB
330
1F
100
AcDbEntity
  8
APL Notes
  6
Continuous
 62
     2
100
AcDbLine
 10
341.449028120878
 20
462.5482273883368
 30
0.0
 11
341.449028120878
 21
379.5569239207368
 31
0.0
  0
LINE
  5
34EC
330
1F
100
AcDbEntity
  8
APL Notes
  6
Continuous
 62
     2
100
AcDbLine
 10
302.0995584850275
 20
382.3069239207368
 30
0.0
 11
302.0995584850275
 21
459.7982273883368
 31
0.0
  0
LINE
  5
34ED
330
1F
100
AcDbEntity
  8
APL Notes
  6
Continuous
 62
     2
100
AcDbLine
 10
303.7495584850276
 20
382.3069239207368
 30
0.0
 11
303.7495584850276
 21
459.7982273883368
 31
0.0
  0
LINE
  5
34EE
330
1F
100
AcDbEntity
  8
APL Notes
  6
Continuous
 62
     2
100
AcDbLine
 10
303.7495584850276
 20
407.9249525951865
 30
0.0
 11
338.699028120878
 21
407.9249525951865
 31
0.0
  0
LINE
  5
34EF
330
1F
100
AcDbEntity
  8
APL Notes
  6
Continuous
 62
     2
100
AcDbLine
 10
303.7495584850276
 20
415.6749525951865
 30
0.0
 11
338.699028120878
 21
415.6749525951865
 31
0.0
  0
LEADER
  5
34F1
330
1F
100
AcDbEntity
  8
APL Notes
 62
     8
100
AcDbLeader
  3
ISO-25
 76
     2
 10
214.6443386962843
 20
427.511313550421
 30
0.0
 10
228.7857253111848
 20
427.5113135504209
 30
0.0
211
-0.0000000000000001
221
-1.0
231
0.0
1001
ACAD
1000
DSTYLE
1002
{
1070
   147
1040
0.625
1070
    77
1070
     0
1002
}
  0
TEXT
  5
34F2
330
1F
100
AcDbEntity
  8
APL Notes
100
AcDbText
 10
208.6326131655773
 20
425.3683275686931
 30
0.0
 40
5.0
  1
A
  7
Arial-Bold
100
AcDbText
  0
LINE
  5
34F3
330
1F
100
AcDbEntity
  8
APL Notes
  6
Continuous
 62
     8
100
AcDbLine
 10
228.7857253111848
 20
419.4249525951866
 30
0.0
 11
228.7857253111848
 21
427.5113135504209
 31
0.0
  0
TEXT
  5
353C
330
1F
100
AcDbEntity
  8
APL Notes
100
AcDbText
 10
93.20346591969189
 20
168.5000002788497
 30
0.0
 40
5.0
  1
Rail
  7
Arial-Regular
100
AcDbText
  0
TEXT
  5
353D
330
1F
100
AcDbEntity
  8
APL Notes
100
AcDbText
 10
93.20346591969189
 20
161.5000002788497
 30
0.0
 40
5.0
  1
Extender
  7
Arial-Regular
100
AcDbText
  0
TEXT
  5
353F
330
1F
100
AcDbEntity
  8
APL Notes
100
AcDbText
 10
93.20346591969189
 20
270.8750002788497
 30
0.0
 40
5.0
  1
Rail
  7
Arial-Regular
100
AcDbText
  0
TEXT
  5
3540
330
1F
100
AcDbEntity
  8
APL Notes
100
AcDbText
 10
93.20346591969189
 20
277.8750002788497
 30
0.0
 40
5.0
  1
Bottom
  7
Arial-Regular
100
AcDbText
  0
TEXT
  5
3541
330
1F
100
AcDbEntity
  8
APL Notes
100
AcDbText
 10
203.2034659196919
 20
252.3750002788497
 30
0.0
 40
5.0
  1
Rail
  7
Arial-Regular
100
AcDbText
  0
TEXT
  5
3542
330
1F
100
AcDbEntity
  8
APL Notes
100
AcDbText
 10
203.2034659196919
 20
259.3750002788497
 30
0.0
 40
5.0
  1
Top
  7
Arial-Regular
100
AcDbText
  0
TEXT
  5
3543
330
1F
100
AcDbEntity
  8
APL Notes
100
AcDbText
 10
313.2034659196919
 20
98.75000027884972
 30
0.0
 40
5.0
  1
Adaptor
  7
Arial-Regular
100
AcDbText
  0
TEXT
  5
3544
330
1F
100
AcDbEntity
  8
APL Notes
100
AcDbText
 10
313.2034659196919
 20
105.7500002788497
 30
0.0
 40
5.0
  1
Rail Glazing
  7
Arial-Regular
100
AcDbText
  0
INSERT
  5
35FA
330
1F
100
AcDbEntity
  8
APL Joinery
100
AcDbBlockReference
  2
08024glaze
 10
263.2034659153364
 20
119.0000002788497
 30
0.0
 50
270.0
  0
INSERT
  5
35FF
330
1F
100
AcDbEntity
  8
APL Joinery
100
AcDbBlockReference
  2
08024glaze
 10
153.2034659153364
 20
119.0000002788497
 30
0.0
 50
270.0
  0
TEXT
  5
3600
330
1F
100
AcDbEntity
  8
APL Notes
100
AcDbText
 10
131.7798642782286
 20
103.7803577262078
 30
0.0
 40
5.0
  1
08024
  7
Arial-Bold
 72
     2
 11
151.2034659153363
 21
103.7803577262078
 31
0.0
100
AcDbText
  0
INSERT
  5
3602
330
1F
100
AcDbEntity
  8
APL Joinery
100
AcDbBlockReference
  2
08024glaze
 10
43.20346591533639
 20
119.0000002788497
 30
0.0
 50
270.0
  0
TEXT
  5
3603
330
1F
100
AcDbEntity
  8
APL Notes
100
AcDbText
 10
21.77986427822862
 20
103.7803577262078
 30
0.0
 40
5.0
  1
08024
  7
Arial-Bold
 72
     2
 11
41.20346591533639
 21
103.7803577262078
 31
0.0
100
AcDbText
  0
INSERT
  5
3670
330
1F
100
AcDbEntity
  8
APL Joinery
100
AcDbBlockReference
  2
08023glaze
 10
263.2034659153363
 20
225.5000002788497
 30
0.0
  0
INSERT
  5
3671
330
1F
100
AcDbEntity
  8
APL Joinery
100
AcDbBlockReference
  2
08023glaze
 10
43.20346591533632
 20
325.5000002788497
 30
0.0
  0
INSERT
  5
36C9
330
1F
100
AcDbEntity
  8
APL Joinery
100
AcDbBlockReference
  2
08061
 10
91.20346591969189
 20
125.5000002788497
 30
0.0
  0
INSERT
  5
36CF
330
1F
100
AcDbEntity
  8
APL Joinery
100
AcDbBlockReference
  2
08060
 10
43.20346591969178
 20
225.5000002788497
 30
0.0
  0
INSERT
  5
36D1
330
1F
100
AcDbEntity
  8
APL Joinery
100
AcDbBlockReference
  2
08061
 10
201.203465919692
 20
125.5000020760333
 30
0.0
  0
INSERT
  5
36D3
330
1F
100
AcDbEntity
  8
APL Joinery
100
AcDbBlockReference
  2
08060
 10
263.203466751109
 20
125.4999999589537
 30
0.0
  0
LWPOLYLINE
  5
382D
330
1F
100
AcDbEntity
  8
0
100
AcDbPolyline
 90
        4
 70
     1
 43
0.0
 10
353.9999991319283
 20
0.0000002788497113
 10
353.9999991319283
 20
482.0000002788496
 10
-0.0000008680717656
 20
482.0000002788496
 10
-0.0000008680717656
 20
0.0000002788497113
  0
INSERT
  5
38D3
330
1F
100
AcDbEntity
  8
APL Joinery
100
AcDbBlockReference
  2
08024glaze
 10
153.2034659153364
 20
288.5000002788498
 30
0.0
 41
-1.0
 50
270.0
  0
VIEWPORT
  5
3194
102
{ACAD_XDICTIONARY
360
3DE8
102
}
330
318C
100
AcDbEntity
 67
     1
  8
0
100
AcDbViewport
 10
99.91724538803099
 20
143.1184201240539
 30
0.0
 40
430.1964563810208
 41
299.4231128286808
 68
     1
 69
     1
 12
99.91724538803099
 22
143.1184201240539
 13
0.0
 23
0.0
 14
10.0
 24
10.0
 15
10.0
 25
10.0
 16
0.0
 26
0.0
 36
1.0
 17
0.0
 27
0.0
 37
0.0
 42
50.0
 43
0.0
 44
0.0
 45
299.4231128286808
 50
0.0
 51
0.0
 72
 20000
 90
    32800
  1

281
     0
 71
     1
 74
     0
110
0.0
120
0.0
130
0.0
111
1.0
121
0.0
131
0.0
112
0.0
122
1.0
132
0.0
 79
     0
146
0.0
  0
VIEWPORT
  5
3196
102
{ACAD_XDICTIONARY
360
3DEA
102
}
330
318C
100
AcDbEntity
 67
     1
  8
0
100
AcDbViewport
 10
100.595
 20
131.1899999999999
 30
0.0
 40
178.0
 41
241.9999999999999
 68
     2
 69
     2
 12
177.0000016047404
 22
241.0000036457862
 13
0.0
 23
0.0
 14
10.0
 24
10.0
 15
10.0
 25
10.0
 16
0.0
 26
0.0
 36
1.0
 17
0.0
 27
0.0
 37
0.0
 42
50.0
 43
0.0
 44
0.0
 45
483.9999999999998
 50
0.0
 51
0.0
 72
 20000
 90
    32864
  1

281
     0
 71
     1
 74
     0
110
0.0
120
0.0
130
0.0
111
1.0
121
0.0
131
0.0
112
0.0
122
1.0
132
0.0
 79
     0
146
0.0
  0
INSERT
  5
319C
330
318C
100
AcDbEntity
 67
     1
  8
APL Border
100
AcDbBlockReference
  2
vantage a4 SM border
 10
0.0
 20
0.0
 30
0.0
  0
INSERT
  5
3C6E
330
318C
100
AcDbEntity
 67
     1
  8
APL Border
100
AcDbBlockReference
 66
     1
  2
vantage a4 SM attributes (4)
 10
0.0
 20
0.0
 30
0.0
  0
ATTRIB
  5
3C70
330
3C6E
100
AcDbEntity
 67
     1
  8
APL Border
100
AcDbText
 10
41.78979785863009
 20
276.19
 30
0.0
 40
3.5
  1
MAGNUM 50
  7
Arial-Bold
100
AcDbAttribute
  2
DRAWINGTITLE_1
 70
     0
1001
AcDbBlockRepETag
1070
     1
1071
        0
1005
0
  0
ATTRIB
  5
3C71
330
3C6E
100
AcDbEntity
 67
     1
  8
APL Border
100
AcDbText
 10
41.78979785863009
 20
270.19
 30
0.0
 40
3.5
  1
SLIDING DOOR
  7
Arial-Bold
100
AcDbAttribute
  2
DRAWINGTITLE_2
 70
     0
1001
AcDbBlockRepETag
1070
     1
1071
        1
1005
0
  0
ATTRIB
  5
3C72
330
3C6E
100
AcDbEntity
 67
     1
  8
APL Border
100
AcDbText
 10
41.78979785863009
 20
264.19
 30
0.0
 40
3.5
  1
VISION RAIL AND BEAD OPTIONS
  7
Arial-Bold
100
AcDbAttribute
  2
DRAWINGTITLE_3
 70
     0
1001
AcDbBlockRepETag
1070
     1
1071
        2
1005
0
  0
ATTRIB
  5
3C73
330
3C6E
100
AcDbEntity
 67
     1
  8
APL Border
100
AcDbText
 10
41.78979785863009
 20
258.19
 30
0.0
 40
3.0
  1
CROSS SECTION
  7
Arial-Regular
100
AcDbAttribute
  2
DRAWINGTITLE_4
 70
     0
1001
AcDbBlockRepETag
1070
     1
1071
        3
1005
0
  0
ATTRIB
  5
3C74
330
3C6E
100
AcDbEntity
 67
     1
  8
APL Border
100
AcDbText
 10
165.845
 20
273.69
 30
0.0
 40
2.5
  1
VCMD09-0
  7
Arial-Regular
100
AcDbAttribute
  2
AW12-0
 70
     0
1001
AcDbBlockRepETag
1070
     1
1071
        4
1005
0
  0
ATTRIB
  5
3C75
330
3C6E
100
AcDbEntity
 67
     1
  8
APL Border
100
AcDbText
 10
147.5475920873124
 20
257.1899999999999
 30
0.0
 40
2.5
  1
01.06.11
  7
Arial-Regular
 72
     1
 11
154.345
 21
257.1899999999999
 31
0.0
100
AcDbAttribute
  2
25.07.08
 70
     0
1001
AcDbBlockRepETag
1070
     1
1071
        5
1005
0
  0
ATTRIB
  5
3C76
330
3C6E
100
AcDbEntity
 67
     1
  8
APL Border
100
AcDbText
 10
175.4174761255116
 20
257.1899999999999
 30
0.0
 40
2.5
  1
1:2
  7
Arial-Regular
 72
     1
 11
177.845
 21
257.1899999999999
 31
0.0
100
AcDbAttribute
  2
1:2
 70
     0
1001
AcDbBlockRepETag
1070
     1
1071
        6
1005
0
  0
ATTRIB
  5
3C77
330
3C6E
100
AcDbEntity
 67
     1
  8
APL Border
100
AcDbText
 10
189.595
 20
1.189999999999997
 30
0.0
 40
3.75
  1

  7
Arial-Bold
 72
     2
 11
189.595
 21
1.189999999999997
 31
0.0
100
AcDbAttribute
  2
1.2.34
 70
     0
1001
AcDbBlockRepETag
1070
     1
1071
        7
1005
0
  0
ATTRIB
  5
3C78
330
3C6E
100
AcDbEntity
 67
     1
  8
APL Border
100
AcDbText
 10
11.59500000000003
 20
1.189999999999997
 30
0.0
 40
3.75
  1

  7
Arial-Bold
100
AcDbAttribute
  2
1.2.34
 70
     0
1001
AcDbBlockRepETag
1070
     1
1071
        8
1005
0
  0
SEQEND
  5
3C6F
330
3C6E
100
AcDbEntity
 67
     1
  8
APL Border
  0
ENDSEC
  0
SECTION
  2
OBJECTS
  0
DICTIONARY
  5
C
330
0
100
AcDbDictionary
281
     1
  3
ACAD_COLOR
350
3726
  3
ACAD_GROUP
350
D
  3
ACAD_LAYOUT
350
1A
  3
ACAD_MATERIAL
350
36FC
  3
ACAD_MLEADERSTYLE
350
374B
  3
ACAD_MLINESTYLE
350
17
  3
ACAD_PLOTSETTINGS
350
19
  3
ACAD_PLOTSTYLENAME
350
E
  3
ACAD_SCALELIST
350
3729
  3
ACAD_TABLESTYLE
350
3727
  3
ACAD_VISUALSTYLE
350
3715
  3
AcadDim
350
86
  3
ACDB_RECOMPOSE_DATA
350
37E1
  3
ACDBHEADERROUNDTRIPXREC
350
4277
  3
AcDbVariableDictionary
350
3B
  3
AEC_PROPERTY_SET_DEFS
350
3A72
  3
DWGPROPS
350
4276
  0
DICTIONARY
  5
37E3
330
8
100
AcDbDictionary
280
     1
281
     1
  3
ACAD_XREC_ROUNDTRIP
360
3DDE
  0
DICTIONARY
  5
3771
330
2
100
AcDbDictionary
280
     1
281
     1
  3
ACAD_LAYERSTATES
360
3772
  0
DICTIONARY
  5
37AD
330
10
100
AcDbDictionary
280
     1
281
     1
  3
ACAD_XREC_ROUNDTRIP
360
3DDF
  3
ADSK_XREC_LAYER_RECONCILED
360
37AE
  0
DICTIONARY
  5
37AF
330
2B
100
AcDbDictionary
280
     1
281
     1
  3
ACAD_XREC_ROUNDTRIP
360
3DE2
  3
ADSK_XREC_LAYER_RECONCILED
360
37B0
  0
DICTIONARY
  5
37B1
330
75
100
AcDbDictionary
280
     1
281
     1
  3
ACAD_XREC_ROUNDTRIP
360
3DE3
  3
ADSK_XREC_LAYER_RECONCILED
360
37B2
  0
DICTIONARY
  5
37B3
330
2C09
100
AcDbDictionary
280
     1
281
     1
  3
ACAD_XREC_ROUNDTRIP
360
3DE4
  3
ADSK_XREC_LAYER_RECONCILED
360
37B4
  0
DICTIONARY
  5
37BF
330
375A
100
AcDbDictionary
280
     1
281
     1
  3
ACAD_XREC_ROUNDTRIP
360
3DFA
  3
ADSK_XREC_LAYER_RECONCILED
360
37C0
  0
DICTIONARY
  5
382E
330
1F
100
AcDbDictionary
280
     1
281
     1
  3
ACAD_SORTENTS
360
382F
  0
DICTIONARY
  5
423E
330
35D5
100
AcDbDictionary
280
     1
281
     1
  0
DICTIONARY
  5
3D63
330
35EA
100
AcDbDictionary
280
     1
281
     1
  0
DICTIONARY
  5
4246
330
3606
100
AcDbDictionary
280
     1
281
     1
  0
DICTIONARY
  5
3D58
330
3668
100
AcDbDictionary
280
     1
281
     1
  0
DICTIONARY
  5
424E
330
36C4
100
AcDbDictionary
280
     1
281
     1
  3
ACAD_SORTENTS
360
424F
  0
DICTIONARY
  5
4254
330
36CA
100
AcDbDictionary
280
     1
281
     1
  3
ACAD_SORTENTS
360
4255
  0
DICTIONARY
  5
3C6B
330
3C61
100
AcDbDictionary
280
     1
281
     1
  0
DICTIONARY
  5
3E61
330
3E60
100
AcDbDictionary
280
     1
281
     1
  3
ACAD_SORTENTS
360
3E62
  0
DICTIONARY
  5
3E5F
330
3E5E
100
AcDbDictionary
280
     1
281
     1
  0
DICTIONARY
  5
3DE8
330
3194
100
AcDbDictionary
280
     1
281
     1
  3
ACAD_XREC_ROUNDTRIP
360
3DE9
  0
DICTIONARY
  5
3DEA
330
3196
100
AcDbDictionary
280
     1
281
     1
  3
ACAD_XREC_ROUNDTRIP
360
3DEB
  0
DICTIONARY
  5
3726
102
{ACAD_REACTORS
330
C
102
}
330
C
100
AcDbDictionary
281
     1
  0
DICTIONARY
  5
D
102
{ACAD_REACTORS
330
C
102
}
330
C
100
AcDbDictionary
281
     1
  0
DICTIONARY
  5
1A
102
{ACAD_REACTORS
330
C
102
}
330
C
100
AcDbDictionary
281
     1
  3
Model
350
22
  3
Vantage A4
350
318D
  0
DICTIONARY
  5
36FC
102
{ACAD_REACTORS
330
C
102
}
330
C
100
AcDbDictionary
281
     1
  3
ByBlock
350
3705
  3
ByLayer
350
36FD
  3
Global
350
370D
  0
DICTIONARY
  5
374B
102
{ACAD_REACTORS
330
C
102
}
330
C
100
AcDbDictionary
281
     1
  3
Standard
350
3D3C
  0
DICTIONARY
  5
17
102
{ACAD_REACTORS
330
C
102
}
330
C
100
AcDbDictionary
281
     1
  3
Standard
350
18
  0
DICTIONARY
  5
19
102
{ACAD_REACTORS
330
C
102
}
330
C
100
AcDbDictionary
281
     1
  0
ACDBDICTIONARYWDFLT
  5
E
102
{ACAD_REACTORS
330
C
102
}
330
C
100
AcDbDictionary
281
     1
  3
Normal
350
F
100
AcDbDictionaryWithDefault
340
F
  0
DICTIONARY
  5
3729
102
{ACAD_REACTORS
330
C
102
}
330
C
100
AcDbDictionary
281
     1
  3
A0
350
372A
  3
A1
350
372B
  3
A2
350
372C
  3
A3
350
372D
  3
A4
350
372E
  3
A5
350
372F
  3
A6
350
3730
  3
A7
350
3731
  3
A8
350
3732
  3
A9
350
3733
  3
B0
350
3734
  3
B1
350
3735
  3
B2
350
3736
  3
B3
350
3737
  3
B4
350
3738
  3
B5
350
3739
  3
B6
350
373A
  3
B7
350
373B
  3
B8
350
373C
  3
B9
350
373D
  3
C0
350
373E
  3
C1
350
373F
  3
C2
350
3740
  3
C3
350
3741
  3
C4
350
3742
  3
C5
350
3743
  3
C6
350
3744
  3
C7
350
3745
  3
C8
350
3746
  3
C9
350
3747
  3
D0
350
3748
  3
D1
350
3749
  3
D2
350
374A
  0
DICTIONARY
  5
3727
102
{ACAD_REACTORS
330
C
102
}
330
C
100
AcDbDictionary
281
     1
  3
Standard
350
3728
  0
DICTIONARY
  5
3715
102
{ACAD_REACTORS
330
C
102
}
330
C
100
AcDbDictionary
281
     1
  3
2dWireframe
350
371B
  3
3D Hidden
350
371D
  3
3dWireframe
350
371C
  3
Basic
350
371A
  3
Brighten
350
3721
  3
ColorChange
350
3725
  3
Conceptual
350
371E
  3
Dim
350
3720
  3
Facepattern
350
3724
  3
Flat
350
3716
  3
FlatWithEdges
350
3717
  3
Gouraud
350
3718
  3
GouraudWithEdges
350
3719
  3
Linepattern
350
3723
  3
Realistic
350
371F
  3
Thicken
350
3722
  0
XRECORD
  5
86
102
{ACAD_REACTORS
330
C
102
}
330
C
100
AcDbXrecord
280
     1
 90
   990106
  3

 60
     0
 61
     0
 62
     1
 63
     3
 64
     0
 65
     0
 66
     0
 67
     3
 68
     1
 69
     0
 70
     0
 71
     0
 72
     0
 40
8.188652110585962
170
     0
  0
XRECORD
  5
37E1
102
{ACAD_REACTORS
330
C
102
}
330
C
100
AcDbXrecord
280
     1
 90
        1
330
3728
  0
DICTIONARY
  5
4277
102
{ACAD_REACTORS
330
C
102
}
330
C
100
AcDbDictionary
281
     1
  0
DICTIONARY
  5
3B
102
{ACAD_REACTORS
330
C
102
}
330
C
100
AcDbDictionary
281
     1
  3
CANNOSCALE
350
3817
  3
CMLEADERSTYLE
350
3816
  3
CTABLESTYLE
350
3815
  3
DIMASSOC
350
3D
  3
HIDETEXT
350
3C
  3
INDEXCTL
350
3819
  3
PROJECTNAME
350
3D3A
  3
SORTENTS
350
3818
  0
DICTIONARY
  5
3A72
102
{ACAD_REACTORS
330
C
102
}
330
C
100
AcDbDictionary
281
     1
  0
XRECORD
  5
4276
102
{ACAD_REACTORS
330
C
102
}
330
C
100
AcDbXrecord
280
     1
  1
DWGPROPS COOKIE
  2

  3

  4

  6

  7

  8
homer
  9

300
=
301
=
302
=
303
=
304
=
305
=
306
=
307
=
308
=
309
=
 40
0.9083205324074073
 41
2452417.391545024
 42
2455660.581342812
  1

 90
        0
  0
XRECORD
  5
3DDE
102
{ACAD_REACTORS
330
37E3
102
}
330
37E3
100
AcDbXrecord
280
     1
102
VTR_0.000_0.000_1.000_1.000_VISUALSTYLE
340
371B
102
VTR_0.000_0.000_1.000_1.000_GRIDDISPLAY
 70
     3
102
VTR_0.000_0.000_1.000_1.000_GRIDMAJOR
 70
     5
102
VTR_0.000_0.000_1.000_1.000_DEFAULTLIGHTING
280
     1
102
VTR_0.000_0.000_1.000_1.000_DEFAULTLIGHTINGTYPE
 70
     1
102
VTR_0.000_0.000_1.000_1.000_BRIGHTNESS
141
0.0
102
VTR_0.000_0.000_1.000_1.000_CONTRAST
142
0.0
  0
DICTIONARY
  5
3772
102
{ACAD_REACTORS
330
3771
102
}
330
3771
100
AcDbDictionary
281
     1
  0
XRECORD
  5
3DDF
102
{ACAD_REACTORS
330
37AD
102
}
330
37AD
100
AcDbXrecord
280
     1
102
MATERIAL
340
370D
  0
XRECORD
  5
37AE
102
{ACAD_REACTORS
330
37AD
102
}
330
37AD
100
AcDbXrecord
280
     1
290
     1
  0
XRECORD
  5
3DE2
102
{ACAD_REACTORS
330
37AF
102
}
330
37AF
100
AcDbXrecord
280
     1
102
MATERIAL
340
370D
  0
XRECORD
  5
37B0
102
{ACAD_REACTORS
330
37AF
102
}
330
37AF
100
AcDbXrecord
280
     1
290
     1
  0
XRECORD
  5
3DE3
102
{ACAD_REACTORS
330
37B1
102
}
330
37B1
100
AcDbXrecord
280
     1
102
MATERIAL
340
370D
  0
XRECORD
  5
37B2
102
{ACAD_REACTORS
330
37B1
102
}
330
37B1
100
AcDbXrecord
280
     1
290
     1
  0
XRECORD
  5
3DE4
102
{ACAD_REACTORS
330
37B3
102
}
330
37B3
100
AcDbXrecord
280
     1
102
MATERIAL
340
370D
  0
XRECORD
  5
37B4
102
{ACAD_REACTORS
330
37B3
102
}
330
37B3
100
AcDbXrecord
280
     1
290
     1
  0
XRECORD
  5
3DFA
102
{ACAD_REACTORS
330
37BF
102
}
330
37BF
100
AcDbXrecord
280
     1
102
MATERIAL
340
370D
  0
XRECORD
  5
37C0
102
{ACAD_REACTORS
330
37BF
102
}
330
37BF
100
AcDbXrecord
280
     1
290
     1
  0
SORTENTSTABLE
  5
382F
102
{ACAD_REACTORS
330
382E
102
}
330
382E
100
AcDbSortentsTable
330
1F
331
34D6
  5
34DA
331
34EF
  5
353C
331
35FA
  5
3603
331
3600
  5
3671
331
33E6
  5
33EC
331
3438
  5
343F
331
33EC
  5
3433
331
34BF
  5
34C3
331
34D8
  5
34DC
331
34DE
  5
34E2
331
34C5
  5
34C9
331
353D
  5
3542
331
36C9
  5
382D
331
344A
  5
34BF
331
34CB
  5
34CF
331
34E4
  5
34EA
331
3543
  5
3600
331
36CF
  5
3830
331
34D1
  5
34D5
331
34EA
  5
34EE
331
34D7
  5
34DB
331
3433
  5
343E
331
3670
  5
36D1
331
33ED
  5
3438
331
34C0
  5
34C5
331
34D9
  5
34DD
331
34C6
  5
34CA
331
34DF
  5
34E3
331
34CC
  5
34D0
331
34E5
  5
34EB
331
32C8
  5
33E6
331
34EB
  5
34EF
331
34D2
  5
34D6
331
3544
  5
3602
331
34F1
  5
353D
331
3602
  5
36C9
331
33E2
  5
33E8
331
32C7
  5
33E4
331
33E8
  5
33ED
331
3671
  5
36D3
331
34C1
  5
34C6
331
33EE
  5
343C
331
34DA
  5
34DE
331
34C7
  5
34CB
331
34E0
  5
34E4
331
353F
  5
3543
331
34CD
  5
34D1
331
34E6
  5
34EC
331
34EC
  5
34F1
331
36D1
  5
3831
331
34D3
  5
34D7
331
33F0
  5
343D
331
34F2
  5
353F
331
3603
  5
36CF
331
33E3
  5
33E9
331
3087
  5
33E3
331
33E9
  5
33EE
331
34BC
  5
34C0
331
34DB
  5
34DF
331
34C2
  5
34C7
331
3447
  5
34BC
331
34C8
  5
34CC
331
34E1
  5
34E5
331
382D
  5
33E2
331
3540
  5
3544
331
34CE
  5
34D2
331
34D4
  5
34D8
331
34ED
  5
34F2
331
34F3
  5
3540
331
33E4
  5
33EA
331
33EA
  5
33F0
331
34BD
  5
34C1
331
3442
  5
344A
331
34C3
  5
34C8
331
34DC
  5
34E0
331
3448
  5
34BD
331
34C9
  5
34CD
331
34E2
  5
34E6
331
3541
  5
35FA
331
34CF
  5
34D3
331
34EE
  5
34F3
331
34D5
  5
34D9
331
36D3
  5
3832
331
35FF
  5
3670
331
343D
  5
3442
331
34BE
  5
34C2
331
34DD
  5
34E1
331
353C
  5
3541
331
3449
  5
34BE
331
34CA
  5
34CE
331
34E3
  5
34E9
331
3542
  5
35FF
331
34D0
  5
34D4
331
34E9
  5
34ED
  0
SORTENTSTABLE
  5
424F
102
{ACAD_REACTORS
330
424E
102
}
330
424E
100
AcDbSortentsTable
330
36C4
  0
SORTENTSTABLE
  5
4255
102
{ACAD_REACTORS
330
4254
102
}
330
4254
100
AcDbSortentsTable
330
36CA
  0
SORTENTSTABLE
  5
3E62
102
{ACAD_REACTORS
330
3E61
102
}
330
3E61
100
AcDbSortentsTable
330
3E60
  0
XRECORD
  5
3DE9
102
{ACAD_REACTORS
330
3DE8
102
}
330
3DE8
100
AcDbXrecord
280
     1
102
VISUALSTYLE
340
371B
102
GRIDDISPLAY
 70
     0
102
GRIDMAJOR
 70
     5
102
DEFAULTLIGHTING
280
     1
102
DEFAULTLIGHTINGTYPE
 70
     1
102
BRIGHTNESS
141
0.0
102
CONTRAST
142
0.0
102
SHADEPLOT
 70
     0
  0
XRECORD
  5
3DEB
102
{ACAD_REACTORS
330
3DEA
102
}
330
3DEA
100
AcDbXrecord
280
     1
102
VISUALSTYLE
340
371B
102
GRIDDISPLAY
 70
     0
102
GRIDMAJOR
 70
     5
102
DEFAULTLIGHTING
280
     1
102
DEFAULTLIGHTINGTYPE
 70
     1
102
BRIGHTNESS
141
0.0
102
CONTRAST
142
0.0
102
SHADEPLOT
 70
     0
  0
LAYOUT
  5
22
102
{ACAD_XDICTIONARY
360
4278
102
}
102
{ACAD_REACTORS
330
1A
102
}
330
1A
100
AcDbPlotSettings
  1

  2
\\APL01\HP LaserJet 4MV
  4
A4
  6

 40
6.043083190917968
 41
6.720414161682128
 42
7.821090698242187
 43
5.027069091796875
 44
210.0579986572266
 45
296.9259948730469
 46
0.0
 47
0.0
 48
55.19893561856474
 49
77.41415496436935
140
329.6878846931311
141
251.7976535946928
142
1.0
143
1.0
 70
 11936
 72
     1
 73
     1
 74
     4
  7

 75
     0
147
1.0
148
-55.19893561856474
149
-77.41415496436935
100
AcDbLayout
  1
Model
 70
     1
 71
     0
 10
0.0
 20
0.0
 11
12.0
 21
9.0
 12
0.0
 22
0.0
 32
0.0
 14
0.0
 24
0.0
 34
0.0
 15
0.0
 25
0.0
 35
0.0
146
0.0
 13
0.0
 23
0.0
 33
0.0
 16
1.0
 26
0.0
 36
0.0
 17
0.0
 27
1.0
 37
0.0
 76
     0
330
1F
  0
LAYOUT
  5
318D
102
{ACAD_XDICTIONARY
360
3784
102
}
102
{ACAD_REACTORS
330
1A
102
}
330
1A
100
AcDbPlotSettings
  1

  2
\\Aplfp01\APL Technical HP5100 PSLaser
  4
A4
  6

 40
5.027082920074462
 41
5.408084392547607
 42
5.70440673828125
 43
5.365753173828125
 44
209.8886566162109
 45
297.0530090332031
 46
0.0
 47
0.0
 48
0.0
 49
0.0
140
0.0
141
0.0
142
1.0
143
1.0
 70
   176
 72
     1
 73
     0
 74
     5
  7
A4 Specifier Manual.ctb
 75
    16
147
1.0
148
0.0
149
0.0
100
AcDbLayout
  1
Vantage A4
 70
     1
 71
     1
 10
-5.027082920074462
 20
-5.408084392547607
 11
204.8615736961365
 21
291.6449246406555
 12
0.0
 22
0.0
 32
0.0
 14
11.46014299460751
 24
3.285575844812797
 34
-0.0015258207003583
 15
189.6073677543587
 25
282.2033753668244
 35
0.0000000349246037
146
0.0
 13
0.0
 23
0.0
 33
0.0
 16
1.0
 26
0.0
 36
0.0
 17
0.0
 27
1.0
 37
0.0
 76
     0
330
318C
331
3194
1001
ACAD_PSEXT
1000
\\Aplfp01\APL Technical HP5100 PSLaser
1000
HP LaserJet 5100 PS
1000
APL Technical Office
1000

1070
     0
  0
MATERIAL
  5
3705
102
{ACAD_XDICTIONARY
360
3706
102
}
102
{ACAD_REACTORS
330
36FC
102
}
330
36FC
100
AcDbMaterial
  1
ByBlock
 72
     0
 73
     2
 43
0.0008202099737533
 43
0.0
 43
0.0
 43
0.0
 43
0.0
 43
0.0008202099737533
 43
0.0
 43
0.0
 43
0.0
 43
0.0
 43
1.0
 43
0.0
 43
0.0
 43
0.0
 43
0.0
 43
1.0
 77
     0
 78
     2
 47
0.0008202099737533
 47
0.0
 47
0.0
 47
0.0
 47
0.0
 47
0.0008202099737533
 47
0.0
 47
0.0
 47
0.0
 47
0.0
 47
1.0
 47
0.0
 47
0.0
 47
0.0
 47
0.0
 47
1.0
171
     0
172
     2
 49
0.0008202099737533
 49
0.0
 49
0.0
 49
0.0
 49
0.0
 49
0.0008202099737533
 49
0.0
 49
0.0
 49
0.0
 49
0.0
 49
1.0
 49
0.0
 49
0.0
 49
0.0
 49
0.0
 49
1.0
175
     0
176
     2
142
0.0008202099737533
142
0.0
142
0.0
142
0.0
142
0.0
142
0.0008202099737533
142
0.0
142
0.0
142
0.0
142
0.0
142
1.0
142
0.0
142
0.0
142
0.0
142
0.0
142
1.0
179
     0
270
     2
144
0.0008202099737533
144
0.0
144
0.0
144
0.0
144
0.0
144
0.0008202099737533
144
0.0
144
0.0
144
0.0
144
0.0
144
1.0
144
0.0
144
0.0
144
0.0
144
0.0
144
1.0
274
     2
147
0.0008202099737533
147
0.0
147
0.0
147
0.0
147
0.0
147
0.0008202099737533
147
0.0
147
0.0
147
0.0
147
0.0
147
1.0
147
0.0
147
0.0
147
0.0
147
0.0
147
1.0
  0
MATERIAL
  5
36FD
102
{ACAD_XDICTIONARY
360
36FE
102
}
102
{ACAD_REACTORS
330
36FC
102
}
330
36FC
100
AcDbMaterial
  1
ByLayer
 72
     0
 73
     2
 43
0.0008202099737533
 43
0.0
 43
0.0
 43
0.0
 43
0.0
 43
0.0008202099737533
 43
0.0
 43
0.0
 43
0.0
 43
0.0
 43
1.0
 43
0.0
 43
0.0
 43
0.0
 43
0.0
 43
1.0
 77
     0
 78
     2
 47
0.0008202099737533
 47
0.0
 47
0.0
 47
0.0
 47
0.0
 47
0.0008202099737533
 47
0.0
 47
0.0
 47
0.0
 47
0.0
 47
1.0
 47
0.0
 47
0.0
 47
0.0
 47
0.0
 47
1.0
171
     0
172
     2
 49
0.0008202099737533
 49
0.0
 49
0.0
 49
0.0
 49
0.0
 49
0.0008202099737533
 49
0.0
 49
0.0
 49
0.0
 49
0.0
 49
1.0
 49
0.0
 49
0.0
 49
0.0
 49
0.0
 49
1.0
175
     0
176
     2
142
0.0008202099737533
142
0.0
142
0.0
142
0.0
142
0.0
142
0.0008202099737533
142
0.0
142
0.0
142
0.0
142
0.0
142
1.0
142
0.0
142
0.0
142
0.0
142
0.0
142
1.0
179
     0
270
     2
144
0.0008202099737533
144
0.0
144
0.0
144
0.0
144
0.0
144
0.0008202099737533
144
0.0
144
0.0
144
0.0
144
0.0
144
1.0
144
0.0
144
0.0
144
0.0
144
0.0
144
1.0
274
     2
147
0.0008202099737533
147
0.0
147
0.0
147
0.0
147
0.0
147
0.0008202099737533
147
0.0
147
0.0
147
0.0
147
0.0
147
1.0
147
0.0
147
0.0
147
0.0
147
0.0
147
1.0
  0
MATERIAL
  5
370D
102
{ACAD_XDICTIONARY
360
370E
102
}
102
{ACAD_REACTORS
330
36FC
102
}
330
36FC
100
AcDbMaterial
  1
Global
 72
     0
 73
     2
 43
0.0008202099737533
 43
0.0
 43
0.0
 43
0.0
 43
0.0
 43
0.0008202099737533
 43
0.0
 43
0.0
 43
0.0
 43
0.0
 43
1.0
 43
0.0
 43
0.0
 43
0.0
 43
0.0
 43
1.0
 77
     0
 78
     2
 47
0.0008202099737533
 47
0.0
 47
0.0
 47
0.0
 47
0.0
 47
0.0008202099737533
 47
0.0
 47
0.0
 47
0.0
 47
0.0
 47
1.0
 47
0.0
 47
0.0
 47
0.0
 47
0.0
 47
1.0
171
     0
172
     2
 49
0.0008202099737533
 49
0.0
 49
0.0
 49
0.0
 49
0.0
 49
0.0008202099737533
 49
0.0
 49
0.0
 49
0.0
 49
0.0
 49
1.0
 49
0.0
 49
0.0
 49
0.0
 49
0.0
 49
1.0
175
     0
176
     2
142
0.0008202099737533
142
0.0
142
0.0
142
0.0
142
0.0
142
0.0008202099737533
142
0.0
142
0.0
142
0.0
142
0.0
142
1.0
142
0.0
142
0.0
142
0.0
142
0.0
142
1.0
179
     0
270
     2
144
0.0008202099737533
144
0.0
144
0.0
144
0.0
144
0.0
144
0.0008202099737533
144
0.0
144
0.0
144
0.0
144
0.0
144
1.0
144
0.0
144
0.0
144
0.0
144
0.0
144
1.0
274
     2
147
0.0008202099737533
147
0.0
147
0.0
147
0.0
147
0.0
147
0.0008202099737533
147
0.0
147
0.0
147
0.0
147
0.0
147
1.0
147
0.0
147
0.0
147
0.0
147
0.0
147
1.0
  0
ACAD_PROXY_OBJECT
  5
3D3C
102
{ACAD_REACTORS
330
374B
102
}
330
374B
100
AcDbProxyObject
 90
      499
 91
      509
 95
   983063
 70
     0
 93
      618
310
40901902A4063FBFFFFFE000000000000002040AD7A3703D0AD73F4254DD185B99185C99000000000000000104090141901A00000000000004100000000000000041025764000000000000300FC0
340
14
340
0
340
11
340
0
 94
        0
1001
ACAD_MLEADERVER
1070
     2
1001
ACAD
1000
AcRTDxfName
1000
MLEADERSTYLE
1000
AcRTDxfName
1000
MLEADERSTYLE
1000
AcRTDxfName
1000
MLEADERSTYLE
  0
MLINESTYLE
  5
18
102
{ACAD_REACTORS
330
17
102
}
330
17
100
AcDbMlineStyle
  2
STANDARD
 70
     0
  3

 62
   256
 51
90.0
 52
90.0
 71
     2
 49
0.5
 62
   256
  6
BYLAYER
 49
-0.5
 62
   256
  6
BYLAYER
  0
ACDBPLACEHOLDER
  5
F
102
{ACAD_REACTORS
330
E
102
}
330
E
  0
ACAD_PROXY_OBJECT
  5
372A
102
{ACAD_REACTORS
330
3729
102
}
330
3729
100
AcDbProxyObject
 90
      499
 91
      508
 95
   983063
 70
     0
 93
       49
310
904313A3100580
 94
        0
1001
ACAD
1000
AcRTDxfName
1000
SCALE
1000
AcRTDxfName
1000
SCALE
1000
AcRTDxfName
1000
SCALE
1000
AcRTDxfName
1000
SCALE
  0
ACAD_PROXY_OBJECT
  5
372B
102
{ACAD_REACTORS
330
3729
102
}
330
3729
100
AcDbProxyObject
 90
      499
 91
      508
 95
   983063
 70
     0
 93
      113
310
904313A32004000000000000004040
 94
        0
1001
ACAD
1000
AcRTDxfName
1000
SCALE
1000
AcRTDxfName
1000
SCALE
1000
AcRTDxfName
1000
SCALE
1000
AcRTDxfName
1000
SCALE
  0
ACAD_PROXY_OBJECT
  5
372C
102
{ACAD_REACTORS
330
3729
102
}
330
3729
100
AcDbProxyObject
 90
      499
 91
      508
 95
   983063
 70
     0
 93
      113
310
904313A34004000000000000104040
 94
        0
1001
ACAD
1000
AcRTDxfName
1000
SCALE
1000
AcRTDxfName
1000
SCALE
1000
AcRTDxfName
1000
SCALE
1000
AcRTDxfName
1000
SCALE
  0
ACAD_PROXY_OBJECT
  5
372D
102
{ACAD_REACTORS
330
3729
102
}
330
3729
100
AcDbProxyObject
 90
      499
 91
      508
 95
   983063
 70
     0
 93
      113
310
904313A35004000000000000144040
 94
        0
1001
ACAD
1000
AcRTDxfName
1000
SCALE
1000
AcRTDxfName
1000
SCALE
1000
AcRTDxfName
1000
SCALE
1000
AcRTDxfName
1000
SCALE
  0
ACAD_PROXY_OBJECT
  5
372E
102
{ACAD_REACTORS
330
3729
102
}
330
3729
100
AcDbProxyObject
 90
      499
 91
      508
 95
   983063
 70
     0
 93
      113
310
904313A38004000000000000204040
 94
        0
1001
ACAD
1000
AcRTDxfName
1000
SCALE
1000
AcRTDxfName
1000
SCALE
1000
AcRTDxfName
1000
SCALE
1000
AcRTDxfName
1000
SCALE
  0
ACAD_PROXY_OBJECT
  5
372F
102
{ACAD_REACTORS
330
3729
102
}
330
3729
100
AcDbProxyObject
 90
      499
 91
      508
 95
   983063
 70
     0
 93
      121
310
905313A3130004000000000000244040
 94
        0
1001
ACAD
1000
AcRTDxfName
1000
SCALE
1000
AcRTDxfName
1000
SCALE
1000
AcRTDxfName
1000
SCALE
1000
AcRTDxfName
1000
SCALE
  0
ACAD_PROXY_OBJECT
  5
3730
102
{ACAD_REACTORS
330
3729
102
}
330
3729
100
AcDbProxyObject
 90
      499
 91
      508
 95
   983063
 70
     0
 93
      121
310
905313A3136004000000000000304001
 94
        0
1001
ACAD
1000
AcRTDxfName
1000
SCALE
1000
AcRTDxfName
1000
SCALE
1000
AcRTDxfName
1000
SCALE
1000
AcRTDxfName
1000
SCALE
  0
ACAD_PROXY_OBJECT
  5
3731
102
{ACAD_REACTORS
330
3729
102
}
330
3729
100
AcDbProxyObject
 90
      499
 91
      508
 95
   983063
 70
     0
 93
      121
310
905313A3230004000000000000344040
 94
        0
1001
ACAD
1000
AcRTDxfName
1000
SCALE
1000
AcRTDxfName
1000
SCALE
1000
AcRTDxfName
1000
SCALE
1000
AcRTDxfName
1000
SCALE
  0
ACAD_PROXY_OBJECT
  5
3732
102
{ACAD_REACTORS
330
3729
102
}
330
3729
100
AcDbProxyObject
 90
      499
 91
      508
 95
   983063
 70
     0
 93
      121
310
905313A33300040000000000003E4001
 94
        0
1001
ACAD
1000
AcRTDxfName
1000
SCALE
1000
AcRTDxfName
1000
SCALE
1000
AcRTDxfName
1000
SCALE
1000
AcRTDxfName
1000
SCALE
  0
ACAD_PROXY_OBJECT
  5
3733
102
{ACAD_REACTORS
330
3729
102
}
330
3729
100
AcDbProxyObject
 90
      499
 91
      508
 95
   983063
 70
     0
 93
      121
310
905313A3430004000000000000444040
 94
        0
1001
ACAD
1000
AcRTDxfName
1000
SCALE
1000
AcRTDxfName
1000
SCALE
1000
AcRTDxfName
1000
SCALE
1000
AcRTDxfName
1000
SCALE
  0
ACAD_PROXY_OBJECT
  5
3734
102
{ACAD_REACTORS
330
3729
102
}
330
3729
100
AcDbProxyObject
 90
      499
 91
      508
 95
   983063
 70
     0
 93
      121
310
905313A3530004000000000000494001
 94
        0
1001
ACAD
1000
AcRTDxfName
1000
SCALE
1000
AcRTDxfName
1000
SCALE
1000
AcRTDxfName
1000
SCALE
1000
AcRTDxfName
1000
SCALE
  0
ACAD_PROXY_OBJECT
  5
3735
102
{ACAD_REACTORS
330
3729
102
}
330
3729
100
AcDbProxyObject
 90
      499
 91
      508
 95
   983063
 70
     0
 93
      129
310
906313A313030004000000000000594000
 94
        0
1001
ACAD
1000
AcRTDxfName
1000
SCALE
1000
AcRTDxfName
1000
SCALE
1000
AcRTDxfName
1000
SCALE
1000
AcRTDxfName
1000
SCALE
  0
ACAD_PROXY_OBJECT
  5
3736
102
{ACAD_REACTORS
330
3729
102
}
330
3729
100
AcDbProxyObject
 90
      499
 91
      508
 95
   983063
 70
     0
 93
      113
310
904323A31000000000000000010165
 94
        0
1001
ACAD
1000
AcRTDxfName
1000
SCALE
1000
AcRTDxfName
1000
SCALE
1000
AcRTDxfName
1000
SCALE
1000
AcRTDxfName
1000
SCALE
  0
ACAD_PROXY_OBJECT
  5
3737
102
{ACAD_REACTORS
330
3729
102
}
330
3729
100
AcDbProxyObject
 90
      499
 91
      508
 95
   983063
 70
     0
 93
      113
310
904343A31000000000000000410101
 94
        0
1001
ACAD
1000
AcRTDxfName
1000
SCALE
1000
AcRTDxfName
1000
SCALE
1000
AcRTDxfName
1000
SCALE
1000
AcRTDxfName
1000
SCALE
  0
ACAD_PROXY_OBJECT
  5
3738
102
{ACAD_REACTORS
330
3729
102
}
330
3729
100
AcDbProxyObject
 90
      499
 91
      508
 95
   983063
 70
     0
 93
      113
310
904383A31000000000000000810165
 94
        0
1001
ACAD
1000
AcRTDxfName
1000
SCALE
1000
AcRTDxfName
1000
SCALE
1000
AcRTDxfName
1000
SCALE
1000
AcRTDxfName
1000
SCALE
  0
ACAD_PROXY_OBJECT
  5
3739
102
{ACAD_REACTORS
330
3729
102
}
330
3729
100
AcDbProxyObject
 90
      499
 91
      508
 95
   983063
 70
     0
 93
      121
310
90531303A31000000000000000910120
 94
        0
1001
ACAD
1000
AcRTDxfName
1000
SCALE
1000
AcRTDxfName
1000
SCALE
1000
AcRTDxfName
1000
SCALE
1000
AcRTDxfName
1000
SCALE
  0
ACAD_PROXY_OBJECT
  5
373A
102
{ACAD_REACTORS
330
3729
102
}
330
3729
100
AcDbProxyObject
 90
      499
 91
      508
 95
   983063
 70
     0
 93
      129
310
9063130303A31000000000000001650100
 94
        0
1001
ACAD
1000
AcRTDxfName
1000
SCALE
1000
AcRTDxfName
1000
SCALE
1000
AcRTDxfName
1000
SCALE
1000
AcRTDxfName
1000
SCALE
  0
ACAD_PROXY_OBJECT
  5
373B
102
{ACAD_REACTORS
330
3729
102
}
330
3729
100
AcDbProxyObject
 90
      499
 91
      508
 95
   983063
 70
     0
 93
      265
310
90F312F31323822203D2031272D302200000000000000200FC00000000000028404E
 94
        0
1001
ACAD
1000
AcRTDxfName
1000
SCALE
1000
AcRTDxfName
1000
SCALE
1000
AcRTDxfName
1000
SCALE
1000
AcRTDxfName
1000
SCALE
  0
ACAD_PROXY_OBJECT
  5
373C
102
{ACAD_REACTORS
330
3729
102
}
330
3729
100
AcDbProxyObject
 90
      499
 91
      508
 95
   983063
 70
     0
 93
      257
310
90E312F363422203D2031272D302200000000000000240FC000000000000284040
 94
        0
1001
ACAD
1000
AcRTDxfName
1000
SCALE
1000
AcRTDxfName
1000
SCALE
1000
AcRTDxfName
1000
SCALE
1000
AcRTDxfName
1000
SCALE
  0
ACAD_PROXY_OBJECT
  5
373D
102
{ACAD_REACTORS
330
3729
102
}
330
3729
100
AcDbProxyObject
 90
      499
 91
      508
 95
   983063
 70
     0
 93
      257
310
90E312F333222203D2031272D302200000000000000280FC000000000000284066
 94
        0
1001
ACAD
1000
AcRTDxfName
1000
SCALE
1000
AcRTDxfName
1000
SCALE
1000
AcRTDxfName
1000
SCALE
1000
AcRTDxfName
1000
SCALE
  0
ACAD_PROXY_OBJECT
  5
373E
102
{ACAD_REACTORS
330
3729
102
}
330
3729
100
AcDbProxyObject
 90
      499
 91
      508
 95
   983063
 70
     0
 93
      257
310
90E312F313622203D2031272D3022000000000000002C0FC000000000000284040
 94
        0
1001
ACAD
1000
AcRTDxfName
1000
SCALE
1000
AcRTDxfName
1000
SCALE
1000
AcRTDxfName
1000
SCALE
1000
AcRTDxfName
1000
SCALE
  0
ACAD_PROXY_OBJECT
  5
373F
102
{ACAD_REACTORS
330
3729
102
}
330
3729
100
AcDbProxyObject
 90
      499
 91
      508
 95
   983063
 70
     0
 93
      257
310
90E332F333222203D2031272D3022000000000000002E0FC000000000000284066
 94
        0
1001
ACAD
1000
AcRTDxfName
1000
SCALE
1000
AcRTDxfName
1000
SCALE
1000
AcRTDxfName
1000
SCALE
1000
AcRTDxfName
1000
SCALE
  0
ACAD_PROXY_OBJECT
  5
3740
102
{ACAD_REACTORS
330
3729
102
}
330
3729
100
AcDbProxyObject
 90
      499
 91
      508
 95
   983063
 70
     0
 93
      249
310
90D312F3822203D2031272D302200000000000000300FC000000000000284028
 94
        0
1001
ACAD
1000
AcRTDxfName
1000
SCALE
1000
AcRTDxfName
1000
SCALE
1000
AcRTDxfName
1000
SCALE
1000
AcRTDxfName
1000
SCALE
  0
ACAD_PROXY_OBJECT
  5
3741
102
{ACAD_REACTORS
330
3729
102
}
330
3729
100
AcDbProxyObject
 90
      499
 91
      508
 95
   983063
 70
     0
 93
      257
310
90E332F313622203D2031272D302200000000000000320FC000000000000284066
 94
        0
1001
ACAD
1000
AcRTDxfName
1000
SCALE
1000
AcRTDxfName
1000
SCALE
1000
AcRTDxfName
1000
SCALE
1000
AcRTDxfName
1000
SCALE
  0
ACAD_PROXY_OBJECT
  5
3742
102
{ACAD_REACTORS
330
3729
102
}
330
3729
100
AcDbProxyObject
 90
      499
 91
      508
 95
   983063
 70
     0
 93
      249
310
90D312F3422203D2031272D302200000000000000340FC000000000000284028
 94
        0
1001
ACAD
1000
AcRTDxfName
1000
SCALE
1000
AcRTDxfName
1000
SCALE
1000
AcRTDxfName
1000
SCALE
1000
AcRTDxfName
1000
SCALE
  0
ACAD_PROXY_OBJECT
  5
3743
102
{ACAD_REACTORS
330
3729
102
}
330
3729
100
AcDbProxyObject
 90
      499
 91
      508
 95
   983063
 70
     0
 93
      249
310
90D332F3822203D2031272D302200000000000000360FC000000000000284078
 94
        0
1001
ACAD
1000
AcRTDxfName
1000
SCALE
1000
AcRTDxfName
1000
SCALE
1000
AcRTDxfName
1000
SCALE
1000
AcRTDxfName
1000
SCALE
  0
ACAD_PROXY_OBJECT
  5
3744
102
{ACAD_REACTORS
330
3729
102
}
330
3729
100
AcDbProxyObject
 90
      499
 91
      508
 95
   983063
 70
     0
 93
      249
310
90D312F3222203D2031272D302200000000000000380FC000000000000284040
 94
        0
1001
ACAD
1000
AcRTDxfName
1000
SCALE
1000
AcRTDxfName
1000
SCALE
1000
AcRTDxfName
1000
SCALE
1000
AcRTDxfName
1000
SCALE
  0
ACAD_PROXY_OBJECT
  5
3745
102
{ACAD_REACTORS
330
3729
102
}
330
3729
100
AcDbProxyObject
 90
      499
 91
      508
 95
   983063
 70
     0
 93
      249
310
90D332F3422203D2031272D3022000000000000003A0FC000000000000284028
 94
        0
1001
ACAD
1000
AcRTDxfName
1000
SCALE
1000
AcRTDxfName
1000
SCALE
1000
AcRTDxfName
1000
SCALE
1000
AcRTDxfName
1000
SCALE
  0
ACAD_PROXY_OBJECT
  5
3746
102
{ACAD_REACTORS
330
3729
102
}
330
3729
100
AcDbProxyObject
 90
      499
 91
      508
 95
   983063
 70
     0
 93
      169
310
90B3122203D2031272D3022004000000000000284000
 94
        0
1001
ACAD
1000
AcRTDxfName
1000
SCALE
1000
AcRTDxfName
1000
SCALE
1000
AcRTDxfName
1000
SCALE
1000
AcRTDxfName
1000
SCALE
  0
ACAD_PROXY_OBJECT
  5
3747
102
{ACAD_REACTORS
330
3729
102
}
330
3729
100
AcDbProxyObject
 90
      499
 91
      508
 95
   983063
 70
     0
 93
      265
310
90F312D312F3222203D2031272D3022000000000000003E0FC000000000000284018
 94
        0
1001
ACAD
1000
AcRTDxfName
1000
SCALE
1000
AcRTDxfName
1000
SCALE
1000
AcRTDxfName
1000
SCALE
1000
AcRTDxfName
1000
SCALE
  0
ACAD_PROXY_OBJECT
  5
3748
102
{ACAD_REACTORS
330
3729
102
}
330
3729
100
AcDbProxyObject
 90
      499
 91
      508
 95
   983063
 70
     0
 93
      233
310
90B3322203D2031272D30220000000000000002100000000000000284000
 94
        0
1001
ACAD
1000
AcRTDxfName
1000
SCALE
1000
AcRTDxfName
1000
SCALE
1000
AcRTDxfName
1000
SCALE
1000
AcRTDxfName
1000
SCALE
  0
ACAD_PROXY_OBJECT
  5
3749
102
{ACAD_REACTORS
330
3729
102
}
330
3729
100
AcDbProxyObject
 90
      499
 91
      508
 95
   983063
 70
     0
 93
      233
310
90B3622203D2031272D3022000000000000000610000000000000028405D
 94
        0
1001
ACAD
1000
AcRTDxfName
1000
SCALE
1000
AcRTDxfName
1000
SCALE
1000
AcRTDxfName
1000
SCALE
1000
AcRTDxfName
1000
SCALE
  0
ACAD_PROXY_OBJECT
  5
374A
102
{ACAD_REACTORS
330
3729
102
}
330
3729
100
AcDbProxyObject
 90
      499
 91
      508
 95
   983063
 70
     0
 93
      257
310
90E31272D3022203D2031272D3022000000000000000A100000000000000284000
 94
        0
1001
ACAD
1000
AcRTDxfName
1000
SCALE
1000
AcRTDxfName
1000
SCALE
1000
AcRTDxfName
1000
SCALE
1000
AcRTDxfName
1000
SCALE
  0
TABLESTYLE
  5
3728
102
{ACAD_XDICTIONARY
360
37DF
102
}
102
{ACAD_REACTORS
330
3727
102
}
330
3727
100
AcDbTableStyle
  3
Standard
 70
     0
 71
     0
 40
1.5
 41
1.5
280
     0
281
     0
  7
Standard
140
4.5
170
     2
 62
     0
 63
     7
283
     0
274
    -2
284
     1
 64
     0
275
    -2
285
     1
 65
     0
276
    -2
286
     1
 66
     0
277
    -2
287
     1
 67
     0
278
    -2
288
     1
 68
     0
279
    -2
289
     1
 69
     0
  7
Standard
140
6.0
170
     5
 62
     0
 63
     7
283
     0
274
    -2
284
     1
 64
     0
275
    -2
285
     1
 65
     0
276
    -2
286
     1
 66
     0
277
    -2
287
     1
 67
     0
278
    -2
288
     1
 68
     0
279
    -2
289
     1
 69
     0
  7
Standard
140
4.5
170
     5
 62
     0
 63
     7
283
     0
274
    -2
284
     1
 64
     0
275
    -2
285
     1
 65
     0
276
    -2
286
     1
 66
     0
277
    -2
287
     1
 67
     0
278
    -2
288
     1
 68
     0
279
    -2
289
     1
 69
     0
  0
ACAD_PROXY_OBJECT
  5
371B
102
{ACAD_REACTORS
330
3715
102
}
330
3715
100
AcDbProxyObject
 90
      499
 91
      506
 95
   983063
 70
     0
 93
      444
310
430C9915DA5C99599C985B59401049028333333333333E3BF0000000000000FB0107901411070040501600405405064090741402480A0340
 94
        0
1001
ACAD
1000
AcRTDxfName
1000
VISUALSTYLE
1000
AcDbSavedByObjectVersion
1070
     0
1000
AcRTDxfName
1000
VISUALSTYLE
1000
AcRTDxfName
1000
VISUALSTYLE
1000
AcRTDxfName
1000
VISUALSTYLE
  0
ACAD_PROXY_OBJECT
  5
371D
102
{ACAD_REACTORS
330
3715
102
}
330
3715
100
AcDbProxyObject
 90
      499
 91
      506
 95
   983063
 70
     0
 93
      508
310
428CD108121A5919195B8010640502408333333333333E3BF0000000000000FB01079024090700405020000000000001110200405405064090740C02480A0340
 94
        0
1001
ACAD
1000
AcRTDxfName
1000
VISUALSTYLE
1000
AcDbSavedByObjectVersion
1070
     0
1000
AcRTDxfName
1000
VISUALSTYLE
1000
AcRTDxfName
1000
VISUALSTYLE
1000
AcRTDxfName
1000
VISUALSTYLE
  0
ACAD_PROXY_OBJECT
  5
371C
102
{ACAD_REACTORS
330
3715
102
}
330
3715
100
AcDbProxyObject
 90
      499
 91
      506
 95
   983063
 70
     0
 93
      444
310
430CD915DA5C99599C985B59401059028333333333333E3BF0000000000000FB0107901411070040501600405405064090741402480A0340
 94
        0
1001
ACAD
1000
AcRTDxfName
1000
VISUALSTYLE
1000
AcDbSavedByObjectVersion
1070
     0
1000
AcRTDxfName
1000
VISUALSTYLE
1000
AcRTDxfName
1000
VISUALSTYLE
1000
AcRTDxfName
1000
VISUALSTYLE
  0
ACAD_PROXY_OBJECT
  5
371A
102
{ACAD_REACTORS
330
3715
102
}
330
3715
100
AcDbProxyObject
 90
      499
 91
      506
 95
   983063
 70
     0
 93
      396
310
4190985CDA58C0107406404333333333333E3BF0000000000000FB0107A41107004050150841D405064090741402480A0354
 94
        0
1001
ACAD
1000
AcRTDxfName
1000
VISUALSTYLE
1000
AcDbSavedByObjectVersion
1070
     0
1000
AcRTDxfName
1000
VISUALSTYLE
1000
AcRTDxfName
1000
VISUALSTYLE
1000
AcRTDxfName
1000
VISUALSTYLE
  0
ACAD_PROXY_OBJECT
  5
3721
102
{ACAD_REACTORS
330
3715
102
}
330
3715
100
AcDbProxyObject
 90
      499
 91
      506
 95
   983063
 70
     0
 93
      436
310
42509C9A59DA1D195B8010C409028333333333333E3BF0000000000000FB010790141107004050150841D405064090741402480A02995A
 94
        0
1001
ACAD
1000
AcRTDxfName
1000
VISUALSTYLE
1000
AcDbSavedByObjectVersion
1070
     0
1000
AcRTDxfName
1000
VISUALSTYLE
1000
AcRTDxfName
1000
VISUALSTYLE
1000
AcRTDxfName
1000
VISUALSTYLE
  0
ACAD_PROXY_OBJECT
  5
3725
102
{ACAD_REACTORS
330
3715
102
}
330
3715
100
AcDbProxyObject
 90
      499
 91
      506
 95
   983063
 70
     0
 93
      460
310
4310DBDB1BDC90DA185B99D9401104090240C333333333333E3BF0000000000000FB0108901411070040501508421405064090741402480A035E
 94
        0
1001
ACAD
1000
AcRTDxfName
1000
VISUALSTYLE
1000
AcDbSavedByObjectVersion
1070
     0
1000
AcRTDxfName
1000
VISUALSTYLE
1000
AcRTDxfName
1000
VISUALSTYLE
1000
AcRTDxfName
1000
VISUALSTYLE
  0
ACAD_PROXY_OBJECT
  5
371E
102
{ACAD_REACTORS
330
3715
102
}
330
3715
100
AcDbProxyObject
 90
      499
 91
      506
 95
   983063
 70
     0
 93
      508
310
42D0DBDB98D95C1D1D585B0010940D028333333333333E3BF0000000000000FB0107902409070040501000000000000111010841D405064090740C02480A0340
 94
        0
1001
ACAD
1000
AcRTDxfName
1000
VISUALSTYLE
1000
AcDbSavedByObjectVersion
1070
     0
1000
AcRTDxfName
1000
VISUALSTYLE
1000
AcRTDxfName
1000
VISUALSTYLE
1000
AcRTDxfName
1000
VISUALSTYLE
  0
ACAD_PROXY_OBJECT
  5
3720
102
{ACAD_REACTORS
330
3715
102
}
330
3715
100
AcDbProxyObject
 90
      499
 91
      506
 95
   983063
 70
     0
 93
      420
310
41111A5B4010B409028333333333333E3BF0000000000000FB010790141107004050150841D405064090741402480A02677FFFFFD2
 94
        0
1001
ACAD
1000
AcRTDxfName
1000
VISUALSTYLE
1000
AcDbSavedByObjectVersion
1070
     0
1000
AcRTDxfName
1000
VISUALSTYLE
1000
AcRTDxfName
1000
VISUALSTYLE
1000
AcRTDxfName
1000
VISUALSTYLE
  0
ACAD_PROXY_OBJECT
  5
3724
102
{ACAD_REACTORS
330
3715
102
}
330
3715
100
AcDbProxyObject
 90
      499
 91
      506
 95
   983063
 70
     0
 93
      452
310
43119858D95C185D1D195C9B8010F409028333333333333E3BF0000000000000FB010790141107004050150841D405064090741402480A0353
 94
        0
1001
ACAD
1000
AcRTDxfName
1000
VISUALSTYLE
1000
AcDbSavedByObjectVersion
1070
     0
1000
AcRTDxfName
1000
VISUALSTYLE
1000
AcRTDxfName
1000
VISUALSTYLE
1000
AcRTDxfName
1000
VISUALSTYLE
  0
ACAD_PROXY_OBJECT
  5
3716
102
{ACAD_REACTORS
330
3715
102
}
330
3715
100
AcDbProxyObject
 90
      499
 91
      506
 95
   983063
 70
     0
 93
      396
310
41519B185D00240901404333333333333E3BF0000000000000F9010740A41107004050150841D405064090741402480A1B58
 94
        0
1001
ACAD
1000
AcRTDxfName
1000
VISUALSTYLE
1000
AcDbSavedByObjectVersion
1070
     0
1000
AcRTDxfName
1000
VISUALSTYLE
1000
AcRTDxfName
1000
VISUALSTYLE
1000
AcRTDxfName
1000
VISUALSTYLE
  0
ACAD_PROXY_OBJECT
  5
3717
102
{ACAD_REACTORS
330
3715
102
}
330
3715
100
AcDbProxyObject
 90
      499
 91
      506
 95
   983063
 70
     0
 93
      484
310
43919B185D15DA5D1A115919D95CC010140901404333333333333E3BF0000000000000F9010740901411070040501600405405064090741402480A1B58
 94
        0
1001
ACAD
1000
AcRTDxfName
1000
VISUALSTYLE
1000
AcDbSavedByObjectVersion
1070
     0
1000
AcRTDxfName
1000
VISUALSTYLE
1000
AcRTDxfName
1000
VISUALSTYLE
1000
AcRTDxfName
1000
VISUALSTYLE
  0
ACAD_PROXY_OBJECT
  5
3718
102
{ACAD_REACTORS
330
3715
102
}
330
3715
100
AcDbProxyObject
 90
      499
 91
      506
 95
   983063
 70
     0
 93
      420
310
4211DBDD5C985D590010240902404333333333333E3BF0000000000000F9010740A411070040501641D405064090741402480A1B58
 94
        0
1001
ACAD
1000
AcRTDxfName
1000
VISUALSTYLE
1000
AcDbSavedByObjectVersion
1070
     0
1000
AcRTDxfName
1000
VISUALSTYLE
1000
AcRTDxfName
1000
VISUALSTYLE
1000
AcRTDxfName
1000
VISUALSTYLE
  0
ACAD_PROXY_OBJECT
  5
3719
102
{ACAD_REACTORS
330
3715
102
}
330
3715
100
AcDbProxyObject
 90
      499
 91
      506
 95
   983063
 70
     0
 93
      508
310
4451DBDD5C985D5915DA5D1A115919D95CC010340902404333333333333E3BF0000000000000F9010740901411070040501600405405064090741402480A1B50
 94
        0
1001
ACAD
1000
AcRTDxfName
1000
VISUALSTYLE
1000
AcDbSavedByObjectVersion
1070
     0
1000
AcRTDxfName
1000
VISUALSTYLE
1000
AcRTDxfName
1000
VISUALSTYLE
1000
AcRTDxfName
1000
VISUALSTYLE
  0
ACAD_PROXY_OBJECT
  5
3723
102
{ACAD_REACTORS
330
3715
102
}
330
3715
100
AcDbProxyObject
 90
      499
 91
      506
 95
   983063
 70
     0
 93
      452
310
43131A5B995C185D1D195C9B8010E409028333333333333E3BF0000000000000FB010790141107004050750841D405064090741402483A0350
 94
        0
1001
ACAD
1000
AcRTDxfName
1000
VISUALSTYLE
1000
AcDbSavedByObjectVersion
1070
     0
1000
AcRTDxfName
1000
VISUALSTYLE
1000
AcRTDxfName
1000
VISUALSTYLE
1000
AcRTDxfName
1000
VISUALSTYLE
  0
ACAD_PROXY_OBJECT
  5
371F
102
{ACAD_REACTORS
330
3715
102
}
330
3715
100
AcDbProxyObject
 90
      499
 91
      506
 95
   983063
 70
     0
 93
      428
310
429499585B1A5CDD1A58C0108409028333333333333E3BF0000000000000FB01079019070040501508421405064090741402480A1B49
 94
        0
1001
ACAD
1000
AcRTDxfName
1000
VISUALSTYLE
1000
AcDbSavedByObjectVersion
1070
     0
1000
AcRTDxfName
1000
VISUALSTYLE
1000
AcRTDxfName
1000
VISUALSTYLE
1000
AcRTDxfName
1000
VISUALSTYLE
  0
ACAD_PROXY_OBJECT
  5
3722
102
{ACAD_REACTORS
330
3715
102
}
330
3715
100
AcDbProxyObject
 90
      499
 91
      506
 95
   983063
 70
     0
 93
      420
310
42151A1A58DAD95B8010D409028333333333333E3BF0000000000000FB010790141107004050150C41D405064090741402480A0352
 94
        0
1001
ACAD
1000
AcRTDxfName
1000
VISUALSTYLE
1000
AcDbSavedByObjectVersion
1070
     0
1000
AcRTDxfName
1000
VISUALSTYLE
1000
AcRTDxfName
1000
VISUALSTYLE
1000
AcRTDxfName
1000
VISUALSTYLE
  0
DICTIONARYVAR
  5
3817
102
{ACAD_REACTORS
330
3B
102
}
330
3B
100
DictionaryVariables
280
     0
  1
1:1
  0
DICTIONARYVAR
  5
3816
102
{ACAD_REACTORS
330
3B
102
}
330
3B
100
DictionaryVariables
280
     0
  1
STANDARD
  0
DICTIONARYVAR
  5
3815
102
{ACAD_REACTORS
330
3B
102
}
330
3B
100
DictionaryVariables
280
     0
  1
STANDARD
  0
DICTIONARYVAR
  5
3D
102
{ACAD_REACTORS
330
3B
102
}
330
3B
100
DictionaryVariables
280
     0
  1
2
  0
DICTIONARYVAR
  5
3C
102
{ACAD_REACTORS
330
3B
102
}
330
3B
100
DictionaryVariables
280
     0
  1
1
  0
DICTIONARYVAR
  5
3819
102
{ACAD_REACTORS
330
3B
102
}
330
3B
100
DictionaryVariables
280
     0
  1
0
  0
DICTIONARYVAR
  5
3D3A
102
{ACAD_REACTORS
330
3B
102
}
330
3B
100
DictionaryVariables
280
     0
  1

  0
DICTIONARYVAR
  5
3818
102
{ACAD_REACTORS
330
3B
102
}
330
3B
100
DictionaryVariables
280
     0
  1
127
  0
DICTIONARY
  5
4278
330
22
100
AcDbDictionary
280
     1
281
     1
  3
ACAD_XREC_ROUNDTRIP
360
4279
  0
DICTIONARY
  5
3784
330
318D
100
AcDbDictionary
280
     1
281
     1
  3
ACAD_XREC_ROUNDTRIP
360
427A
  3
ADSK_XREC_LAYOUTTHUMBNAIL
360
3785
  0
DICTIONARY
  5
3706
330
3705
100
AcDbDictionary
280
     1
281
     1
  3
ACAD_XREC_ROUNDTRIP
360
3DF5
  3
BUMPTILE
360
3708
  3
DIFFUSETILE
360
3707
  3
OPACITYTILE
360
370B
  3
REFLECTIONTILE
360
370A
  3
REFRACTIONTILE
360
370C
  3
SPECULARTILE
360
3709
  0
DICTIONARY
  5
36FE
330
36FD
100
AcDbDictionary
280
     1
281
     1
  3
ACAD_XREC_ROUNDTRIP
360
3DF4
  3
BUMPTILE
360
3700
  3
DIFFUSETILE
360
36FF
  3
OPACITYTILE
360
3703
  3
REFLECTIONTILE
360
3702
  3
REFRACTIONTILE
360
3704
  3
SPECULARTILE
360
3701
  0
DICTIONARY
  5
370E
330
370D
100
AcDbDictionary
280
     1
281
     1
  3
ACAD_XREC_ROUNDTRIP
360
3DF6
  3
BUMPTILE
360
3710
  3
DIFFUSETILE
360
370F
  3
OPACITYTILE
360
3713
  3
REFLECTIONTILE
360
3712
  3
REFRACTIONTILE
360
3714
  3
SPECULARTILE
360
3711
  0
DICTIONARY
  5
37DF
330
3728
100
AcDbDictionary
280
     1
281
     1
  3
ACAD_ROUNDTRIP_2008_TABLESTYLE_CELLSTYLEMAP
360
3DDC
  3
ACAD_XREC_ROUNDTRIP
360
3DF7
  0
XRECORD
  5
4279
102
{ACAD_REACTORS
330
4278
102
}
330
4278
100
AcDbXrecord
280
     1
102
SHADEPLOT
 70
     0
102
SHADEPLOTRESLEVEL
 70
     2
102
SHADEPLOTCUSTOMDPI
 70
   300
  0
XRECORD
  5
427A
102
{ACAD_REACTORS
330
3784
102
}
330
3784
100
AcDbXrecord
280
     1
102
SHADEPLOT
 70
     1
102
SHADEPLOTRESLEVEL
 70
     2
102
SHADEPLOTCUSTOMDPI
 70
   300
  0
XRECORD
  5
3785
102
{ACAD_REACTORS
330
3784
102
}
330
3784
100
AcDbXrecord
280
     1
310
28000000630000008C0000000100080000000000B0360000000000000000000000010000000000000000000000000000FFFFFF000000000000000000000000000000000000000000000000000000000000000000330000006600000099000000CC000000FF00000000330000333300006633000099330000CC330000FF3300
310
0000660000336600006666000099660000CC660000FF66000000990000339900006699000099990000CC990000FF99000000CC000033CC000066CC000099CC0000CCCC0000FFCC000000FF000033FF000066FF000099FF0000CCFF0000FFFF000000003300330033006600330099003300CC003300FF003300003333003333
310
33006633330099333300CC333300FF33330000663300336633006666330099663300CC663300FF66330000993300339933006699330099993300CC993300FF99330000CC330033CC330066CC330099CC3300CCCC3300FFCC330000FF330033FF330066FF330099FF3300CCFF3300FFFF330000006600330066006600660099
310
006600CC006600FF00660000336600333366006633660099336600CC336600FF33660000666600336666006666660099666600CC666600FF66660000996600339966006699660099996600CC996600FF99660000CC660033CC660066CC660099CC6600CCCC6600FFCC660000FF660033FF660066FF660099FF6600CCFF6600
310
FFFF660000009900330099006600990099009900CC009900FF00990000339900333399006633990099339900CC339900FF33990000669900336699006666990099669900CC669900FF66990000999900339999006699990099999900CC999900FF99990000CC990033CC990066CC990099CC9900CCCC9900FFCC990000FF99
310
0033FF990066FF990099FF9900CCFF9900FFFF99000000CC003300CC006600CC009900CC00CC00CC00FF00CC000033CC003333CC006633CC009933CC00CC33CC00FF33CC000066CC003366CC006666CC009966CC00CC66CC00FF66CC000099CC003399CC006699CC009999CC00CC99CC00FF99CC0000CCCC0033CCCC0066CC
310
CC0099CCCC00CCCCCC00FFCCCC0000FFCC0033FFCC0066FFCC0099FFCC00CCFFCC00FFFFCC000000FF003300FF006600FF009900FF00CC00FF00FF00FF000033FF003333FF006633FF009933FF00CC33FF00FF33FF000066FF003366FF006666FF009966FF00CC66FF00FF66FF000099FF003399FF006699FF009999FF00CC
310
99FF00FF99FF0000CCFF0033CCFF0066CCFF0099CCFF00CCCCFF00FFCCFF0000FFFF0033FFFF0066FFFF0099FFFF00CCFFFF00FFFFFF00000000000D0D0D001A1A1A00282828003535350043434300505050005D5D5D006B6B6B00787878008686860093939300A1A1A100AEAEAE00BBBBBB00C9C9C900D6D6D600E4E4E400
310
F1F1F100FFFFFF0000000000000000000000000000000000000000000000000000000000000000000000000000000000F5F5F5F5F5F5F5F5F5F5F5F5F5F5F5F5F5F5F5F5F5F5F5F5F5F5F5F5F5F5F5F5F5F5F5F5F5F5F5F5F5F5F5F5F5F5F5F5F5F5F5F5F5F5F5F5F5F5F5F5F5F5F5F5F5F5F5F5F5F5F5F5F5F5F5F5F5F5F5
310
F5F5F5F5F5F5F5F5F5F5F5F5F5F5F5F5F5F5F5EF00E2E2E2E2E2E2E2E2E2E2E2E2E2E2E2E2E2E2E2E2E2E2E2E2E2E2E2E2E2E2E2E2E2E2E2E2E2E2E2E2E2E2E2E2E2E2E2E2E2E2E2E2E2E2E2E2E2E2E2E2E2E2E2E2E2E2E2E2E2E2E2E2E2E2E2E2E2E2E2E2E2E2E2E2E2E2E2E2E2E2E2E2E2E2E2E2E2F5EF00E2E2E2E2E2E2
310
E2E2E2E2E2E2E2E2E2E2E2E2E2E2E2E2E2E2E2E2E2E2E2E2E2E2E2E2E2E2E2E2E2E2E2E2E2E2E2E2E2E2E2E2E2E2E2E2E2E2E2E2E2E2E2E2E2E2E2E2E2E2E2E2E2E2E2E2E2E2E2E2E2E2E2E2E2E2E2E2E2E2E2E2E2E2E2E2E2E2E2F5EF00E2F5F5F5F5F5F5F5F5E2E2E2E2E2E2E2E2F5F5F5F5F5F5F5F5F5F5F5F5F5F5F5E2
310
E2E2E2E2E2E2E2E2F5F5F5F5F5F5F5F5F5F5F5F5F5F5E2E2E2E2E2E2E2E2E2F5F5F5F5F5F5F5F5F5F5F5F5F5F5F5E2E2E2E2E2E2E2E2F5F5F5F5F5F5F5F5E2E2F5EF00E2F5E2E2E2E2E2E2E2E2E2E2E2E2E2E2E2E2E2E2E2E2E2E2E2E2E2E2F5F5E2E2E2E2E2E2E2E2E2E2E2E2E2E2E2E2E2E2E2E2E2E2E2E2E2E2E2E2E2E2
310
E2E2E2E2E2E2E2E2E2E2E2E2E2E2E2E2E2E2E2E2E2E2E2E2E2E2E2E2E2E2E2E2E2E2F5E2E2F5EF00E2F5E2E2E2E2E2F5F5F5F5F5F5F5F5F5F5F5F5F5F5F5F5F5F5F5F5F5F5F5F5F5F5F5F5F5F5F5F5F5F5F5F5F5F5F5F5F5F5F5F5F5F5F5F5F5F5F5F5F5F5F5F5F5F5F5F5F5F5F5F5F5F5F5F5F5F5F5F5F5F5F5F5F5F5F5F5
310
F5F5F5E2E2E2E2F5E2E2F5EF00E2F5E2E2E2E2E2F5F5F5F5F5F5F5F5F5F5F5F5F5F5F5F5F5F5F5F5F5F5F5F5F5F5F5F5F5F5F5F5F5F5F5F5F5F5F5F5F5F5F5F5F5F5F5F5F5F5F5F5F5F5F5F5F5F5F5F5F5F5F5F5F5F5F5F5F5F5F5F5F5F5F5F5F5F5F5F5F5F5F5F5E2E2E2F5E2E2F5EF00E2F5E2E2E2E2E2E2E2E2E2E2E2E2
310
E2E2E2E2E2E2E2E2E2E2E2E2E2E2E2E2E2E2E2E2E2E2E2E2E2E2E2E2E2E2E2E2E2E2E2E2E2E2E2E2E2E2E2E2E2E2E2E2E2E2E2E2E2E2E2E2E2E2E2E2E2E2E2E2E2E2E2E2E2E2E2E2E2E2E2E2E2E2E2E2F5E2E2F5EF00E2F5E2E2E2E2E2EAEAEAEAEAEAEAEAEAEAEAEAEAEAEAEAEAEAEAEAEAEAEAEAEAEAEAEAEAEAEAEAEAEA
310
EAEAEAEAEAEAEAEAEAEAEAEAEAEAEAEAEAEAEAEAEAEAEAEAEAEAEAEAEAEAEAEAEAEAEAEAEAEAEAEAEAEAEAEAEAEAEAEAEAEAE2E2E2F5E2E2F5EF00E2F5E2E2E2E2E2EAE2E2E2E2E2E2E2E2E2E2E2E2E2E2E2E2E2E2E2E2E2E2E2E2E2E2E2E2E2E2E2E2E2E2E2E2E2E2E2E2E2E2E2E2E2E2E2E2E2E2E2E2E2E2E2E2E2E2E2E2
310
E2E2E2E2E2E2E2E2E2E2E2E2E2E2E2E2E2E2E2E2E2E2EAE2E2E2F5E2E2F5EF00E2F5E2E2E2E2E2EAE2E2E2E2E2E2E2E2E2E2E2E2E2E2E2E2E2E2E2E2E2E2E2E2E2E2E2E2E2E2E2E2E2E2E2E2E2E2E2E2E2E2E2E2E2E2E2E2E2E2E2E2E2E2E2E2E2E2E2E2E2E2E2E2E2E2E2E2E2E2E2E2E2E2E2E2E2E2E2E2E2E2EAE2E2E2F5
310
E2E2F5EF00E2F5E2E2E2E2E2EAE2E2E2E2E2E2E2E2E2E2E2E2E2E2E2E2E2E2E2E2E2E2E2E2E2E2E2E2E2E2E2E2E2E2E2E2E2E2E2E2E2E2E2E2E2E2E2E2E2E2E2E2E2E2E2E2E2E2E2E2E2E2E2E2E2E2E2E2E2E2E2E2E2E2E2E2E2E2E2E2E2E2EAE2E2E2F5E2E2F5EF00E2E2E2E2E2E2E2EAE2E2E2E2E2E2E2E2E2E2E2E2E2E2
310
E2E2E2E2E2E2E2E2E2E2E2E2E2E2E2E2E2E2E2E2E2E2E2E2E2E2E2E2E2E2E2E2E2E2E2E2E2E2E2E2E2E2E2E2E2E2E2E2E2E2E2E2E2E2E2E2E2E2E2E2E2E2E2E2E2E2E2E2EAE2E2E2E2E2E2F5EF00E2E2E2E2E2E2E2EAE2E2E2E2E2E2E2E2E2E2E2E2E2E2E2E2E2E2E2E2E2E2E2E2E2E2E2E2E2E2E2E2E2E2E2E2E2E2E2E2E2
310
E2E2E2E2E2E2E2E2E2E2E2E2E2E2E2E2E2E2E2E2E2E2E2E2E2E2E2E2E2E2E2E2E2E2E2E2E2E2E2E2E2EAE2E2E2E2E2E2F5EF00E2E2E2E2E2E2E2EAE2E2E2E2E2E2E2E2E2E2E2E2E2E2E2E2E2E2E2E2E2E2E2E2E2E2E2E2E2E2E2E2E2E2E2E2E2E2E2E2E2E2E2E2E2E2E2E2E2E2E2E2E2E2E2E2E2E2E2E2E2E2E2E2E2E2E2E2
310
E2E2E2E2E2E2E2E2E2E2E2E2E2E2EAE2E2E2E2E2E2F5EF00E2E2E2E2E2E2E2EAE2E2E2E2E2E2E2E2E2E2E2E2E2E2E2E2E2E2E2E2E2E2E2E2E2E2E2E2E2E2E2E2E2E2E2E2E2E2E2E2E2E2E2E2E2E2E2E2E2E2E2E2E2E2E2E2E2E2E2E2E2E2E2E2E2E2E2E2E2E2E2E2E2E2E2E2E2E2E2E2E2E2EAE2E2E2E2E2E2F5EF00E2E2E2
310
E2E2E2E2EAE2E2E2E2E2E2E2E2E2E2E2E2E2E2E2E2E2E2E2E2E2E2E2E2E2E2E2E2E2E2E2E2E2E2E2E2E2E2E2E2E2E2E2E2E2E2E2E2E2E2E2E2E2E2E2E2E2E2E2E2E2E2E2E2E2E2E2E2E2E2E2E2E2E2E2E2E2E2E2E2E2E2EAE2E2E2E2E2E2F5EF00E2E2E2E2E2E2E2EAE2E2E2E2E2E2E2E2E2E2E2E2E2E2E2E2E2E2E2E2E2E2
310
E2E2E2E2E2E2E2E2E2E2E2E2E2E2E2E2E2E2E2E2E2E2E2E2E2E2E2E2E2E2E2E2E2E2E2E2E2E2E2E2E2E2E2E2E2E2E2E2E2E2E2E2E2E2E2E2E2E2E2E2EAE2E2E2E2E2E2F5EF00E2E2E2E2E2E2E2EAE2E2E2E2E2E2E2E2E2E2E2E2E2E2E2E2E2E2E2E2E2E2E2E2E2E2E2E2E2E2E2E2E2E2E2E2E2E2E2E2E2E2E2E2E2E2E2E2E2
310
E2E2E2E2E2E2E2E2E2E2E2E2E2E2E2E2E2E2E2E2E2E2E2E2E2E2E2E2E2E2E2E2E2EAE2E2E2E2E2E2F5EF00E2E2E2E2E2E2E2EAE2E2E2E2E2E2E2E2E2E2E2E2E2E2E2E2E2E2E2E2E2E2E2E2E2E2E2E2E2E2E2E2E2E2E2E2E2E2E2E2E2E2E2E2E2E2E2E2E2E2E2E2E2E2E2E2E2E2E2E2E2E2E2E2E2E2E2E2E2E2E2E2E2E2E2E2
310
E2E2E2E2E2E2EAE2E2E2E2E2E2F5EF00E2E2E2E2E2E2E2EAE2E2E2E2E2E2E2E2E2E2E2E2E2E2E2E2E2E2E2E2E2E2E2E2E2E2E2E2E2E2E2E2E2E2E2E2E2E2E2E2E2E2E2E2E2E2E2E2E2E2E2E2E2E2E2E2E2E2E2E2E2E2E2E2E2E2E2E2E2E2E2E2E2E2E2E2E2E2E2E2E2E2EAE2E2E2E2E2E2F5EF00E2E2E2E2E2E2E2EAE2E2E2
310
E2E2E2E2E2E2E2E2E2E2E2E2E2E2E2E2E2E2E2E2E2E2E2E2E2E2E2E2E2E2E2E2E2E2E2E2E2E2E2E2E2E2E2E2E2E2E2E2E2E2E2E2E2E2E2E2E2E2E2E2E2E2E2E2E2E2E2E2E2E2E2E2E2E2E2E2E2E2E2EAE2E2E2E2E2E2F5EF00E2F5E2E2E2E2E2EAE2E2E2E2E2E2E2E2E2F5F5F5F5F5F5F5F5F5F5F5F5F5E2E2E2E2E2E2E2E2
310
E2E2E2E2E2F5F5F5F5F5F5F5F5F5F5F5F5F5E2E2E2E2E2E2E2E2E2E2E2E2F5F5F5F5F5F5F5F5F5F5F5F5F5E2E2E2E2E2E2E2E2E2EAE2E2E2F5E2E2F5EF00E2F5E2E2E2E2E2EAE2E2E2E2E2E2E2E2E2F5F5F5F5F5F5F5F5F5F5F5E2F5E2E2E2E2E2E2E2E2E2E2E2E2E2F5F5F5F5F5F5F5F5F5F5F5F5F5E2E2E2E2E2E2E2E2E2
310
E2E2E2F5F5F5F5F5F5F5F5F5F5F5F5F5E2E2E2E2E2E2E2E2E2EAE2E2E2F5E2E2F5EF00E2F5E2E2E2E2E2EAE2E2E2E2E2E2E2E2E2F5F5F5F5F5F5F5F5F5F5F5F5F5E2E2E2E2E2E2E2E2E2E2E2E2E2F5F5F5F5F5F5F5F5F5F5F5F5F5E2E2E2E2E2E2E2E2E2E2E2E2F5F5F5F5F5F5F5F5F5F5F5F5F5E2E2E2E2E2E2E2E2E2EAE2
310
E2E2F5E2E2F5EF00E2F5E2E2E2E2E2EAE2E2E2E2E2E2E2E2E2F5F5F5F5F5F5F5F5F5F5F5F5F5E2E2E2E2E2E2E2E2E2E2E2E2E2F5F5F5F5F5F5F5F5F5F5F5F5F5E2E2E2E2E2E2E2E2E2E2E2E2F5F5F5F5F5F5F5F5F5F5F5F5F5E2E2E2E2E2E2E2E2E2EAE2E2E2F5E2E2F5EF00E2F5E2E2E2E2E2EAE2E2E2E2E2E2E2E2E2E2E2
310
E2E2E2E2E2E2E2E2E2E2E2E2E2E2E2E2E2E2E2E2E2E2E2E2E2E2E2E2E2E2E2E2E2E2E2E2E2E2E2E2E2E2E2E2E2E2E2E2E2E2E2E2E2E2E2E2E2E2E2E2E2E2E2E2E2E2E2E2E2E2E2EAE2E2E2F5E2E2F5EF00E2F5E2E2E2E2E2EAE2E2E2E2E2E2E2E2E2E2E2E2E2E2E2E2E2E2E2E2E2E2E2E2E2E2E2E2E2E2E2E2E2E2E2E2E2E2
310
E2E2E2E2E2E2E2E2E2E2E2E2E2E2E2E2E2E2E2E2E2E2E2E2E2E2E2E2E2E2E2E2E2E2E2E2E2E2E2E2E2E2E2E2EAE2E2E2F5E2E2F5EF00E2F5E2E2E2E2E2EAE2E2E2E2E2E2E2E2E2E2E2E2E2E2E2E2E2E2E2E2E2E2E2E2E2E2E2E2E2E2E2E2E2E2E2E2E2E2E2E2E2E2E2E2E2E2E2E2E2E2E2E2E2E2E2E2E2E2E2E2E2E2E2E2E2
310
E2E2E2E2E2E2E2E2E2E2E2E2E2E2E2E2E2EAE2E2E2F5E2E2F5EF00E2F5E2E2E2E2E2EAE2E2E2E2E2E2E2E2E2E2E2E2E2E2E2E2E2E2E2E2E2E2E2E2E2E2E2E2E2E2E2E2E2E2E2E2E2E2E2E2E2E2E2E2E2E2E2E2E2E2E2E2E2E2E2E2E2E2E2E2E2E2E2E2E2E2E2E2E2E2E2E2E2E2E2E2E2E2E2E2E2E2EAE2E2E2F5E2E2F5EF00
310
E2F5E2E2E2E2E2EAE2E2E2E2E2E2E2E2E2E2E2F5ECF5E2ECF5E2E2E2E2E2E2E2E2E2E2E2E2E2E2E2E2E2E2E2E2F5ECE2F5ECF5E2E2E2E2E2E2E2E2E2E2E2E2E2E2E2E2E2E2E2E2ECECE2F5ECE2E2E2E2E2E2E2E2E2E2E2E2E2E2EAE2E2E2F5E2E2F5EF00E2F5E2E2E2E2E2EAE2E2E2E2E2E2E2E2E2EFECECECF5E2ECECECEF
310
EFEFE2E2E2E2E2E2E2E2E2E2E2E2E2E2ECECECECE2F5ECECECEFEFEFE2E2E2E2E2E2E2E2E2E2E2E2E2E2ECECECECE2F5ECECEFEFEFF5F5F5F5F5F5E2E2E2E2EAE2E2E2F5E2E2F5EF00E2F5E2E2E2E2E2EAE2E2E2E2F5F5F5F5F5EFECECECF5E2ECECECEFEFEFE2E2E2E2E2E2E2E2E2F5F5F5F5E2ECECECECE2F5ECECECEFEF
310
EFE2E2E2E2E2E2E2E2E2F5F5F5F5E2ECECECECE2F5ECECECEFEFF5F5F5F5F5F5F5F5F5E2EAE2E2E2F5E2E2F5EF00E2F5E2E2E2E2E2EAE2E2E2E2F5F5F5F5F5EFECECECF5F5ECECECEFEFEFE2E2E2E2E2E2E2E2E2F5F5F5F5E2EFECECECF5F5ECECECEFEFEFE2E2E2E2E2E2E2E2E2F5F5F5F5E2EFECECECF5F5ECECECEFEFF5
310
F5F5F5F5F5F5F5F5E2EAE2E2E2F5E2E2F5EF00E2F5E2E2E2E2E2EAE2E2E2E2E2E2E2E2E2EFECECECF5F5ECECEFE2E2EFF5F5F5F5E2E2E2E2E2E2E2E2E2E2EFECECECF5F5ECECEFE2E2EFF5F5F5F5E2E2E2E2E2E2E2E2E2E2EFECECECF5F5ECECEFE2EFEFF5F5F5F5E2E2E2E2E2EAE2E2E2F5E2E2F5EF00E2F5E2E2E2E2E2EA
310
E2E2E2E2E2E2E2E2E2EFEFE2E2E2E2E2E2E2E2E2EFF5F5F5F5E2E2E2E2E2E2E2E2E2E2EFEFE2E2E2E2E2E2E2E2E2EFF5F5F5F5E2E2E2E2E2E2E2E2E2E2EFEFE2E2E2E2E2E2E2E2EFEFF5F5F5F5E2E2E2E2E2EAE2E2E2F5E2E2F5EF00E2F5E2E2E2E2E2EAE2E2E2E2E2E2E2E2E2EFEFEFEFEFEFEFEFEFEFEFEFE2E2E2E2E2E2
310
E2E2E2E2E2E2E2E2EFEFEFEFEFEFEFEFEFEFEFEFE2E2E2E2E2E2E2E2E2E2E2E2E2E2EFEFEFEFEFEFEFEFEFEFEFEFE2E2E2E2E2E2E2E2E2EAE2E2E2F5E2E2F5EF00E2F5E2E2E2E2E2EAE2E2E2E2E2E2E2E2E2EFEFEFEFEFEFEFEFE2E2EFEFE2E2E2E2E2E2E2E2E2E2E2E2E2E2EFEFEFEFEFEFEFE2E2E2EFEFE2E2E2E2E2E2E2
310
E2E2E2E2E2E2E2EFEFEFEFEFEFEFE2E2E2EFEFE2E2E2E2E2E2E2E2E2EAE2E2E2F5E2E2F5EF00E2F5E2E2E2E2E2EAE2E2E2E2E2E2E2E2E2EFEFEFEFE2EFEFEFE2E2EFEFE2E2E2E2E2E2E2E2E2E2E2E2E2E2EFEFEFEFE2EFEFE2E2E2EFEFE2E2E2E2E2E2E2E2E2E2E2E2E2E2EFEFEFE2EFEFEFE2E2E2EFEFE2E2E2E2E2E2E2E2
310
E2EAE2E2E2F5E2E2F5EF00E2E2E2E2E2E2E2EAE2E2E2E2E2E2E2E2E2EFEFE2E2E2E2E2E2E2E2EFEFE2E2E2E2E2E2E2E2E2E2E2E2E2E2EFEFE2E2E2E2E2E2E2E2EFEFE2E2E2E2E2E2E2E2E2E2E2E2E2E2EFEFE2E2E2E2E2E2E2E2EFEFE2E2E2E2E2E2E2E2E2EAE2E2E2E2E2E2F5EF00E2E2E2E2E2E2E2EAE2E2E2E2E2E2E2E2
310
E2EFEFE2E2E2E2E2E2E2E2E2EFE2E2E2E2E2E2E2E2E2E2E2E2E2E2EFE2E2E2E2E2E2E2E2E2E2EFE2E2E2E2E2E2E2E2E2E2E2E2E2E2EFE2E2E2E2E2E2E2E2E2EFEFE2E2E2E2E2E2E2E2E2EAE2E2E2E2E2E2F5EF00E2E2E2E2E2E2E2EAE2E2E2E2E2E2E2E2E2EFEFE2E2E2E2E2E2E2E2E2EFE2E2E2E2E2E2E2E2E2E2E2E2E2E2
310
EFE2E2E2E2E2E2E2E2E2E2EFE2E2E2E2E2E2E2E2E2E2E2E2E2E2EFE2E2E2E2E2E2E2E2E2EFEFE2E2E2E2E2E2E2E2E2EAE2E2E2E2E2E2F5EF00E2E2E2E2E2E2E2EAE2E2E2E2E2E2E2E2E2EFEFE2E2E2E2E2E2E2E2E2EFE2E2E2E2E2E2E2E2E2E2E2E2E2E2EFE2E2E2E2E2E2E2E2E2E2EFE2E2E2E2E2E2E2E2E2E2E2E2E2E2EF
310
E2E2E2E2E2E2E2E2E2EFEFE2E2E2E2E2E2E2E2E2EAE2E2E2E2E2E2F5EF00E2E2E2E2E2E2E2EAE2E2E2E2E2E2E2E2E2EFEFE2E2E2E2E2E2E2E2E2EFE2E2E2E2E2E2E2E2E2E2E2E2E2E2EFE2E2E2E2E2E2E2E2E2E2EFE2E2E2E2E2E2E2E2E2E2E2E2E2E2EFE2E2E2E2E2E2E2E2E2EFEFE2E2E2E2E2E2E2E2E2EAE2E2E2E2E2E2
310
F5EF00E2E2E2E2E2E2E2EAE2E2E2E2E2E2E2E2E2EFEFE2E2E2E2E2E2E2E2E2EFE2E2E2E2E2E2E2E2E2E2E2E2E2E2EFE2E2E2E2E2E2E2E2E2E2EFE2E2E2E2E2E2E2E2E2E2E2E2E2E2EFE2E2E2E2E2E2E2E2E2EFEFE2E2E2E2E2E2E2E2E2EAE2E2E2E2E2E2F5EF00E2E2E2E2E2E2E2EAE2E2E2E2E2E2E2E2E2EFEFE2E2E2E2E2
310
E2E2E2E2EFF5F5F5F5F5F5E2E2E2E2E2E2E2E2EFE2E2E2E2E2E2E2E2E2E2EFE2E2E2E2E2E2E2E2E2E2E2E2E2E2EFE2E2E2E2E2E2E2E2E2EFEFE2E2E2E2E2E2E2E2E2EAE2E2E2E2E2E2F5EF00E2E2E2E2E2E2E2EAE2E2E2E2E2E2E2E2E2EFEFEFEFEFEFEFEFEFEFEFEFF5F5F5F5F5F5E2E2E2E2E2E2E2E2EFEFEFEFEFEFEFEF
310
EFEFEFEFE2E2E2E2E2E2E2E2E2E2E2E2E2E2EFEFEFEFEFEFEFEFEFEFEFEFE2E2E2E2E2E2E2E2E2EAE2E2E2E2E2E2F5EF00E2E2E2E2E2E2E2EAE2E2E2E2E2E2E2E2E2EFEFEFEFEFEFEFEFEFEFEFEFF5F5F5E2E2E2E2E2E2E2E2E2E2E2EFEFEFEFEFEFEFEFEFEFEFEFE2E2E2E2E2E2E2E2E2E2E2E2E2E2EFEFEFEFEFEFEFEFEF
310
EFEFEFE2E2E2E2E2E2E2E2E2EAE2E2E2E2E2E2F5EF00E2F5E2E2E2E2E2EAE2E2E2E2E2E2E2E2E2EFEFE2E2E2EFEFEFE2E2E2EFF5F5F5F5E2E2E2E2E2E2E2E2E2E2EFE2E2E2E2EFEFE2E2E2E2EFF5F5F5F5E2E2E2E2E2E2E2E2E2E2EFE2E2E2EFEFEFE2E2E2EFEFE2E2E2E2E2E2E2E2E2EAE2E2E2F5E2E2F5EF00E2F5E2E2E2
310
E2E2EAE2E2E2E2E2E2E2E2E2EFEFE2E2E2E2E2E2E2E2E2EFF5F5F5F5E2E2E2E2E2E2E2E2E2E2EFE2E2E2E2E2E2E2E2E2E2EFF5F5F5F5E2E2E2E2E2E2E2E2E2E2EFE2E2E2E2E2E2E2E2E2EFEFE2E2E2E2E2E2E2E2E2EAE2E2E2F5E2E2F5EF00E2F5E2E2E2E2E2EAE2E2E2E2E2E2E2E2E2EFEFE2E2E2E2E2E2E2E2E2EFE2E2E2
310
E2E2E2E2E2E2E2E2E2E2E2EFE2E2E2E2E2E2E2E2E2E2EFE2E2E2E2E2E2E2E2E2E2E2E2E2E2EFE2E2E2E2E2E2E2E2E2EFEFE2E2E2E2E2E2E2E2E2EAE2E2E2F5E2E2F5EF00E2F5E2E2E2E2E2EAE2E2E2E2E2E2E2E2E2EFEFE2E2E2E2E2E2E2E2E2EFE2E2E2E2E2E2E2E2E2E2E2E2E2E2EFE2E2E2E2E2E2E2E2E2E2EFE2E2E2E2
310
E2E2E2E2E2E2E2E2E2E2EFE2E2E2E2E2E2E2E2E2EFEFF5F5F5F5E2E2E2E2E2EAE2E2E2F5E2E2F5EF00E2F5E2E2E2E2E2EAE2E2E2E2E2E2E2E2E2EFEFE2E2E2E2E2E2E2E2E2EFE2E2E2E2E2E2E2E2E2E2E2E2E2E2EFE2E2E2E2E2E2E2E2E2E2EFE2E2E2E2E2E2E2E2E2E2E2E2E2E2EFE2E2E2E2E2E2E2E2E2EFEFE2E2E2E2E2
310
E2E2E2E2EAE2E2E2F5E2E2F5EF00E2F5E2E2E2E2E2EAE2E2E2E2E2E2E2E2E2EFEFE2E2E2E2E2E2E2E2E2EFE2E2E2E2E2E2E2E2E2E2E2E2E2E2EFE2E2E2E2E2E2E2E2E2E2EFE2E2E2E2E2E2E2E2E2E2E2E2E2E2EFE2E2E2E2E2E2E2E2E2EFEFE2E2E2E2E2E2E2E2E2EAE2E2E2F5E2E2F5EF00E2F5E2E2E2E2E2EAE2E2E2E2E2
310
E2E2E2E2EFEFE2E2E2E2E2E2E2E2E2EFE2E2E2E2E2E2E2E2E2E2E2E2E2E2EFE2E2E2E2E2E2E2E2E2E2EFE2E2E2E2E2E2E2E2E2E2E2E2E2E2EFE2E2E2E2E2E2E2E2E2EFEFE2E2E2E2E2E2E2E2E2EAE2E2E2F5E2E2F5EF00E2F5E2E2E2E2E2EAE2E2E2E2E2E2E2E2E2EFEFE2E2E2E2E2E2E2E2E2EFE2E2E2E2E2E2E2E2E2E2E2
310
E2E2E2EFE2E2E2E2E2E2E2E2E2E2EFE2E2E2E2E2E2E2E2E2E2E2E2E2E2EFE2E2E2E2E2E2E2E2E2EFEFE2E2E2E2E2E2E2E2E2EAE2E2E2F5E2E2F5EF00E2F5E2E2E2E2E2EAE2E2E2E2E2E2E2E2E2EFEFE2E2E2E2E2E2E2E2E2EFE2E2E2E2E2E2E2E2E2E2E2E2E2E2EFE2E2E2E2E2E2E2E2E2E2EFE2E2E2E2E2E2E2E2E2E2E2E2
310
E2E2EFE2E2E2E2E2E2E2E2E2EFEFE2E2E2E2E2E2E2E2E2EAE2E2E2F5E2E2F5EF00E2F5E2E2E2E2E2EAE2E2E2E2E2E2E2E2E2EFEFE2E2E2E2E2E2E2E2E2EFE2E2E2E2E2E2E2E2E2E2E2E2E2E2EFE2E2E2E2E2E2E2E2E2E2EFE2E2E2E2E2E2E2E2E2E2E2E2E2E2EFEFEFE2E2E2E2E2E2E2EFEFE2E2E2E2E2E2E2E2E2EAE2E2E2
310
F5E2E2F5EF00E2F5E2E2E2E2E2EAE2E2E2E2E2E2E2E2E2EFEFE2E2E2EFEFEFE2E2E2EFE2E2E2E2E2E2E2E2E2E2E2E2E2E2EFE2E2E2E2EFEFE2E2E2E2EFE2E2E2E2E2E2E2E2E2E2E2E2E2E2EFEFEFEFE2EFEFE2E2E2EFEFE2E2E2E2E2E2E2E2E2EAE2E2E2F5E2E2F5EF00E2F5E2E2E2E2E2EAE2E2E2E2E2E2E2E2E2EFEFE2EF
310
EFEFEFEFEFE2E2EFE2E2E2E2E2E2E2E2E2E2E2E2E2E2EFE2E2EFEFEFEFEFEFE2E2EFE2E2E2E2E2E2E2E2E2E2E2E2E2E2EFE2E2EFEFEFEFE2E2E2EFEFE2E2E2E2E2E2E2E2E2EAE2E2E2F5E2E2F5EF00E2F5E2E2E2E2E2EAE2E2E2E2E2E2E2E2E2EFEFEFEFEFEFEFEFEFEFEFEFE2E2E2E2E2E2E2E2E2E2E2E2E2E2EFEFEFEFEF
310
EFEFEFEFEFEFEFE2E2E2E2E2E2E2E2E2E2E2E2E2E2EFEFE2EFEFEFEFEFEFEFEFEFE2E2E2E2E2E2E2E2E2EAE2E2E2F5E2E2F5EF00E2F5E2E2E2E2E2EAE2E2E2E2E2E2E2E2E2EFEFE2E2E2E2E2E2E2E2EFEFE2E2E2E2E2E2E2E2E2E2E2E2E2E2EFEFE2E2E2E2E2E2E2E2EFEFE2E2E2E2E2E2E2E2E2E2E2E2E2E2EFEFEFEFE2E2
310
E2E2E2E2EFEFE2E2E2E2E2E2E2E2E2EAE2E2E2F5E2E2F5EF00E2F5E2E2E2E2E2EAE2E2E2E2E2E2E2E2E2EFEFE2E2E2E2E2E2E2E2E2EFE2E2E2E2E2E2E2E2E2E2E2E2E2E2EFE2E2E2E2E2E2E2E2E2E2EFE2E2E2E2E2E2E2E2E2F5F5F5F5E2EFEFEFEFECF5ECEFEFE2EFEFE2E2E2E2E2E2E2E2E2EAE2E2E2F5E2E2F5EF00E2F5
310
E2E2E2E2E2EAE2E2E2E2E2E2E2E2E2EFEFE2E2E2E2E2E2E2E2E2EFE2E2E2E2E2E2E2E2E2E2E2E2E2E2EFE2E2E2E2E2E2E2E2E2E2EFE2E2E2E2E2E2E2E2E2F5F5F5F5E2EFEFEFEFECF5ECEFEFEFEFEFE2E2E2E2E2E2E2E2E2EAE2E2E2F5E2E2F5EF00E2F5E2E2E2E2E2EAE2E2E2E2E2E2E2E2E2EFEFE2E2E2E2E2E2E2E2E2EF
310
E2E2E2E2E2E2E2E2E2E2E2E2E2E2EFEFEFEFEFEFEFEFEFEFEFEFE2E2E2E2E2E2E2E2E2E2E2E2E2E2EFEFEFEFECF5ECEFEFEFEFEFE2E2E2E2E2E2E2E2E2EAE2E2E2F5E2E2F5EF00E2E2E2E2E2E2E2EAE2E2E2E2E2E2E2E2E2EFEFE2E2E2E2E2E2E2E2E2EFE2E2E2E2E2E2E2E2E2E2E2E2E2E2EFEFEFEFEFEFEFEFEFEFEFEFE2
310
E2E2E2E2E2E2E2E2E2E2E2E2E2EFEFEFECECF5ECEFEFEFEFEFE2E2E2E2E2E2E2E2E2EAE2E2E2E2E2E2F5EF00E2E2E2E2E2E2E2EAE2E2E2E2E2E2E2E2E2EFEFE2E2E2E2E2E2E2E2E2EFE2E2E2E2E2E2E2E2E2E2E2E2E2E2EFE2E2E2E2EFEFE2E2E2E2EFF5F5E2E2E2E2E2E2E2E2E2E2E2E2E2E2E2E2ECF5ECE2E2E2E2E2E2E2
310
E2E2E2E2E2E2E2EAE2E2E2E2E2E2F5EF00E2E2E2E2E2E2E2EAE2E2E2E2E2E2E2E2E2EFEFE2E2E2E2E2E2E2E2E2EFE2E2E2E2E2E2E2E2E2E2E2E2E2E2EFE2E2E2E2E2E2E2E2E2E2EFF5F5E2E2E2E2E2E2E2E2E2E2E2E2E2E2E2E2E2E2E2E2E2E2E2E2E2E2E2E2E2E2E2E2E2EAE2E2E2E2E2E2F5EF00E2E2E2E2E2E2E2EAE2E2
310
E2E2E2E2E2E2E2EFEFE2E2E2E2E2E2E2E2E2EFE2E2E2E2E2E2E2E2E2E2E2E2E2E2EFE2E2E2E2E2E2E2E2E2E2EFF5F5E2E2E2E2E2E2E2E2E2E2E2E2E2E2E2E2E2E2E2E2E2E2E2E2E2E2E2E2E2E2E2E2E2EAE2E2E2E2E2E2F5EF00E2E2E2E2E2E2E2EAE2E2E2E2E2E2E2E2E2EFEFEFEFEFEFEFEFEFEFEFEFE2E2E2E2E2E2E2E2
310
E2E2E2E2E2E2EFE2E2E2E2E2E2E2E2E2E2EFF5F5E2E2E2E2E2E2E2E2E2E2E2E2E2E2E2E2E2E2E2E2E2E2E2E2E2E2E2E2E2E2E2E2E2EAE2E2E2E2E2E2F5EF00E2E2E2E2E2E2E2EAE2E2E2E2E2E2E2E2E2EFEFEFEFEFEFEFEFEFEFEFEFE2E2E2E2E2E2E2E2E2E2E2E2E2E2EFE2E2E2E2E2E2E2E2E2E2EFF5F5F5F5E2E2E2E2E2
310
E2E2E2E2E2E2E2E2E2E2E2E2E2E2E2E2E2E2E2E2E2E2E2E2E2E2EAE2E2E2E2E2E2F5EF00E2E2E2E2E2E2E2EAE2E2E2E2E2E2E2E2E2EFEFE2E2E2EFEFEFE2E2E2EFF5F5F5E2E2E2E2E2E2E2E2E2E2E2EFE2E2E2E2E2E2E2E2E2E2EFE2E2E2E2E2E2E2E2E2E2E2E2E2E2E2E2E2E2E2E2E2E2E2E2E2E2E2E2E2E2E2E2E2E2E2EA
310
E2E2E2E2E2E2F5EF00E2E2E2E2E2E2E2EAE2E2E2E2E2E2E2E2E2EFEFE2E2E2E2E2E2E2E2E2EFF5F5F5F5F5E2E2E2E2E2E2E2E2E2EFEFEFEFE2E2E2E2E2E2E2EFE2E2E2E2E2E2E2E2E2E2E2E2E2E2E2E2E2E2E2E2E2E2E2E2E2E2E2E2E2E2E2E2E2E2E2EAE2E2E2E2E2E2F5EF00E2E2E2E2E2E2E2EAE2E2E2E2E2E2E2E2E2EF
310
EFE2E2E2E2E2E2E2E2E2EFF5F5F5F5F5E2E2E2E2E2E2E2E2E2EFEFEFEFEFEFEFE2E2E2E2EFE2E2E2E2E2E2E2E2E2E2E2E2E2E2E2E2E2E2E2E2E2E2E2E2E2E2E2E2E2E2E2E2E2E2E2EAE2E2E2E2E2E2F5EF00E2E2E2E2E2E2E2EAE2E2E2E2E2E2E2E2E2EFEFE2E2E2E2E2E2E2E2E2EFF5F5F5F5E2E2E2E2E2E2E2E2E2E2EFEF
310
E2EFEFEFEFE2E2E2E2EFE2E2E2E2E2E2E2E2E2E2E2E2E2E2E2E2E2E2E2E2E2E2E2E2E2E2E2E2E2E2E2E2E2E2E2EAE2E2E2E2E2E2F5EF00E2F5E2E2E2E2E2EAE2E2E2E2E2E2E2E2E2EFEFE2E2E2E2E2E2E2E2E2EFF5F5F5F5E2E2E2E2E2E2E2E2E2E2EFEFEFEFEFEFEFEFEFEFEFEFE2E2E2E2E2E2E2E2E2E2E2E2E2E2E2E2E2
310
E2E2E2E2E2E2E2E2E2E2E2E2E2E2E2E2E2E2EAE2E2E2F5E2E2F5EF00E2F5E2E2E2E2E2EAE2E2E2E2E2E2E2E2E2EFEFE2E2E2E2E2E2E2E2E2EFE2E2E2E2E2E2E2E2E2E2E2E2E2E2EFE2F5ECF5F5ECF5E2E2E2EFE2E2E2E2E2E2E2E2E2E2E2E2E2E2E2E2E2E2E2E2E2E2E2E2E2E2E2E2E2E2E2E2E2E2E2EAE2E2E2F5E2E2F5EF
310
00E2F5E2E2E2E2E2EAE2E2E2E2E2E2E2E2E2EFEFE2E2E2E2E2E2E2E2E2EFE2E2E2E2E2E2E2E2E2F5F5F5F5E2EFECECECE2F5ECECECE2E2EFE2E2E2E2E2E2E2E2E2E2E2E2E2E2E2E2E2E2E2E2E2E2E2E2E2E2E2E2E2E2E2E2E2E2E2EAE2E2E2F5E2E2F5EF00E2F5E2E2E2E2E2EAE2E2E2E2E2E2E2E2E2EFEFE2E2E2E2E2E2E2
310
E2E2EFE2E2E2E2E2E2E2E2E2F5F5F5F5E2EFECECECF5F5ECECECEFEFEFE2E2E2E2E2E2E2E2E2E2E2E2E2E2E2E2E2E2E2E2E2E2E2E2E2E2E2E2E2E2E2E2E2E2E2EAE2E2E2F5E2E2F5EF00E2F5E2E2E2E2E2EAE2E2E2E2E2E2E2E2E2EFEFE2E2E2E2E2E2E2E2E2EFE2E2E2E2E2E2E2E2E2E2E2E2E2E2ECECECECE2F5ECECECEF
310
EFEFE2E2E2E2E2E2E2E2E2E2E2E2E2E2E2E2E2E2E2E2E2E2E2E2E2E2E2E2E2E2E2E2E2E2E2EAE2E2E2F5E2E2F5EF00E2F5E2E2E2E2E2EAE2E2E2E2E2E2E2E2E2EFEFEFEFE2E2E2E2E2E2E2EFE2E2E2E2E2E2E2E2E2E2E2E2E2E2E2E2ECECE2F5ECECECE2E2E2E2E2E2E2E2E2E2E2E2E2E2E2E2E2E2E2E2E2E2E2E2E2E2E2E2
310
E2E2E2E2E2E2E2E2E2E2EAE2E2E2F5E2E2F5EF00E2F5E2E2E2E2E2EAE2E2E2E2E2E2E2E2E2EFEFEFEFEFE2E2E2E2E2E2EFE2E2E2E2E2E2E2E2E2E2E2E2E2E2E2E2F5ECE2F5ECF5E2E2E2E2E2E2E2E2E2E2E2E2E2E2E2E2E2E2E2E2E2E2E2E2E2E2E2E2E2E2E2E2E2E2E2E2E2E2E2EAE2E2E2F5E2E2F5EF00E2F5E2E2E2E2E2
310
EAE2E2E2E2E2E2E2E2E2EFEFEFEFEFEFEFEFE2E2E2EFE2E2E2E2E2E2E2E2E2E2E2E2E2E2E2E2E2E2E2E2E2E2E2E2E2E2E2E2E2E2E2E2E2E2E2E2E2E2E2E2E2E2E2E2E2E2E2E2E2E2E2E2E2E2E2E2E2E2E2E2E2EAE2E2E2F5E2E2F5EF00E2F5E2E2E2E2E2EAE2E2E2E2E2E2E2E2E2EFEFE2EFEFEFEFEFEFEFEFEFE2E2E2E2E2
310
E2E2E2E2E2E2E2E2E2E2E2E2E2E2E2E2E2E2E2E2E2E2E2E2E2E2E2E2E2E2E2E2E2E2E2E2E2E2E2E2E2E2E2E2E2E2E2E2E2E2E2E2E2E2E2E2EAE2E2E2F5E2E2F5EF00E2F5E2E2E2E2E2EAE2E2E2E2E2E2E2E2E2EFEFEFEFEFEFEFEFEFEFEFEFE2E2E2E2E2E2E2E2E2E2E2E2E2E2E2E2E2E2E2E2E2E2E2E2E2E2E2E2E2E2E2E2
310
E2E2E2E2E2E2E2E2E2E2E2E2E2E2E2E2E2E2E2E2E2E2E2E2E2E2E2E2E2EAE2E2E2F5E2E2F5EF00E2F5E2E2E2E2E2EAE2E2E2E2E2E2E2E2E2EFEFEFEFF5ECECF5E2E2E2EFE2E2E2E2E2E2E2E2E2E2E2E2E2E2E2E2E2E2E2E2E2E2E2E2E2E2E2E2E2E2E2E2E2E2E2E2E2E2E2E2E2E2E2E2E2E2E2E2E2E2E2E2E2E2E2E2E2E2E2
310
E2E2EAE2E2E2F5E2E2F5EF00E2F5E2E2E2E2E2EAE2E2E2E2F5F5F5F5F5EFEFEFEFF5ECECEFEFE2E2EFE2E2E2E2E2E2E2E2E2E2E2E2E2E2E2E2E2E2E2E2E2E2E2E2E2E2E2E2E2E2E2E2E2E2E2E2E2E2E2E2E2E2E2E2E2E2E2E2E2E2E2E2E2E2E2E2E2E2E2E2E2EAE2E2E2F5E2E2F5EF00E2F5E2E2E2E2E2EAE2E2E2E2E2E2E2
310
E2E2EFE2EFEFF5ECECEFEFEFEFEFE2E2E2E2E2E2E2E2E2E2E2E2E2E2E2E2E2E2E2E2E2E2E2E2E2E2E2E2E2E2E2E2E2E2E2E2E2E2E2E2E2E2E2E2E2E2E2E2E2E2E2E2E2E2E2E2E2E2E2E2E2EAE2E2E2F5E2E2F5EF00E2F5E2E2E2E2E2EAE2E2E2E2E2E2E2E2E2EFEFEFEFF5ECECEFEFEFEFEFE2E2E2E2E2E2E2E2E2E2E2E2E2
310
E2E2E2E2E2E2E2E2E2E2E2E2E2E2E2E2E2E2E2E2E2E2E2E2E2E2E2E2E2E2E2E2E2E2E2E2E2E2E2E2E2E2E2E2E2E2E2E2EAE2E2E2F5E2E2F5EF00E2F5E2E2E2E2E2EAE2E2E2E2E2E2E2E2E2E2E2E2E2F5ECECF5E2E2E2E2E2E2E2E2E2E2E2E2E2E2E2E2E2E2E2E2E2E2E2E2E2E2E2E2E2E2E2E2E2E2E2E2E2E2E2E2E2E2E2E2
310
E2E2E2E2E2E2E2E2E2E2E2E2E2E2E2E2E2E2E2E2E2EAE2E2E2F5E2E2F5EF00E2F5E2E2E2E2E2EAE2E2E2E2E2E2E2E2E2E2E2E2E2F5ECECF5E2E2E2E2E2E2E2E2E2E2E2E2E2E2E2E2E2E2E2E2E2E2E2E2E2E2E2E2E2E2E2E2E2E2E2E2E2E2E2E2E2E2E2E2E2E2E2E2E2E2E2E2E2E2E2E2E2E2E2E2E2E2E2E2E2EAE2E2E2F5E2
310
E2F5EF00E2F5E2E2E2E2E2EAE2E2E2E2E2E2E2E2E2E2E2E2E2E2E2E2E2E2E2E2E2E2E2E2E2E2E2E2E2E2E2E2E2E2E2E2E2E2E2E2E2E2E2E2E2E2E2E2E2E2E2E2E2E2E2E2E2E2E2E2E2E2E2E2E2E2E2E2E2E2E2E2E2E2E2E2E2E2E2E2E2E2EAE2E2E2F5E2E2F5EF00E2E2E2E2E2E2E2EAE2E2E2E2E2E2E2E2E2E2E2E2E2E2E2
310
E2E2E2E2E2E2E2E2E2E2E2E2E2E2E2E2E2E2E2E2E2E2E2E2E2E2E2E2E2E2E2E2E2E2E2E2E2E2E2E2E2E2E2E2E2E2E2E2E2E2E2E2E2E2E2E2E2E2E2E2E2E2E2E2E2E2E2EAE2E2E2E2E2E2F5EF00E2E2E2E2E2E2E2EAE2E2E2E2E2E2E2E2E2E2E2E2E2E2E2E2E2E2E2E2E2E2E2E2E2E2E2E2E2E2E2E2E2E2E2E2E2E2E2E2E2E2
310
E2E2E2E2E2E2E2E2E2E2E2E2E2E2E2E2E2E2E2E2E2E2E2E2E2E2E2E2E2E2E2E2E2E2E2E2E2E2E2E2EAE2E2E2E2E2E2F5EF00E2E2E2E2E2E2E2EAE2E2E2E2E2E2E2E2E2E2E2E2E2E2E2E2E2E2E2E2E2E2E2E2E2E2E2E2E2E2E2E2E2E2E2E2E2E2E2E2E2E2E2E2E2E2E2E2E2E2E2E2E2E2E2E2E2E2E2E2E2E2E2E2E2E2E2E2E2
310
E2E2E2E2E2E2E2E2E2E2E2E2E2EAE2E2E2E2E2E2F5EF00E2E2E2E2E2E2E2EAE2E2E2E2E2E2E2E2E2E2E2E2E2E2E2E2E2E2E2E2E2E2E2E2E2E2E2E2E2E2E2E2E2E2E2E2E2E2E2E2E2E2E2E2E2E2E2E2E2E2E2E2E2E2E2E2E2E2E2E2E2E2E2E2E2E2E2E2E2E2E2E2E2E2E2E2E2E2E2E2E2E2EAE2E2E2E2E2E2F5EF00E2E2E2E2
310
E2E2E2EAE2E2E2E2E2E2E2E2E2E2E2E2E2E2E2E2E2E2E2E2E2E2E2E2E2E2E2E2E2E2E2E2E2E2E2E2E2E2E2E2E2E2DCDCDCDCDCDCDCDCDCDCDCDCDCDCDCDCDCDCDCDCDCDCDCDCDCDCDCDCDCDCDCDCDCDCDCDCDCDCE2E2EAE2E2E2E2E2E2F5EF00E2E2E2E2E2E2E2EAE2E2E2E2E2E2E2E2E2E2E2E2E2E2E2E2E2E2E2E2E2E2E2
310
E2E2E2E2E2E2E2E2E2E2E2E2E2E2E2E2E2E2E2DCDCDCDCDCDCDCDCDCDCDCDCDCDCDCDCDCDCDCDCDCDCDCDCDCDCDCDCDCDCDCDCDCDCDCDCDCDCE2E2EAE2E2E2E2E2E2F5EF00E2E2E2E2E2E2E2EAE2E2E2E2E2E2E2E2E2E2E2E2E2E2E2E2E2E2E2E2E2E2E2E2E2E2E2E2E2E2E2E2E2E2E2E2E2E2E2E2E2E2DCDCE2E2E2E2F5F5
310
E2DCDCE2E2E2E2E2E2E2DCDCE2E2E2E2E2E2E2E2DCE2E2E2E2E2E2E2DCDCE2E2EAE2E2E2E2E2E2F5EF00E2E2E2E2E2E2E2EAE2E2E2E2E2E2E2E2E2E2E2E2E2E2E2E2E2E2E2E2E2E2E2E2E2E2E2E2E2E2E2E2E2E2E2E2E2E2E2E2E2E2DCDCE2E2E2E2F5F5E2DCDCE2E2E2E2E2E2E2DCDCE2E2E2E2E2E2E2E2DCE2E2E2E2E2E2
310
E2DCDCE2E2EAE2E2E2E2E2E2F5EF00E2E2E2E2E2E2E2EAE2E2E2E2E2E2E2E2E2E2E2E2E2E2E2E2E2E2E2E2E2E2E2E2E2E2E2E2E2E2E2E2E2E2E2E2E2E2E2E2E2E2DCDCE2E2E2E2F5F5ECECECECE2E2E2E2E2E2DCDCE2E2E2E2E2E2E2E2DCE2E2E2E2E2E2E2DCDCE2E2EAE2E2E2E2E2E2F5EF00E2F5E2E2E2E2E2EAE2E2E2E2
310
E2E2E2E2E2E2E2E2E2E2E2E2E2E2E2E2E2E2E2E2E2E2E2E2E2E2E2E2E2E2E2E2E2E2E2E2E2E2DCDCE2E2E2E2E2E2E2DCDCECE2E2E2E2E2E2DCDCE2E2E2E2E2E2E2E2DCE2E2E2E2E2E2E2DCDCE2E2EAE2E2E2F5E2E2F5EF00E2F5E2E2E2E2E2EAE2E2E2E2E2E2E2E2E2E2E2E2E2E2E2E2E2E2E2E2E2E2E2E2E2E2E2E2E2E2E2
310
E2E2E2E2E2E2E2E2E2E2E2DCDCE2E2E2E2E2E2E2DCDCECE2E2E2E2E2E2DCDCE2E2E2E2E2E2E2E2DCE2E2E2E2E2E2E2DCDCE2E2EAE2E2E2F5E2E2F5EF00E2F5E2E2E2E2E2EAE2E2E2E2E2E2E2E2E2E2E2E2E2E2E2E2E2E2E2E2E2E2E2E2E2E2E2E2E2E2E2E2E2E2E2E2E2E2E2E2E2E2DCDCDCDCDCDCDCDCDCDCDCDCDCDCDCDC
310
DCDCDCDCDCDCDCDCDCDCDCDCDCDCDCDCDCDCDCDCDCDCE2E2EAE2E2E2F5E2E2F5EF00E2F5E2E2E2E2E2EAE2E2E2E2E2E2E2E2E2E2E2E2E2E2E2E2E2E2E2E2E2E2E2E2E2E2E2E2E2E2E2E2E2E2E2E2E2E2E2E2E2E2DCDCE2E2E2E2E2E2E2DCDCE2E2E2E2E2E2E2DCDCE2E2E2E2E2E2E2E2DCE2E2E2E2E2E2E2DCDCE2E2EAE2E2
310
E2F5E2E2F5EF00E2F5E2E2E2E2E2EAE2E2E2E2E2E2E2E2E2E2E2E2E2E2E2E2E2E2E2E2E2E2E2E2E2E2E2E2E2E2E2E2E2E2E2E2E2E2E2E2E2E2DCDCDCDCDCDCDCDCDCDCDCECDCDCDCDCDCDCDCDCDCDCDCDCDCDCDCDCDCDCDCDCDCDCDCDCDCDCE2E2EAE2E2E2F5E2E2F5EF00E2F5E2E2E2E2E2EAE2E2E2E2E2E2E2E2E2E2E2E2
310
E2E2E2E2E2E2E2E2E2E2E2E2E2E2E2E2E2E2E2E2E2E2E2E2E2E2E2E2E2E2DCDCE2E2E2E2F5F5E2DCDCECE2E2F5E2E2E2DCDCE2E2E2F5E2E2E2E2DCE2E2E2E2E2E2E2DCDCE2E2EAE2E2E2F5E2E2F5EF00E2F5E2E2E2E2E2EAE2E2E2E2E2E2E2E2E2E2E2E2E2E2E2E2E2E2E2E2E2E2E2E2E2E2E2E2E2E2E2E2E2E2E2E2E2E2E2
310
E2E2E2DCDCE2E2E2E2F5F5ECECECECF5F5F5F5F5E2DCDCE2E2F5F5F5F5E2E2DCE2E2E2E2E2E2E2DCDCE2E2EAE2E2E2F5E2E2F5EF00E2F5E2E2E2E2E2EAE2E2E2E2E2E2E2E2E2E2E2E2E2E2E2E2E2E2E2E2E2E2E2E2E2E2E2E2E2E2E2E2E2E2E2E2E2E2E2E2E2E2DCDCE2E2E2E2E2E2E2DCDCE2E2F5F5F5F5E2DCDCE2E2F5F5
310
F5E2E2E2DCE2E2E2E2E2E2E2DCDCE2E2EAE2E2E2F5E2E2F5EF00E2F5E2E2E2E2E2EAE2E2E2E2E2E2E2E2E2E2E2E2E2E2E2E2E2E2E2E2E2E2E2E2E2E2E2E2E2E2E2E2E2E2E2E2E2E2E2E2E2E2DCDCE2E2E2E2E2E2E2DCDCE2E2E2F5E2E2E2DCDCE2E2E2F5E2E2E2E2DCE2E2E2E2E2E2E2DCDCE2E2EAE2E2E2F5E2E2F5EF00E2
310
F5E2E2E2E2E2EAE2E2E2E2E2E2E2E2E2E2E2E2E2E2E2E2E2E2E2E2E2E2E2E2E2E2E2E2E2E2E2E2E2E2E2E2E2E2E2E2E2E2DCDCE2E2E2E2E2E2E2DCDCE2E2E2E2E2E2E2DCDCE2E2E2E2E2E2E2E2DCE2E2E2E2E2E2E2DCDCE2E2EAE2E2E2F5E2E2F5EF00E2F5E2E2E2E2E2EAE2E2E2E2E2E2E2E2E2E2E2E2E2E2E2E2E2E2E2E2
310
E2E2E2E2E2E2E2E2E2E2E2E2E2E2E2E2E2E2E2E2E2E2DCDCE2E2E2E2E2E2E2DCDCE2E2E2E2E2E2E2DCDCE2E2E2E2E2E2E2E2DCE2E2E2E2E2E2E2DCDCE2E2EAE2E2E2F5E2E2F5EF00E2F5E2E2E2E2E2EAE2E2E2E2E2E2E2E2E2E2E2E2E2E2E2E2E2E2E2E2E2E2E2E2E2E2E2E2E2E2E2E2E2E2E2E2E2E2E2E2E2E2DCDCE2E2E2
310
E2E2E2E2DCDCE2E2E2E2E2E2E2DCDCE2E2E2E2E2E2E2E2DCE2E2E2E2E2E2E2DCDCE2E2EAE2E2E2F5E2E2F5EF00E2F5E2E2E2E2E2EAE2E2E2E2E2E2E2E2E2E2E2E2E2E2E2E2E2E2E2E2E2E2E2E2E2E2E2E2E2E2E2E2E2E2E2E2E2E2E2E2E2E2DCDCE2E2E2E2E2E2E2DCDCE2E2E2E2E2E2E2DCDCE2E2E2E2E2E2E2E2DCE2E2E2
310
E2E2E2E2DCDCE2E2EAE2E2E2F5E2E2F5EF00E2F5E2E2E2E2E2EAE2E2E2E2E2E2E2E2E2E2E2E2E2E2E2E2E2E2E2E2E2E2E2E2E2E2E2E2E2E2E2E2E2E2E2E2E2E2E2E2E2E2DCDCE2E2E2E2E2E2E2DCDCDCDCDCDCDCDCDCDCDCDCDCDCDCDCDCDCDCDCE2E2E2E2E2E2E2DCDCE2E2EAE2E2E2F5E2E2F5EF00E2F5E2E2E2E2E2EAE2
310
E2E2E2E2E2E2E2E2E2E2E2E2E2E2E2E2E2E2E2E2E2E2E2E2E2E2E2E2E2E2E2E2E2E2E2E2E2E2E2E2E2DCDCDCDCDCDCDCDCDCDCDCDCDCDCDCDCDCDCDCDCDCDCDCDCDCDCDCDCDCDCDCDCDCDCDCDCDCDCE2E2EAE2E2E2F5E2E2F5EF00E2F5E2E2E2E2E2EAE2E2E2E2E2E2E2E2E2E2E2E2E2E2E2E2E2E2E2E2E2E2E2E2E2E2E2E2
310
E2E2E2E2E2E2E2E2E2E2E2E2E2E2E2E2E2E2E2E2E2E2E2E2E2E2E2E2E2E2E2E2E2E2E2E2E2E2E2E2E2E2E2E2E2E2E2E2E2E2E2E2E2E2EAE2E2E2F5E2E2F5EF00E2F5E2E2E2E2E2EAE2E2E2E2E2E2E2E2E2E2E2E2E2E2E2E2E2E2E2E2E2E2E2E2E2E2E2E2E2E2E2E2E2E2E2E2E2E2E2E2E2E2E2E2E2E2E2E2E2E2E2E2E2E2E2
310
E2E2E2E2E2E2E2E2E2E2E2E2E2E2E2E2E2E2E2E2E2E2E2E2E2E2E2EAE2E2E2F5E2E2F5EF00E2E2E2E2E2E2E2EAE2E2E2E2E2E2E2E2E2E2E2E2E2E2E2E2E2E2E2E2E2E2E2E2E2E2E2E2E2E2E2E2E2E2E2E2E2E2E2E2E2E2E2E2E2E2E2E2E2E2E2E2E2E2E2E2E2E2E2E2E2E2E2E2E2E2E2E2E2E2E2E2E2E2E2E2E2E2E2E2E2E2
310
EAE2E2E2E2E2E2F5EF00E2E2E2E2E2E2E2EAE2E2E2E2E2E2E2E2E2E2E2E2E2E2E2E2E2E2E2E2E2E2E2E2E2E2E2E2E2E2E2E2E2E2E2E2E2E2E2E2E2E2E2E2E2E2E2E2E2E2E2E2E2E2E2E2E2E2E2E2E2E2E2E2E2E2E2E2E2E2E2E2E2E2E2E2E2E2E2E2E2E2EAE2E2E2E2E2E2F5EF00E2E2E2E2E2E2E2EAEAEAEAEAEAEAEAEAEA
310
EAEAEAEAEAEAEAEAEAEAEAEAEAEAEAEAEAEAEAEAEAEAEAEAEAEAEAEAEAEAEAEAEAEAEAEAEAEAEAEAEAEAEAEAEAEAEAEAEAEAEAEAEAEAEAEAEAEAEAEAEAEAEAEAEAEAEAEAEAEAEAEAEAEAE2E2E2E2E2E2F5EF00E2E2E2E2E2E2E2E2E2E2E2E2E2F5F5F5F5F5F5F5F5F5F5F5F5F5F5F5F5F5F5F5F5F5F5F5F5F5F5F5F5F5F5F5
310
F5F5F5F5F5F5F5F5F5F5F5F5F5F5F5F5F5F5F5F5F5F5F5F5F5F5F5F5F5F5F5F5F5F5F5F5F5F5F5F5F5F5F5F5F5F5F5E2E2E2E2E2E2F5EF00E2E2E2E2E2E2E2E2E2E2E2E2E2F5E2E2E2E2E2E2E2E2E2E2E2E2E2E2E2E2E2E2E2E2E2E2E2E2E2E2E2E2E2E2E2E2E2E2E2E2E2E2E2E2E2E2E2E2E2E2E2E2E2E2E2E2E2E2F5E2F5
310
F5F5F5F5F5F5E2E2F5E2E2E2F5F5E2E2E2E2E2F5E2E2E2E2E2E2F5EF00E2E2E2E2E2E2E2E2E2E2E2E2ECECECE2E2E2E2E2E2F5F5F5F5F5F5F5F5F5F5F5F5F5F5F5F5E2E2E2E2E2E2E2E2E2E2E2E2E2E2E2E2E2E2E2E2E2E2E2E2E2E2E2E2E2E2E2F5E2F5F5F5F5F5F5F5E2E2F5E2E2E2F5F5E2E2E2E2E2F5E2E2E2E2E2E2F5
310
EF00E2E2E2E2E2E2E2E2E2E2E2E2ECECECECE2E2E2E2E2F5F5F5F5F5F5F5F5F5F5F5F5F5F5F5F5E2E2E2E2E2E2E2E2E2E2E2E2E2E2E2E2E2E2E2E2E2E2E2E2E2E2E2E2E2E2E2F5E2E2E2E2E2E2E2E2E2E2F5E2E2E2E2E2E2E2E2E2E2F5E2E2E2E2E2E2F5EF00E2E2E2E2E2E2E2E2E2E2E2ECECECECECE2E2E2E2E2F5F5F5F5
310
F5F5F5F5F5F5F5F5F5F5F5F5F5F5F5F5F5F5F5F5F5F5F5F5F5F5F5F5F5F5F5F5F5E2E2E2E2E2E2E2E2E2E2F5E2E2F5F5F5F5F5E2E2E2F5E2E2F5F5F5F5F5E2E2E2F5E2E2E2E2E2E2F5EF00E2E2E2E2E2E2E2E2E2E2E2ECECECECECECE2E2E2E2F5F5F5F5F5F5F5F5F5F5F5F5F5F5F5F5F5F5F5F5F5F5F5F5F5F5F5F5F5F5F5
310
F5F5F5F5F5F5E2E2E2E2E2E2E2E2E2E2F5E2E2E2E2E2E2E2E2E2E2F5E2E2E2E2E2E2E2E2E2E2F5E2E2E2E2E2E2F5EF00E2E2E2E2E2E2E2E2E2E2ECECECECECECECE2E2E2E2F5F5F5F5F5F5F5F5F5F5F5F5F5F5F5F5F5F5F5F5F5F5F5F5F5F5F5F5F5F5F5F5F5F5F5F5F5E2E2E2E2E2E2E2E2E2E2F5E2E2E2E2E2E2E2E2E2E2
310
F5E2E2E2E2E2E2E2E2E2E2F5E2E2E2E2E2E2F5EF00E2F5E2E2E2E2E2E2E2E2ECECECECECECECECE2E2E2F5F5F5F5F5F5F5F5F5F5F5F5F5F5F5F5F5F5F5F5F5F5F5F5F5F5E2E2E2E2E2E2E2E2E2E2E2E2E2E2E2E2E2E2E2E2E2F5F5F5F5F5F5F5F5F5F5F5F5F5F5F5F5F5F5F5F5F5F5F5E2E2E2F5E2E2F5EF00E2F5E2E2E2E2
310
E2E2E2ECECECECECECECECECE2E2E2F5F5F5F5F5F5F5F5F5F5F5F5F5F5F5F5F5F5F5F5F5F5F5F5F5F5E2E2E2E2E2E2E2E2E2E2E2E2E2E2E2E2E2E2E2E2E2F5E2E2E2E2E2E2E2E2E2E2E2E2E2E2E2E2E2E2E2E2E2F5E2E2E2F5E2E2F5EF00E2F5E2E2E2E2E2E2ECECECECECECECECECECECE2E2F5F5F5F5F5F5F5F5F5F5F5F5
310
F5F5F5F5F5F5F5F5F5F5F5F5F5F5E2E2E2E2E2E2E2E2E2E2E2E2E2E2E2E2E2E2E2E2E2F5E2F5F5F5F5F5F5F5F5E2F5F5F5F5F5F5F5F5E2E2E2F5E2E2E2F5E2E2F5EF00E2F5E2E2E2E2E2E2ECECECECECECECECECECECE2E2F5F5F5F5F5F5F5F5F5F5F5F5F5F5E2E2E2E2E2E2E2E2E2E2E2E2E2E2E2E2E2E2E2E2E2E2E2E2E2
310
E2E2E2E2E2E2E2E2F5E2F5F5F5F5F5F5F5F5E2F5F5F5F5F5F5F5F5E2E2E2F5E2E2E2F5E2E2F5EF00E2F5E2E2E2E2E2ECECECECECECECECECECECECECE2F5F5F5F5F5F5F5F5F5F5F5F5F5F5E2E2E2E2E2E2E2E2E2E2E2E2E2E2E2E2E2E2E2E2E2E2E2E2E2E2E2E2E2E2E2E2E2F5E2E2E2E2E2E2E2E2E2E2E2E2E2E2E2E2E2E2
310
E2E2E2F5E2E2E2F5E2E2F5EF00E2F5E2E2E2E2E2ECECECECECECF5ECECECECECECE2E2E2E2E2E2E2E2E2E2E2E2E2E2E2E2E2E2E2E2E2E2E2E2E2E2E2E2E2E2E2E2E2E2E2E2E2E2E2E2E2E2E2E2E2E2E2E2F5E2E2E2E2E2E2E2E2E2E2E2E2E2E2E2E2E2E2E2E2E2F5E2E2E2F5E2E2F5EF00E2F5E2E2E2E2E2E2E2E2E2E2E2F5
310
F5F5F5F5F5F5F5F5F5F5F5F5F5F5F5F5F5F5F5F5F5F5F5F5F5F5F5F5F5F5F5F5F5F5F5F5F5F5F5F5F5F5F5F5F5F5F5F5F5F5F5F5F5F5F5F5F5F5F5F5F5F5F5F5F5F5F5F5F5F5F5F5F5F5F5F5F5E2E2E2F5E2E2F5EF00E2F5E2E2E2E2E2E2E2E2E2E2E2E2E2E2E2E2E2E2E2E2E2E2E2E2E2E2E2E2E2E2E2E2E2E2E2E2E2E2E2
310
E2E2E2E2E2E2E2E2E2E2E2E2E2E2E2E2E2E2E2E2E2E2E2E2E2E2E2E2E2E2E2E2E2E2E2E2E2E2E2E2E2E2E2E2E2E2E2E2E2E2E2E2E2F5E2E2F5EF00E2F5F5F5F5F5F5F5F5E2E2E2E2E2E2E2E2F5F5F5F5F5F5F5F5F5F5F5F5F5F5F5E2E2E2E2E2E2E2E2E2F5F5F5F5F5F5F5F5F5F5F5F5F5F5E2E2E2E2E2E2E2E2E2F5F5F5F5
310
F5F5F5F5F5F5F5F5F5F5F5E2E2E2E2E2E2E2E2F5F5F5F5F5F5F5F5E2E2F5EF00E2E2E2E2E2E2E2E2E2E2E2E2E2E2E2E2E2E2E2E2E2E2E2E2E2E2E2E2E2E2E2E2E2E2E2E2E2E2E2E2E2E2E2E2E2E2E2E2E2E2E2E2E2E2E2E2E2E2E2E2E2E2E2E2E2E2E2E2E2E2E2E2E2E2E2E2E2E2E2E2E2E2E2E2E2E2E2E2E2E2E2E2E2E2E2
310
E2E2F5EF00E2E2E2E2E2E2E2E2E2E2E2E2E2E2E2E2E2E2E2E2E2E2E2E2E2E2E2E2E2E2E2E2E2E2E2E2E2E2E2E2E2E2E2E2E2E2E2E2E2E2E2E2E2E2E2E2E2E2E2E2E2E2E2E2E2E2E2E2E2E2E2E2E2E2E2E2E2E2E2E2E2E2E2E2E2E2E2E2E2E2E2E2E2E2E2E2E2F5EF00F5F5F5F5F5F5F5F5F5F5F5F5F5F5F5F5F5F5F5F5F5F5
310
F5F5F5F5F5F5F5F5F5F5F5F5F5F5F5F5F5F5F5F5F5F5F5F5F5F5F5F5F5F5F5F5F5F5F5F5F5F5F5F5F5F5F5F5F5F5F5F5F5F5F5F5F5F5F5F5F5F5F5F5F5F5F5F5F5F5F5F5F5F5F5F5F5F5F5F5EF00
  0
XRECORD
  5
3DF5
102
{ACAD_REACTORS
330
3706
102
}
330
3706
100
AcDbXrecord
280
     1
102
MATERIAL
148
0.0
149
0.0
149
0.0
 93
        0
 94
      127
282
     0
 72
     0
 77
     0
171
     0
175
     0
179
     0
273
     0
  0
XRECORD
  5
3708
102
{ACAD_REACTORS
330
3706
102
}
330
3706
100
AcDbXrecord
280
     1
270
     1
271
     1
  0
XRECORD
  5
3707
102
{ACAD_REACTORS
330
3706
102
}
330
3706
100
AcDbXrecord
280
     1
270
     1
271
     1
  0
XRECORD
  5
370B
102
{ACAD_REACTORS
330
3706
102
}
330
3706
100
AcDbXrecord
280
     1
270
     1
271
     1
  0
XRECORD
  5
370A
102
{ACAD_REACTORS
330
3706
102
}
330
3706
100
AcDbXrecord
280
     1
270
     1
271
     1
  0
XRECORD
  5
370C
102
{ACAD_REACTORS
330
3706
102
}
330
3706
100
AcDbXrecord
280
     1
270
     1
271
     1
  0
XRECORD
  5
3709
102
{ACAD_REACTORS
330
3706
102
}
330
3706
100
AcDbXrecord
280
     1
270
     1
271
     1
  0
XRECORD
  5
3DF4
102
{ACAD_REACTORS
330
36FE
102
}
330
36FE
100
AcDbXrecord
280
     1
102
MATERIAL
148
0.0
149
0.0
149
0.0
 93
        0
 94
      127
282
     0
 72
     0
 77
     0
171
     0
175
     0
179
     0
273
     0
  0
XRECORD
  5
3700
102
{ACAD_REACTORS
330
36FE
102
}
330
36FE
100
AcDbXrecord
280
     1
270
     1
271
     1
  0
XRECORD
  5
36FF
102
{ACAD_REACTORS
330
36FE
102
}
330
36FE
100
AcDbXrecord
280
     1
270
     1
271
     1
  0
XRECORD
  5
3703
102
{ACAD_REACTORS
330
36FE
102
}
330
36FE
100
AcDbXrecord
280
     1
270
     1
271
     1
  0
XRECORD
  5
3702
102
{ACAD_REACTORS
330
36FE
102
}
330
36FE
100
AcDbXrecord
280
     1
270
     1
271
     1
  0
XRECORD
  5
3704
102
{ACAD_REACTORS
330
36FE
102
}
330
36FE
100
AcDbXrecord
280
     1
270
     1
271
     1
  0
XRECORD
  5
3701
102
{ACAD_REACTORS
330
36FE
102
}
330
36FE
100
AcDbXrecord
280
     1
270
     1
271
     1
  0
XRECORD
  5
3DF6
102
{ACAD_REACTORS
330
370E
102
}
330
370E
100
AcDbXrecord
280
     1
102
MATERIAL
148
0.0
149
0.0
149
0.0
 93
        0
 94
      127
282
     0
 72
     0
 77
     0
171
     0
175
     0
179
     0
273
     0
  0
XRECORD
  5
3710
102
{ACAD_REACTORS
330
370E
102
}
330
370E
100
AcDbXrecord
280
     1
270
     1
271
     1
  0
XRECORD
  5
370F
102
{ACAD_REACTORS
330
370E
102
}
330
370E
100
AcDbXrecord
280
     1
270
     1
271
     1
  0
XRECORD
  5
3713
102
{ACAD_REACTORS
330
370E
102
}
330
370E
100
AcDbXrecord
280
     1
270
     1
271
     1
  0
XRECORD
  5
3712
102
{ACAD_REACTORS
330
370E
102
}
330
370E
100
AcDbXrecord
280
     1
270
     1
271
     1
  0
XRECORD
  5
3714
102
{ACAD_REACTORS
330
370E
102
}
330
370E
100
AcDbXrecord
280
     1
270
     1
271
     1
  0
XRECORD
  5
3711
102
{ACAD_REACTORS
330
370E
102
}
330
370E
100
AcDbXrecord
280
     1
270
     1
271
     1
  0
ACAD_PROXY_OBJECT
  5
3DDC
102
{ACAD_REACTORS
330
37DF
102
}
330
37DF
100
AcDbProxyObject
 90
      499
 91
      513
 95
   983063
 70
     0
 93
     5304
310
40D054060020000020000003200101A000080002A5058000000C10000000000000006101010000000000003E0FC000000000000F83F0000000000003E0FC000000000000F83F02B5E8DC0F42B1CFC0AD7A3703D0AC73F419019018000000C1003FBFFFFFE0000000000003C8FD029018000000C1003FBFFFFFE00000000000
310
03C8FD049018000000C1003FBFFFFFE0000000000003C8FD089018000000C1003FBFFFFFE0000000000003C8FD109018000000C1003FBFFFFFE0000000000003C8FD209018000000C1003FBFFFFFE0000000000003C8FD01405075F5449544C450041501A8000000C800406800020000A94160000003040000000000000012
310
40404000000000000F83F0000000000003E0FC000000000000F83F0000000000003E0FC0AD7A3703D0AC73F02B5E8DC0F42B1CFD0640640600000030400FEFFFFFF8000000000000F23F40A40600000030400FEFFFFFF8000000000000F23F41240600000030400FEFFFFFF8000000000000F23F42240600000030400FEFFF
310
FFF8000000000000F23F44240600000030400FEFFFFFF8000000000000F23F48240600000030400FEFFFFFF8000000000000F23F409014217D2115051115480105406A0000003200101A000080002A5028000000C10000000000000004901010000000000003E0FC000000000000F83F0000000000003E0FC000000000000F
310
83F02B5E8DC0F42B1CFC0AD7A3703D0AC73F419019018000000C1003FBFFFFFE0000000000003C8FD029018000000C1003FBFFFFFE0000000000003C8FD049018000000C1003FBFFFFFE0000000000003C8FD089018000000C1003FBFFFFFE0000000000003C8FD109018000000C1003FBFFFFFE0000000000003C8FD20901
310
8000000C1003FBFFFFFE0000000000003C8FD03409065F44415441005F
340
11
340
0
340
0
340
0
340
0
340
0
340
0
340
11
340
0
340
0
340
0
340
0
340
0
340
0
340
11
340
0
340
0
340
0
340
0
340
0
340
0
 94
        0
1001
ACAD
1000
AcRTDxfName
1000
CELLSTYLEMAP
1000
AcRTDxfName
1000
CELLSTYLEMAP
1000
AcRTDxfName
1000
CELLSTYLEMAP
  0
XRECORD
  5
3DF7
102
{ACAD_REACTORS
330
37DF
102
}
330
37DF
100
AcDbXrecord
280
     1
102
ACAD_ROUNDTRIP_PRE2007_TABLESTYLE
 90
      512
 91
        0
  1

 92
      512
 93
        0
  2

 94
      512
 95
        0
  3

  0
ENDSEC
  0
EOF
