  0
SECTION
  2
HEADER
  9
$ACADVER
  1
AC1015
  9
$ACADMAINTVER
 70
    20
  9
$DWGCODEPAGE
  3
ANSI_1252
  9
$INSBASE
 10
0.0
 20
0.0
 30
0.0
  9
$EXTMIN
 10
-0.0000008078504834
 20
0.0000001108869583
 30
0.0
  9
$EXTMAX
 10
353.9999991921495
 20
482.0000001108869
 30
0.0
  9
$LIMMIN
 10
0.0
 20
0.0
  9
$LIMMAX
 10
353.9999991921495
 20
482.0000001108869
  9
$ORTHOMODE
 70
     0
  9
$REGENMODE
 70
     1
  9
$FILLMODE
 70
     1
  9
$QTEXTMODE
 70
     0
  9
$MIRRTEXT
 70
     0
  9
$LTSCALE
 40
10.0
  9
$ATTMODE
 70
     1
  9
$TEXTSIZE
 40
2.5
  9
$TRACEWID
 40
1.0
  9
$TEXTSTYLE
  7
Arial-Bold
  9
$CLAYER
  8
APL Border
  9
$CELTYPE
  6
ByLayer
  9
$CECOLOR
 62
   256
  9
$CELTSCALE
 40
1.0
  9
$DISPSILH
 70
     0
  9
$DIMSCALE
 40
1.0
  9
$DIMASZ
 40
4.0
  9
$DIMEXO
 40
0.625
  9
$DIMDLI
 40
3.75
  9
$DIMRND
 40
0.0
  9
$DIMDLE
 40
0.0
  9
$DIMEXE
 40
1.25
  9
$DIMTP
 40
0.0
  9
$DIMTM
 40
0.0
  9
$DIMTXT
 40
2.5
  9
$DIMCEN
 40
2.5
  9
$DIMTSZ
 40
0.0
  9
$DIMTOL
 70
     0
  9
$DIMLIM
 70
     0
  9
$DIMTIH
 70
     0
  9
$DIMTOH
 70
     0
  9
$DIMSE1
 70
     0
  9
$DIMSE2
 70
     0
  9
$DIMTAD
 70
     1
  9
$DIMZIN
 70
     8
  9
$DIMBLK
  1

  9
$DIMASO
 70
     1
  9
$DIMSHO
 70
     1
  9
$DIMPOST
  1

  9
$DIMAPOST
  1

  9
$DIMALT
 70
     0
  9
$DIMALTD
 70
     3
  9
$DIMALTF
 40
0.03937007874016
  9
$DIMLFAC
 40
1.0
  9
$DIMTOFL
 70
     1
  9
$DIMTVP
 40
0.0
  9
$DIMTIX
 70
     0
  9
$DIMSOXD
 70
     0
  9
$DIMSAH
 70
     0
  9
$DIMBLK1
  1

  9
$DIMBLK2
  1

  9
$DIMSTYLE
  2
ISO-25
  9
$DIMCLRD
 70
     0
  9
$DIMCLRE
 70
     0
  9
$DIMCLRT
 70
     0
  9
$DIMTFAC
 40
1.0
  9
$DIMGAP
 40
0.625
  9
$DIMJUST
 70
     0
  9
$DIMSD1
 70
     0
  9
$DIMSD2
 70
     0
  9
$DIMTOLJ
 70
     0
  9
$DIMTZIN
 70
     8
  9
$DIMALTZ
 70
     0
  9
$DIMALTTZ
 70
     0
  9
$DIMUPT
 70
     0
  9
$DIMDEC
 70
     2
  9
$DIMTDEC
 70
     2
  9
$DIMALTU
 70
     2
  9
$DIMALTTD
 70
     3
  9
$DIMTXSTY
  7
Standard
  9
$DIMAUNIT
 70
     0
  9
$DIMADEC
 70
     0
  9
$DIMALTRND
 40
0.0
  9
$DIMAZIN
 70
     0
  9
$DIMDSEP
 70
    44
  9
$DIMATFIT
 70
     3
  9
$DIMFRAC
 70
     0
  9
$DIMLDRBLK
  1

  9
$DIMLUNIT
 70
     2
  9
$DIMLWD
 70
    -2
  9
$DIMLWE
 70
    -2
  9
$DIMTMOVE
 70
     0
  9
$LUNITS
 70
     2
  9
$LUPREC
 70
     4
  9
$SKETCHINC
 40
1.0
  9
$FILLETRAD
 40
10.0
  9
$AUNITS
 70
     0
  9
$AUPREC
 70
     0
  9
$MENU
  1
.
  9
$ELEVATION
 40
0.0
  9
$PELEVATION
 40
0.0
  9
$THICKNESS
 40
0.0
  9
$LIMCHECK
 70
     0
  9
$CHAMFERA
 40
10.0
  9
$CHAMFERB
 40
10.0
  9
$CHAMFERC
 40
20.0
  9
$CHAMFERD
 40
0.0
  9
$SKPOLY
 70
     0
  9
$TDCREATE
 40
2452286.590325035
  9
$TDUCREATE
 40
2452286.090325035
  9
$TDUPDATE
 40
2455660.508431806
  9
$TDUUPDATE
 40
2455660.008431806
  9
$TDINDWG
 40
1.0143945949
  9
$TDUSRTIMER
 40
1.0143945949
  9
$USRTIMER
 70
     1
  9
$ANGBASE
 50
0.0
  9
$ANGDIR
 70
     0
  9
$PDMODE
 70
     3
  9
$PDSIZE
 40
3.0
  9
$PLINEWID
 40
0.0
  9
$SPLFRAME
 70
     0
  9
$SPLINETYPE
 70
     6
  9
$SPLINESEGS
 70
     8
  9
$HANDSEED
  5
5E22
  9
$SURFTAB1
 70
     6
  9
$SURFTAB2
 70
     6
  9
$SURFTYPE
 70
     6
  9
$SURFU
 70
     6
  9
$SURFV
 70
     6
  9
$UCSBASE
  2

  9
$UCSNAME
  2

  9
$UCSORG
 10
0.0
 20
0.0
 30
0.0
  9
$UCSXDIR
 10
1.0
 20
0.0
 30
0.0
  9
$UCSYDIR
 10
0.0
 20
1.0
 30
0.0
  9
$UCSORTHOREF
  2

  9
$UCSORTHOVIEW
 70
     0
  9
$UCSORGTOP
 10
0.0
 20
0.0
 30
0.0
  9
$UCSORGBOTTOM
 10
0.0
 20
0.0
 30
0.0
  9
$UCSORGLEFT
 10
0.0
 20
0.0
 30
0.0
  9
$UCSORGRIGHT
 10
0.0
 20
0.0
 30
0.0
  9
$UCSORGFRONT
 10
0.0
 20
0.0
 30
0.0
  9
$UCSORGBACK
 10
0.0
 20
0.0
 30
0.0
  9
$PUCSBASE
  2

  9
$PUCSNAME
  2

  9
$PUCSORG
 10
0.0
 20
0.0
 30
0.0
  9
$PUCSXDIR
 10
1.0
 20
0.0
 30
0.0
  9
$PUCSYDIR
 10
0.0
 20
1.0
 30
0.0
  9
$PUCSORTHOREF
  2

  9
$PUCSORTHOVIEW
 70
     0
  9
$PUCSORGTOP
 10
0.0
 20
0.0
 30
0.0
  9
$PUCSORGBOTTOM
 10
0.0
 20
0.0
 30
0.0
  9
$PUCSORGLEFT
 10
0.0
 20
0.0
 30
0.0
  9
$PUCSORGRIGHT
 10
0.0
 20
0.0
 30
0.0
  9
$PUCSORGFRONT
 10
0.0
 20
0.0
 30
0.0
  9
$PUCSORGBACK
 10
0.0
 20
0.0
 30
0.0
  9
$USERI1
 70
     0
  9
$USERI2
 70
     0
  9
$USERI3
 70
     0
  9
$USERI4
 70
     0
  9
$USERI5
 70
     0
  9
$USERR1
 40
0.0
  9
$USERR2
 40
0.0
  9
$USERR3
 40
0.0
  9
$USERR4
 40
0.0
  9
$USERR5
 40
0.0
  9
$WORLDVIEW
 70
     1
  9
$SHADEDGE
 70
     3
  9
$SHADEDIF
 70
    70
  9
$TILEMODE
 70
     0
  9
$MAXACTVP
 70
    64
  9
$PINSBASE
 10
0.0
 20
0.0
 30
0.0
  9
$PLIMCHECK
 70
     0
  9
$PEXTMIN
 10
11.46014299460751
 20
3.285575844812797
 30
-0.0015258207003583
  9
$PEXTMAX
 10
189.6073677543587
 20
282.2033753668244
 30
0.0000000349246037
  9
$PLIMMIN
 10
-5.027082920074462
 20
-5.408084392547607
  9
$PLIMMAX
 10
204.8615736961365
 20
291.6449246406555
  9
$UNITMODE
 70
     0
  9
$VISRETAIN
 70
     1
  9
$PLINEGEN
 70
     0
  9
$PSLTSCALE
 70
     1
  9
$TREEDEPTH
 70
  3020
  9
$CMLSTYLE
  2
Standard
  9
$CMLJUST
 70
     0
  9
$CMLSCALE
 40
20.0
  9
$PROXYGRAPHICS
 70
     1
  9
$MEASUREMENT
 70
     1
  9
$CELWEIGHT
370
    -1
  9
$ENDCAPS
280
     0
  9
$JOINSTYLE
280
     0
  9
$LWDISPLAY
290
     0
  9
$INSUNITS
 70
     4
  9
$HYPERLINKBASE
  1

  9
$STYLESHEET
  1
A4 Specifier Manual.ctb
  9
$XEDIT
290
     1
  9
$CEPSNTYPE
380
     0
  9
$PSTYLEMODE
290
     1
  9
$FINGERPRINTGUID
  2
{D079D194-C9C2-11D5-B123-005004D48FB5}
  9
$VERSIONGUID
  2
{F6411DB0-3C28-4506-B050-BDA215EAC323}
  9
$EXTNAMES
290
     1
  9
$PSVPSCALE
 40
0.0
  9
$OLESTARTUP
290
     0
  0
ENDSEC
  0
SECTION
  2
CLASSES
  0
CLASS
  1
ACDBDICTIONARYWDFLT
  2
AcDbDictionaryWithDefault
  3
ObjectDBX Classes
 90
        0
280
     0
281
     0
  0
CLASS
  1
ACDBPLACEHOLDER
  2
AcDbPlaceHolder
  3
ObjectDBX Classes
 90
        0
280
     0
281
     0
  0
CLASS
  1
LAYOUT
  2
AcDbLayout
  3
ObjectDBX Classes
 90
        0
280
     0
281
     0
  0
CLASS
  1
DICTIONARYVAR
  2
AcDbDictionaryVar
  3
ObjectDBX Classes
 90
        0
280
     0
281
     0
  0
CLASS
  1
PLOTSETTINGS
  2
AcDbPlotSettings
  3
ObjectDBX Classes
 90
        0
280
     0
281
     0
  0
CLASS
  1
DIMASSOC
  2
AcDbDimAssoc
  3
"AcDbDimAssoc|Product Desc:     AcDim ARX App For Dimension|Company:          Autodesk, Inc.|WEB Address:      www.autodesk.com"
 90
    32768
280
     0
281
     0
  0
CLASS
  1
MATERIAL
  2
AcDbMaterial
  3
ObjectDBX Classes
 90
        0
280
     0
281
     0
  0
CLASS
  1
VISUALSTYLE
  2
AcDbVisualStyle
  3
ObjectDBX Classes
 90
     4095
280
     0
281
     0
  0
CLASS
  1
TABLESTYLE
  2
AcDbTableStyle
  3
ObjectDBX Classes
 90
     2047
280
     0
281
     0
  0
CLASS
  1
SCALE
  2
AcDbScale
  3
ObjectDBX Classes
 90
     1153
280
     0
281
     0
  0
CLASS
  1
MLEADERSTYLE
  2
AcDbMLeaderStyle
  3
ACDB_MLEADERSTYLE_CLASS
 90
     4095
280
     0
281
     0
  0
CLASS
  1
EXACTERMXREFMAP
  2
ExAcTermXrefMap
  3
EXAC_SERVICE
 90
    33793
280
     0
281
     0
  0
CLASS
  1
NPOCOLLECTION
  2
AcDbImpNonPersistentObjectsCollection
  3
ObjectDBX Classes
 90
    33921
280
     0
281
     0
  0
CLASS
  1
EXACXREFPANELOBJECT
  2
ExAcXREFPanelObject
  3
EXAC_ESW
 90
    33793
280
     0
281
     0
  0
CLASS
  1
CELLSTYLEMAP
  2
AcDbCellStyleMap
  3
ObjectDBX Classes
 90
     1152
280
     0
281
     0
  0
CLASS
  1
SORTENTSTABLE
  2
AcDbSortentsTable
  3
ObjectDBX Classes
 90
        0
280
     0
281
     0
  0
ENDSEC
  0
SECTION
  2
TABLES
  0
TABLE
  2
VPORT
  5
8
102
{ACAD_XDICTIONARY
360
54E6
102
}
330
0
100
AcDbSymbolTable
 70
     1
  0
VPORT
  5
52C4
330
8
100
AcDbSymbolTableRecord
100
AcDbViewportTableRecord
  2
*Active
 70
     0
 10
0.0
 20
0.0
 11
1.0
 21
1.0
 12
177.0000000163699
 22
241.0000011776872
 13
0.0
 23
0.0
 14
10.0
 24
10.0
 15
2.0
 25
2.0
 16
0.0
 26
0.0
 36
1.0
 17
0.0
 27
0.0
 37
0.0
 40
486.0631380441587
 41
2.208100558659217
 42
50.0
 43
0.0
 44
0.0
 50
0.0
 51
0.0
 71
     0
 72
 20000
 73
     1
 74
     3
 75
     0
 76
     0
 77
     0
 78
     0
281
     0
 65
     1
110
0.0
120
0.0
130
0.0
111
1.0
121
0.0
131
0.0
112
0.0
122
1.0
132
0.0
 79
     0
146
0.0
  0
ENDTAB
  0
TABLE
  2
LTYPE
  5
5
330
0
100
AcDbSymbolTable
 70
     1
  0
LTYPE
  5
14
330
5
100
AcDbSymbolTableRecord
100
AcDbLinetypeTableRecord
  2
ByBlock
 70
     0
  3

 72
    65
 73
     0
 40
0.0
  0
LTYPE
  5
15
330
5
100
AcDbSymbolTableRecord
100
AcDbLinetypeTableRecord
  2
ByLayer
 70
     0
  3

 72
    65
 73
     0
 40
0.0
  0
LTYPE
  5
16
330
5
100
AcDbSymbolTableRecord
100
AcDbLinetypeTableRecord
  2
Continuous
 70
     0
  3
Solid line
 72
    65
 73
     0
 40
0.0
  0
ENDTAB
  0
TABLE
  2
LAYER
  5
2
102
{ACAD_XDICTIONARY
360
5466
102
}
330
0
100
AcDbSymbolTable
 70
     6
  0
LAYER
  5
10
102
{ACAD_XDICTIONARY
360
54AA
102
}
330
2
100
AcDbSymbolTableRecord
100
AcDbLayerTableRecord
  2
0
 70
     4
 62
     7
  6
Continuous
290
     0
370
    -3
390
F
  0
LAYER
  5
2B
102
{ACAD_XDICTIONARY
360
54AC
102
}
330
2
100
AcDbSymbolTableRecord
100
AcDbLayerTableRecord
  2
APL Joinery
 70
     0
 62
     2
  6
Continuous
370
    -3
390
F
  0
LAYER
  5
75
102
{ACAD_XDICTIONARY
360
54AE
102
}
330
2
100
AcDbSymbolTableRecord
100
AcDbLayerTableRecord
  2
APL Notes
 70
     0
 62
     7
  6
Continuous
370
    -3
390
F
  0
LAYER
  5
4FBB
102
{ACAD_XDICTIONARY
360
54B0
102
}
330
2
100
AcDbSymbolTableRecord
100
AcDbLayerTableRecord
  2
APL Border
 70
     0
 62
     7
  6
Continuous
370
    -3
390
F
  0
LAYER
  5
5446
102
{ACAD_XDICTIONARY
360
54B4
102
}
330
2
100
AcDbSymbolTableRecord
100
AcDbLayerTableRecord
  2
APL Hatch
 70
     0
 62
   253
  6
Continuous
370
    -3
390
F
  0
ENDTAB
  0
TABLE
  2
STYLE
  5
3
330
0
100
AcDbSymbolTable
 70
     4
  0
STYLE
  5
11
330
3
100
AcDbSymbolTableRecord
100
AcDbTextStyleTableRecord
  2
Standard
 70
     0
 40
0.0
 41
1.0
 50
0.0
 71
     0
 42
3.0
  3
txt.shx
  4

  0
STYLE
  5
4F05
330
3
100
AcDbSymbolTableRecord
100
AcDbTextStyleTableRecord
  2
Arial-Bold
 70
     0
 40
0.0
 41
1.0
 50
0.0
 71
     0
 42
2.5
  3
ARIALBD.TTF
  4

1001
ACAD
1000
Arial
1071
 33554466
  0
STYLE
  5
50DF
330
3
100
AcDbSymbolTableRecord
100
AcDbTextStyleTableRecord
  2
Arial-Regular
 70
     0
 40
0.0
 41
1.0
 50
0.0
 71
     0
 42
2.5
  3
ARIAL.TTF
  4

1001
ACAD
1000
Arial
1071
       34
  0
ENDTAB
  0
TABLE
  2
VIEW
  5
6
330
0
100
AcDbSymbolTable
 70
     0
  0
ENDTAB
  0
TABLE
  2
UCS
  5
7
330
0
100
AcDbSymbolTable
 70
     0
  0
ENDTAB
  0
TABLE
  2
APPID
  5
9
330
0
100
AcDbSymbolTable
 70
    10
  0
APPID
  5
12
330
9
100
AcDbSymbolTableRecord
100
AcDbRegAppTableRecord
  2
ACAD
 70
     0
  0
APPID
  5
543E
330
9
100
AcDbSymbolTableRecord
100
AcDbRegAppTableRecord
  2
ACAD_MLEADERVER
 70
     0
  0
APPID
  5
544D
330
9
100
AcDbSymbolTableRecord
100
AcDbRegAppTableRecord
  2
DCO15
 70
     0
  0
APPID
  5
55C6
330
9
100
AcDbSymbolTableRecord
100
AcDbRegAppTableRecord
  2
ACAD_PSEXT
 70
     0
  0
APPID
  5
57B7
330
9
100
AcDbSymbolTableRecord
100
AcDbRegAppTableRecord
  2
ACAUTHENVIRON
 70
     0
  0
APPID
  5
57B8
330
9
100
AcDbSymbolTableRecord
100
AcDbRegAppTableRecord
  2
AcDbDynamicBlockTrueName
 70
     0
  0
APPID
  5
57B9
330
9
100
AcDbSymbolTableRecord
100
AcDbRegAppTableRecord
  2
AcDbDynamicBlockGUID
 70
     0
  0
APPID
  5
57BA
330
9
100
AcDbSymbolTableRecord
100
AcDbRegAppTableRecord
  2
AcDbBlockRepETag
 70
     0
  0
APPID
  5
57BB
330
9
100
AcDbSymbolTableRecord
100
AcDbRegAppTableRecord
  2
AcDbBlockRepBTag
 70
     0
  0
APPID
  5
57BC
330
9
100
AcDbSymbolTableRecord
100
AcDbRegAppTableRecord
  2
ACAD_EXEMPT_FROM_CAD_STANDARDS
 70
     0
  0
ENDTAB
  0
TABLE
  2
DIMSTYLE
  5
A
330
0
100
AcDbSymbolTable
 70
     2
100
AcDbDimStyleTable
 71
     1
340
4BD2
  0
DIMSTYLE
105
4BD2
330
A
100
AcDbSymbolTableRecord
100
AcDbDimStyleTableRecord
  2
ISO-25
 70
     0
 41
4.0
 42
0.625
 43
3.75
 44
1.25
 73
     0
 74
     0
 77
     1
 78
     8
140
2.5
141
2.5
143
0.03937007874016
147
0.625
171
     3
172
     1
271
     2
272
     2
274
     3
278
    44
283
     0
284
     8
340
11
  0
ENDTAB
  0
TABLE
  2
BLOCK_RECORD
  5
1
330
0
100
AcDbSymbolTable
 70
    25
  0
BLOCK_RECORD
  5
1F
330
1
100
AcDbSymbolTableRecord
100
AcDbBlockTableRecord
  2
*Model_Space
340
22
  0
BLOCK_RECORD
  5
51B6
330
1
100
AcDbSymbolTableRecord
100
AcDbBlockTableRecord
  2
*Paper_Space
340
51B7
  0
BLOCK_RECORD
  5
37B5
102
{ACAD_XDICTIONARY
360
59E2
102
}
330
1
100
AcDbSymbolTableRecord
100
AcDbBlockTableRecord
  2
08617
340
0
102
{BLKREFS
331
37BA
102
}
  0
BLOCK_RECORD
  5
37BB
330
1
100
AcDbSymbolTableRecord
100
AcDbBlockTableRecord
  2
08619
340
0
102
{BLKREFS
331
37C0
331
5123
102
}
  0
BLOCK_RECORD
  5
37CB
330
1
100
AcDbSymbolTableRecord
100
AcDbBlockTableRecord
  2
08610
340
0
102
{BLKREFS
331
37D2
102
}
  0
BLOCK_RECORD
  5
37DD
330
1
100
AcDbSymbolTableRecord
100
AcDbBlockTableRecord
  2
9010312r
340
0
102
{BLKREFS
331
3E68
102
}
  0
BLOCK_RECORD
  5
3C5C
330
1
100
AcDbSymbolTableRecord
100
AcDbBlockTableRecord
  2
a4 specifiers manual
340
0
102
{BLKREFS
331
3C63
102
}
1001
ACAD
1000
DesignCenter Data
1002
{
1070
     1
1070
     4
1002
}
  0
BLOCK_RECORD
  5
3C68
330
1
100
AcDbSymbolTableRecord
100
AcDbBlockTableRecord
  2
08640
340
0
102
{BLKREFS
331
4EF1
331
4F1A
102
}
  0
BLOCK_RECORD
  5
3DED
330
1
100
AcDbSymbolTableRecord
100
AcDbBlockTableRecord
  2
08625
340
0
102
{BLKREFS
331
4C5D
102
}
  0
BLOCK_RECORD
  5
3E11
330
1
100
AcDbSymbolTableRecord
100
AcDbBlockTableRecord
  2
9010240l
340
0
102
{BLKREFS
331
3E67
102
}
  0
BLOCK_RECORD
  5
3E1C
330
1
100
AcDbSymbolTableRecord
100
AcDbBlockTableRecord
  2
6Glass
340
0
102
{BLKREFS
331
3E69
102
}
  0
BLOCK_RECORD
  5
3E5D
330
1
100
AcDbSymbolTableRecord
100
AcDbBlockTableRecord
  2
08634
340
0
102
{BLKREFS
331
3E66
102
}
  0
BLOCK_RECORD
  5
3E63
330
1
100
AcDbSymbolTableRecord
100
AcDbBlockTableRecord
  2
08634Glaze
340
0
310
2800000020000000200000000100080000000000000400000000000000000000000000000000000000000000000080000080000000808000800000008000800080800000C0C0C000C0DCC000F0CAA6000020400000206000002080000020A0000020C0000020E00000400000004020000040400000406000004080000040A0
310
000040C0000040E00000600000006020000060400000606000006080000060A0000060C0000060E00000800000008020000080400000806000008080000080A0000080C0000080E00000A0000000A0200000A0400000A0600000A0800000A0A00000A0C00000A0E00000C0000000C0200000C0400000C0600000C0800000C0
310
A00000C0C00000C0E00000E0000000E0200000E0400000E0600000E0800000E0A00000E0C00000E0E00040000000400020004000400040006000400080004000A0004000C0004000E00040200000402020004020400040206000402080004020A0004020C0004020E000404000004040200040404000404060004040800040
310
40A0004040C0004040E00040600000406020004060400040606000406080004060A0004060C0004060E00040800000408020004080400040806000408080004080A0004080C0004080E00040A0000040A0200040A0400040A0600040A0800040A0A00040A0C00040A0E00040C0000040C0200040C0400040C0600040C08000
310
40C0A00040C0C00040C0E00040E0000040E0200040E0400040E0600040E0800040E0A00040E0C00040E0E00080000000800020008000400080006000800080008000A0008000C0008000E00080200000802020008020400080206000802080008020A0008020C0008020E00080400000804020008040400080406000804080
310
008040A0008040C0008040E00080600000806020008060400080606000806080008060A0008060C0008060E00080800000808020008080400080806000808080008080A0008080C0008080E00080A0000080A0200080A0400080A0600080A0800080A0A00080A0C00080A0E00080C0000080C0200080C0400080C0600080C0
310
800080C0A00080C0C00080C0E00080E0000080E0200080E0400080E0600080E0800080E0A00080E0C00080E0E000C0000000C0002000C0004000C0006000C0008000C000A000C000C000C000E000C0200000C0202000C0204000C0206000C0208000C020A000C020C000C020E000C0400000C0402000C0404000C0406000C0
310
408000C040A000C040C000C040E000C0600000C0602000C0604000C0606000C0608000C060A000C060C000C060E000C0800000C0802000C0804000C0806000C0808000C080A000C080C000C080E000C0A00000C0A02000C0A04000C0A06000C0A08000C0A0A000C0A0C000C0A0E000C0C00000C0C02000C0C04000C0C06000
310
C0C08000C0C0A000F0FBFF00A4A0A000808080000000FF0000FF000000FFFF00FF000000FF00FF00FFFF0000FFFFFF00000000000000000000000000000000000000000000000000000000000000000000000000000000FBFBFBFBFBFBFBFBFBFBFBFBFBFBFBFBFB000000000000000000000000000000FB00FBFBFBFBFBFB
310
FBFBFBFBFBFBFBFBFB0000000000000000000000000000FBFB00FB000000000000000000000000FBFB00000000000000000000000000FBFBFBFBFBFB0000000000000000000000FBFB000000000000000000000000000000000000FBFB00000000000000000000FBFB00000000000000000000000000000000000000FBFB00
310
0000000000000000FBFB0000000000000000000000000000000000000000FBFB0000000000000000FBFB000000000000000000000000000000000000000000FBFB00000000000000FBFB00000000000000000000000000000000000000000000FBFB000000000000FBFB000000000000000000000000000000000000000000
310
0000FBFB0000000000FBFB000000000000000000000000000000000000000000000000FBFB00000000FBFB00000000000000000000000000000000000000000000000000FBFB000000FBFB0000000000000000000000000000FBFBFBFB0000000000000000FBFB0000FBFB00000000000000000000000000FBFBFBFBFBFB00
310
00000000000000FBFB00FBFB00000000000000000000000000FBFB000000FBFB0000000000000000FBFBFBFB0000000000000000000000000000FB00000000FBFBFBFBFBFBFBFBFBFBFBFBFB0000000000000000000000000000FB0000000000FBFBFBFBFBFBFBFBFBFB00FB00000000000000000000000000000000000000
310
0000000000FBFB00A4FBFBA4A4000000000000000000000000000000000000000000000000FBFBA400A4A4A4A400000000000000000000000000000000000000000000000000A4A4A4A4A40000A400000000000000000000000000000000000000000000000000A4A4A4A40000A40000000000000000000000000000000000
310
0000FFFFFFFFFFFFFFFFFFFFFFFFFFFFFF0000000000000000000000000000000000A4A4A4A4A4A4A4A4A4A4A4A4A4A4A40000000000000000000000000000000000FF00000000000000000000000000000000000000000000000000000000000000A4A4A4A4A4A4A4A4A4A4A4A4A4A4A40000000000000000000000000000
310
000000FFFFFFFFFFFFFFFFFFFFFFFFFFFFFF00000000000000000000000000000000000000A4A4A4A4A4A4A4A4A400A4A4000000000000000000000000000000000000000000000000A400A4A4A400A4000000000000000000000000000000000000000000000000A4A4A4A400A4A400000000000000000000000000000000
310
0000000000000000000000000000000000000000000000000000000000000000000000000000000000000000000000000000000000000000
102
{BLKREFS
331
3E6C
331
3E70
331
3E71
331
3E73
331
5120
331
5124
331
5187
331
518A
331
518E
331
5191
331
5192
102
}
1001
ACAD
1000
DesignCenter Data
1002
{
1070
     1
1070
     4
1002
}
  0
BLOCK_RECORD
  5
429A
330
1
100
AcDbSymbolTableRecord
100
AcDbBlockTableRecord
  2
08644
340
0
102
{BLKREFS
331
4F0C
102
}
  0
BLOCK_RECORD
  5
4ACE
330
1
100
AcDbSymbolTableRecord
100
AcDbBlockTableRecord
  2
08641
340
0
102
{BLKREFS
331
4F0E
102
}
  0
BLOCK_RECORD
  5
5128
330
1
100
AcDbSymbolTableRecord
100
AcDbBlockTableRecord
  2
08620
340
0
102
{BLKREFS
331
512D
102
}
  0
BLOCK_RECORD
  5
51C1
330
1
100
AcDbSymbolTableRecord
100
AcDbBlockTableRecord
  2
vantage a4 SM border
340
0
102
{BLKREFS
331
51C5
102
}
  0
BLOCK_RECORD
  5
583F
102
{ACAD_XDICTIONARY
360
5849
102
}
330
1
100
AcDbSymbolTableRecord
100
AcDbBlockTableRecord
  2
vantage a4 SM attributes (4)
340
0
102
{BLKREFS
331
584C
102
}
1001
ACAD
1000
DesignCenter Data
1002
{
1070
     1
1070
     4
1002
}
  0
BLOCK_RECORD
  5
5A13
102
{ACAD_XDICTIONARY
360
5A14
102
}
330
1
100
AcDbSymbolTableRecord
100
AcDbBlockTableRecord
  2
vantage black & white logo
340
0
310
2800000020000000200000000100080000000000000400000000000000000000000000000000000000000000000080000080000000808000800000008000800080800000C0C0C000C0DCC000F0CAA6000020400000206000002080000020A0000020C0000020E00000400000004020000040400000406000004080000040A0
310
000040C0000040E00000600000006020000060400000606000006080000060A0000060C0000060E00000800000008020000080400000806000008080000080A0000080C0000080E00000A0000000A0200000A0400000A0600000A0800000A0A00000A0C00000A0E00000C0000000C0200000C0400000C0600000C0800000C0
310
A00000C0C00000C0E00000E0000000E0200000E0400000E0600000E0800000E0A00000E0C00000E0E00040000000400020004000400040006000400080004000A0004000C0004000E00040200000402020004020400040206000402080004020A0004020C0004020E000404000004040200040404000404060004040800040
310
40A0004040C0004040E00040600000406020004060400040606000406080004060A0004060C0004060E00040800000408020004080400040806000408080004080A0004080C0004080E00040A0000040A0200040A0400040A0600040A0800040A0A00040A0C00040A0E00040C0000040C0200040C0400040C0600040C08000
310
40C0A00040C0C00040C0E00040E0000040E0200040E0400040E0600040E0800040E0A00040E0C00040E0E00080000000800020008000400080006000800080008000A0008000C0008000E00080200000802020008020400080206000802080008020A0008020C0008020E00080400000804020008040400080406000804080
310
008040A0008040C0008040E00080600000806020008060400080606000806080008060A0008060C0008060E00080800000808020008080400080806000808080008080A0008080C0008080E00080A0000080A0200080A0400080A0600080A0800080A0A00080A0C00080A0E00080C0000080C0200080C0400080C0600080C0
310
800080C0A00080C0C00080C0E00080E0000080E0200080E0400080E0600080E0800080E0A00080E0C00080E0E000C0000000C0002000C0004000C0006000C0008000C000A000C000C000C000E000C0200000C0202000C0204000C0206000C0208000C020A000C020C000C020E000C0400000C0402000C0404000C0406000C0
310
408000C040A000C040C000C040E000C0600000C0602000C0604000C0606000C0608000C060A000C060C000C060E000C0800000C0802000C0804000C0806000C0808000C080A000C080C000C080E000C0A00000C0A02000C0A04000C0A06000C0A08000C0A0A000C0A0C000C0A0E000C0C00000C0C02000C0C04000C0C06000
310
C0C08000C0C0A000F0FBFF00A4A0A000808080000000FF0000FF000000FFFF00FF000000FF00FF00FFFF0000FFFFFF0000000000000000000000000000000000000000000000000000000000000000000000000000000000000000000000000000000000000000000000000000000000000000000000000000000000000000
310
0000000000000000000000000000000000000000000000000000000000000000A4A40000000000000000000000000000000000000000000000000000000000A400000700000000000000000000000000000000000000000000000000000000A4000707000000000000000000000000000000000000000000000000000000A4
310
00A4A407070000000000000000000000000000000000000000000000000000A400A400A40700000000000000000000000000000000000000000000000000A400A4A400A407070000000000000000000000000000000000000000000000A40700A4000000A4070000000000000000000000000000000000000000000000A400
310
A4A4000000A40707000000000000000000000000000000000000000000A400A4A4000000A4A4A400070000000000000000000000000000000000000000A400A400000000A400A4070700000000000000000000000000000000000000A400A4A4000000A4A40000A40007000000000000000000000000000000000000A400A4
310
A4A4A4A4A4A4A4A4A407070000000000000000000000000000000000A400A4A4A4A4A4A4A4A4A4A4A4A40007000000000000000000000000000000A40000A4A4A4A4A4A4A4A4A4A4A4A40700070000000000000000000000000000A400A4A400A4A4A4A4A4A4A4A4A4A4A4070700000000000000000000000000A400A4A4A4
310
A4A4A4A4A4A4A4A4A4A4A4A4070007000000000000000000000000A400A4A4A4A4A4A4A4A4A4A4A4A4A4A4A4A407070000000000000000000000A400A4A400A4A4A4A4A4A4A4A4A4A4A4A4A4A4070007000000000000000000A40700A4A400A4A4A4A4A4A4A4A4A4A4A4A4A400A40707000000000000000000A400A4A4A4A4
310
A4A4A4A4A4A4A4A4A4A4A4A4A4A4A407000700000000000000A400A4A4A4A4A4A4A4A4A4A4A4A4A4A4A4A4A4A4A4A4A4070007000000000000A400A4A4A4A4A4A4A4A4A4A4A4A4A4A4A4A4A4A4A4A4A40700070000000000A400A4A400A4A4A4A4A4A4A4A4A4A4A4A4A4A4A4A4A4A4A40007000700000000A400A4A4A400A4
310
A4A4A4A4A4A4A4A4A4A4A4A4A4A4A4A4A4000700070000000700A4A4A4A4A4A4A4A4A4A4A4A4A4A4A4A4A4A4A4A4A4A4A4A4A40700070000A407A4A4A4A4A4A4A4A4A4A4A4A4A4A4A4A4A4A4A4A4A4A4A4A4A4A407A40000000000000000000000000000000000000000000000000000000000000000000000000000000000
310
0000000000000000000000000000000000000000000000000000000000000000000000000000000000000000000000000000000000000000
102
{BLKREFS
331
5A11
102
}
1001
AcDbDynamicBlockGUID
1000
{7D04BC3F-8AE2-40EA-A482-CE6E620AF154}
1001
AcDbBlockRepETag
1070
     1
1071
      907
1001
ACAD
1000
DesignCenter Data
1002
{
1070
     1
1070
     4
1002
}
  0
ENDTAB
  0
ENDSEC
  0
SECTION
  2
BLOCKS
  0
BLOCK
  5
20
330
1F
100
AcDbEntity
  8
0
100
AcDbBlockBegin
  2
*Model_Space
 70
     0
 10
0.0
 20
0.0
 30
0.0
  3
*Model_Space
  1

  0
ENDBLK
  5
21
330
1F
100
AcDbEntity
  8
0
100
AcDbBlockEnd
  0
BLOCK
  5
51B8
330
51B6
100
AcDbEntity
 67
     1
  8
0
100
AcDbBlockBegin
  2
*Paper_Space
 70
     0
 10
0.0
 20
0.0
 30
0.0
  3
*Paper_Space
  1

  0
ENDBLK
  5
51B9
330
51B6
100
AcDbEntity
 67
     1
  8
0
100
AcDbBlockEnd
  0
BLOCK
  5
37B6
330
37B5
100
AcDbEntity
  8
0
100
AcDbBlockBegin
  2
08617
 70
     0
 10
0.0
 20
0.0
 30
0.0
  3
08617
  1
08617.dwg
  0
LWPOLYLINE
  5
59E0
102
{ACAD_REACTORS
330
59E1
102
}
330
37B5
100
AcDbEntity
  8
APL Joinery
100
AcDbPolyline
 90
       91
 70
     1
 43
0.0
 10
-11.46774193405835
 20
-12.64810044223394
 42
0.1997758394636821
 10
-8.844827663234163
 20
-11.65454545454537
 42
1.00000000000008
 10
-10.08025511627856
 20
-10.34545454545452
 42
-2.318729304408836
 10
-10.08025511627841
 20
-7.654545454545394
 42
1.000000000000039
 10
-8.844827663234129
 20
-6.345454545454583
 42
0.1997758394636939
 10
-11.46774193405849
 20
-5.351899557765339
 42
-0.4236952541556507
 10
-12.49999999857462
 20
-4.352419984550522
 10
-12.49999999857462
 20
-2.799999999999954
 42
-0.4142135623730951
 10
-11.49999999857462
 20
-1.799999999999954
 10
8.800000000000011
 20
-1.799999999999954
 42
0.4142135623729286
 10
9.0
 20
-1.599999999999965
 10
9.0
 20
-0.2000000000000455
 42
0.4142135623730118
 10
8.799999999999954
 20
0.0
 10
-36.79999999857458
 20
0.0
 42
0.4142135623730951
 10
-36.99999999857457
 20
-0.1999999999999886
 10
-36.99999999857463
 20
-2.099999999999988
 42
0.4142135623730202
 10
-36.79999999857463
 20
-2.299999999999954
 10
-34.99999999857462
 20
-2.299999999999954
 10
-34.99999999857462
 20
-3.5
 42
0.4142135623730951
 10
-34.49999999857463
 20
-4.0
 10
-32.94999999857467
 20
-4.0
 42
0.9999999999999998
 10
-32.94999999857467
 20
-3.0
 10
-33.69999999857467
 20
-3.0
 10
-33.69999999857467
 20
-1.5
 10
-28.19999999857467
 20
-1.5
 10
-28.19999999857467
 20
-3.0
 10
-28.94999999857467
 20
-3.0
 42
0.9999999999999998
 10
-28.94999999857467
 20
-4.0
 10
-27.39999999857472
 20
-4.0
 42
0.4142135623730951
 10
-26.89999999857472
 20
-3.5
 10
-26.89999999857472
 20
-1.799999999999954
 10
-21.49999999857462
 20
-1.799999999999897
 10
-21.49999999857468
 20
-3.5
 42
0.9999999999999998
 10
-20.49999999857468
 20
-3.5
 10
-20.49999999857462
 20
-1.799999999999954
 10
-16.49999999857462
 20
-1.799999999999954
 10
-16.49999999857462
 20
-3.799999999999954
 42
0.4142135623730118
 10
-16.29999999857463
 20
-4.0
 10
-14.99999999857462
 20
-4.0
 10
-14.99999999857462
 20
-21.99999999999989
 42
0.9999999999999998
 10
-13.99999999857439
 20
-21.99999999999989
 10
-13.99999999857439
 20
-19.49999999999988
 42
-0.4142135623730951
 10
-13.49999999857439
 20
-18.99999999999988
 10
-11.69999999857444
 20
-18.99999999999988
 42
-0.4142135623730951
 10
-11.19999999857444
 20
-19.49999999999988
 10
-11.19999999857444
 20
-25.59999999999992
 42
0.4142135623729953
 10
-10.99999999857445
 20
-25.79999999999996
 10
-10.49999999857462
 20
-25.79999999999996
 10
-10.49999999857462
 20
-38.5
 10
-13.49999999857462
 20
-38.5
 10
-13.49999999857462
 20
-37.75000000000003
 42
0.4744978678081015
 10
-13.79999999857462
 20
-37.50505102572177
 42
0.3563939586925954
 10
-14.99999999857462
 20
-38.97474487139163
 10
-14.99999999857462
 20
-39.75
 42
0.4142135623730951
 10
-14.74999999857462
 20
-40.0
 10
-1.499999999287439
 20
-40.0
 10
-1.499999999287439
 20
-69.5
 42
-0.4142135623730951
 10
-1.999999999287439
 20
-70.0
 10
-3.499999999287439
 20
-70.0
 42
0.4142135623730951
 10
-3.999999999287439
 20
-70.5
 10
-3.999999999287439
 20
-84.50000000000001
 42
0.4142135623730951
 10
-3.499999999287439
 20
-85.0
 10
3.50000000071256
 20
-85.0
 42
0.4142135623730951
 10
4.00000000071256
 20
-84.50000000000001
 10
4.00000000071256
 20
-70.5
 42
0.4142135623730951
 10
3.50000000071256
 20
-70.0
 10
2.00000000071256
 20
-70.0
 42
-0.4142135623730951
 10
1.50000000071256
 20
-69.5
 10
1.50000000071256
 20
-40.0
 10
8.800000000000011
 20
-40.0
 42
0.4142135623730118
 10
8.999999999999886
 20
-39.80000000000001
 10
9.0
 20
-38.39999999999992
 42
0.4142135623730118
 10
8.799999999999954
 20
-38.19999999999988
 10
-6.999999998574622
 20
-38.19999999999993
 42
-0.4142135623730951
 10
-7.999999998574622
 20
-37.19999999999993
 10
-7.999999998574622
 20
-35.64758001544885
 42
-0.4236952541556592
 10
-6.96774193405844
 20
-34.64810044223423
 42
0.1997758394636939
 10
-4.344827663234366
 20
-33.65454545454531
 42
1.00000000000004
 10
-5.580255116278576
 20
-32.34545454545452
 42
-2.318729304408836
 10
-5.580255116278418
 20
-29.65454545454535
 42
0.9999999999999996
 10
-4.344827663234161
 20
-28.34545454545446
 42
0.1997758394636878
 10
-6.967741934058438
 20
-27.3518995577658
 42
-0.4236952541556675
 10
-7.999999998574622
 20
-26.35241998455098
 10
-7.999999998574566
 20
-23.49999999999994
 42
0.4142135623730951
 10
-8.199999998574554
 20
-23.29999999999996
 10
-8.69999999857444
 20
-23.29999999999996
 10
-8.69999999857444
 20
-18.99999999999988
 42
0.4142135623730951
 10
-11.19999999857444
 20
-16.49999999999988
 10
-11.49999999857462
 20
-16.49999999999988
 42
-0.4142135623730951
 10
-12.49999999857462
 20
-15.49999999999988
 10
-12.49999999857462
 20
-13.64758001544845
 42
-0.4236952541557015
  0
HATCH
  5
59E1
330
37B5
100
AcDbEntity
  8
APL Hatch
100
AcDbHatch
 10
0.0
 20
0.0
 30
0.0
210
0.0
220
0.0
230
1.0
  2
SOLID
 70
     1
 71
     1
 91
        1
 92
        1
 93
       91
 72
     2
 10
-11.349999998574
 20
-8.999999999999756
 40
3.650000000000118
 50
268.1514283547639
 51
313.3417582272206
 73
     1
 72
     2
 10
-9.462541389756308
 20
-10.9999999999999
 40
0.9000000000000108
 50
313.3417582272211
 51
493.3417582272304
 73
     1
 72
     2
 10
-11.34999999857403
 20
-8.999999999999889
 40
1.850000000000023
 50
46.65824177278094
 51
313.3417582272254
 73
     0
 72
     2
 10
-9.462541389756244
 20
-7.000000000000014
 40
0.8999999999999563
 50
226.6582417727737
 51
406.6582417727782
 73
     1
 72
     2
 10
-11.34999999857479
 20
-8.999999999999872
 40
3.650000000000444
 50
46.65824177276642
 51
91.84857164522572
 73
     1
 72
     2
 10
-11.49999999857462
 20
-4.352419984550522
 40
0.9999999999999996
 50
88.15142835477159
 51
180.0
 73
     0
 72
     1
 10
-12.49999999857462
 20
-4.352419984550522
 11
-12.49999999857462
 21
-2.799999999999954
 72
     2
 10
-11.49999999857462
 20
-2.799999999999954
 40
1.0
 50
180.0
 51
270.0
 73
     0
 72
     1
 10
-11.49999999857462
 20
-1.799999999999954
 11
8.800000000000011
 21
-1.799999999999954
 72
     2
 10
8.799999999999954
 20
-1.599999999999909
 40
0.2000000000000455
 50
270.0000000000163
 51
359.9999999999837
 73
     1
 72
     1
 10
9.0
 20
-1.599999999999965
 11
9.0
 21
-0.2000000000000455
 72
     2
 10
8.799999999999926
 20
-0.2000000000000739
 40
0.2000000000000739
 50
0.0000000000081422
 51
89.99999999999186
 73
     1
 72
     1
 10
8.799999999999954
 20
0.0
 11
-36.79999999857458
 21
0.0
 72
     2
 10
-36.79999999857458
 20
-0.1999999999999886
 40
0.1999999999999886
 50
90.0
 51
180.0
 73
     1
 72
     1
 10
-36.99999999857457
 20
-0.1999999999999886
 11
-36.99999999857463
 21
-2.099999999999988
 72
     2
 10
-36.79999999857462
 20
-2.099999999999951
 40
0.2000000000000028
 50
180.0000000000105
 51
269.9999999999959
 73
     1
 72
     1
 10
-36.79999999857463
 20
-2.299999999999954
 11
-34.99999999857462
 21
-2.299999999999954
 72
     1
 10
-34.99999999857462
 20
-2.299999999999954
 11
-34.99999999857462
 21
-3.5
 72
     2
 10
-34.49999999857463
 20
-3.5
 40
0.5
 50
180.0
 51
270.0
 73
     1
 72
     1
 10
-34.49999999857463
 20
-4.0
 11
-32.94999999857467
 21
-4.0
 72
     2
 10
-32.94999999857467
 20
-3.5
 40
0.5
 50
270.0
 51
450.0
 73
     1
 72
     1
 10
-32.94999999857467
 20
-3.0
 11
-33.69999999857467
 21
-3.0
 72
     1
 10
-33.69999999857467
 20
-3.0
 11
-33.69999999857467
 21
-1.5
 72
     1
 10
-33.69999999857467
 20
-1.5
 11
-28.19999999857467
 21
-1.5
 72
     1
 10
-28.19999999857467
 20
-1.5
 11
-28.19999999857467
 21
-3.0
 72
     1
 10
-28.19999999857467
 20
-3.0
 11
-28.94999999857467
 21
-3.0
 72
     2
 10
-28.94999999857467
 20
-3.5
 40
0.5
 50
90.0
 51
270.0
 73
     1
 72
     1
 10
-28.94999999857467
 20
-4.0
 11
-27.39999999857472
 21
-4.0
 72
     2
 10
-27.39999999857472
 20
-3.5
 40
0.5
 50
270.0
 51
360.0
 73
     1
 72
     1
 10
-26.89999999857472
 20
-3.5
 11
-26.89999999857472
 21
-1.799999999999954
 72
     1
 10
-26.89999999857472
 20
-1.799999999999954
 11
-21.49999999857462
 21
-1.799999999999897
 72
     1
 10
-21.49999999857462
 20
-1.799999999999897
 11
-21.49999999857468
 21
-3.5
 72
     2
 10
-20.99999999857468
 20
-3.5
 40
0.5
 50
180.0
 51
360.0
 73
     1
 72
     1
 10
-20.49999999857468
 20
-3.5
 11
-20.49999999857462
 21
-1.799999999999954
 72
     1
 10
-20.49999999857462
 20
-1.799999999999954
 11
-16.49999999857462
 21
-1.799999999999954
 72
     1
 10
-16.49999999857462
 20
-1.799999999999954
 11
-16.49999999857462
 21
-3.799999999999954
 72
     2
 10
-16.29999999857458
 20
-3.799999999999954
 40
0.2000000000000455
 50
180.0
 51
269.9999999999838
 73
     1
 72
     1
 10
-16.29999999857463
 20
-4.0
 11
-14.99999999857462
 21
-4.0
 72
     1
 10
-14.99999999857462
 20
-4.0
 11
-14.99999999857462
 21
-21.99999999999989
 72
     2
 10
-14.49999999857451
 20
-21.99999999999989
 40
0.5000000000001137
 50
180.0
 51
360.0
 73
     1
 72
     1
 10
-13.99999999857439
 20
-21.99999999999989
 11
-13.99999999857439
 21
-19.49999999999988
 72
     2
 10
-13.49999999857439
 20
-19.49999999999988
 40
0.5
 50
180.0
 51
270.0
 73
     0
 72
     1
 10
-13.49999999857439
 20
-18.99999999999988
 11
-11.69999999857444
 21
-18.99999999999988
 72
     2
 10
-11.69999999857444
 20
-19.49999999999988
 40
0.5
 50
270.0
 51
360.0
 73
     0
 72
     1
 10
-11.19999999857444
 20
-19.49999999999988
 11
-11.19999999857444
 21
-25.59999999999992
 72
     2
 10
-10.99999999857439
 20
-25.59999999999991
 40
0.2000000000000455
 50
180.000000000003
 51
269.9999999999838
 73
     1
 72
     1
 10
-10.99999999857445
 20
-25.79999999999996
 11
-10.49999999857462
 21
-25.79999999999996
 72
     1
 10
-10.49999999857462
 20
-25.79999999999996
 11
-10.49999999857462
 21
-38.5
 72
     1
 10
-10.49999999857462
 20
-38.5
 11
-13.49999999857462
 21
-38.5
 72
     1
 10
-13.49999999857462
 20
-38.5
 11
-13.49999999857462
 21
-37.75000000000003
 72
     2
 10
-13.74999999857459
 20
-37.75000000000005
 40
0.2499999999999716
 50
0.0000000000048853
 51
101.5369590328241
 73
     1
 72
     2
 10
-13.49999999857463
 20
-38.97474487139167
 40
1.499999999999986
 50
101.5369590328152
 51
179.9999999999989
 73
     1
 72
     1
 10
-14.99999999857462
 20
-38.97474487139163
 11
-14.99999999857462
 21
-39.75
 72
     2
 10
-14.74999999857462
 20
-39.75
 40
0.25
 50
180.0
 51
270.0
 73
     1
 72
     1
 10
-14.74999999857462
 20
-40.0
 11
-1.499999999287439
 21
-40.0
 72
     1
 10
-1.499999999287439
 20
-40.0
 11
-1.499999999287439
 21
-69.5
 72
     2
 10
-1.999999999287439
 20
-69.5
 40
0.5
 50
360.0
 51
450.0
 73
     0
 72
     1
 10
-1.999999999287439
 20
-70.0
 11
-3.499999999287439
 21
-70.0
 72
     2
 10
-3.499999999287439
 20
-70.5
 40
0.5
 50
90.0
 51
180.0
 73
     1
 72
     1
 10
-3.999999999287439
 20
-70.5
 11
-3.999999999287439
 21
-84.50000000000001
 72
     2
 10
-3.499999999287439
 20
-84.50000000000001
 40
0.5
 50
180.0
 51
270.0
 73
     1
 72
     1
 10
-3.499999999287439
 20
-85.0
 11
3.50000000071256
 21
-85.0
 72
     2
 10
3.50000000071256
 20
-84.50000000000001
 40
0.5
 50
270.0
 51
360.0
 73
     1
 72
     1
 10
4.00000000071256
 20
-84.50000000000001
 11
4.00000000071256
 21
-70.5
 72
     2
 10
3.50000000071256
 20
-70.5
 40
0.5
 50
0.0
 51
90.0
 73
     1
 72
     1
 10
3.50000000071256
 20
-70.0
 11
2.00000000071256
 21
-70.0
 72
     2
 10
2.00000000071256
 20
-69.5
 40
0.5
 50
90.0
 51
180.0
 73
     0
 72
     1
 10
1.50000000071256
 20
-69.5
 11
1.50000000071256
 21
-40.0
 72
     1
 10
1.50000000071256
 20
-40.0
 11
8.800000000000011
 21
-40.0
 72
     2
 10
8.799999999999926
 20
-39.80000000000004
 40
0.1999999999999602
 50
270.0000000000244
 51
360.0000000000081
 73
     1
 72
     1
 10
8.999999999999886
 20
-39.80000000000001
 11
9.0
 21
-38.39999999999992
 72
     2
 10
8.799999999999926
 20
-38.39999999999995
 40
0.2000000000000739
 50
0.0000000000081422
 51
89.99999999999186
 73
     1
 72
     1
 10
8.799999999999954
 20
-38.19999999999988
 11
-6.999999998574622
 21
-38.19999999999993
 72
     2
 10
-6.999999998574622
 20
-37.19999999999993
 40
1.0
 50
90.0
 51
180.0
 73
     0
 72
     1
 10
-7.999999998574622
 20
-37.19999999999993
 11
-7.999999998574622
 21
-35.64758001544885
 72
     2
 10
-6.999999998574701
 20
-35.64758001544896
 40
0.9999999999999218
 50
180.0000000000061
 51
271.8485716452363
 73
     0
 72
     2
 10
-6.849999998574482
 20
-31.00000000000021
 40
3.649999999999937
 50
268.15142835477
 51
313.3417582272293
 73
     1
 72
     2
 10
-4.962541389756444
 20
-32.99999999999989
 40
0.8999999999999296
 50
313.3417582272201
 51
493.341758227225
 73
     1
 72
     2
 10
-6.849999998574063
 20
-30.99999999999986
 40
1.850000000000048
 50
46.65824177278109
 51
313.3417582272256
 73
     0
 72
     2
 10
-4.962541389756289
 20
-28.9999999999999
 40
0.8999999999999774
 50
226.6582417727783
 51
406.6582417727781
 73
     1
 72
     2
 10
-6.849999998574123
 20
-31.00000000000004
 40
3.650000000000173
 50
46.65824177277754
 51
91.84857164523545
 73
     1
 72
     2
 10
-6.999999998574621
 20
-26.35241998455098
 40
1.000000000000001
 50
88.15142835476834
 51
180.0
 73
     0
 72
     1
 10
-7.999999998574622
 20
-26.35241998455098
 11
-7.999999998574566
 21
-23.49999999999994
 72
     2
 10
-8.199999998574554
 20
-23.49999999999994
 40
0.1999999999999886
 50
0.0
 51
90.0
 73
     1
 72
     1
 10
-8.199999998574554
 20
-23.29999999999996
 11
-8.69999999857444
 21
-23.29999999999996
 72
     1
 10
-8.69999999857444
 20
-23.29999999999996
 11
-8.69999999857444
 21
-18.99999999999988
 72
     2
 10
-11.19999999857444
 20
-18.99999999999988
 40
2.5
 50
0.0
 51
90.0
 73
     1
 72
     1
 10
-11.19999999857444
 20
-16.49999999999988
 11
-11.49999999857462
 21
-16.49999999999988
 72
     2
 10
-11.49999999857462
 20
-15.49999999999988
 40
1.0
 50
90.0
 51
180.0
 73
     0
 72
     1
 10
-12.49999999857462
 20
-15.49999999999988
 11
-12.49999999857462
 21
-13.64758001544845
 72
     2
 10
-11.49999999857478
 20
-13.64758001544859
 40
0.9999999999998401
 50
180.0000000000077
 51
271.848571645246
 73
     0
 97
        1
330
59E0
 75
     0
 76
     1
 98
        1
 10
0.0
 20
0.0
  0
ENDBLK
  5
37B7
330
37B5
100
AcDbEntity
  8
0
100
AcDbBlockEnd
  0
BLOCK
  5
37BC
330
37BB
100
AcDbEntity
  8
0
100
AcDbBlockBegin
  2
08619
 70
     0
 10
269.2369959788214
 20
363.7342406913705
 30
0.0
  3
08619
  1
08619.dwg
  0
LWPOLYLINE
  5
59E4
102
{ACAD_REACTORS
330
59E5
102
}
330
37BB
100
AcDbEntity
  8
APL Joinery
  6
Continuous
100
AcDbPolyline
 90
       93
 70
     0
 43
0.0
 10
270.7369959802411
 20
337.9342406913707
 10
271.2369959802409
 20
337.9342406913707
 42
0.4142135623729119
 10
271.4369959802409
 20
338.1342406913706
 10
271.436995980241
 20
344.2342406913707
 42
-0.4142135623730951
 10
271.9369959802409
 20
344.7342406913707
 10
273.7369959802409
 20
344.7342406913707
 42
-0.4142135623730951
 10
274.2369959802409
 20
344.2342406913707
 10
274.2369959802409
 20
341.7342406913707
 42
0.9999999999999998
 10
275.2369959802408
 20
341.7342406913707
 10
275.2369959788213
 20
359.7342406913706
 10
276.5369959788213
 20
359.7342406913705
 42
0.4142135623730118
 10
276.7369959788214
 20
359.9342406913705
 10
276.7369959788212
 20
361.9342406913705
 10
280.7369959786477
 20
361.9342406913705
 10
280.7369959787818
 20
360.2342406913312
 42
0.9999999999999998
 10
281.7369959787818
 20
360.2342406914099
 10
281.7369959786477
 20
361.93424069141
 10
287.1369959788213
 20
361.9342406913705
 10
287.1369959788213
 20
359.9342406913705
 42
0.4142135623730118
 10
287.3369959788214
 20
359.7342406913705
 10
289.1869959788213
 20
359.7342406913706
 42
0.9999999999999998
 10
289.1869959788213
 20
360.7342406913706
 10
288.4369959788213
 20
360.7342406913706
 10
288.4369959788213
 20
362.2342406913706
 10
293.9369959788213
 20
362.2342406913706
 10
293.9369959788213
 20
360.7342406913706
 10
293.1869959788213
 20
360.7342406913706
 42
0.9999999999999998
 10
293.1869959788213
 20
359.7342406913706
 10
295.0369959788213
 20
359.7342406913706
 42
0.4142135623730951
 10
295.2369959788214
 20
359.9342406913706
 10
295.2369959788212
 20
361.4342406913705
 10
297.0369959788213
 20
361.4342406913705
 42
0.4142135623728453
 10
297.2369959788212
 20
361.6342406913705
 10
297.2369959788212
 20
363.5342406913705
 42
0.4142135623729286
 10
297.0369959788213
 20
363.7342406913706
 10
269.4369959788214
 20
363.7342406913705
 42
0.4142135623729951
 10
269.2369959788214
 20
363.5342406913705
 10
269.2369959788213
 20
361.8342406913705
 10
263.4369959788215
 20
361.8342406913706
 42
0.4142135623730784
 10
263.2369959788213
 20
361.6342406913706
 10
263.2369959788213
 20
360.9342406913705
 10
257.9786367667464
 20
360.9342406913705
 42
1.992575121424595
 10
256.6369959802465
 20
359.1342406913706
 10
265.8369959788213
 20
359.1342406913704
 42
0.4142135623730118
 10
266.0369959788213
 20
359.3342406913704
 10
266.0369959788213
 20
360.0342406913704
 10
269.2369959788213
 20
360.0342406913705
 42
0.3638940890724613
 10
271.0095658027544
 20
361.5211972131096
 42
-0.3638940890724934
 10
271.5019463094026
 20
361.9342406913705
 10
272.9369959788213
 20
361.9342406913706
 42
-0.4142135623731284
 10
273.4369959788213
 20
361.4342406913705
 10
273.4369959788214
 20
358.6585240654404
 42
-0.5149445451952425
 10
272.7743453764093
 20
358.1857188396489
 42
0.2788550286926601
 10
269.0818236434791
 20
357.3887861459159
 42
0.9999999999999998
 10
270.3172510965234
 20
356.079695236825
 42
-2.318729304408903
 10
270.3172510965235
 20
353.388786145916
 42
1.00000000000008
 10
269.0818236434793
 20
352.0796952368251
 42
0.2788550286926612
 10
272.7743453764094
 20
351.2827625430924
 42
-0.514944545195257
 10
273.4369959788192
 20
350.8099573173009
 10
273.4369959788213
 20
347.5342406913713
 42
-0.4142135623732949
 10
272.4369959788213
 20
346.5342406913706
 10
271.9369959802408
 20
346.5342406913706
 42
0.4142135623730951
 10
269.6369959802407
 20
344.2342406913706
 10
269.6369959802408
 20
339.7342406913707
 10
269.1369959788214
 20
339.7342406913707
 42
0.4142135623730784
 10
268.9369959788214
 20
339.5342406913707
 10
268.9369959788214
 20
336.6585240654402
 42
-0.5149445451952245
 10
268.2743453764095
 20
336.1857188396486
 42
0.2788550286926612
 10
264.5818236434792
 20
335.3887861459161
 42
0.9999999999999998
 10
265.8172510965234
 20
334.0796952368251
 42
-2.318729304408903
 10
265.8172510965236
 20
331.388786145916
 42
0.9999999999999998
 10
264.5818236434794
 20
330.0796952368252
 42
0.1022503208073605
 10
265.8392886896446
 20
329.3041202094427
 42
-0.8391823839415021
 10
265.6683698829084
 20
328.3342406913704
 10
256.6369959802465
 20
328.3342406913705
 42
1.992575121424595
 10
257.9786367667464
 20
326.5342406913705
 10
263.2369959788213
 20
326.5342406913705
 10
263.2369959788213
 20
325.8342406913706
 42
0.4142135623730118
 10
263.4369959788213
 20
325.6342406913706
 10
269.2369959788213
 20
325.6342406913705
 10
269.2369959788213
 20
323.9342406913706
 42
0.4142135623728453
 10
269.4369959788212
 20
323.7342406913706
 10
274.9869959788213
 20
323.7342406913706
 42
0.4142135623730951
 10
275.2369959788213
 20
323.9842406913706
 10
275.2369959788213
 20
324.759495819979
 42
0.356393958692619
 10
274.0369959788211
 20
326.2291896656488
 42
0.4744978678080937
 10
273.7369959788213
 20
325.9842406913706
 10
273.7369959788213
 20
325.2342406913706
 10
271.0369959788213
 20
325.2342406913706
 10
271.0369959788213
 20
327.3292281284772
 42
0.4142135623730118
 10
270.8369959788213
 20
327.5292281284771
 10
270.7369959788213
 20
327.5292281284771
 10
270.7369959788213
 20
337.9342406913707
  0
HATCH
  5
59E5
330
37BB
100
AcDbEntity
  8
APL Hatch
100
AcDbHatch
 10
0.0
 20
0.0
 30
0.0
210
0.0
220
0.0
230
1.0
  2
SOLID
 70
     1
 71
     1
 91
        1
 92
        1
 93
       92
 72
     1
 10
270.7369959802411
 20
337.9342406913707
 11
271.2369959802409
 21
337.9342406913707
 72
     2
 10
271.2369959802408
 20
338.1342406913707
 40
0.2000000000000455
 50
270.0000000000163
 51
359.9999999999675
 73
     1
 72
     1
 10
271.4369959802409
 20
338.1342406913706
 11
271.436995980241
 21
344.2342406913707
 72
     2
 10
271.9369959802409
 20
344.2342406913707
 40
0.4999999999999432
 50
180.0
 51
270.0
 73
     0
 72
     1
 10
271.9369959802409
 20
344.7342406913707
 11
273.7369959802409
 21
344.7342406913707
 72
     2
 10
273.7369959802409
 20
344.2342406913707
 40
0.5
 50
270.0000000000065
 51
360.0
 73
     0
 72
     1
 10
274.2369959802409
 20
344.2342406913707
 11
274.2369959802409
 21
341.7342406913707
 72
     2
 10
274.7369959802409
 20
341.7342406913707
 40
0.4999999999999432
 50
180.0
 51
360.0
 73
     1
 72
     1
 10
275.2369959802408
 20
341.7342406913707
 11
275.2369959788213
 21
359.7342406913706
 72
     1
 10
275.2369959788213
 20
359.7342406913706
 11
276.5369959788213
 21
359.7342406913705
 72
     2
 10
276.5369959788213
 20
359.9342406913706
 40
0.2000000000000455
 50
270.0
 51
359.9999999999837
 73
     1
 72
     1
 10
276.7369959788214
 20
359.9342406913705
 11
276.7369959788212
 21
361.9342406913705
 72
     1
 10
276.7369959788212
 20
361.9342406913705
 11
280.7369959786477
 21
361.9342406913705
 72
     1
 10
280.7369959786477
 20
361.9342406913705
 11
280.7369959787818
 21
360.2342406913312
 72
     2
 10
281.2369959787818
 20
360.2342406913705
 40
0.5000000000000569
 50
180.000000004514
 51
360.000000004514
 73
     1
 72
     1
 10
281.7369959787818
 20
360.2342406914099
 11
281.7369959786477
 21
361.93424069141
 72
     1
 10
281.7369959786477
 20
361.93424069141
 11
287.1369959788213
 21
361.9342406913705
 72
     1
 10
287.1369959788213
 20
361.9342406913705
 11
287.1369959788213
 21
359.9342406913705
 72
     2
 10
287.3369959788214
 20
359.9342406913706
 40
0.2000000000000455
 50
180.0000000000163
 51
270.0
 73
     1
 72
     1
 10
287.3369959788214
 20
359.7342406913705
 11
289.1869959788213
 21
359.7342406913706
 72
     2
 10
289.1869959788213
 20
360.2342406913706
 40
0.5
 50
270.0
 51
450.0
 73
     1
 72
     1
 10
289.1869959788213
 20
360.7342406913706
 11
288.4369959788213
 21
360.7342406913706
 72
     1
 10
288.4369959788213
 20
360.7342406913706
 11
288.4369959788213
 21
362.2342406913706
 72
     1
 10
288.4369959788213
 20
362.2342406913706
 11
293.9369959788213
 21
362.2342406913706
 72
     1
 10
293.9369959788213
 20
362.2342406913706
 11
293.9369959788213
 21
360.7342406913706
 72
     1
 10
293.9369959788213
 20
360.7342406913706
 11
293.1869959788213
 21
360.7342406913706
 72
     2
 10
293.1869959788213
 20
360.2342406913706
 40
0.5
 50
90.0
 51
270.0
 73
     1
 72
     1
 10
293.1869959788213
 20
359.7342406913706
 11
295.0369959788213
 21
359.7342406913706
 72
     2
 10
295.0369959788213
 20
359.9342406913706
 40
0.2000000000000455
 50
270.0
 51
360.0
 73
     1
 72
     1
 10
295.2369959788214
 20
359.9342406913706
 11
295.2369959788212
 21
361.4342406913705
 72
     1
 10
295.2369959788212
 20
361.4342406913705
 11
297.0369959788213
 21
361.4342406913705
 72
     2
 10
297.0369959788212
 20
361.6342406913706
 40
0.2000000000000455
 50
270.0000000000326
 51
359.9999999999837
 73
     1
 72
     1
 10
297.2369959788212
 20
361.6342406913705
 11
297.2369959788212
 21
363.5342406913705
 72
     2
 10
297.0369959788212
 20
363.5342406913705
 40
0.2000000000000455
 50
0.0
 51
89.99999999996743
 73
     1
 72
     1
 10
297.0369959788213
 20
363.7342406913706
 11
269.4369959788214
 21
363.7342406913705
 72
     2
 10
269.4369959788214
 20
363.5342406913705
 40
0.1999999999999886
 50
90.00000000001628
 51
180.0
 73
     1
 72
     1
 10
269.2369959788214
 20
363.5342406913705
 11
269.2369959788213
 21
361.8342406913705
 72
     1
 10
269.2369959788213
 20
361.8342406913705
 11
263.4369959788215
 21
361.8342406913706
 72
     2
 10
263.4369959788214
 20
361.6342406913706
 40
0.1999999999999886
 50
89.99999999996743
 51
179.9999999999837
 73
     1
 72
     1
 10
263.2369959788213
 20
361.6342406913706
 11
263.2369959788213
 21
360.9342406913705
 72
     1
 10
263.2369959788213
 20
360.9342406913705
 11
257.9786367667464
 21
360.9342406913705
 72
     2
 10
256.6369959802465
 20
360.5342406913706
 40
1.399999999999972
 50
16.6015495990196
 51
270.0
 73
     1
 72
     1
 10
256.6369959802465
 20
359.1342406913706
 11
265.8369959788213
 21
359.1342406913704
 72
     2
 10
265.8369959788213
 20
359.3342406913705
 40
0.2000000000000455
 50
270.0
 51
359.9999999999837
 73
     1
 72
     1
 10
266.0369959788213
 20
359.3342406913704
 11
266.0369959788213
 21
360.0342406913704
 72
     1
 10
266.0369959788213
 20
360.0342406913704
 11
269.2369959788213
 21
360.0342406913705
 72
     2
 10
269.2369959788212
 20
361.8342406913705
 40
1.800000000000011
 50
270.0000000000018
 51
349.9845898317501
 73
     1
 72
     2
 10
271.5019463094025
 20
361.4342406913705
 40
0.4999999999999964
 50
190.0154101682502
 51
270.000000000013
 73
     0
 72
     1
 10
271.5019463094026
 20
361.9342406913705
 11
272.9369959788213
 21
361.9342406913706
 72
     2
 10
272.9369959788213
 20
361.4342406913706
 40
0.5
 50
270.0
 51
360.0000000000065
 73
     0
 72
     1
 10
273.4369959788213
 20
361.4342406913705
 11
273.4369959788214
 21
358.6585240654404
 72
     2
 10
272.9369959788201
 20
358.6585240654413
 40
0.5000000000011938
 50
0.0000000001042204
 51
108.9838243851391
 73
     0
 72
     2
 10
271.5869959788192
 20
354.7342406913705
 40
3.650000000000129
 50
71.01617561496412
 51
133.3417582272261
 73
     1
 72
     2
 10
269.6995373700013
 20
356.7342406913705
 40
0.8999999999999699
 50
133.3417582272281
 51
313.341758227223
 73
     1
 72
     2
 10
271.5869959788191
 20
354.7342406913706
 40
1.850000000000008
 50
226.6582417727734
 51
493.3417582272204
 73
     0
 72
     2
 10
269.6995373700013
 20
352.7342406913706
 40
0.8999999999999699
 50
46.65824177277187
 51
226.6582417727846
 73
     1
 72
     2
 10
271.586995978819
 20
354.7342406913705
 40
3.649999999999919
 50
226.6582417727784
 51
288.9838243850407
 73
     1
 72
     2
 10
272.9369959788191
 20
350.8099573173008
 40
0.5000000000000561
 50
251.0161756149461
 51
359.999999999987
 73
     0
 72
     1
 10
273.4369959788192
 20
350.8099573173009
 11
273.4369959788213
 21
347.5342406913713
 72
     2
 10
272.4369959788213
 20
347.5342406913707
 40
1.0
 50
359.9999999999609
 51
450.0
 73
     0
 72
     1
 10
272.4369959788213
 20
346.5342406913706
 11
271.9369959802408
 21
346.5342406913706
 72
     2
 10
271.9369959802408
 20
344.2342406913706
 40
2.300000000000068
 50
90.0
 51
180.0
 73
     1
 72
     1
 10
269.6369959802407
 20
344.2342406913706
 11
269.6369959802408
 21
339.7342406913707
 72
     1
 10
269.6369959802408
 20
339.7342406913707
 11
269.1369959788214
 21
339.7342406913707
 72
     2
 10
269.1369959788215
 20
339.5342406913707
 40
0.2000000000000455
 50
90.00000000001628
 51
180.0
 73
     1
 72
     1
 10
268.9369959788214
 20
339.5342406913707
 11
268.9369959788214
 21
336.6585240654402
 72
     2
 10
268.4369959788203
 20
336.658524065441
 40
0.5000000000011369
 50
0.0000000000911929
 51
108.9838243851268
 73
     0
 72
     2
 10
267.086995978819
 20
332.7342406913704
 40
3.650000000000097
 50
71.01617561495736
 51
133.3417582272198
 73
     1
 72
     2
 10
265.1995373700013
 20
334.7342406913706
 40
0.8999999999999745
 50
133.3417582272179
 51
313.3417582272205
 73
     1
 72
     2
 10
267.0869959788191
 20
332.7342406913706
 40
1.850000000000008
 50
226.6582417727734
 51
493.3417582272191
 73
     0
 72
     2
 10
265.1995373700015
 20
330.7342406913706
 40
0.8999999999999332
 50
46.65824177277961
 51
226.658241772777
 73
     1
 72
     2
 10
267.0869959788192
 20
332.7342406913699
 40
3.649999999999501
 50
226.6582417727697
 51
250.0111289802507
 73
     1
 72
     2
 10
265.6683698829082
 20
328.8342406913705
 40
0.4999999999999883
 50
289.9888710197698
 51
449.9999999999804
 73
     0
 72
     1
 10
265.6683698829084
 20
328.3342406913704
 11
256.6369959802465
 21
328.3342406913705
 72
     2
 10
256.6369959802465
 20
326.9342406913705
 40
1.399999999999977
 50
90.0
 51
343.3984504009804
 73
     1
 72
     1
 10
257.9786367667464
 20
326.5342406913705
 11
263.2369959788213
 21
326.5342406913705
 72
     1
 10
263.2369959788213
 20
326.5342406913705
 11
263.2369959788213
 21
325.8342406913706
 72
     2
 10
263.4369959788213
 20
325.8342406913707
 40
0.2000000000000455
 50
180.0000000000163
 51
270.0
 73
     1
 72
     1
 10
263.4369959788213
 20
325.6342406913706
 11
269.2369959788213
 21
325.6342406913705
 72
     1
 10
269.2369959788213
 20
325.6342406913705
 11
269.2369959788213
 21
323.9342406913706
 72
     2
 10
269.4369959788213
 20
323.9342406913706
 40
0.2000000000000455
 50
180.0000000000163
 51
269.9999999999674
 73
     1
 72
     1
 10
269.4369959788212
 20
323.7342406913706
 11
274.9869959788213
 21
323.7342406913706
 72
     2
 10
274.9869959788213
 20
323.9842406913706
 40
0.25
 50
270.0
 51
360.0
 73
     1
 72
     1
 10
275.2369959788213
 20
323.9842406913706
 11
275.2369959788213
 21
324.759495819979
 72
     2
 10
273.7369959788213
 20
324.759495819979
 40
1.499999999999943
 50
0.0
 51
78.46304096719037
 73
     1
 72
     2
 10
273.9869959788212
 20
325.9842406913706
 40
0.2499999999999332
 50
78.46304096719203
 51
180.0
 73
     1
 72
     1
 10
273.7369959788213
 20
325.9842406913706
 11
273.7369959788213
 21
325.2342406913706
 72
     1
 10
273.7369959788213
 20
325.2342406913706
 11
271.0369959788213
 21
325.2342406913706
 72
     1
 10
271.0369959788213
 20
325.2342406913706
 11
271.0369959788213
 21
327.3292281284772
 72
     2
 10
270.8369959788213
 20
327.3292281284771
 40
0.2000000000000455
 50
0.0000000000162844
 51
90.0
 73
     1
 72
     1
 10
270.8369959788213
 20
327.5292281284771
 11
270.7369959788213
 21
327.5292281284771
 72
     1
 10
270.7369959788213
 20
327.5292281284771
 11
270.7369959788213
 21
337.9342406913707
 97
        1
330
59E4
 75
     0
 76
     1
 98
        1
 10
0.0
 20
0.0
  0
ENDBLK
  5
37BD
330
37BB
100
AcDbEntity
  8
0
100
AcDbBlockEnd
  0
BLOCK
  5
37CC
330
37CB
100
AcDbEntity
  8
0
100
AcDbBlockBegin
  2
08610
 70
     0
 10
-218.1257071360606
 20
546.5893156119824
 30
0.0
  3
08610
  1
08610.dwg
  0
LWPOLYLINE
  5
59E7
102
{ACAD_REACTORS
330
59E9
102
}
330
37CB
100
AcDbEntity
  8
APL Joinery
  6
Continuous
100
AcDbPolyline
 90
       84
 70
     1
 43
0.0
 10
-229.3257071353478
 20
520.9893156119826
 42
0.4142135623731284
 10
-229.1257071353478
 20
520.7893156119824
 10
-228.625707135348
 20
520.7893156119824
 10
-228.625707135348
 20
508.0893156119825
 10
-231.625707135348
 20
508.0893156119825
 10
-231.625707135348
 20
508.8393156119825
 42
0.4744978678081102
 10
-231.9257071353479
 20
509.0842645862609
 42
0.3563939586926193
 10
-233.125707135348
 20
507.614570740591
 10
-233.125707135348
 20
506.8393156119824
 42
0.4142135623730951
 10
-232.875707135348
 20
506.5893156119825
 10
-203.3757071367733
 20
506.5893156119825
 42
0.4142135623730951
 10
-203.1257071367733
 20
506.8393156119824
 10
-203.1257071367733
 20
507.6145707405909
 42
0.3563939586926193
 10
-204.3257071367733
 20
509.0842645862609
 42
0.4744978678081613
 10
-204.6257071367733
 20
508.8393156119825
 10
-204.6257071367733
 20
508.0893156119825
 10
-207.6257071367733
 20
508.0893156119825
 10
-207.6257071367733
 20
520.7893156119824
 10
-207.1257071367734
 20
520.7893156119824
 42
0.4142135623730617
 10
-206.9257071367735
 20
520.9893156119825
 10
-206.9257071367734
 20
527.0893156119826
 42
-0.4142135623730784
 10
-206.4257071367735
 20
527.5893156119827
 10
-204.6257071367735
 20
527.5893156119827
 42
-0.4142135623730951
 10
-204.1257071367736
 20
527.0893156119826
 10
-204.1257071367736
 20
524.5893156119826
 42
0.9999999999999998
 10
-203.1257071367733
 20
524.5893156119826
 10
-203.1257071367733
 20
542.5893156119824
 10
-201.8257071367732
 20
542.5893156119824
 42
0.4142135623730951
 10
-201.6257071367732
 20
542.7893156119824
 10
-201.6257071367733
 20
544.7893156119825
 10
-197.6257071367733
 20
544.7893156119825
 10
-197.6257071367733
 20
543.0893156119825
 42
0.9999999999999998
 10
-196.6257071367733
 20
543.0893156119825
 10
-196.6257071367733
 20
544.7893156119825
 10
-191.2257071367732
 20
544.7893156119825
 10
-191.2257071367732
 20
543.0893156119824
 42
0.4142135623731117
 10
-190.7257071367731
 20
542.5893156119824
 10
-189.1757071367732
 20
542.5893156119824
 42
1.000000000000028
 10
-189.1757071367732
 20
543.5893156119824
 10
-189.9257071367733
 20
543.5893156119824
 10
-189.9257071367733
 20
545.0893156119824
 10
-184.4257071367732
 20
545.0893156119824
 10
-184.4257071367732
 20
543.5893156119824
 10
-185.1757071367732
 20
543.5893156119824
 42
0.9999999999999714
 10
-185.1757071367732
 20
542.5893156119824
 10
-183.6257071367733
 20
542.5893156119824
 42
0.4142135623731117
 10
-183.1257071367732
 20
543.0893156119824
 10
-183.1257071367733
 20
544.2893156119825
 10
-181.3257071367733
 20
544.2893156119825
 42
0.4142135623730951
 10
-181.1257071367732
 20
544.4893156119825
 10
-181.1257071367732
 20
546.3893156119825
 42
0.4142135623729619
 10
-181.3257071367732
 20
546.5893156119824
 10
-254.9257071353479
 20
546.5893156119824
 42
0.4142135623731284
 10
-255.1257071353479
 20
546.3893156119825
 10
-255.125707135348
 20
544.4893156119825
 42
0.4142135623730951
 10
-254.9257071353479
 20
544.2893156119825
 10
-253.1257071353479
 20
544.2893156119825
 10
-253.1257071353479
 20
543.0893156119824
 42
0.4142135623730951
 10
-252.6257071353479
 20
542.5893156119824
 10
-251.0757071353479
 20
542.5893156119824
 42
1.000000000000028
 10
-251.0757071353479
 20
543.5893156119824
 10
-251.8257071353478
 20
543.5893156119824
 10
-251.8257071353478
 20
545.0893156119824
 10
-246.3257071353478
 20
545.0893156119824
 10
-246.3257071353478
 20
543.5893156119824
 10
-247.0757071353478
 20
543.5893156119824
 42
0.9999999999999714
 10
-247.0757071353478
 20
542.5893156119824
 10
-245.5257071353479
 20
542.5893156119824
 42
0.4142135623731117
 10
-245.0257071353479
 20
543.0893156119824
 10
-245.0257071353479
 20
544.7893156119825
 10
-239.625707135348
 20
544.7893156119825
 10
-239.625707135348
 20
543.0893156119825
 42
0.9999999999999998
 10
-238.625707135348
 20
543.0893156119825
 10
-238.625707135348
 20
544.7893156119825
 10
-234.6257071353479
 20
544.7893156119825
 10
-234.6257071353479
 20
542.7893156119826
 42
0.4142135623732116
 10
-234.425707135348
 20
542.5893156119825
 10
-233.125707135348
 20
542.5893156119824
 10
-233.1257071353478
 20
524.5893156119826
 42
0.9999999999999998
 10
-232.1257071353478
 20
524.5893156119826
 10
-232.1257071353477
 20
527.0893156119826
 42
-0.4142135623730784
 10
-231.6257071353478
 20
527.5893156119827
 10
-229.8257071353478
 20
527.5893156119827
 42
-0.4142135623730951
 10
-229.3257071353478
 20
527.0893156119826
  0
LWPOLYLINE
  5
59E8
102
{ACAD_REACTORS
330
59E9
102
}
330
37CB
100
AcDbEntity
  8
APL Joinery
  6
Continuous
100
AcDbPolyline
 90
       50
 70
     1
 43
0.0
 10
-230.6630565329381
 20
534.1378374637043
 42
0.5149445451952721
 10
-231.3257071353479
 20
533.6650322379127
 10
-231.3257071353479
 20
530.3893156119824
 42
0.4142135623730951
 10
-230.3257071353479
 20
529.3893156119824
 10
-229.8257071353478
 20
529.3893156119825
 42
-0.4142135623730951
 10
-227.5257071353478
 20
527.0893156119826
 10
-227.5257071353478
 20
522.5893156119826
 10
-227.025707135348
 20
522.5893156119826
 42
-0.4142135623731284
 10
-226.8257071353481
 20
522.3893156119827
 10
-226.8257071353481
 20
519.5135989860522
 10
-226.8257071353481
 20
511.6650322379127
 10
-226.8257071353481
 20
509.3893156119825
 42
0.4142135623730951
 10
-225.8257071353481
 20
508.3893156119824
 10
-221.250747589241
 20
508.3893156119824
 42
0.7526299251214308
 10
-220.0672082618841
 20
512.4985109629587
 42
-0.4727331324044782
 10
-220.780252590606
 20
518.0944879473223
 42
-0.9999999999999996
 10
-219.4711616815152
 20
516.8590604942779
 42
2.318729304408841
 10
-216.7802525906061
 20
516.8590604942779
 42
-0.9999999999999596
 10
-215.4711616815152
 20
518.0944879473222
 42
-0.472733132404478
 10
-216.1842060102371
 20
512.4985109629587
 42
0.7526299251214308
 10
-215.0006666828803
 20
508.3893156119824
 10
-210.4257071367733
 20
508.3893156119824
 42
0.4142135623730951
 10
-209.4257071367733
 20
509.3893156119825
 10
-209.4257071367733
 20
511.6650322379127
 10
-209.4257071367733
 20
519.5135989860522
 10
-209.4257071367733
 20
522.3893156119828
 42
-0.4142135623730617
 10
-209.2257071367732
 20
522.5893156119826
 10
-208.7257071367736
 20
522.5893156119826
 10
-208.7257071367735
 20
527.0893156119826
 42
-0.4142135623730951
 10
-206.4257071367734
 20
529.3893156119827
 10
-205.9257071367733
 20
529.3893156119824
 42
0.4142135623731117
 10
-204.9257071367732
 20
530.3893156119824
 10
-204.9257071367732
 20
533.6650322379126
 42
0.5149445451951604
 10
-205.5883577391829
 20
534.1378374637042
 42
-0.2788550286926635
 10
-209.2808794721131
 20
534.9347701574371
 42
-0.9999999999999802
 10
-208.0454520190688
 20
536.2438610665278
 42
2.318729304408965
 10
-208.0454520190688
 20
538.934770157437
 42
-0.9999999999999596
 10
-209.2808794721132
 20
540.2438610665278
 42
-0.2788550286926635
 10
-205.588357739183
 20
541.0407937602607
 42
0.5149445451952551
 10
-204.9257071367733
 20
541.5135989860522
 10
-204.9257071367732
 20
543.7893156119825
 42
0.4142135623730951
 10
-205.9257071367732
 20
544.7893156119825
 10
-230.3257071353479
 20
544.7893156119825
 42
0.4142135623731117
 10
-231.3257071353479
 20
543.7893156119825
 10
-231.3257071353479
 20
541.5135989860523
 42
0.5149445451951964
 10
-230.6630565329383
 20
541.0407937602608
 42
-0.2788550286926634
 10
-226.9705348000079
 20
540.2438610665278
 42
-0.9999999999999998
 10
-228.2059622530523
 20
538.934770157437
 42
2.318729304408964
 10
-228.2059622530523
 20
536.243861066528
 42
-1.0
 10
-226.970534800008
 20
534.934770157437
 42
-0.2788550286926529
  0
HATCH
  5
59E9
330
37CB
100
AcDbEntity
  8
APL Hatch
100
AcDbHatch
 10
0.0
 20
0.0
 30
0.0
210
0.0
220
0.0
230
1.0
  2
SOLID
 70
     1
 71
     1
 91
        2
 92
       16
 93
       50
 72
     2
 10
-230.8257071353478
 20
533.6650322379127
 40
0.5000000000000822
 50
71.01617561495747
 51
180.0
 73
     1
 72
     1
 10
-231.3257071353479
 20
533.6650322379127
 11
-231.3257071353479
 21
530.3893156119824
 72
     2
 10
-230.3257071353479
 20
530.3893156119824
 40
1.0
 50
180.0
 51
270.0
 73
     1
 72
     1
 10
-230.3257071353479
 20
529.3893156119824
 11
-229.8257071353478
 21
529.3893156119825
 72
     2
 10
-229.8257071353477
 20
527.0893156119825
 40
2.299999999999954
 50
269.9999999999978
 51
359.9999999999972
 73
     0
 72
     1
 10
-227.5257071353478
 20
527.0893156119826
 11
-227.5257071353478
 21
522.5893156119826
 72
     1
 10
-227.5257071353478
 20
522.5893156119826
 11
-227.025707135348
 21
522.5893156119826
 72
     2
 10
-227.025707135348
 20
522.3893156119827
 40
0.1999999999999318
 50
269.9999999999919
 51
360.0
 73
     0
 72
     1
 10
-226.8257071353481
 20
522.3893156119827
 11
-226.8257071353481
 21
519.5135989860522
 72
     1
 10
-226.8257071353481
 20
519.5135989860522
 11
-226.8257071353481
 21
511.6650322379127
 72
     1
 10
-226.8257071353481
 20
511.6650322379127
 11
-226.8257071353481
 21
509.3893156119825
 72
     2
 10
-225.8257071353481
 20
509.3893156119825
 40
1.0
 50
180.0
 51
270.0
 73
     1
 72
     1
 10
-225.8257071353481
 20
508.3893156119824
 11
-221.250747589241
 21
508.3893156119824
 72
     2
 10
-221.2507475892409
 20
510.6143560651628
 40
2.225040453180383
 50
269.9999999999985
 51
417.8648539187561
 73
     1
 72
     2
 10
-218.1257071360606
 20
515.5893156119825
 40
3.650000000000112
 50
122.1351460812417
 51
223.3417582272217
 73
     0
 72
     2
 10
-220.1257071360606
 20
517.4767742208001
 40
0.9000000000000319
 50
223.3417582272244
 51
403.3417582272244
 73
     0
 72
     2
 10
-218.1257071360606
 20
515.5893156119824
 40
1.849999999999992
 50
136.6582417727778
 51
403.3417582272222
 73
     1
 72
     2
 10
-216.1257071360606
 20
517.4767742208
 40
0.8999999999999745
 50
136.6582417727821
 51
316.6582417727731
 73
     0
 72
     2
 10
-218.1257071360606
 20
515.5893156119823
 40
3.650000000000036
 50
316.6582417727764
 51
417.8648539187562
 73
     0
 72
     2
 10
-215.0006666828803
 20
510.6143560651627
 40
2.225040453180323
 50
122.1351460812424
 51
270.0
 73
     1
 72
     1
 10
-215.0006666828803
 20
508.3893156119824
 11
-210.4257071367733
 21
508.3893156119824
 72
     2
 10
-210.4257071367733
 20
509.3893156119825
 40
1.0
 50
270.0
 51
360.0
 73
     1
 72
     1
 10
-209.4257071367733
 20
509.3893156119825
 11
-209.4257071367733
 21
511.6650322379127
 72
     1
 10
-209.4257071367733
 20
511.6650322379127
 11
-209.4257071367733
 21
519.5135989860522
 72
     1
 10
-209.4257071367733
 20
519.5135989860522
 11
-209.4257071367733
 21
522.3893156119828
 72
     2
 10
-209.2257071367733
 20
522.3893156119827
 40
0.1999999999999318
 50
180.0000000000325
 51
270.0000000000326
 73
     0
 72
     1
 10
-209.2257071367732
 20
522.5893156119826
 11
-208.7257071367736
 21
522.5893156119826
 72
     1
 10
-208.7257071367736
 20
522.5893156119826
 11
-208.7257071367735
 21
527.0893156119826
 72
     2
 10
-206.4257071367734
 20
527.0893156119826
 40
2.300000000000068
 50
180.0
 51
270.0
 73
     0
 72
     1
 10
-206.4257071367734
 20
529.3893156119827
 11
-205.9257071367733
 21
529.3893156119824
 72
     2
 10
-205.9257071367732
 20
530.3893156119824
 40
1.0
 50
269.9999999999968
 51
360.0
 73
     1
 72
     1
 10
-204.9257071367732
 20
530.3893156119824
 11
-204.9257071367732
 21
533.6650322379126
 72
     2
 10
-205.4257071367733
 20
533.6650322379125
 40
0.5000000000001137
 50
0.0000000000130276
 51
108.983824385029
 73
     1
 72
     2
 10
-206.7757071367732
 20
537.5893156119825
 40
3.650000000000067
 50
71.01617561496144
 51
133.3417582272236
 73
     0
 72
     2
 10
-208.663165745591
 20
535.5893156119825
 40
0.8999999999999722
 50
133.341758227223
 51
313.341758227228
 73
     0
 72
     2
 10
-206.7757071367732
 20
537.5893156119824
 40
1.850000000000111
 50
226.6582417727752
 51
493.3417582272247
 73
     1
 72
     2
 10
-208.663165745591
 20
539.5893156119824
 40
0.8999999999999722
 50
46.65824177277697
 51
226.658241772773
 73
     0
 72
     2
 10
-206.7757071367732
 20
537.5893156119825
 40
3.649999999999973
 50
226.6582417727748
 51
288.9838243850391
 73
     0
 72
     2
 10
-205.4257071367733
 20
541.5135989860522
 40
0.4999999999999654
 50
251.0161756149563
 51
360.0
 73
     1
 72
     1
 10
-204.9257071367733
 20
541.5135989860522
 11
-204.9257071367732
 21
543.7893156119825
 72
     2
 10
-205.9257071367732
 20
543.7893156119825
 40
1.0
 50
0.0
 51
90.0
 73
     1
 72
     1
 10
-205.9257071367732
 20
544.7893156119825
 11
-230.3257071353479
 21
544.7893156119825
 72
     2
 10
-230.3257071353479
 20
543.7893156119825
 40
1.0
 50
89.99999999999674
 51
180.0
 73
     1
 72
     1
 10
-231.3257071353479
 20
543.7893156119825
 11
-231.3257071353479
 21
541.5135989860523
 72
     2
 10
-230.8257071353479
 20
541.5135989860523
 40
0.5000000000000285
 50
180.0
 51
288.9838243850406
 73
     1
 72
     2
 10
-229.475707135348
 20
537.5893156119824
 40
3.650000000000166
 50
251.0161756149625
 51
313.3417582272256
 73
     0
 72
     2
 10
-227.5882485265301
 20
539.5893156119824
 40
0.9000000000000309
 50
313.3417582272269
 51
493.3417582272269
 73
     0
 72
     2
 10
-229.475707135348
 20
537.5893156119825
 40
1.849999999999989
 50
46.65824177277404
 51
313.3417582272242
 73
     1
 72
     2
 10
-227.5882485265301
 20
535.5893156119825
 40
0.8999999999999918
 50
226.6582417727757
 51
406.6582417727819
 73
     0
 72
     2
 10
-229.4757071353477
 20
537.5893156119825
 40
3.650000000000002
 50
46.65824177277956
 51
108.9838243850404
 73
     0
 97
        1
330
59E8
 92
        1
 93
       84
 72
     2
 10
-229.1257071353477
 20
520.9893156119825
 40
0.2000000000000739
 50
179.9999999999674
 51
269.9999999999755
 73
     1
 72
     1
 10
-229.1257071353478
 20
520.7893156119824
 11
-228.625707135348
 21
520.7893156119824
 72
     1
 10
-228.625707135348
 20
520.7893156119824
 11
-228.625707135348
 21
508.0893156119825
 72
     1
 10
-228.625707135348
 20
508.0893156119825
 11
-231.625707135348
 21
508.0893156119825
 72
     1
 10
-231.625707135348
 20
508.0893156119825
 11
-231.625707135348
 21
508.8393156119825
 72
     2
 10
-231.875707135348
 20
508.8393156119826
 40
0.2500000000000284
 50
359.999999999974
 51
461.5369590327963
 73
     1
 72
     2
 10
-231.625707135348
 20
507.614570740591
 40
1.500000000000034
 50
101.5369590328134
 51
180.0000000000021
 73
     1
 72
     1
 10
-233.125707135348
 20
507.614570740591
 11
-233.125707135348
 21
506.8393156119824
 72
     2
 10
-232.875707135348
 20
506.8393156119824
 40
0.25
 50
180.0
 51
270.0
 73
     1
 72
     1
 10
-232.875707135348
 20
506.5893156119825
 11
-203.3757071367733
 21
506.5893156119825
 72
     2
 10
-203.3757071367733
 20
506.8393156119824
 40
0.25
 50
270.0
 51
360.0
 73
     1
 72
     1
 10
-203.1257071367733
 20
506.8393156119824
 11
-203.1257071367733
 21
507.6145707405909
 72
     2
 10
-204.6257071367733
 20
507.614570740591
 40
1.500000000000028
 50
359.9999999999957
 51
438.4630409671833
 73
     1
 72
     2
 10
-204.3757071367732
 20
508.8393156119826
 40
0.2500000000000446
 50
78.46304096719724
 51
180.000000000026
 73
     1
 72
     1
 10
-204.6257071367733
 20
508.8393156119825
 11
-204.6257071367733
 21
508.0893156119825
 72
     1
 10
-204.6257071367733
 20
508.0893156119825
 11
-207.6257071367733
 21
508.0893156119825
 72
     1
 10
-207.6257071367733
 20
508.0893156119825
 11
-207.6257071367733
 21
520.7893156119824
 72
     1
 10
-207.6257071367733
 20
520.7893156119824
 11
-207.1257071367734
 21
520.7893156119824
 72
     2
 10
-207.1257071367735
 20
520.9893156119824
 40
0.1999999999999318
 50
270.0000000000081
 51
360.0000000000326
 73
     1
 72
     1
 10
-206.9257071367735
 20
520.9893156119825
 11
-206.9257071367734
 21
527.0893156119826
 72
     2
 10
-206.4257071367734
 20
527.0893156119826
 40
0.5
 50
180.0
 51
269.9999999999935
 73
     0
 72
     1
 10
-206.4257071367735
 20
527.5893156119827
 11
-204.6257071367735
 21
527.5893156119827
 72
     2
 10
-204.6257071367735
 20
527.0893156119828
 40
0.4999999999998864
 50
270.0000000000033
 51
360.000000000013
 73
     0
 72
     1
 10
-204.1257071367736
 20
527.0893156119826
 11
-204.1257071367736
 21
524.5893156119826
 72
     2
 10
-203.6257071367734
 20
524.5893156119826
 40
0.5000000000001137
 50
180.0
 51
360.0
 73
     1
 72
     1
 10
-203.1257071367733
 20
524.5893156119826
 11
-203.1257071367733
 21
542.5893156119824
 72
     1
 10
-203.1257071367733
 20
542.5893156119824
 11
-201.8257071367732
 21
542.5893156119824
 72
     2
 10
-201.8257071367732
 20
542.7893156119824
 40
0.2000000000000455
 50
270.0
 51
360.0
 73
     1
 72
     1
 10
-201.6257071367732
 20
542.7893156119824
 11
-201.6257071367733
 21
544.7893156119825
 72
     1
 10
-201.6257071367733
 20
544.7893156119825
 11
-197.6257071367733
 21
544.7893156119825
 72
     1
 10
-197.6257071367733
 20
544.7893156119825
 11
-197.6257071367733
 21
543.0893156119825
 72
     2
 10
-197.1257071367733
 20
543.0893156119825
 40
0.5
 50
180.0
 51
360.0
 73
     1
 72
     1
 10
-196.6257071367733
 20
543.0893156119825
 11
-196.6257071367733
 21
544.7893156119825
 72
     1
 10
-196.6257071367733
 20
544.7893156119825
 11
-191.2257071367732
 21
544.7893156119825
 72
     1
 10
-191.2257071367732
 20
544.7893156119825
 11
-191.2257071367732
 21
543.0893156119824
 72
     2
 10
-190.7257071367732
 20
543.0893156119824
 40
0.5
 50
180.0
 51
270.0000000000065
 73
     1
 72
     1
 10
-190.7257071367731
 20
542.5893156119824
 11
-189.1757071367732
 21
542.5893156119824
 72
     2
 10
-189.1757071367732
 20
543.0893156119824
 40
0.5
 50
269.9999999999968
 51
450.0
 73
     1
 72
     1
 10
-189.1757071367732
 20
543.5893156119824
 11
-189.9257071367733
 21
543.5893156119824
 72
     1
 10
-189.9257071367733
 20
543.5893156119824
 11
-189.9257071367733
 21
545.0893156119824
 72
     1
 10
-189.9257071367733
 20
545.0893156119824
 11
-184.4257071367732
 21
545.0893156119824
 72
     1
 10
-184.4257071367732
 20
545.0893156119824
 11
-184.4257071367732
 21
543.5893156119824
 72
     1
 10
-184.4257071367732
 20
543.5893156119824
 11
-185.1757071367732
 21
543.5893156119824
 72
     2
 10
-185.1757071367732
 20
543.0893156119824
 40
0.5
 50
90.00000000000651
 51
269.9999999999968
 73
     1
 72
     1
 10
-185.1757071367732
 20
542.5893156119824
 11
-183.6257071367733
 21
542.5893156119824
 72
     2
 10
-183.6257071367732
 20
543.0893156119824
 40
0.5
 50
269.9999999999968
 51
360.0
 73
     1
 72
     1
 10
-183.1257071367732
 20
543.0893156119824
 11
-183.1257071367733
 21
544.2893156119825
 72
     1
 10
-183.1257071367733
 20
544.2893156119825
 11
-181.3257071367733
 21
544.2893156119825
 72
     2
 10
-181.3257071367733
 20
544.4893156119825
 40
0.2000000000000455
 50
270.0
 51
360.0
 73
     1
 72
     1
 10
-181.1257071367732
 20
544.4893156119825
 11
-181.1257071367732
 21
546.3893156119825
 72
     2
 10
-181.3257071367732
 20
546.3893156119825
 40
0.200000000000017
 50
0.0
 51
89.99999999999186
 73
     1
 72
     1
 10
-181.3257071367732
 20
546.5893156119824
 11
-254.9257071353479
 21
546.5893156119824
 72
     2
 10
-254.925707135348
 20
546.3893156119825
 40
0.1999999999999318
 50
89.99999999999186
 51
180.0
 73
     1
 72
     1
 10
-255.1257071353479
 20
546.3893156119825
 11
-255.125707135348
 21
544.4893156119825
 72
     2
 10
-254.9257071353479
 20
544.4893156119825
 40
0.2000000000000455
 50
180.0
 51
270.0
 73
     1
 72
     1
 10
-254.9257071353479
 20
544.2893156119825
 11
-253.1257071353479
 21
544.2893156119825
 72
     1
 10
-253.1257071353479
 20
544.2893156119825
 11
-253.1257071353479
 21
543.0893156119824
 72
     2
 10
-252.6257071353479
 20
543.0893156119824
 40
0.5
 50
180.0
 51
270.0
 73
     1
 72
     1
 10
-252.6257071353479
 20
542.5893156119824
 11
-251.0757071353479
 21
542.5893156119824
 72
     2
 10
-251.0757071353479
 20
543.0893156119824
 40
0.5
 50
269.9999999999968
 51
450.0
 73
     1
 72
     1
 10
-251.0757071353479
 20
543.5893156119824
 11
-251.8257071353478
 21
543.5893156119824
 72
     1
 10
-251.8257071353478
 20
543.5893156119824
 11
-251.8257071353478
 21
545.0893156119824
 72
     1
 10
-251.8257071353478
 20
545.0893156119824
 11
-246.3257071353478
 21
545.0893156119824
 72
     1
 10
-246.3257071353478
 20
545.0893156119824
 11
-246.3257071353478
 21
543.5893156119824
 72
     1
 10
-246.3257071353478
 20
543.5893156119824
 11
-247.0757071353478
 21
543.5893156119824
 72
     2
 10
-247.0757071353478
 20
543.0893156119824
 40
0.5
 50
90.00000000000651
 51
269.9999999999968
 73
     1
 72
     1
 10
-247.0757071353478
 20
542.5893156119824
 11
-245.5257071353479
 21
542.5893156119824
 72
     2
 10
-245.5257071353479
 20
543.0893156119824
 40
0.5
 50
269.9999999999968
 51
360.0
 73
     1
 72
     1
 10
-245.0257071353479
 20
543.0893156119824
 11
-245.0257071353479
 21
544.7893156119825
 72
     1
 10
-245.0257071353479
 20
544.7893156119825
 11
-239.625707135348
 21
544.7893156119825
 72
     1
 10
-239.625707135348
 20
544.7893156119825
 11
-239.625707135348
 21
543.0893156119825
 72
     2
 10
-239.1257071353479
 20
543.0893156119825
 40
0.5
 50
180.0
 51
360.0
 73
     1
 72
     1
 10
-238.625707135348
 20
543.0893156119825
 11
-238.625707135348
 21
544.7893156119825
 72
     1
 10
-238.625707135348
 20
544.7893156119825
 11
-234.6257071353479
 21
544.7893156119825
 72
     1
 10
-234.6257071353479
 20
544.7893156119825
 11
-234.6257071353479
 21
542.7893156119826
 72
     2
 10
-234.4257071353479
 20
542.7893156119824
 40
0.1999999999999602
 50
179.9999999999674
 51
269.9999999999919
 73
     1
 72
     1
 10
-234.425707135348
 20
542.5893156119825
 11
-233.125707135348
 21
542.5893156119824
 72
     1
 10
-233.125707135348
 20
542.5893156119824
 11
-233.1257071353478
 21
524.5893156119826
 72
     2
 10
-232.6257071353478
 20
524.5893156119826
 40
0.5
 50
180.0
 51
360.0
 73
     1
 72
     1
 10
-232.1257071353478
 20
524.5893156119826
 11
-232.1257071353477
 21
527.0893156119826
 72
     2
 10
-231.6257071353478
 20
527.0893156119826
 40
0.5
 50
180.0
 51
269.9999999999935
 73
     0
 72
     1
 10
-231.6257071353478
 20
527.5893156119827
 11
-229.8257071353478
 21
527.5893156119827
 72
     2
 10
-229.8257071353478
 20
527.0893156119828
 40
0.4999999999998864
 50
270.0000000000033
 51
360.000000000013
 73
     0
 72
     1
 10
-229.3257071353478
 20
527.0893156119826
 11
-229.3257071353478
 21
520.9893156119826
 97
        1
330
59E7
 75
     0
 76
     1
 98
        1
 10
0.0
 20
0.0
  0
ENDBLK
  5
37CD
330
37CB
100
AcDbEntity
  8
0
100
AcDbBlockEnd
  0
BLOCK
  5
37DE
330
37DD
100
AcDbEntity
  8
0
100
AcDbBlockBegin
  2
9010312r
 70
     0
 10
399.4634067278245
 20
339.4121540145172
 30
0.0
  3
9010312r
  1
9010312r.dwg
  0
LWPOLYLINE
  5
59EB
330
37DD
100
AcDbEntity
  8
APL Joinery
  6
Continuous
 62
   252
100
AcDbPolyline
 90
       28
 70
   128
 43
0.0
 10
395.7634067278242
 20
336.2999919725366
 10
395.7634067278242
 20
343.1621540145172
 42
-0.7673269879789622
 10
396.2299130787703
 20
343.2871540145172
 10
396.7850145808851
 20
342.3256900094965
 10
399.2931562636775
 20
341.6536354710895
 42
-0.3626955242591878
 10
399.4775957926651
 20
341.3914870691883
 10
399.3134067278246
 20
339.4121540145172
 10
397.7634067278242
 20
339.4121540145172
 10
397.7634067278242
 20
336.5121540145171
 10
399.0135696498364
 20
336.5121540145171
 10
399.2752560951169
 20
337.3376963843301
 42
-0.6640183420487276
 10
399.7341578851304
 20
337.3798010733406
 42
-0.250000000000001
 10
399.7341578851305
 20
333.1445069556935
 42
-0.6640183420487097
 10
399.2752560951171
 20
333.1866116447042
 10
399.0135696498364
 20
334.0121540145171
 10
397.4635696498362
 20
334.0121540145171
 10
397.1898787608678
 20
334.2858449034854
 42
0.6681785464135807
 10
396.7631020655712
 20
334.1090682714504
 10
396.7631016544432
 20
332.4843569389277
 10
396.2607415896308
 20
329.0715154000631
 42
-0.9294717386060577
 10
395.7634067278242
 20
329.1079223518048
 10
395.7634067278242
 20
334.5749919747145
 42
-0.3563939586926081
 10
396.5634067278242
 20
335.5547878718279
 42
0.3563939586925715
 10
396.7634067278242
 20
335.7997368461061
 10
396.7634067278242
 20
339.3871540145172
 42
0.9999999999999998
 10
396.7134067278242
 20
339.3871540145172
 10
396.7134067278242
 20
336.2999919725366
 42
-0.9999999999999998
 10
395.76340673218
 20
336.2999919725366
  0
ENDBLK
  5
37DF
330
37DD
100
AcDbEntity
  8
0
100
AcDbBlockEnd
  0
BLOCK
  5
3C61
330
3C5C
100
AcDbEntity
  8
0
100
AcDbBlockBegin
  2
a4 specifiers manual
 70
     0
 10
0.0
 20
0.0
 30
0.0
  3
a4 specifiers manual
  1

  0
LINE
  5
3C5D
330
3C5C
100
AcDbEntity
  8
0
100
AcDbLine
 10
-0.0000008078504834
 20
0.0000001108869583
 30
0.0
 11
353.9999991921495
 21
0.0000001108869583
 31
0.0
  0
LINE
  5
3C5E
330
3C5C
100
AcDbEntity
  8
0
100
AcDbLine
 10
353.9999991921495
 20
482.0000001108869
 30
0.0
 11
-0.0000008078504834
 21
482.0000001108869
 31
0.0
  0
LINE
  5
3C5F
330
3C5C
100
AcDbEntity
  8
0
100
AcDbLine
 10
-0.0000008078504834
 20
482.0000001108869
 30
0.0
 11
-0.0000008078504834
 21
0.0000001108869583
 31
0.0
  0
LINE
  5
3C60
330
3C5C
100
AcDbEntity
  8
0
100
AcDbLine
 10
353.9999991921495
 20
0.0000001108869583
 30
0.0
 11
353.9999991921495
 21
482.0000001108869
 31
0.0
  0
ENDBLK
  5
3C62
330
3C5C
100
AcDbEntity
  8
0
100
AcDbBlockEnd
  0
BLOCK
  5
3C69
330
3C68
100
AcDbEntity
  8
0
100
AcDbBlockBegin
  2
08640
 70
     0
 10
518.1719301084712
 20
187.3785813574808
 30
0.0
  3
08640
  1
08640.dwg
  0
LWPOLYLINE
  5
59EE
102
{ACAD_REACTORS
330
59EF
102
}
330
3C68
100
AcDbEntity
  8
APL Joinery
  6
Continuous
100
AcDbPolyline
 90
       79
 70
     1
 43
0.0
 10
512.6234082567495
 20
208.9159307536459
 42
-0.5149445451951963
 10
513.096213482541
 20
209.5785813560556
 10
515.3719301084713
 20
209.5785813560556
 42
-0.4142135623730951
 10
516.3719301084713
 20
208.5785813560556
 10
516.3719301084713
 20
199.1559573390549
 10
516.3719301084713
 20
187.5785813574808
 42
0.4142135623730451
 10
516.5719301084713
 20
187.3785813574808
 10
517.9719301084714
 20
187.3785813574808
 42
0.4142135623729951
 10
518.1719301084712
 20
187.5785813574808
 10
518.1719301084712
 20
233.1785813560556
 42
0.4142135623731451
 10
517.9719301084713
 20
233.3785813560556
 10
516.0719301084712
 20
233.3785813560556
 42
0.4142135623729951
 10
515.8719301084714
 20
233.1785813560556
 10
515.8719301084714
 20
231.3785813560556
 10
514.6719301084713
 20
231.3785813560556
 42
0.4142135623730951
 10
514.1719301084712
 20
230.8785813560556
 10
514.1719301084712
 20
229.3285813560556
 42
0.9999999999999998
 10
515.1719301084713
 20
229.3285813560556
 10
515.1719301084713
 20
230.0785813560556
 10
516.6719301084713
 20
230.0785813560556
 10
516.6719301084713
 20
224.5785813560555
 10
515.1719301084713
 20
224.5785813560555
 10
515.1719301084713
 20
225.3285813560556
 42
0.9999999999999998
 10
514.1719301084712
 20
225.3285813560556
 10
514.1719301084712
 20
223.7785813560556
 42
0.4142135623730951
 10
514.6719301084713
 20
223.2785813560556
 10
516.3719301084713
 20
223.2785813560556
 10
516.3719301084713
 20
217.8785813560556
 10
514.6719301084713
 20
217.8785813560557
 42
0.9999999999999998
 10
514.6719301084713
 20
216.8785813560556
 10
516.3719301084713
 20
216.8785813560556
 10
516.3719301084713
 20
212.8785813560556
 10
514.3719301084713
 20
212.8785813560555
 42
0.4142135623730451
 10
514.1719301084712
 20
212.6785813560556
 10
514.1719301084712
 20
211.3785813560556
 10
496.1719301084713
 20
211.3785813560554
 42
0.9999999999999998
 10
496.1719301084713
 20
210.3785813560554
 10
498.6719301084713
 20
210.3785813560554
 42
-0.4142135623730951
 10
499.1719301084713
 20
209.8785813560554
 10
499.1719301084713
 20
208.0785813560554
 42
-0.4142135623730951
 10
498.6719301084713
 20
207.5785813560554
 10
492.5719301084713
 20
207.5785813560554
 42
0.4142135623729452
 10
492.3719301084713
 20
207.3785813560554
 10
492.3719301084713
 20
206.8785813560556
 10
479.6719301084713
 20
206.8785813560556
 10
479.6719301084713
 20
209.8785813560556
 10
480.4219301084713
 20
209.8785813560556
 42
0.4744978678080938
 10
480.6668790827496
 20
210.1785813560556
 42
0.3563939586926033
 10
479.1971852370798
 20
211.3785813560556
 10
478.4219301084712
 20
211.3785813560556
 42
0.4142135623730951
 10
478.1719301084713
 20
211.1285813560556
 10
478.1719301084713
 20
187.5785813574808
 42
0.4142135623729785
 10
478.3719301084712
 20
187.3785813574808
 10
479.7719301084712
 20
187.3785813574808
 42
0.4142135623731784
 10
479.9719301084713
 20
187.5785813574808
 10
479.9719301084713
 20
199.1559573390549
 10
479.9719301084713
 20
204.0785813560556
 42
-0.4142135623730951
 10
480.9719301084713
 20
205.0785813560556
 10
483.2476467344014
 20
205.0785813560556
 42
-0.5149445451951964
 10
483.7204519601929
 20
204.4159307536458
 42
0.2788550286926384
 10
484.5173846539259
 20
200.7234090207157
 42
0.9999999999999998
 10
485.8264755630166
 20
201.9588364737601
 42
-2.318729304408774
 10
488.5173846539259
 20
201.95883647376
 42
0.9999999999999793
 10
489.8264755630168
 20
200.7234090207158
 42
0.2788550286926418
 10
490.6234082567495
 20
204.415930753646
 42
-0.5149445451952321
 10
491.096213482541
 20
205.0785813560556
 10
493.9719301084712
 20
205.0785813560556
 42
0.4142135623731284
 10
494.1719301084713
 20
205.2785813560556
 10
494.1719301084713
 20
205.7785813560554
 10
498.6719301084713
 20
205.7785813560553
 42
0.4142135623730951
 10
500.9719301084713
 20
208.0785813560553
 10
500.9719301084713
 20
208.5785813560556
 42
-0.4142135623730951
 10
501.9719301084712
 20
209.5785813560556
 10
505.2476467344014
 20
209.5785813560556
 42
-0.5149445451952192
 10
505.7204519601929
 20
208.9159307536458
 42
0.2788550286926384
 10
506.5173846539258
 20
205.2234090207157
 42
0.9999999999999998
 10
507.8264755630167
 20
206.45883647376
 42
-2.318729304408839
 10
510.5173846539258
 20
206.45883647376
 42
0.9999999999999793
 10
511.8264755630167
 20
205.2234090207158
 42
0.2788550286926272
  0
HATCH
  5
59EF
330
3C68
100
AcDbEntity
  8
APL Hatch
100
AcDbHatch
 10
0.0
 20
0.0
 30
0.0
210
0.0
220
0.0
230
1.0
  2
SOLID
 70
     1
 71
     1
 91
        1
 92
        1
 93
       79
 72
     2
 10
513.0962134825412
 20
209.0785813560555
 40
0.5000000000001619
 50
161.0161756149709
 51
269.999999999987
 73
     0
 72
     1
 10
513.096213482541
 20
209.5785813560556
 11
515.3719301084713
 21
209.5785813560556
 72
     2
 10
515.3719301084713
 20
208.5785813560556
 40
1.0
 50
270.0
 51
360.0
 73
     0
 72
     1
 10
516.3719301084713
 20
208.5785813560556
 11
516.3719301084713
 21
199.1559573390549
 72
     1
 10
516.3719301084713
 20
199.1559573390549
 11
516.3719301084713
 21
187.5785813574808
 72
     2
 10
516.5719301084713
 20
187.5785813574808
 40
0.2000000000000455
 50
180.0000000000081
 51
270.0
 73
     1
 72
     1
 10
516.5719301084713
 20
187.3785813574808
 11
517.9719301084714
 21
187.3785813574808
 72
     2
 10
517.9719301084713
 20
187.5785813574808
 40
0.1999999999999318
 50
270.0000000000326
 51
360.0000000000163
 73
     1
 72
     1
 10
518.1719301084712
 20
187.5785813574808
 11
518.1719301084712
 21
233.1785813560556
 72
     2
 10
517.9719301084713
 20
233.1785813560557
 40
0.1999999999999318
 50
359.9999999999919
 51
450.0
 73
     1
 72
     1
 10
517.9719301084713
 20
233.3785813560556
 11
516.0719301084712
 21
233.3785813560556
 72
     2
 10
516.0719301084712
 20
233.1785813560556
 40
0.1999999999999886
 50
90.0
 51
180.0
 73
     1
 72
     1
 10
515.8719301084714
 20
233.1785813560556
 11
515.8719301084714
 21
231.3785813560556
 72
     1
 10
515.8719301084714
 20
231.3785813560556
 11
514.6719301084713
 21
231.3785813560556
 72
     2
 10
514.6719301084713
 20
230.8785813560556
 40
0.5
 50
90.0
 51
180.0
 73
     1
 72
     1
 10
514.1719301084712
 20
230.8785813560556
 11
514.1719301084712
 21
229.3285813560556
 72
     2
 10
514.6719301084713
 20
229.3285813560556
 40
0.5
 50
180.0
 51
360.0
 73
     1
 72
     1
 10
515.1719301084713
 20
229.3285813560556
 11
515.1719301084713
 21
230.0785813560556
 72
     1
 10
515.1719301084713
 20
230.0785813560556
 11
516.6719301084713
 21
230.0785813560556
 72
     1
 10
516.6719301084713
 20
230.0785813560556
 11
516.6719301084713
 21
224.5785813560555
 72
     1
 10
516.6719301084713
 20
224.5785813560555
 11
515.1719301084713
 21
224.5785813560555
 72
     1
 10
515.1719301084713
 20
224.5785813560555
 11
515.1719301084713
 21
225.3285813560556
 72
     2
 10
514.6719301084713
 20
225.3285813560556
 40
0.5
 50
0.0
 51
180.0
 73
     1
 72
     1
 10
514.1719301084712
 20
225.3285813560556
 11
514.1719301084712
 21
223.7785813560556
 72
     2
 10
514.6719301084713
 20
223.7785813560556
 40
0.5
 50
180.0
 51
270.0
 73
     1
 72
     1
 10
514.6719301084713
 20
223.2785813560556
 11
516.3719301084713
 21
223.2785813560556
 72
     1
 10
516.3719301084713
 20
223.2785813560556
 11
516.3719301084713
 21
217.8785813560556
 72
     1
 10
516.3719301084713
 20
217.8785813560556
 11
514.6719301084713
 21
217.8785813560557
 72
     2
 10
514.6719301084713
 20
217.3785813560556
 40
0.5000000000000569
 50
90.0
 51
270.0
 73
     1
 72
     1
 10
514.6719301084713
 20
216.8785813560556
 11
516.3719301084713
 21
216.8785813560556
 72
     1
 10
516.3719301084713
 20
216.8785813560556
 11
516.3719301084713
 21
212.8785813560556
 72
     1
 10
516.3719301084713
 20
212.8785813560556
 11
514.3719301084713
 21
212.8785813560555
 72
     2
 10
514.3719301084713
 20
212.6785813560555
 40
0.200000000000017
 50
90.0
 51
179.9999999999918
 73
     1
 72
     1
 10
514.1719301084712
 20
212.6785813560556
 11
514.1719301084712
 21
211.3785813560556
 72
     1
 10
514.1719301084712
 20
211.3785813560556
 11
496.1719301084713
 21
211.3785813560554
 72
     2
 10
496.1719301084713
 20
210.8785813560554
 40
0.5
 50
90.0
 51
270.0
 73
     1
 72
     1
 10
496.1719301084713
 20
210.3785813560554
 11
498.6719301084713
 21
210.3785813560554
 72
     2
 10
498.6719301084713
 20
209.8785813560554
 40
0.5
 50
270.0
 51
360.0
 73
     0
 72
     1
 10
499.1719301084713
 20
209.8785813560554
 11
499.1719301084713
 21
208.0785813560554
 72
     2
 10
498.6719301084713
 20
208.0785813560554
 40
0.5
 50
360.0
 51
450.0
 73
     0
 72
     1
 10
498.6719301084713
 20
207.5785813560554
 11
492.5719301084713
 21
207.5785813560554
 72
     2
 10
492.5719301084714
 20
207.3785813560554
 40
0.2000000000000455
 50
90.00000000001628
 51
179.9999999999837
 73
     1
 72
     1
 10
492.3719301084713
 20
207.3785813560554
 11
492.3719301084713
 21
206.8785813560556
 72
     1
 10
492.3719301084713
 20
206.8785813560556
 11
479.6719301084713
 21
206.8785813560556
 72
     1
 10
479.6719301084713
 20
206.8785813560556
 11
479.6719301084713
 21
209.8785813560556
 72
     1
 10
479.6719301084713
 20
209.8785813560556
 11
480.4219301084713
 21
209.8785813560556
 72
     2
 10
480.4219301084712
 20
210.1285813560556
 40
0.25
 50
270.000000000013
 51
371.5369590328245
 73
     1
 72
     2
 10
479.1971852370797
 20
209.8785813560557
 40
1.499999999999917
 50
11.53695903281325
 51
89.99999999999785
 73
     1
 72
     1
 10
479.1971852370798
 20
211.3785813560556
 11
478.4219301084712
 21
211.3785813560556
 72
     2
 10
478.4219301084712
 20
211.1285813560556
 40
0.25
 50
90.0
 51
180.0
 73
     1
 72
     1
 10
478.1719301084713
 20
211.1285813560556
 11
478.1719301084713
 21
187.5785813574808
 72
     2
 10
478.3719301084713
 20
187.5785813574808
 40
0.1999999999999886
 50
180.0000000000081
 51
269.9999999999838
 73
     1
 72
     1
 10
478.3719301084712
 20
187.3785813574808
 11
479.7719301084712
 21
187.3785813574808
 72
     2
 10
479.7719301084712
 20
187.5785813574808
 40
0.1999999999999886
 50
269.9999999999838
 51
360.0
 73
     1
 72
     1
 10
479.9719301084713
 20
187.5785813574808
 11
479.9719301084713
 21
199.1559573390549
 72
     1
 10
479.9719301084713
 20
199.1559573390549
 11
479.9719301084713
 21
204.0785813560556
 72
     2
 10
480.9719301084713
 20
204.0785813560556
 40
1.0
 50
180.0
 51
270.0
 73
     0
 72
     1
 10
480.9719301084713
 20
205.0785813560556
 11
483.2476467344014
 21
205.0785813560556
 72
     2
 10
483.2476467344013
 20
204.5785813560555
 40
0.5000000000000569
 50
270.0000000000196
 51
378.9838243850456
 73
     0
 72
     2
 10
487.1719301084714
 20
203.2285813560558
 40
3.650000000000208
 50
161.0161756149659
 51
223.3417582272237
 73
     1
 72
     2
 10
485.1719301084712
 20
201.3411227472379
 40
0.9000000000000113
 50
223.3417582272256
 51
403.3417582272268
 73
     1
 72
     2
 10
487.1719301084714
 20
203.2285813560555
 40
1.850000000000037
 50
136.6582417727827
 51
403.3417582272241
 73
     0
 72
     2
 10
489.1719301084712
 20
201.3411227472379
 40
0.8999999999999136
 50
136.6582417727809
 51
316.6582417727821
 73
     1
 72
     2
 10
487.1719301084711
 20
203.2285813560557
 40
3.650000000000182
 50
316.6582417727791
 51
378.9838243850376
 73
     1
 72
     2
 10
491.096213482541
 20
204.5785813560556
 40
0.5000000000000099
 50
161.0161756149615
 51
270.0
 73
     0
 72
     1
 10
491.096213482541
 20
205.0785813560556
 11
493.9719301084712
 21
205.0785813560556
 72
     2
 10
493.9719301084713
 20
205.2785813560556
 40
0.200000000000017
 50
269.9999999999838
 51
359.9999999999919
 73
     1
 72
     1
 10
494.1719301084713
 20
205.2785813560556
 11
494.1719301084713
 21
205.7785813560554
 72
     1
 10
494.1719301084713
 20
205.7785813560554
 11
498.6719301084713
 21
205.7785813560553
 72
     2
 10
498.6719301084713
 20
208.0785813560553
 40
2.299999999999982
 50
270.0
 51
360.0000000000008
 73
     1
 72
     1
 10
500.9719301084713
 20
208.0785813560553
 11
500.9719301084713
 21
208.5785813560556
 72
     2
 10
501.9719301084712
 20
208.5785813560556
 40
1.0
 50
180.0
 51
270.0
 73
     0
 72
     1
 10
501.9719301084712
 20
209.5785813560556
 11
505.2476467344014
 21
209.5785813560556
 72
     2
 10
505.2476467344013
 20
209.0785813560555
 40
0.5000000000000285
 50
270.0000000000196
 51
378.9838243850487
 73
     0
 72
     2
 10
509.1719301084713
 20
207.7285813560558
 40
3.650000000000136
 50
161.0161756149665
 51
223.3417582272243
 73
     1
 72
     2
 10
507.1719301084713
 20
205.8411227472379
 40
0.8999999999999722
 50
223.341758227223
 51
403.341758227223
 73
     1
 72
     2
 10
509.1719301084713
 20
207.7285813560556
 40
1.850000000000013
 50
136.6582417727783
 51
403.3417582272229
 73
     0
 72
     2
 10
511.1719301084713
 20
205.8411227472379
 40
0.8999999999999136
 50
136.6582417727809
 51
316.6582417727796
 73
     1
 72
     2
 10
509.1719301084709
 20
207.7285813560557
 40
3.650000000000265
 50
316.6582417727804
 51
378.9838243850361
 73
     1
 97
        1
330
59EE
 75
     0
 76
     1
 98
        1
 10
0.0
 20
0.0
  0
ENDBLK
  5
3C6A
330
3C68
100
AcDbEntity
  8
0
100
AcDbBlockEnd
  0
BLOCK
  5
3DEE
330
3DED
100
AcDbEntity
  8
0
100
AcDbBlockBegin
  2
08625
 70
     0
 10
-200.1042528719851
 20
199.3131152832078
 30
0.0
  3
08625
  1
08625.dwg
  0
LWPOLYLINE
  5
59F1
102
{ACAD_REACTORS
330
59F3
102
}
330
3DED
100
AcDbEntity
  8
APL Joinery
  6
Continuous
100
AcDbPolyline
 90
       47
 70
     1
 43
0.0
 10
-211.7587983265306
 20
190.4682876192603
 42
-0.9999999999999998
 10
-210.4497074174396
 20
189.232860166216
 42
2.318729304408965
 10
-207.7587983265305
 20
189.2328601662161
 42
-0.9999999999999802
 10
-206.4497074174397
 20
190.4682876192604
 42
-0.2788550286926636
 10
-205.6527747237069
 20
186.7757658863302
 42
0.5149445451951963
 10
-205.1799694979154
 20
186.1131152839204
 10
-202.9042528719852
 20
186.1131152839204
 42
0.4142135623730951
 10
-201.9042528719852
 20
187.1131152839204
 10
-201.9042528719852
 20
211.5131152824952
 42
0.4142135623730951
 10
-202.9042528719852
 20
212.5131152824951
 10
-205.1799694979154
 20
212.5131152824951
 42
0.5149445451951792
 10
-205.6527747237069
 20
211.8504646800855
 42
-0.2788550286926634
 10
-206.4497074174397
 20
208.1579429471552
 42
-0.9999999999999596
 10
-207.7587983265306
 20
209.3933704001996
 42
2.318729304408901
 10
-210.4497074174397
 20
209.3933704001997
 42
-1.000000000000019
 10
-211.7587983265306
 20
208.1579429471553
 42
-0.2788550286926579
 10
-212.5557310202634
 20
211.8504646800855
 42
0.5149445451952723
 10
-213.0285362460549
 20
212.5131152824951
 10
-216.3042528719852
 20
212.5131152824951
 42
0.4142135623730951
 10
-217.3042528719852
 20
211.5131152824952
 10
-217.3042528719852
 20
211.013115282495
 42
-0.4142135623730951
 10
-219.6042528719851
 20
208.7131152824949
 10
-223.6042528719851
 20
208.7131152824949
 42
0.4142135623730951
 10
-224.1042528719851
 20
208.2131152824949
 10
-224.1042528719852
 20
206.1131152824951
 42
-0.4142135623730617
 10
-225.9042528719852
 20
204.3131152824952
 10
-229.351716174237
 20
204.3131152824952
 42
0.8177126633499904
 10
-229.6835517481099
 20
202.6752735657132
 42
-0.5229816358584712
 10
-228.4497074174397
 20
196.8079429478679
 42
-1.0
 10
-229.7587983265305
 20
198.0433704009123
 42
2.318729304408774
 10
-232.4497074174396
 20
198.0433704009123
 42
-1.00000000000004
 10
-233.7587983265307
 20
196.8079429478681
 42
-0.5229816358584582
 10
-232.5249539958605
 20
202.6752735657131
 42
0.8177126633499904
 10
-232.8567895697333
 20
204.3131152824952
 10
-237.3042528719852
 20
204.3131152824952
 42
0.4142135623730951
 10
-238.3042528719852
 20
203.3131152824952
 10
-238.3042528719852
 20
191.6131152839205
 42
0.4142135623730951
 10
-237.3042528719852
 20
190.6131152839205
 10
-224.304252871985
 20
190.6131152839205
 42
-0.4142135623730951
 10
-224.1042528719851
 20
190.4131152839205
 10
-224.1042528719851
 20
189.9131152839208
 10
-219.6042528719852
 20
189.9131152839208
 42
-0.4142135623730951
 10
-217.3042528719851
 20
187.6131152839207
 10
-217.3042528719852
 20
187.1131152839204
 42
0.4142135623730951
 10
-216.3042528719852
 20
186.1131152839204
 10
-213.0285362460549
 20
186.1131152839204
 42
0.5149445451952551
 10
-212.5557310202633
 20
186.7757658863302
 42
-0.2788550286926634
  0
LWPOLYLINE
  5
59F2
102
{ACAD_REACTORS
330
59F3
102
}
330
3DED
100
AcDbEntity
  8
APL Joinery
  6
Continuous
100
AcDbPolyline
 90
       88
 70
     1
 43
0.0
 10
-225.9042528719852
 20
208.213115282495
 10
-225.9042528719852
 20
206.1131152824951
 10
-237.3042528719852
 20
206.1131152824951
 42
-0.4142135623730951
 10
-238.3042528719852
 20
207.1131152824952
 10
-238.3042528719852
 20
209.6131152824952
 42
0.4142135623730118
 10
-238.5042528719852
 20
209.8131152824952
 10
-238.6042528719851
 20
209.8131152824952
 10
-238.6042528719851
 20
212.8131152824952
 10
-237.8542528719851
 20
212.8131152824952
 42
0.474497867808111
 10
-237.6093038977068
 20
213.1131152824952
 42
0.3563939586926033
 10
-239.0789977433767
 20
214.3131152824952
 10
-239.8542528719851
 20
214.3131152824952
 42
0.4142135623730951
 10
-240.1042528719851
 20
214.0631152824952
 10
-240.1042528719851
 20
184.5631152839204
 42
0.4142135623730951
 10
-239.8542528719851
 20
184.3131152839204
 10
-239.0789977433767
 20
184.3131152839204
 42
0.3563939586926033
 10
-237.6093038977069
 20
185.5131152839204
 42
0.4744978678080242
 10
-237.8542528719851
 20
185.8131152839204
 10
-238.6042528719851
 20
185.8131152839204
 10
-238.6042528719851
 20
188.8131152839204
 10
-225.9042528719851
 20
188.8131152839204
 10
-225.9042528719851
 20
188.3131152839207
 42
0.4142135623730118
 10
-225.7042528719851
 20
188.1131152839207
 10
-219.6042528719851
 20
188.1131152839207
 42
-0.4142135623730951
 10
-219.1042528719851
 20
187.6131152839207
 10
-219.1042528719851
 20
185.8131152839207
 42
-0.4142135623730951
 10
-219.6042528719851
 20
185.3131152839207
 10
-222.104252871985
 20
185.3131152839207
 42
0.9999999999999998
 10
-222.104252871985
 20
184.3131152839207
 10
-204.1042528719851
 20
184.3131152839204
 10
-204.1042528719851
 20
183.0131152839204
 42
0.4142135623730118
 10
-203.9042528719851
 20
182.8131152839205
 10
-201.9042528719852
 20
182.8131152839205
 10
-201.9042528719853
 20
178.8131152839205
 10
-203.6042528719851
 20
178.8131152839205
 42
0.9999999999999998
 10
-203.6042528719851
 20
177.8131152839205
 10
-201.9042528719851
 20
177.8131152839204
 10
-201.9042528719852
 20
172.4131152839204
 10
-203.6042528719851
 20
172.4131152839204
 42
0.4142135623730951
 10
-204.1042528719851
 20
171.9131152839204
 10
-204.1042528719851
 20
170.3631152839204
 42
0.9999999999999998
 10
-203.1042528719851
 20
170.3631152839204
 10
-203.1042528719851
 20
171.1131152839205
 10
-201.6042528719851
 20
171.1131152839205
 10
-201.6042528719851
 20
165.6131152839205
 10
-203.1042528719851
 20
165.6131152839205
 10
-203.1042528719851
 20
166.3631152839205
 42
0.9999999999999998
 10
-204.1042528719851
 20
166.3631152839205
 10
-204.1042528719851
 20
164.8131152839204
 42
0.4142135623730951
 10
-203.6042528719851
 20
164.3131152839204
 10
-202.4042528719852
 20
164.3131152839204
 10
-202.4042528719852
 20
162.5131152839204
 42
0.4142135623729619
 10
-202.2042528719852
 20
162.3131152839204
 10
-200.3042528719851
 20
162.3131152839204
 42
0.4142135623729785
 10
-200.1042528719851
 20
162.5131152839204
 10
-200.1042528719851
 20
236.1131152824952
 42
0.4142135623729785
 10
-200.3042528719851
 20
236.3131152824952
 10
-202.2042528719852
 20
236.3131152824952
 42
0.4142135623729619
 10
-202.4042528719852
 20
236.1131152824952
 10
-202.4042528719852
 20
234.3131152824952
 10
-203.6042528719851
 20
234.3131152824952
 42
0.4142135623730951
 10
-204.1042528719851
 20
233.8131152824952
 10
-204.1042528719851
 20
232.2631152824952
 42
0.9999999999999998
 10
-203.1042528719851
 20
232.2631152824952
 10
-203.1042528719851
 20
233.0131152824951
 10
-201.6042528719851
 20
233.0131152824951
 10
-201.6042528719851
 20
227.5131152824952
 10
-203.1042528719851
 20
227.5131152824952
 10
-203.1042528719851
 20
228.2631152824952
 42
0.9999999999999998
 10
-204.1042528719851
 20
228.2631152824952
 10
-204.1042528719851
 20
226.7131152824952
 42
0.4142135623730951
 10
-203.6042528719851
 20
226.2131152824952
 10
-201.9042528719852
 20
226.2131152824952
 10
-201.9042528719851
 20
220.8131152824952
 10
-203.6042528719852
 20
220.8131152824952
 42
0.9999999999999998
 10
-203.6042528719852
 20
219.8131152824952
 10
-201.9042528719852
 20
219.8131152824952
 10
-201.9042528719852
 20
215.8131152824952
 10
-203.9042528719851
 20
215.8131152824952
 42
0.4142135623729619
 10
-204.1042528719851
 20
215.6131152824952
 10
-204.1042528719851
 20
214.3131152824952
 10
-222.1042528719851
 20
214.313115282495
 42
0.9999999999999998
 10
-222.1042528719851
 20
213.313115282495
 10
-219.6042528719851
 20
213.313115282495
 42
-0.4142135623730951
 10
-219.1042528719851
 20
212.813115282495
 10
-219.1042528719851
 20
211.013115282495
 42
-0.4142135623730951
 10
-219.6042528719851
 20
210.513115282495
 10
-223.6042528719851
 20
210.513115282495
 42
0.4142135623730784
  0
HATCH
  5
59F3
330
3DED
100
AcDbEntity
  8
APL Hatch
100
AcDbHatch
 10
0.0
 20
0.0
 30
0.0
210
0.0
220
0.0
230
1.0
  2
SOLID
 70
     1
 71
     1
 91
        2
 92
        1
 93
       88
 72
     1
 10
-225.9042528719852
 20
208.213115282495
 11
-225.9042528719852
 21
206.1131152824951
 72
     1
 10
-225.9042528719852
 20
206.1131152824951
 11
-237.3042528719852
 21
206.1131152824951
 72
     2
 10
-237.3042528719852
 20
207.1131152824952
 40
1.0
 50
90.0
 51
180.0
 73
     0
 72
     1
 10
-238.3042528719852
 20
207.1131152824952
 11
-238.3042528719852
 21
209.6131152824952
 72
     2
 10
-238.5042528719852
 20
209.6131152824951
 40
0.2000000000000455
 50
0.0000000000162844
 51
90.0
 73
     1
 72
     1
 10
-238.5042528719852
 20
209.8131152824952
 11
-238.6042528719851
 21
209.8131152824952
 72
     1
 10
-238.6042528719851
 20
209.8131152824952
 11
-238.6042528719851
 21
212.8131152824952
 72
     1
 10
-238.6042528719851
 20
212.8131152824952
 11
-237.8542528719851
 21
212.8131152824952
 72
     2
 10
-237.8542528719851
 20
213.0631152824952
 40
0.2499999999999716
 50
270.0
 51
371.5369590328131
 73
     1
 72
     2
 10
-239.0789977433767
 20
212.8131152824952
 40
1.500000000000012
 50
11.53695903281473
 51
90.0
 73
     1
 72
     1
 10
-239.0789977433767
 20
214.3131152824952
 11
-239.8542528719851
 21
214.3131152824952
 72
     2
 10
-239.8542528719851
 20
214.0631152824952
 40
0.25
 50
90.0
 51
180.0
 73
     1
 72
     1
 10
-240.1042528719851
 20
214.0631152824952
 11
-240.1042528719851
 21
184.5631152839204
 72
     2
 10
-239.8542528719851
 20
184.5631152839204
 40
0.25
 50
180.0
 51
270.0
 73
     1
 72
     1
 10
-239.8542528719851
 20
184.3131152839204
 11
-239.0789977433767
 21
184.3131152839204
 72
     2
 10
-239.0789977433767
 20
185.8131152839204
 40
1.499999999999971
 50
270.0
 51
348.4630409671851
 73
     1
 72
     2
 10
-237.8542528719852
 20
185.5631152839204
 40
0.2500000000000002
 50
348.4630409671819
 51
449.999999999987
 73
     1
 72
     1
 10
-237.8542528719851
 20
185.8131152839204
 11
-238.6042528719851
 21
185.8131152839204
 72
     1
 10
-238.6042528719851
 20
185.8131152839204
 11
-238.6042528719851
 21
188.8131152839204
 72
     1
 10
-238.6042528719851
 20
188.8131152839204
 11
-225.9042528719851
 21
188.8131152839204
 72
     1
 10
-225.9042528719851
 20
188.8131152839204
 11
-225.9042528719851
 21
188.3131152839207
 72
     2
 10
-225.704252871985
 20
188.3131152839207
 40
0.200000000000017
 50
180.0
 51
269.9999999999838
 73
     1
 72
     1
 10
-225.7042528719851
 20
188.1131152839207
 11
-219.6042528719851
 21
188.1131152839207
 72
     2
 10
-219.6042528719851
 20
187.6131152839207
 40
0.5
 50
270.0
 51
360.0
 73
     0
 72
     1
 10
-219.1042528719851
 20
187.6131152839207
 11
-219.1042528719851
 21
185.8131152839207
 72
     2
 10
-219.6042528719851
 20
185.8131152839207
 40
0.5
 50
360.0
 51
450.0
 73
     0
 72
     1
 10
-219.6042528719851
 20
185.3131152839207
 11
-222.104252871985
 21
185.3131152839207
 72
     2
 10
-222.104252871985
 20
184.8131152839207
 40
0.5
 50
90.0
 51
270.0
 73
     1
 72
     1
 10
-222.104252871985
 20
184.3131152839207
 11
-204.1042528719851
 21
184.3131152839204
 72
     1
 10
-204.1042528719851
 20
184.3131152839204
 11
-204.1042528719851
 21
183.0131152839204
 72
     2
 10
-203.9042528719851
 20
183.0131152839204
 40
0.200000000000017
 50
180.0
 51
269.9999999999838
 73
     1
 72
     1
 10
-203.9042528719851
 20
182.8131152839205
 11
-201.9042528719852
 21
182.8131152839205
 72
     1
 10
-201.9042528719852
 20
182.8131152839205
 11
-201.9042528719853
 21
178.8131152839205
 72
     1
 10
-201.9042528719853
 20
178.8131152839205
 11
-203.6042528719851
 21
178.8131152839205
 72
     2
 10
-203.6042528719851
 20
178.3131152839205
 40
0.5
 50
90.0
 51
270.0
 73
     1
 72
     1
 10
-203.6042528719851
 20
177.8131152839205
 11
-201.9042528719851
 21
177.8131152839204
 72
     1
 10
-201.9042528719851
 20
177.8131152839204
 11
-201.9042528719852
 21
172.4131152839204
 72
     1
 10
-201.9042528719852
 20
172.4131152839204
 11
-203.6042528719851
 21
172.4131152839204
 72
     2
 10
-203.6042528719851
 20
171.9131152839204
 40
0.5
 50
90.0
 51
180.0
 73
     1
 72
     1
 10
-204.1042528719851
 20
171.9131152839204
 11
-204.1042528719851
 21
170.3631152839204
 72
     2
 10
-203.6042528719851
 20
170.3631152839204
 40
0.5
 50
180.0
 51
360.0
 73
     1
 72
     1
 10
-203.1042528719851
 20
170.3631152839204
 11
-203.1042528719851
 21
171.1131152839205
 72
     1
 10
-203.1042528719851
 20
171.1131152839205
 11
-201.6042528719851
 21
171.1131152839205
 72
     1
 10
-201.6042528719851
 20
171.1131152839205
 11
-201.6042528719851
 21
165.6131152839205
 72
     1
 10
-201.6042528719851
 20
165.6131152839205
 11
-203.1042528719851
 21
165.6131152839205
 72
     1
 10
-203.1042528719851
 20
165.6131152839205
 11
-203.1042528719851
 21
166.3631152839205
 72
     2
 10
-203.6042528719851
 20
166.3631152839205
 40
0.5
 50
0.0
 51
180.0
 73
     1
 72
     1
 10
-204.1042528719851
 20
166.3631152839205
 11
-204.1042528719851
 21
164.8131152839204
 72
     2
 10
-203.6042528719851
 20
164.8131152839204
 40
0.5
 50
180.0
 51
270.0
 73
     1
 72
     1
 10
-203.6042528719851
 20
164.3131152839204
 11
-202.4042528719852
 21
164.3131152839204
 72
     1
 10
-202.4042528719852
 20
164.3131152839204
 11
-202.4042528719852
 21
162.5131152839204
 72
     2
 10
-202.2042528719851
 20
162.5131152839204
 40
0.200000000000017
 50
180.0000000000081
 51
269.9999999999838
 73
     1
 72
     1
 10
-202.2042528719852
 20
162.3131152839204
 11
-200.3042528719851
 21
162.3131152839204
 72
     2
 10
-200.3042528719852
 20
162.5131152839204
 40
0.2000000000000455
 50
270.0000000000163
 51
360.0
 73
     1
 72
     1
 10
-200.1042528719851
 20
162.5131152839204
 11
-200.1042528719851
 21
236.1131152824952
 72
     2
 10
-200.3042528719852
 20
236.1131152824952
 40
0.200000000000017
 50
0.0000000000081422
 51
89.99999999998371
 73
     1
 72
     1
 10
-200.3042528719851
 20
236.3131152824952
 11
-202.2042528719852
 21
236.3131152824952
 72
     2
 10
-202.2042528719851
 20
236.1131152824952
 40
0.2000000000000455
 50
90.00000000001628
 51
179.9999999999918
 73
     1
 72
     1
 10
-202.4042528719852
 20
236.1131152824952
 11
-202.4042528719852
 21
234.3131152824952
 72
     1
 10
-202.4042528719852
 20
234.3131152824952
 11
-203.6042528719851
 21
234.3131152824952
 72
     2
 10
-203.6042528719851
 20
233.8131152824952
 40
0.5
 50
90.0
 51
180.0
 73
     1
 72
     1
 10
-204.1042528719851
 20
233.8131152824952
 11
-204.1042528719851
 21
232.2631152824952
 72
     2
 10
-203.6042528719851
 20
232.2631152824952
 40
0.5
 50
180.0
 51
360.0
 73
     1
 72
     1
 10
-203.1042528719851
 20
232.2631152824952
 11
-203.1042528719851
 21
233.0131152824951
 72
     1
 10
-203.1042528719851
 20
233.0131152824951
 11
-201.6042528719851
 21
233.0131152824951
 72
     1
 10
-201.6042528719851
 20
233.0131152824951
 11
-201.6042528719851
 21
227.5131152824952
 72
     1
 10
-201.6042528719851
 20
227.5131152824952
 11
-203.1042528719851
 21
227.5131152824952
 72
     1
 10
-203.1042528719851
 20
227.5131152824952
 11
-203.1042528719851
 21
228.2631152824952
 72
     2
 10
-203.6042528719851
 20
228.2631152824952
 40
0.5
 50
0.0
 51
180.0
 73
     1
 72
     1
 10
-204.1042528719851
 20
228.2631152824952
 11
-204.1042528719851
 21
226.7131152824952
 72
     2
 10
-203.6042528719851
 20
226.7131152824952
 40
0.5
 50
180.0
 51
270.0
 73
     1
 72
     1
 10
-203.6042528719851
 20
226.2131152824952
 11
-201.9042528719852
 21
226.2131152824952
 72
     1
 10
-201.9042528719852
 20
226.2131152824952
 11
-201.9042528719851
 21
220.8131152824952
 72
     1
 10
-201.9042528719851
 20
220.8131152824952
 11
-203.6042528719852
 21
220.8131152824952
 72
     2
 10
-203.6042528719852
 20
220.3131152824952
 40
0.5
 50
90.0
 51
270.0
 73
     1
 72
     1
 10
-203.6042528719852
 20
219.8131152824952
 11
-201.9042528719852
 21
219.8131152824952
 72
     1
 10
-201.9042528719852
 20
219.8131152824952
 11
-201.9042528719852
 21
215.8131152824952
 72
     1
 10
-201.9042528719852
 20
215.8131152824952
 11
-203.9042528719851
 21
215.8131152824952
 72
     2
 10
-203.9042528719851
 20
215.6131152824952
 40
0.2000000000000455
 50
90.00000000001628
 51
179.9999999999918
 73
     1
 72
     1
 10
-204.1042528719851
 20
215.6131152824952
 11
-204.1042528719851
 21
214.3131152824952
 72
     1
 10
-204.1042528719851
 20
214.3131152824952
 11
-222.1042528719851
 21
214.313115282495
 72
     2
 10
-222.1042528719851
 20
213.813115282495
 40
0.5
 50
90.0
 51
270.0
 73
     1
 72
     1
 10
-222.1042528719851
 20
213.313115282495
 11
-219.6042528719851
 21
213.313115282495
 72
     2
 10
-219.6042528719851
 20
212.813115282495
 40
0.5
 50
270.0
 51
360.0
 73
     0
 72
     1
 10
-219.1042528719851
 20
212.813115282495
 11
-219.1042528719851
 21
211.013115282495
 72
     2
 10
-219.6042528719851
 20
211.013115282495
 40
0.5
 50
360.0
 51
450.0
 73
     0
 72
     1
 10
-219.6042528719851
 20
210.513115282495
 11
-223.6042528719851
 21
210.513115282495
 72
     2
 10
-223.6042528719851
 20
208.2131152824949
 40
2.300000000000125
 50
90.00000000000069
 51
179.9999999999972
 73
     1
 97
        1
330
59F2
 92
       16
 93
       47
 72
     2
 10
-211.1042528719851
 20
189.8505738927381
 40
0.8999999999999941
 50
223.3417582272192
 51
403.3417582272179
 73
     0
 72
     2
 10
-209.1042528719851
 20
187.9631152839204
 40
1.850000000000051
 50
136.6582417727758
 51
403.3417582272254
 73
     1
 72
     2
 10
-207.1042528719851
 20
189.8505738927382
 40
0.8999999999999722
 50
136.658241772777
 51
316.6582417727731
 73
     0
 72
     2
 10
-209.1042528719851
 20
187.9631152839205
 40
3.649999999999995
 50
316.6582417727758
 51
378.9838243850385
 73
     0
 72
     2
 10
-205.1799694979153
 20
186.6131152839206
 40
0.5000000000000999
 50
161.0161756149616
 51
269.9999999999902
 73
     1
 72
     1
 10
-205.1799694979154
 20
186.1131152839204
 11
-202.9042528719852
 21
186.1131152839204
 72
     2
 10
-202.9042528719852
 20
187.1131152839204
 40
1.0
 50
270.0
 51
360.0
 73
     1
 72
     1
 10
-201.9042528719852
 20
187.1131152839204
 11
-201.9042528719852
 21
211.5131152824952
 72
     2
 10
-202.9042528719852
 20
211.5131152824952
 40
1.0
 50
0.0
 51
90.0
 73
     1
 72
     1
 10
-202.9042528719852
 20
212.5131152824951
 11
-205.1799694979154
 21
212.5131152824951
 72
     2
 10
-205.1799694979153
 20
212.0131152824951
 40
0.5000000000000569
 50
90.00000000000651
 51
198.9838243850363
 73
     1
 72
     2
 10
-209.1042528719852
 20
210.6631152824951
 40
3.650000000000086
 50
341.0161756149606
 51
403.3417582272236
 73
     0
 72
     2
 10
-207.1042528719852
 20
208.7756566736774
 40
0.9000000000000309
 50
43.34175822722694
 51
223.3417582272244
 73
     0
 72
     2
 10
-209.1042528719851
 20
210.6631152824952
 40
1.84999999999999
 50
316.6582417727753
 51
583.3417582272216
 73
     1
 72
     2
 10
-211.1042528719851
 20
208.7756566736775
 40
0.9000000000000319
 50
316.6582417727756
 51
496.6582417727781
 73
     0
 72
     2
 10
-209.1042528719851
 20
210.6631152824952
 40
3.650000000000038
 50
136.6582417727776
 51
198.9838243850391
 73
     0
 72
     2
 10
-213.0285362460549
 20
212.0131152824952
 40
0.5000000000000015
 50
341.0161756149542
 51
450.0
 73
     1
 72
     1
 10
-213.0285362460549
 20
212.5131152824951
 11
-216.3042528719852
 21
212.5131152824951
 72
     2
 10
-216.3042528719852
 20
211.5131152824952
 40
1.0
 50
90.0
 51
180.0
 73
     1
 72
     1
 10
-217.3042528719852
 20
211.5131152824952
 11
-217.3042528719852
 21
211.013115282495
 72
     2
 10
-219.6042528719851
 20
211.013115282495
 40
2.299999999999982
 50
360.0
 51
450.0
 73
     0
 72
     1
 10
-219.6042528719851
 20
208.7131152824949
 11
-223.6042528719851
 21
208.7131152824949
 72
     2
 10
-223.6042528719851
 20
208.2131152824949
 40
0.5
 50
90.0
 51
180.0
 73
     1
 72
     1
 10
-224.1042528719851
 20
208.2131152824949
 11
-224.1042528719852
 21
206.1131152824951
 72
     2
 10
-225.9042528719853
 20
206.1131152824952
 40
1.800000000000039
 50
0.0000000000045291
 51
89.99999999999729
 73
     0
 72
     1
 10
-225.9042528719852
 20
204.3131152824952
 11
-229.351716174237
 21
204.3131152824952
 72
     2
 10
-229.351716174237
 20
203.4605785847471
 40
0.8525366977481212
 50
89.99999999999809
 51
247.0932056765128
 73
     1
 72
     2
 10
-231.1042528719852
 20
199.3131152832078
 40
3.650000000000011
 50
292.9067943234851
 51
403.3417582272219
 73
     0
 72
     2
 10
-229.1042528719851
 20
197.4256566743901
 40
0.8999999999999918
 50
43.34175822722435
 51
223.3417582272256
 73
     0
 72
     2
 10
-231.1042528719851
 20
199.3131152832078
 40
1.849999999999953
 50
316.6582417727791
 51
583.3417582272216
 73
     1
 72
     2
 10
-233.1042528719851
 20
197.4256566743902
 40
0.9000000000000355
 50
316.6582417727833
 51
496.6582417727871
 73
     0
 72
     2
 10
-231.1042528719852
 20
199.3131152832078
 40
3.649999999999963
 50
136.6582417727802
 51
247.0932056765154
 73
     0
 72
     2
 10
-232.8567895697333
 20
203.460578584747
 40
0.8525366977481548
 50
292.9067943234846
 51
450.0
 73
     1
 72
     1
 10
-232.8567895697333
 20
204.3131152824952
 11
-237.3042528719852
 21
204.3131152824952
 72
     2
 10
-237.3042528719852
 20
203.3131152824952
 40
1.0
 50
90.0
 51
180.0
 73
     1
 72
     1
 10
-238.3042528719852
 20
203.3131152824952
 11
-238.3042528719852
 21
191.6131152839205
 72
     2
 10
-237.3042528719852
 20
191.6131152839205
 40
1.0
 50
180.0
 51
270.0
 73
     1
 72
     1
 10
-237.3042528719852
 20
190.6131152839205
 11
-224.304252871985
 21
190.6131152839205
 72
     2
 10
-224.304252871985
 20
190.4131152839205
 40
0.1999999999999886
 50
270.0
 51
360.0
 73
     0
 72
     1
 10
-224.1042528719851
 20
190.4131152839205
 11
-224.1042528719851
 21
189.9131152839208
 72
     1
 10
-224.1042528719851
 20
189.9131152839208
 11
-219.6042528719852
 21
189.9131152839208
 72
     2
 10
-219.6042528719852
 20
187.6131152839207
 40
2.300000000000068
 50
270.0
 51
360.0
 73
     0
 72
     1
 10
-217.3042528719851
 20
187.6131152839207
 11
-217.3042528719852
 21
187.1131152839204
 72
     2
 10
-216.3042528719852
 20
187.1131152839204
 40
1.0
 50
180.0
 51
270.0
 73
     1
 72
     1
 10
-216.3042528719852
 20
186.1131152839204
 11
-213.0285362460549
 21
186.1131152839204
 72
     2
 10
-213.0285362460549
 20
186.6131152839205
 40
0.5000000000000285
 50
270.0000000000033
 51
378.9838243850466
 73
     1
 72
     2
 10
-209.1042528719853
 20
187.9631152839205
 40
3.649999999999888
 50
161.01617561496
 51
223.3417582272229
 73
     0
 97
        1
330
59F1
 75
     0
 76
     1
 98
        1
 10
0.0
 20
0.0
  0
ENDBLK
  5
3DEF
330
3DED
100
AcDbEntity
  8
0
100
AcDbBlockEnd
  0
BLOCK
  5
3E12
330
3E11
100
AcDbEntity
  8
0
100
AcDbBlockBegin
  2
9010240l
 70
     0
 10
121.7743665915091
 20
318.4609762649906
 30
0.0
  3
9010240l
  1
9010240l.dwg
  0
LWPOLYLINE
  5
59F5
330
3E11
100
AcDbEntity
  8
APL Joinery
  6
Continuous
 62
   252
100
AcDbPolyline
 90
       30
 70
   129
 43
0.0
 10
125.4743665915089
 20
314.4561557475136
 42
-0.2835524870706119
 10
125.639679738777
 20
314.7242218805875
 42
0.0902645523985048
 10
127.3754845981152
 20
316.3445044937532
 42
0.161319204780224
 10
127.4743665871533
 20
316.6430079967175
 10
127.4743665871533
 20
317.3876867032266
 42
0.7182204474982408
 10
127.1151731138881
 20
317.5087546100796
 42
-0.1023621877757452
 10
125.7724514164482
 20
316.3391728353994
 42
-0.5736819561067553
 10
125.4743665915088
 20
316.5134696142469
 10
125.4743665915089
 20
317.4272819212232
 42
-0.2007459679516776
 10
125.6233155046325
 20
317.7833200293
 10
127.3629395678818
 20
319.4985772006699
 42
0.1718314268301038
 10
127.4743665871533
 20
319.8132373961948
 10
127.4743665871533
 20
321.0651669139914
 42
0.4607623830565128
 10
127.1854567012142
 20
321.3121203929631
 10
121.9854567055696
 20
320.4579297439622
 42
0.39414290722904
 10
121.7753179169858
 20
320.1891873293035
 10
121.9265167932934
 20
318.4609762649903
 10
123.4743665871533
 20
318.4609762649903
 10
123.4743665871533
 20
315.5609762649902
 10
122.9743665871533
 20
315.5609762649902
 42
0.5486826681767499
 10
122.7478103958356
 20
315.2052772007768
 10
124.4491917600105
 20
311.5585232326624
 42
0.5205046449868776
 10
125.12771125539
 20
311.4389506414458
 10
125.4743665915089
 20
311.7856059775647
 42
0.0847796409423414
 10
127.3739886902729
 20
313.5798636206071
 42
0.1626006128156405
 10
127.4743665871533
 20
313.880366823083
 10
127.4743665871533
 20
314.5348039882088
 42
0.6868018179313476
 10
127.1259119882316
 20
314.668823509395
 42
-0.0728137603887277
 10
125.7781723137974
 20
313.554024525722
 42
-0.5847457288354972
 10
125.4743665915089
 20
313.7249758989839
  0
ENDBLK
  5
3E13
330
3E11
100
AcDbEntity
  8
0
100
AcDbBlockEnd
  0
BLOCK
  5
3E1D
330
3E1C
100
AcDbEntity
  8
0
100
AcDbBlockBegin
  2
6Glass
 70
     0
 10
101.8368839708302
 20
399.4111348733001
 30
0.0
  3
6Glass
  1
6Glass.dwg
  0
LINE
  5
521A
330
3E1C
100
AcDbEntity
  8
APL Joinery
 62
     7
100
AcDbLine
 10
95.33688397083029
 20
412.4111348732999
 30
0.0
 11
95.33688397083029
 21
392.4111348733
 31
0.0
  0
LINE
  5
521B
330
3E1C
100
AcDbEntity
  8
APL Joinery
 62
     7
100
AcDbLine
 10
89.33688397083029
 20
412.4111348732999
 30
0.0
 11
95.33688397083029
 21
412.4111348732999
 31
0.0
  0
LINE
  5
521C
330
3E1C
100
AcDbEntity
  8
APL Joinery
 62
     8
100
AcDbLine
 10
93.33688397083028
 20
412.4111348732999
 30
0.0
 11
93.33688397083028
 21
392.4111348733
 31
0.0
  0
LINE
  5
521D
330
3E1C
100
AcDbEntity
  8
APL Joinery
 62
     7
100
AcDbLine
 10
89.33688397083029
 20
412.4111348732999
 30
0.0
 11
89.33688397083029
 21
392.4111348733
 31
0.0
  0
LINE
  5
521E
330
3E1C
100
AcDbEntity
  8
APL Joinery
 62
     8
100
AcDbLine
 10
91.33688397083028
 20
412.4111348732999
 30
0.0
 11
91.33688397083028
 21
392.4111348733
 31
0.0
  0
ENDBLK
  5
3E1E
330
3E1C
100
AcDbEntity
  8
0
100
AcDbBlockEnd
  0
BLOCK
  5
3E5E
330
3E5D
100
AcDbEntity
  8
0
100
AcDbBlockBegin
  2
08634
 70
     0
 10
130.5887203063604
 20
627.9224932246809
 30
0.0
  3
08634
  1
08634.dwg
  0
LWPOLYLINE
  5
59F8
102
{ACAD_REACTORS
330
59FA
102
}
330
3E5D
100
AcDbEntity
  8
APL Joinery
100
AcDbPolyline
 90
        6
 70
     1
 43
0.0
 10
131.7387203063604
 20
635.1538640745794
 10
131.7387203063604
 20
648.2724932246811
 42
-0.4142135623730951
 10
132.2387203063604
 20
648.7724932246812
 10
145.3573494564619
 20
648.7724932246809
 42
-0.6681786379192989
 10
145.5341261517585
 20
648.3457165293843
 10
132.1654970016569
 20
634.9770873792827
 42
-0.66817863791934
  0
LWPOLYLINE
  5
59F9
102
{ACAD_REACTORS
330
59FA
102
}
330
3E5D
100
AcDbEntity
  8
APL Joinery
100
AcDbPolyline
 90
       51
 70
     1
 43
0.0
 10
150.3916640315127
 20
632.8948020312233
 10
147.1887203063604
 20
629.6918583060708
 10
147.1887203063604
 20
626.8224932246813
 42
0.4142135623730951
 10
147.6887203063604
 20
626.3224932246814
 10
148.728769812524
 20
626.3224932246811
 42
-3.927182716063954
 10
148.7287698125246
 20
625.2224932246808
 10
147.6887203063601
 20
625.2224932246815
 42
-0.4142135623730379
 10
146.0887203063605
 20
626.8224932246814
 10
146.0887203063604
 20
629.6918583060708
 42
-0.1989123673796497
 10
146.4109028470552
 20
630.469675765376
 10
150.9887203063603
 20
635.0474932246814
 10
150.9887203063604
 20
648.2724932246809
 42
0.4142135623730951
 10
150.4887203063604
 20
648.7724932246809
 10
147.7943552249707
 20
648.7724932246809
 42
0.1989123673796702
 10
147.4408018343775
 20
648.6260466152741
 10
131.885166915767
 20
633.0704116966638
 42
0.198912367379658
 10
131.7387203063602
 20
632.7168583060705
 10
131.7387203063602
 20
629.9970087466586
 42
0.4931454260313253
 10
132.3681298289115
 20
629.514045833514
 10
133.5593107838089
 20
629.8332218084182
 42
-0.4931454260313765
 10
134.1887203063603
 20
629.3502588952736
 10
134.1887203063603
 20
624.8653864434875
 42
-0.6681786379192698
 10
133.7619436110636
 20
624.6886097481908
 10
132.6619436110651
 20
625.7886097481896
 42
-0.4142135623731186
 10
132.6619436110638
 20
626.1421631387812
 10
133.0887203063604
 20
626.5689398340778
 10
133.0887203063602
 20
628.1907535193381
 42
0.493145426031274
 10
132.7740155450847
 20
628.4322349759104
 10
130.9034250676359
 20
627.9310117681085
 42
-0.4931454260313082
 10
130.5887203063603
 20
628.1724932246808
 10
130.5887203063604
 20
649.6724932246811
 42
-0.4142135623730951
 10
130.8387203063604
 20
649.9224932246811
 10
152.3887203063601
 20
649.9224932246811
 42
-0.4142135623730951
 10
152.8887203063601
 20
649.4224932246813
 10
152.8887203063601
 20
647.9224932246811
 10
154.0887203063604
 20
647.9224932246808
 42
-0.4142135623730951
 10
154.5887203063604
 20
647.4224932246811
 10
154.5887203063604
 20
645.8724932246812
 42
-0.9999999999998861
 10
153.5887203063604
 20
645.872493224681
 10
153.5887203063604
 20
646.622493224681
 10
152.0887203063604
 20
646.6224932246811
 10
152.0887203063604
 20
641.1224932246811
 10
153.5887203063604
 20
641.122493224681
 10
153.5887203063604
 20
641.872493224681
 42
-0.9999999999999998
 10
154.5887203063604
 20
641.8724932246813
 10
154.5887203063604
 20
640.3224932246812
 42
-0.4142135623730284
 10
154.0887203063604
 20
639.8224932246811
 10
152.0887203063604
 20
639.8224932246811
 10
152.0887203063604
 20
634.6747010185456
 42
-0.198912367379658
 10
152.0301416625977
 20
634.5332796623083
 10
150.9573494564619
 20
633.4604874561725
 42
-1.00000000000015
  0
HATCH
  5
59FA
330
3E5D
100
AcDbEntity
  8
APL Hatch
100
AcDbHatch
 10
0.0
 20
0.0
 30
0.0
210
0.0
220
0.0
230
1.0
  2
SOLID
 70
     1
 71
     1
 91
        2
 92
        1
 93
       51
 72
     1
 10
150.3916640315127
 20
632.8948020312233
 11
147.1887203063604
 21
629.6918583060708
 72
     1
 10
147.1887203063604
 20
629.6918583060708
 11
147.1887203063604
 21
626.8224932246813
 72
     2
 10
147.6887203063604
 20
626.8224932246813
 40
0.5
 50
180.0
 51
270.0
 73
     1
 72
     1
 10
147.6887203063604
 20
626.3224932246814
 11
148.728769812524
 21
626.3224932246811
 72
     2
 10
149.7387203063602
 20
625.7724932246815
 40
1.149999999999796
 50
208.5718781422924
 51
511.4281218576499
 73
     0
 72
     1
 10
148.7287698125246
 20
625.2224932246808
 11
147.6887203063601
 21
625.2224932246815
 72
     2
 10
147.6887203063604
 20
626.8224932246814
 40
1.599999999999909
 50
90.0000000000122
 51
180.0
 73
     0
 72
     1
 10
146.0887203063605
 20
626.8224932246814
 11
146.0887203063604
 21
629.6918583060708
 72
     2
 10
147.1887203063605
 20
629.6918583060708
 40
1.100000000000022
 50
180.0
 51
224.9999999999979
 73
     0
 72
     1
 10
146.4109028470552
 20
630.469675765376
 11
150.9887203063603
 21
635.0474932246814
 72
     1
 10
150.9887203063603
 20
635.0474932246814
 11
150.9887203063604
 21
648.2724932246809
 72
     2
 10
150.4887203063604
 20
648.2724932246809
 40
0.5
 50
0.0
 51
90.0
 73
     1
 72
     1
 10
150.4887203063604
 20
648.7724932246809
 11
147.7943552249707
 21
648.7724932246809
 72
     2
 10
147.7943552249708
 20
648.2724932246809
 40
0.5
 50
90.00000000000651
 51
135.0000000000092
 73
     1
 72
     1
 10
147.4408018343775
 20
648.6260466152741
 11
131.885166915767
 21
633.0704116966638
 72
     2
 10
132.2387203063603
 20
632.7168583060705
 40
0.5000000000000643
 50
134.9999999999977
 51
180.0
 73
     1
 72
     1
 10
131.7387203063602
 20
632.7168583060705
 11
131.7387203063602
 21
629.9970087466586
 72
     2
 10
132.2387203063603
 20
629.9970087466586
 40
0.5000000000000285
 50
180.0
 51
285.0000000000039
 73
     1
 72
     1
 10
132.3681298289115
 20
629.514045833514
 11
133.5593107838089
 21
629.8332218084182
 72
     2
 10
133.6887203063602
 20
629.3502588952736
 40
0.5000000000000446
 50
254.9999999999867
 51
360.0
 73
     0
 72
     1
 10
134.1887203063603
 20
629.3502588952736
 11
134.1887203063603
 21
624.8653864434875
 72
     2
 10
133.9387203063603
 20
624.8653864434875
 40
0.2500000000000284
 50
360.0
 51
494.9999999999953
 73
     0
 72
     1
 10
133.7619436110636
 20
624.6886097481908
 11
132.6619436110651
 21
625.7886097481896
 72
     2
 10
132.8387203063602
 20
625.965386443486
 40
0.2499999999988163
 50
134.9999999997927
 51
224.9999999997973
 73
     0
 72
     1
 10
132.6619436110638
 20
626.1421631387812
 11
133.0887203063604
 21
626.5689398340778
 72
     1
 10
133.0887203063604
 20
626.5689398340778
 11
133.0887203063602
 21
628.1907535193381
 72
     2
 10
132.8387203063603
 20
628.1907535193381
 40
0.25
 50
0.0
 51
104.9999999999944
 73
     1
 72
     1
 10
132.7740155450847
 20
628.4322349759104
 11
130.9034250676359
 21
627.9310117681085
 72
     2
 10
130.8387203063603
 20
628.1724932246808
 40
0.2500000000000003
 50
75.00000000000555
 51
180.0
 73
     0
 72
     1
 10
130.5887203063603
 20
628.1724932246808
 11
130.5887203063604
 21
649.6724932246811
 72
     2
 10
130.8387203063604
 20
649.6724932246811
 40
0.25
 50
180.0
 51
270.0
 73
     0
 72
     1
 10
130.8387203063604
 20
649.9224932246811
 11
152.3887203063601
 21
649.9224932246811
 72
     2
 10
152.3887203063602
 20
649.4224932246813
 40
0.4999999999998864
 50
269.999999999987
 51
359.999999999987
 73
     0
 72
     1
 10
152.8887203063601
 20
649.4224932246813
 11
152.8887203063601
 21
647.9224932246811
 72
     1
 10
152.8887203063601
 20
647.9224932246811
 11
154.0887203063604
 21
647.9224932246808
 72
     2
 10
154.0887203063605
 20
647.422493224681
 40
0.4999999999998864
 50
269.999999999987
 51
359.999999999987
 73
     0
 72
     1
 10
154.5887203063604
 20
647.4224932246811
 11
154.5887203063604
 21
645.8724932246812
 72
     2
 10
154.0887203063604
 20
645.8724932246812
 40
0.5
 50
360.0
 51
539.9999999999869
 73
     0
 72
     1
 10
153.5887203063604
 20
645.872493224681
 11
153.5887203063604
 21
646.622493224681
 72
     1
 10
153.5887203063604
 20
646.622493224681
 11
152.0887203063604
 21
646.6224932246811
 72
     1
 10
152.0887203063604
 20
646.6224932246811
 11
152.0887203063604
 21
641.1224932246811
 72
     1
 10
152.0887203063604
 20
641.1224932246811
 11
153.5887203063604
 21
641.122493224681
 72
     1
 10
153.5887203063604
 20
641.122493224681
 11
153.5887203063604
 21
641.872493224681
 72
     2
 10
154.0887203063604
 20
641.8724932246812
 40
0.5
 50
179.999999999987
 51
359.999999999987
 73
     0
 72
     1
 10
154.5887203063604
 20
641.8724932246813
 11
154.5887203063604
 21
640.3224932246812
 72
     2
 10
154.0887203063603
 20
640.3224932246812
 40
0.5000000000001137
 50
360.0
 51
449.999999999987
 73
     0
 72
     1
 10
154.0887203063604
 20
639.8224932246811
 11
152.0887203063604
 21
639.8224932246811
 72
     1
 10
152.0887203063604
 20
639.8224932246811
 11
152.0887203063604
 21
634.6747010185456
 72
     2
 10
151.8887203063604
 20
634.6747010185456
 40
0.1999999999999886
 50
360.0
 51
405.0
 73
     0
 72
     1
 10
152.0301416625977
 20
634.5332796623083
 11
150.9573494564619
 21
633.4604874561725
 72
     2
 10
150.6745067439873
 20
633.1776447436979
 40
0.4000000000000193
 50
314.9999999999885
 51
495.0000000000057
 73
     0
 97
        1
330
59F9
 92
       16
 93
        6
 72
     1
 10
131.7387203063604
 20
635.1538640745794
 11
131.7387203063604
 21
648.2724932246811
 72
     2
 10
132.2387203063604
 20
648.2724932246811
 40
0.5
 50
180.0
 51
270.0
 73
     0
 72
     1
 10
132.2387203063604
 20
648.7724932246812
 11
145.3573494564619
 21
648.7724932246809
 72
     2
 10
145.3573494564619
 20
648.5224932246809
 40
0.25
 50
270.0000000000065
 51
405.0000000000046
 73
     0
 72
     1
 10
145.5341261517585
 20
648.3457165293843
 11
132.1654970016569
 21
634.9770873792827
 72
     2
 10
131.9887203063603
 20
635.1538640745793
 40
0.2499999999998814
 50
45.0
 51
180.000000000026
 73
     0
 97
        1
330
59F8
 75
     0
 76
     1
 98
        1
 10
0.0
 20
0.0
  0
ENDBLK
  5
3E5F
330
3E5D
100
AcDbEntity
  8
0
100
AcDbBlockEnd
  0
BLOCK
  5
3E64
330
3E63
100
AcDbEntity
  8
0
100
AcDbBlockBegin
  2
08634Glaze
 70
     0
 10
0.0
 20
0.0
 30
0.0
  3
08634Glaze
  1

  0
INSERT
  5
3E66
330
3E63
100
AcDbEntity
  8
APL Notes
100
AcDbBlockReference
  2
08634
 10
0.0
 20
0.0
 30
0.0
 41
-1.0
 50
270.0
  0
INSERT
  5
3E67
330
3E63
100
AcDbEntity
  8
APL Joinery
 48
3.0
100
AcDbBlockReference
  2
9010240l
 10
-19.99999999999967
 20
22.30000000000015
 30
0.0
 43
-1.0
 50
90.0
210
0.0
220
0.0
230
-1.0
  0
INSERT
  5
3E68
330
3E63
100
AcDbEntity
  8
APL Joinery
100
AcDbBlockReference
  2
9010312r
 10
-20.0
 20
37.70000000000027
 30
0.0
 43
-2.0
 50
90.0
210
0.0
220
0.0
230
-1.0
  0
INSERT
  5
3E69
330
3E63
100
AcDbEntity
  8
APL Joinery
 48
3.0
100
AcDbBlockReference
  2
6Glass
 10
18.99987984172827
 20
40.50000225423514
 30
0.0
 50
90.0
  0
ENDBLK
  5
3E65
330
3E63
100
AcDbEntity
  8
0
100
AcDbBlockEnd
  0
BLOCK
  5
429B
330
429A
100
AcDbEntity
  8
0
100
AcDbBlockBegin
  2
08644
 70
     0
 10
557.6355588767437
 20
207.6163397001848
 30
0.0
  3
08644
  1
08644.dwg
  0
LWPOLYLINE
  5
59FC
102
{ACAD_REACTORS
330
59FD
102
}
330
429A
100
AcDbEntity
  8
APL Joinery
  6
Continuous
100
AcDbPolyline
 90
       35
 70
     1
 43
0.0
 10
611.3355588767436
 20
207.6163397001848
 42
0.4142135623729452
 10
611.5355588767435
 20
207.8163397001847
 10
611.5355588767435
 20
209.2163397001848
 42
0.4142135623729951
 10
611.3355588767436
 20
209.4163397001848
 10
604.4355588767436
 20
209.4163397001848
 10
604.0355588767436
 20
209.0163397001849
 10
603.6355588767437
 20
209.4163397001848
 10
596.5355588767438
 20
209.4163397001848
 10
596.5355588767438
 20
221.7163397001849
 10
596.1355588767437
 20
222.1163397001849
 10
596.5355588767438
 20
222.5163397001848
 10
596.5355588767438
 20
225.9330734653814
 42
0.3888787318529909
 10
596.3529900252933
 20
226.1323124049997
 10
592.7529900252934
 20
226.447271593693
 42
0.4400105308918321
 10
592.5355588767438
 20
226.2480326540746
 10
592.5355588767438
 20
225.143830832777
 42
0.3888787318529243
 10
592.7181277281943
 20
224.9445918931587
 10
594.5355588767438
 20
224.7855872709216
 10
594.5355588767438
 20
211.6163397001849
 10
586.7355588767437
 20
211.6163397001849
 42
0.4142135623731784
 10
586.5355588767438
 20
211.4163397001849
 10
586.5355588767438
 20
209.4163397001848
 10
556.0355588767436
 20
209.4163397001848
 42
0.4142135623730118
 10
555.8355588767435
 20
209.2163397001848
 10
555.8355588767435
 20
182.8163397001848
 42
0.4142135623730284
 10
556.0355588767436
 20
182.6163397001848
 10
557.4355588767438
 20
182.6163397001848
 42
0.4142135623729951
 10
557.6355588767437
 20
182.8163397001848
 10
557.6355588767437
 20
207.6163397001848
 10
588.1355588767437
 20
207.6163397001848
 42
0.4142135623730118
 10
588.3355588767438
 20
207.8163397001847
 10
588.3355588767438
 20
209.8163397001848
 10
594.5355588767438
 20
209.8163397001848
 10
594.5355588767438
 20
207.8163397001847
 42
0.4142135623730951
 10
594.7355588767437
 20
207.6163397001848
  0
HATCH
  5
59FD
330
429A
100
AcDbEntity
  8
APL Hatch
100
AcDbHatch
 10
0.0
 20
0.0
 30
0.0
210
0.0
220
0.0
230
1.0
  2
SOLID
 70
     1
 71
     1
 91
        1
 92
        1
 93
       35
 72
     2
 10
611.3355588767436
 20
207.8163397001847
 40
0.200000000000017
 50
270.0
 51
359.9999999999919
 73
     1
 72
     1
 10
611.5355588767435
 20
207.8163397001847
 11
611.5355588767435
 21
209.2163397001848
 72
     2
 10
611.3355588767436
 20
209.2163397001848
 40
0.2000000000000455
 50
0.0000000000162844
 51
90.0
 73
     1
 72
     1
 10
611.3355588767436
 20
209.4163397001848
 11
604.4355588767436
 21
209.4163397001848
 72
     1
 10
604.4355588767436
 20
209.4163397001848
 11
604.0355588767436
 21
209.0163397001849
 72
     1
 10
604.0355588767436
 20
209.0163397001849
 11
603.6355588767437
 21
209.4163397001848
 72
     1
 10
603.6355588767437
 20
209.4163397001848
 11
596.5355588767438
 21
209.4163397001848
 72
     1
 10
596.5355588767438
 20
209.4163397001848
 11
596.5355588767438
 21
221.7163397001849
 72
     1
 10
596.5355588767438
 20
221.7163397001849
 11
596.1355588767437
 21
222.1163397001849
 72
     1
 10
596.1355588767437
 20
222.1163397001849
 11
596.5355588767438
 21
222.5163397001848
 72
     1
 10
596.5355588767438
 20
222.5163397001848
 11
596.5355588767438
 21
225.9330734653814
 72
     2
 10
596.3355588767438
 20
225.9330734653814
 40
0.2000000000000455
 50
0.0
 51
84.99999999998699
 73
     1
 72
     1
 10
596.3529900252933
 20
226.1323124049997
 11
592.7529900252934
 21
226.447271593693
 72
     2
 10
592.7355588767438
 20
226.2480326540746
 40
0.200000000000023
 50
84.9999999999877
 51
179.9999999999918
 73
     1
 72
     1
 10
592.5355588767438
 20
226.2480326540746
 11
592.5355588767438
 21
225.143830832777
 72
     2
 10
592.7355588767438
 20
225.1438308327771
 40
0.2000000000000455
 50
180.0000000000081
 51
264.9999999999877
 73
     1
 72
     1
 10
592.7181277281943
 20
224.9445918931587
 11
594.5355588767438
 21
224.7855872709216
 72
     1
 10
594.5355588767438
 20
224.7855872709216
 11
594.5355588767438
 21
211.6163397001849
 72
     1
 10
594.5355588767438
 20
211.6163397001849
 11
586.7355588767437
 21
211.6163397001849
 72
     2
 10
586.7355588767436
 20
211.416339700185
 40
0.1999999999999318
 50
89.99999999996743
 51
180.0000000000163
 73
     1
 72
     1
 10
586.5355588767438
 20
211.4163397001849
 11
586.5355588767438
 21
209.4163397001848
 72
     1
 10
586.5355588767438
 20
209.4163397001848
 11
556.0355588767436
 21
209.4163397001848
 72
     2
 10
556.0355588767436
 20
209.2163397001848
 40
0.2000000000000455
 50
90.0
 51
179.9999999999837
 73
     1
 72
     1
 10
555.8355588767435
 20
209.2163397001848
 11
555.8355588767435
 21
182.8163397001848
 72
     2
 10
556.0355588767436
 20
182.8163397001848
 40
0.2000000000000455
 50
180.0000000000163
 51
270.0
 73
     1
 72
     1
 10
556.0355588767436
 20
182.6163397001848
 11
557.4355588767438
 21
182.6163397001848
 72
     2
 10
557.4355588767438
 20
182.8163397001848
 40
0.1999999999999886
 50
270.0
 51
360.0
 73
     1
 72
     1
 10
557.6355588767437
 20
182.8163397001848
 11
557.6355588767437
 21
207.6163397001848
 72
     1
 10
557.6355588767437
 20
207.6163397001848
 11
588.1355588767437
 21
207.6163397001848
 72
     2
 10
588.1355588767437
 20
207.8163397001848
 40
0.2000000000000455
 50
270.0
 51
359.9999999999837
 73
     1
 72
     1
 10
588.3355588767438
 20
207.8163397001847
 11
588.3355588767438
 21
209.8163397001848
 72
     1
 10
588.3355588767438
 20
209.8163397001848
 11
594.5355588767438
 21
209.8163397001848
 72
     1
 10
594.5355588767438
 20
209.8163397001848
 11
594.5355588767438
 21
207.8163397001847
 72
     2
 10
594.7355588767437
 20
207.8163397001847
 40
0.1999999999999318
 50
179.9999999999918
 51
270.0
 73
     1
 72
     1
 10
594.7355588767437
 20
207.6163397001848
 11
611.3355588767436
 21
207.6163397001848
 97
        1
330
59FC
 75
     0
 76
     1
 98
        1
 10
0.0
 20
0.0
  0
ENDBLK
  5
429C
330
429A
100
AcDbEntity
  8
0
100
AcDbBlockEnd
  0
BLOCK
  5
4ACF
330
4ACE
100
AcDbEntity
  8
0
100
AcDbBlockBegin
  2
08641
 70
     0
 10
282.3204103257179
 20
191.8336631406077
 30
0.0
  3
08641
  1
08641.dwg
  0
LWPOLYLINE
  5
59FF
102
{ACAD_REACTORS
330
5A00
102
}
330
4ACE
100
AcDbEntity
  8
APL Joinery
  6
Continuous
100
AcDbPolyline
 90
       83
 70
     1
 43
0.0
 10
256.5204103257179
 20
209.7336631391822
 10
256.520410325718
 20
207.8336631391825
 42
-0.414213562372887
 10
256.3204103257181
 20
207.6336631391825
 10
244.3204103257181
 20
207.6336631391825
 42
-0.4142135623731784
 10
244.1204103257181
 20
207.8336631391825
 10
244.1204103257181
 20
211.1336631391825
 42
0.4142135623731784
 10
243.9204103257182
 20
211.3336631391825
 10
243.8204103257179
 20
211.3336631391825
 10
243.8204103257179
 20
214.3336631391825
 10
244.5704103257179
 20
214.3336631391825
 42
0.4744978678078648
 10
244.8153592999962
 20
214.6336631391825
 42
0.3563939586925905
 10
243.3456654543264
 20
215.8336631391824
 10
242.5704103257179
 20
215.8336631391825
 42
0.4142135623730951
 10
242.3204103257179
 20
215.5836631391825
 10
242.3204103257179
 20
192.0336631406078
 42
0.4142135623730534
 10
242.520410325718
 20
191.8336631406077
 10
243.9204103257182
 20
191.8336631406077
 42
0.4142135623729286
 10
244.1204103257181
 20
192.0336631406077
 10
244.1204103257181
 20
204.8336631391825
 42
-0.4142135623730951
 10
245.1204103257181
 20
205.8336631391825
 10
247.3961269516489
 20
205.8336631391825
 42
-0.5149445451953376
 10
247.8689321774404
 20
205.1710125367729
 42
0.2788550286927251
 10
248.6658648711724
 20
201.4784908038426
 42
1.000000000000045
 10
249.9749557802634
 20
202.7139182568868
 42
-2.318729304408764
 10
252.6658648711725
 20
202.7139182568869
 42
1.000000000000056
 10
253.9749557802634
 20
201.4784908038425
 42
0.2788550286926399
 10
254.771888473996
 20
205.1710125367729
 42
-0.5149445451951796
 10
255.2446936997876
 20
205.8336631391826
 10
256.3204103257179
 20
205.8336631391825
 42
0.4142135623730951
 10
258.3204103257179
 20
207.8336631391825
 10
258.3204103257179
 20
209.7336631391823
 42
-0.4142135623730951
 10
258.8204103257179
 20
210.2336631391823
 10
262.8204103257181
 20
210.2336631391823
 42
0.4142135623730732
 10
265.1204103257181
 20
212.5336631391823
 10
265.1204103257181
 20
213.0336631391825
 42
-0.4142135623730951
 10
266.1204103257181
 20
214.0336631391825
 10
269.3961269516484
 20
214.0336631391824
 42
-0.5149445451951298
 10
269.8689321774399
 20
213.3710125367727
 42
0.2788550286926287
 10
270.6658648711727
 20
209.6784908038427
 42
1.000000000000033
 10
271.9749557802636
 20
210.913918256887
 42
-2.318729304408791
 10
274.6658648711725
 20
210.9139182568869
 42
0.9999999999999998
 10
275.9749557802638
 20
209.6784908038429
 42
0.2788550286926404
 10
276.7718884739965
 20
213.3710125367728
 42
-0.5149445451951486
 10
277.244693699788
 20
214.0336631391825
 10
279.5204103257182
 20
214.0336631391825
 42
-0.4142135623730951
 10
280.5204103257182
 20
213.0336631391825
 10
280.5204103257182
 20
192.0336631406077
 42
0.4142135623729703
 10
280.7204103257181
 20
191.8336631406077
 10
282.120410325718
 20
191.8336631406077
 42
0.4142135623728453
 10
282.3204103257179
 20
192.0336631406077
 10
282.3204103257179
 20
237.6336631391825
 42
0.4142135623731784
 10
282.120410325718
 20
237.8336631391825
 10
280.2204103257182
 20
237.8336631391825
 42
0.4142135623730118
 10
280.0204103257182
 20
237.6336631391825
 10
280.0204103257182
 20
235.8336631391825
 10
278.820410325718
 20
235.8336631391825
 42
0.4142135623730951
 10
278.320410325718
 20
235.3336631391825
 10
278.3204103257179
 20
233.7836631391826
 42
1.000000000000028
 10
279.3204103257181
 20
233.7836631391825
 10
279.3204103257179
 20
234.5336631391825
 10
280.820410325718
 20
234.5336631391825
 10
280.820410325718
 20
229.0336631391824
 10
279.3204103257179
 20
229.0336631391824
 10
279.3204103257179
 20
229.7836631391825
 42
0.9999999999999998
 10
278.320410325718
 20
229.7836631391825
 10
278.320410325718
 20
228.2336631391824
 42
0.4142135623730951
 10
278.820410325718
 20
227.7336631391825
 10
280.5204103257182
 20
227.7336631391825
 10
280.5204103257181
 20
222.3336631391825
 10
278.8204103257178
 20
222.3336631391825
 42
0.9999999999999998
 10
278.8204103257178
 20
221.3336631391825
 10
280.5204103257181
 20
221.3336631391825
 10
280.5204103257182
 20
217.3336631391825
 10
278.5204103257179
 20
217.3336631391825
 42
0.4142135623728453
 10
278.320410325718
 20
217.1336631391825
 10
278.320410325718
 20
215.8336631391825
 10
260.3204103257182
 20
215.8336631391823
 42
0.9999999999999998
 10
260.3204103257182
 20
214.8336631391823
 10
262.8204103257179
 20
214.8336631391823
 42
-0.4142135623730951
 10
263.3204103257179
 20
214.3336631391823
 10
263.3204103257179
 20
212.5336631391824
 42
-0.4142135623730951
 10
262.8204103257179
 20
212.0336631391824
 10
258.8204103257179
 20
212.0336631391824
 42
0.4142135623730914
  0
HATCH
  5
5A00
330
4ACE
100
AcDbEntity
  8
APL Hatch
100
AcDbHatch
 10
0.0
 20
0.0
 30
0.0
210
0.0
220
0.0
230
1.0
  2
SOLID
 70
     1
 71
     1
 91
        1
 92
        1
 93
       83
 72
     1
 10
256.5204103257179
 20
209.7336631391822
 11
256.520410325718
 21
207.8336631391825
 72
     2
 10
256.3204103257179
 20
207.8336631391826
 40
0.2000000000000455
 50
0.0000000000162844
 51
89.99999999996743
 73
     0
 72
     1
 10
256.3204103257181
 20
207.6336631391825
 11
244.3204103257181
 21
207.6336631391825
 72
     2
 10
244.3204103257181
 20
207.8336631391825
 40
0.1999999999999318
 50
90.0
 51
180.0000000000163
 73
     0
 72
     1
 10
244.1204103257181
 20
207.8336631391825
 11
244.1204103257181
 21
211.1336631391825
 72
     2
 10
243.9204103257182
 20
211.1336631391826
 40
0.1999999999999318
 50
359.9999999999837
 51
450.0
 73
     1
 72
     1
 10
243.9204103257182
 20
211.3336631391825
 11
243.8204103257179
 21
211.3336631391825
 72
     1
 10
243.8204103257179
 20
211.3336631391825
 11
243.8204103257179
 21
214.3336631391825
 72
     1
 10
243.8204103257179
 20
214.3336631391825
 11
244.5704103257179
 21
214.3336631391825
 72
     2
 10
244.5704103257178
 20
214.5836631391826
 40
0.2500000000000568
 50
270.0000000000326
 51
371.5369590328079
 73
     1
 72
     2
 10
243.3456654543264
 20
214.3336631391825
 40
1.499999999999928
 50
11.53695903281538
 51
89.99999999999785
 73
     1
 72
     1
 10
243.3456654543264
 20
215.8336631391824
 11
242.5704103257179
 21
215.8336631391825
 72
     2
 10
242.5704103257179
 20
215.5836631391825
 40
0.25
 50
90.0
 51
180.0
 73
     1
 72
     1
 10
242.3204103257179
 20
215.5836631391825
 11
242.3204103257179
 21
192.0336631406078
 72
     2
 10
242.520410325718
 20
192.0336631406078
 40
0.2000000000000455
 50
180.0000000000081
 51
270.0
 73
     1
 72
     1
 10
242.520410325718
 20
191.8336631406077
 11
243.9204103257182
 21
191.8336631406077
 72
     2
 10
243.9204103257181
 20
192.0336631406078
 40
0.2000000000000455
 50
270.0000000000163
 51
359.9999999999837
 73
     1
 72
     1
 10
244.1204103257181
 20
192.0336631406077
 11
244.1204103257181
 21
204.8336631391825
 72
     2
 10
245.1204103257181
 20
204.8336631391825
 40
1.0
 50
180.0
 51
270.0
 73
     0
 72
     1
 10
245.1204103257181
 20
205.8336631391825
 11
247.3961269516489
 21
205.8336631391825
 72
     2
 10
247.396126951649
 20
205.3336631391826
 40
0.4999999999999432
 50
269.9999999999902
 51
378.9838243850478
 73
     0
 72
     2
 10
251.3204103257175
 20
203.9836631391817
 40
3.649999999999208
 50
161.0161756149417
 51
223.3417582272179
 73
     1
 72
     2
 10
249.3204103257179
 20
202.0962045303647
 40
0.8999999999999964
 50
223.3417582272141
 51
403.3417582272192
 73
     1
 72
     2
 10
251.320410325718
 20
203.9836631391823
 40
1.849999999999992
 50
136.6582417727778
 51
403.3417582272197
 73
     0
 72
     2
 10
253.320410325718
 20
202.0962045303647
 40
0.9000000000000101
 50
136.6582417727718
 51
316.6582417727783
 73
     1
 72
     2
 10
251.3204103257175
 20
203.9836631391824
 40
3.650000000000369
 50
316.6582417727826
 51
378.9838243850402
 73
     1
 72
     2
 10
255.2446936997876
 20
205.3336631391825
 40
0.5000000000000813
 50
161.0161756149677
 51
269.9999999999968
 73
     0
 72
     1
 10
255.2446936997876
 20
205.8336631391826
 11
256.3204103257179
 21
205.8336631391825
 72
     2
 10
256.3204103257179
 20
207.8336631391825
 40
2.0
 50
270.0
 51
360.0
 73
     1
 72
     1
 10
258.3204103257179
 20
207.8336631391825
 11
258.3204103257179
 21
209.7336631391823
 72
     2
 10
258.8204103257179
 20
209.7336631391823
 40
0.5
 50
180.0
 51
270.0
 73
     0
 72
     1
 10
258.8204103257179
 20
210.2336631391823
 11
262.8204103257181
 21
210.2336631391823
 72
     2
 10
262.820410325718
 20
212.5336631391824
 40
2.300000000000125
 50
270.0000000000014
 51
359.9999999999972
 73
     1
 72
     1
 10
265.1204103257181
 20
212.5336631391823
 11
265.1204103257181
 21
213.0336631391825
 72
     2
 10
266.1204103257181
 20
213.0336631391825
 40
1.0
 50
180.0
 51
270.0
 73
     0
 72
     1
 10
266.1204103257181
 20
214.0336631391825
 11
269.3961269516484
 21
214.0336631391824
 72
     2
 10
269.3961269516482
 20
213.5336631391823
 40
0.5000000000001137
 50
270.0000000000196
 51
378.9838243850395
 73
     0
 72
     2
 10
273.3204103257183
 20
212.1836631391826
 40
3.650000000000145
 50
161.0161756149661
 51
223.3417582272218
 73
     1
 72
     2
 10
271.3204103257182
 20
210.2962045303648
 40
0.9000000000000136
 50
223.3417582272205
 51
403.3417582272243
 73
     1
 72
     2
 10
273.3204103257181
 20
212.1836631391823
 40
1.849999999999835
 50
136.6582417727816
 51
403.3417582272245
 73
     0
 72
     2
 10
275.3204103257181
 20
210.2962045303649
 40
0.9000000000000401
 50
136.6582417727935
 51
316.6582417727935
 73
     1
 72
     2
 10
273.3204103257182
 20
212.1836631391826
 40
3.649999999999982
 50
316.6582417727799
 51
378.9838243850372
 73
     1
 72
     2
 10
277.2446936997881
 20
213.5336631391824
 40
0.5000000000000636
 50
161.0161756149636
 51
269.999999999987
 73
     0
 72
     1
 10
277.244693699788
 20
214.0336631391825
 11
279.5204103257182
 21
214.0336631391825
 72
     2
 10
279.5204103257182
 20
213.0336631391825
 40
1.0
 50
270.0
 51
360.0
 73
     0
 72
     1
 10
280.5204103257182
 20
213.0336631391825
 11
280.5204103257182
 21
192.0336631406077
 72
     2
 10
280.7204103257182
 20
192.0336631406077
 40
0.1999999999999886
 50
180.0
 51
269.9999999999838
 73
     1
 72
     1
 10
280.7204103257181
 20
191.8336631406077
 11
282.120410325718
 21
191.8336631406077
 72
     2
 10
282.1204103257178
 20
192.0336631406078
 40
0.2000000000000739
 50
270.0000000000326
 51
359.9999999999756
 73
     1
 72
     1
 10
282.3204103257179
 20
192.0336631406077
 11
282.3204103257179
 21
237.6336631391825
 72
     2
 10
282.120410325718
 20
237.6336631391826
 40
0.1999999999999318
 50
359.9999999999837
 51
450.0
 73
     1
 72
     1
 10
282.120410325718
 20
237.8336631391825
 11
280.2204103257182
 21
237.8336631391825
 72
     2
 10
280.2204103257182
 20
237.6336631391824
 40
0.2000000000000455
 50
90.0
 51
179.9999999999837
 73
     1
 72
     1
 10
280.0204103257182
 20
237.6336631391825
 11
280.0204103257182
 21
235.8336631391825
 72
     1
 10
280.0204103257182
 20
235.8336631391825
 11
278.820410325718
 21
235.8336631391825
 72
     2
 10
278.820410325718
 20
235.3336631391825
 40
0.5
 50
90.0
 51
180.0
 73
     1
 72
     1
 10
278.320410325718
 20
235.3336631391825
 11
278.3204103257179
 21
233.7836631391826
 72
     2
 10
278.820410325718
 20
233.7836631391825
 40
0.5000000000000569
 50
179.9999999999967
 51
360.0
 73
     1
 72
     1
 10
279.3204103257181
 20
233.7836631391825
 11
279.3204103257179
 21
234.5336631391825
 72
     1
 10
279.3204103257179
 20
234.5336631391825
 11
280.820410325718
 21
234.5336631391825
 72
     1
 10
280.820410325718
 20
234.5336631391825
 11
280.820410325718
 21
229.0336631391824
 72
     1
 10
280.820410325718
 20
229.0336631391824
 11
279.3204103257179
 21
229.0336631391824
 72
     1
 10
279.3204103257179
 20
229.0336631391824
 11
279.3204103257179
 21
229.7836631391825
 72
     2
 10
278.820410325718
 20
229.7836631391825
 40
0.5
 50
0.0
 51
180.0
 73
     1
 72
     1
 10
278.320410325718
 20
229.7836631391825
 11
278.320410325718
 21
228.2336631391824
 72
     2
 10
278.820410325718
 20
228.2336631391824
 40
0.5
 50
180.0
 51
270.0
 73
     1
 72
     1
 10
278.820410325718
 20
227.7336631391825
 11
280.5204103257182
 21
227.7336631391825
 72
     1
 10
280.5204103257182
 20
227.7336631391825
 11
280.5204103257181
 21
222.3336631391825
 72
     1
 10
280.5204103257181
 20
222.3336631391825
 11
278.8204103257178
 21
222.3336631391825
 72
     2
 10
278.8204103257178
 20
221.8336631391825
 40
0.5
 50
90.0
 51
270.0
 73
     1
 72
     1
 10
278.8204103257178
 20
221.3336631391825
 11
280.5204103257181
 21
221.3336631391825
 72
     1
 10
280.5204103257181
 20
221.3336631391825
 11
280.5204103257182
 21
217.3336631391825
 72
     1
 10
280.5204103257182
 20
217.3336631391825
 11
278.5204103257179
 21
217.3336631391825
 72
     2
 10
278.520410325718
 20
217.1336631391824
 40
0.2000000000000739
 50
90.00000000003257
 51
179.9999999999756
 73
     1
 72
     1
 10
278.320410325718
 20
217.1336631391825
 11
278.320410325718
 21
215.8336631391825
 72
     1
 10
278.320410325718
 20
215.8336631391825
 11
260.3204103257182
 21
215.8336631391823
 72
     2
 10
260.3204103257182
 20
215.3336631391823
 40
0.5
 50
90.0
 51
270.0
 73
     1
 72
     1
 10
260.3204103257182
 20
214.8336631391823
 11
262.8204103257179
 21
214.8336631391823
 72
     2
 10
262.8204103257179
 20
214.3336631391823
 40
0.5
 50
270.0
 51
360.0
 73
     0
 72
     1
 10
263.3204103257179
 20
214.3336631391823
 11
263.3204103257179
 21
212.5336631391824
 72
     2
 10
262.8204103257179
 20
212.5336631391824
 40
0.5
 50
360.0
 51
450.0
 73
     0
 72
     1
 10
262.8204103257179
 20
212.0336631391824
 11
258.8204103257179
 21
212.0336631391824
 72
     2
 10
258.820410325718
 20
209.7336631391822
 40
2.300000000000125
 50
90.00000000000142
 51
180.0000000000014
 73
     1
 97
        1
330
59FF
 75
     0
 76
     1
 98
        1
 10
0.0
 20
0.0
  0
ENDBLK
  5
4AD0
330
4ACE
100
AcDbEntity
  8
0
100
AcDbBlockEnd
  0
BLOCK
  5
5129
330
5128
100
AcDbEntity
  8
0
100
AcDbBlockBegin
  2
08620
 70
     0
 10
0.0
 20
0.0
 30
0.0
  3
08620
  1
08620.dwg
  0
LWPOLYLINE
  5
5A02
102
{ACAD_REACTORS
330
5A04
102
}
330
5128
100
AcDbEntity
  8
APL Joinery
 48
0.1
100
AcDbPolyline
 90
       83
 70
     1
 43
0.0
 10
-11.46774193477103
 20
-5.351809493818905
 42
-0.1997758394636949
 10
-8.844827663946766
 20
-6.345364481507857
 42
-1.000000000000041
 10
-10.08025511699101
 20
-7.654455390598656
 42
2.318729304408841
 10
-10.08025511699109
 20
-10.3453644815078
 42
-1.000000000000078
 10
-8.844827663946759
 20
-11.65445539059874
 42
-0.1997758394636821
 10
-11.46774193477091
 20
-12.64801037828735
 42
0.423695254155696
 10
-12.49999999928718
 20
-13.64748995150218
 10
-12.49999999928718
 20
-15.4999099360532
 42
0.4142135623730951
 10
-11.49999999928718
 20
-16.4999099360532
 10
-11.199999999287
 20
-16.4999099360532
 42
-0.4142135623730951
 10
-8.699999999287001
 20
-18.9999099360532
 10
-8.699999999286994
 20
-23.29990993605327
 10
-8.199999999287172
 20
-23.29990993605327
 42
-0.4142135623730951
 10
-7.999999999287183
 20
-23.49990993605326
 10
-7.999999999287183
 20
-26.35232992060409
 42
0.4236952541556733
 10
-6.967741934770977
 20
-27.35180949381899
 42
-0.1997758394636871
 10
-4.344827663946702
 20
-28.34536448150786
 42
-1.00000000000002
 10
-5.580255116991025
 20
-29.65445539059857
 42
2.318729304408841
 10
-5.580255116991096
 20
-32.34536448150783
 42
-1.00000000000004
 10
-4.344827663946944
 20
-33.65445539059864
 42
-0.1997758394636953
 10
-6.967741934771026
 20
-34.64801037828757
 42
0.4236952541556613
 10
-7.99999999928719
 20
-35.64748995150238
 10
-7.999999999287183
 20
-37.19990993605325
 42
0.4142135623730951
 10
-6.999999999287183
 20
-38.19990993605325
 10
8.799999999287365
 20
-38.19990993605325
 42
-0.4142135623730118
 10
8.99999999928741
 20
-38.39990993605324
 10
8.99999999928741
 20
-39.79990993605333
 42
-0.4142135623730951
 10
8.799999999287365
 20
-39.99990993605337
 10
-14.74999999928718
 20
-39.99990993605332
 42
-0.4142135623730951
 10
-14.99999999928718
 20
-39.74990993605331
 10
-14.99999999928718
 20
-38.97465480744495
 42
-0.3563939586925875
 10
-13.79999999928721
 20
-37.50496096177493
 42
-0.4744978678080224
 10
-13.49999999928718
 20
-37.74990993605332
 10
-13.49999999928718
 20
-38.49990993605331
 10
-10.49999999928718
 20
-38.49990993605331
 10
-10.49999999928718
 20
-25.79990993605327
 10
-10.99999999928701
 20
-25.79990993605327
 42
-0.4142135623730118
 10
-11.199999999287
 20
-25.59990993605322
 10
-11.199999999287
 20
-19.4999099360532
 42
0.4142135623730951
 10
-11.699999999287
 20
-18.9999099360532
 10
-13.49999999928696
 20
-18.9999099360532
 42
0.4142135623730951
 10
-13.99999999928695
 20
-19.4999099360532
 10
-13.99999999928695
 20
-21.9999099360532
 42
-0.9999999999999998
 10
-14.99999999928718
 20
-21.9999099360532
 10
-14.99999999928718
 20
-3.999909936053313
 10
-16.29999999928719
 20
-3.999909936053313
 42
-0.4142135623730951
 10
-16.49999999928718
 20
-3.799909936053325
 10
-16.49999999928718
 20
-1.799909936053268
 10
-20.49999999928713
 20
-1.799909936053211
 10
-20.49999999928724
 20
-3.49990993605337
 42
-0.9999999999999998
 10
-21.49999999928713
 20
-3.49990993605337
 10
-21.49999999928713
 20
-1.799909936053268
 10
-26.89999999928728
 20
-1.799909936053268
 10
-26.89999999928728
 20
-3.499909936053313
 42
-0.4142135623730951
 10
-27.39999999928727
 20
-3.999909936053313
 10
-28.94999999928723
 20
-3.999909936053313
 42
-0.9999999999999998
 10
-28.94999999928723
 20
-2.999909936053313
 10
-28.19999999928723
 20
-2.999909936053313
 10
-28.19999999928723
 20
-1.499909936053313
 10
-33.69999999928723
 20
-1.499909936053313
 10
-33.69999999928723
 20
-2.999909936053313
 10
-32.94999999928723
 20
-2.999909936053313
 42
-0.9999999999999998
 10
-32.94999999928723
 20
-3.999909936053313
 10
-34.49999999928718
 20
-3.999909936053313
 42
-0.4142135623730951
 10
-34.99999999928718
 20
-3.499909936053313
 10
-34.99999999928718
 20
-2.299909936053268
 10
-36.7999999992872
 20
-2.299909936053268
 42
-0.4142135623730951
 10
-36.99999999928718
 20
-2.099909936053279
 10
-36.99999999928713
 20
-0.1999099360533023
 42
-0.4142135623730118
 10
-36.7999999992872
 20
0.0000900639466863
 10
-14.99999999928718
 20
0.0000900639466863
 10
-14.99999999928707
 20
59.50009006394669
 42
-0.4142135623730951
 10
-14.49999999928707
 20
60.00009006394669
 10
14.49999999928775
 20
60.00009006394669
 42
-0.4142135623730951
 10
14.99999999928775
 20
59.50009006394669
 10
14.99999999928764
 20
0.2000900639465613
 42
-0.4142135623730118
 10
14.79999999928759
 20
0.0000900639465726
 10
8.99999999928741
 20
0.0000900639465726
 10
8.99999999928741
 20
-1.599909936053279
 42
-0.4142135623730118
 10
8.799999999287422
 20
-1.799909936053325
 10
-11.49999999928718
 20
-1.799909936053268
 42
0.4142135623730951
 10
-12.49999999928718
 20
-2.799909936053268
 10
-12.49999999928719
 20
-4.352329920604233
 42
0.4236952541556609
  0
LWPOLYLINE
  5
5A03
102
{ACAD_REACTORS
330
5A04
102
}
330
5128
100
AcDbEntity
  8
APL Joinery
  6
Continuous
100
AcDbPolyline
 90
        9
 70
     1
 43
0.0
 10
-13.199999999287
 20
0.0000900639466863
 10
7.199999999287342
 20
0.0000900639466863
 10
7.199999999287342
 20
1.600090063946538
 42
-0.4142135623730951
 10
7.399999999287274
 20
1.80009006394647
 10
13.19999999928768
 20
1.800090063946527
 10
13.1999999992878
 20
56.00009006394657
 42
0.4142135623730951
 10
12.1999999992878
 20
57.00009006394657
 10
-12.19999999928689
 20
57.00009006394669
 42
0.4142135623730951
 10
-13.19999999928689
 20
56.00009006394668
  0
HATCH
  5
5A04
330
5128
100
AcDbEntity
  8
APL Hatch
100
AcDbHatch
 10
0.0
 20
0.0
 30
0.0
210
0.0
220
0.0
230
1.0
  2
SOLID
 70
     1
 71
     1
 91
        2
 92
       17
 93
        9
 72
     1
 10
-13.199999999287
 20
0.0000900639466863
 11
7.199999999287342
 21
0.0000900639466863
 72
     1
 10
7.199999999287342
 20
0.0000900639466863
 11
7.199999999287342
 21
1.600090063946538
 72
     2
 10
7.399999999287274
 20
1.600090063946538
 40
0.1999999999999318
 50
180.0
 51
270.0
 73
     0
 72
     1
 10
7.399999999287274
 20
1.80009006394647
 11
13.19999999928768
 21
1.800090063946527
 72
     1
 10
13.19999999928768
 20
1.800090063946527
 11
13.1999999992878
 21
56.00009006394657
 72
     2
 10
12.1999999992878
 20
56.00009006394657
 40
1.0
 50
0.0
 51
90.0
 73
     1
 72
     1
 10
12.1999999992878
 20
57.00009006394657
 11
-12.19999999928689
 21
57.00009006394669
 72
     2
 10
-12.19999999928689
 20
56.00009006394668
 40
1.0
 50
90.0
 51
180.0
 73
     1
 72
     1
 10
-13.19999999928689
 20
56.00009006394668
 11
-13.199999999287
 21
0.0000900639466863
 97
        1
330
5A03
 92
        1
 93
       83
 72
     2
 10
-11.34999999928702
 20
-8.999909936053157
 40
3.650000000000173
 50
268.1514283547693
 51
313.3417582272288
 73
     0
 72
     2
 10
-9.462541390468862
 20
-6.999909936053281
 40
0.8999999999999392
 50
313.3417582272211
 51
493.3417582272258
 73
     0
 72
     2
 10
-11.34999999928661
 20
-8.999909936053189
 40
1.850000000000036
 50
46.65824177277586
 51
313.3417582272205
 73
     1
 72
     2
 10
-9.462541390468876
 20
-10.99990993605322
 40
0.900000000000022
 50
226.658241772773
 51
406.658241772782
 73
     0
 72
     2
 10
-11.34999999928663
 20
-8.999909936053189
 40
3.650000000000094
 50
46.65824177277829
 51
91.8485716452349
 73
     0
 72
     2
 10
-11.49999999928718
 20
-13.64748995150217
 40
1.000000000000002
 50
88.15142835476345
 51
180.0000000000007
 73
     1
 72
     1
 10
-12.49999999928718
 20
-13.64748995150218
 11
-12.49999999928718
 21
-15.4999099360532
 72
     2
 10
-11.49999999928718
 20
-15.4999099360532
 40
1.0
 50
180.0
 51
270.0
 73
     1
 72
     1
 10
-11.49999999928718
 20
-16.4999099360532
 11
-11.199999999287
 21
-16.4999099360532
 72
     2
 10
-11.199999999287
 20
-18.9999099360532
 40
2.5
 50
270.0
 51
360.0
 73
     0
 72
     1
 10
-8.699999999287001
 20
-18.9999099360532
 11
-8.699999999286994
 21
-23.29990993605327
 72
     1
 10
-8.699999999286994
 20
-23.29990993605327
 11
-8.199999999287172
 21
-23.29990993605327
 72
     2
 10
-8.199999999287172
 20
-23.49990993605326
 40
0.1999999999999886
 50
270.0
 51
360.0
 73
     0
 72
     1
 10
-7.999999999287183
 20
-23.49990993605326
 11
-7.999999999287183
 21
-26.35232992060409
 72
     2
 10
-6.999999999287141
 20
-26.35232992060414
 40
1.000000000000041
 50
179.9999999999975
 51
271.8485716452306
 73
     1
 72
     2
 10
-6.84999999928691
 20
-30.99990993605334
 40
3.650000000000274
 50
268.1514283547685
 51
313.3417582272263
 73
     0
 72
     2
 10
-4.96254139046885
 20
-28.99990993605323
 40
0.8999999999999365
 50
313.3417582272258
 51
493.3417582272283
 73
     0
 72
     2
 10
-6.849999999286673
 20
-30.99990993605317
 40
1.850000000000114
 50
46.65824177277619
 51
313.3417582272209
 73
     1
 72
     2
 10
-4.962541390468993
 20
-32.99990993605322
 40
0.8999999999999158
 50
226.6582417727768
 51
406.6582417727811
 73
     0
 72
     2
 10
-6.849999999287072
 20
-30.99990993605356
 40
3.64999999999993
 50
46.65824177277035
 51
91.84857164522993
 73
     0
 72
     2
 10
-6.999999999287191
 20
-35.64748995150238
 40
0.9999999999999971
 50
88.15142835476938
 51
180.0
 73
     1
 72
     1
 10
-7.99999999928719
 20
-35.64748995150238
 11
-7.999999999287183
 21
-37.19990993605325
 72
     2
 10
-6.999999999287183
 20
-37.19990993605325
 40
1.0
 50
180.0
 51
270.0
 73
     1
 72
     1
 10
-6.999999999287183
 20
-38.19990993605325
 11
8.799999999287365
 21
-38.19990993605325
 72
     2
 10
8.799999999287365
 20
-38.39990993605329
 40
0.2000000000000455
 50
270.0
 51
359.9999999999837
 73
     0
 72
     1
 10
8.99999999928741
 20
-38.39990993605324
 11
8.99999999928741
 21
-39.79990993605333
 72
     2
 10
8.799999999287365
 20
-39.79990993605333
 40
0.2000000000000455
 50
360.0
 51
450.0
 73
     0
 72
     1
 10
8.799999999287365
 20
-39.99990993605337
 11
-14.74999999928718
 21
-39.99990993605332
 72
     2
 10
-14.74999999928718
 20
-39.74990993605331
 40
0.25
 50
90.0
 51
180.0
 73
     0
 72
     1
 10
-14.99999999928718
 20
-39.74990993605331
 11
-14.99999999928718
 21
-38.97465480744495
 72
     2
 10
-13.49999999928708
 20
-38.97465480744491
 40
1.500000000000101
 50
179.9999999999984
 51
258.4630409671803
 73
     0
 72
     2
 10
-13.74999999928724
 20
-37.74990993605332
 40
0.2500000000000606
 50
258.4630409671955
 51
360.0
 73
     0
 72
     1
 10
-13.49999999928718
 20
-37.74990993605332
 11
-13.49999999928718
 21
-38.49990993605331
 72
     1
 10
-13.49999999928718
 20
-38.49990993605331
 11
-10.49999999928718
 21
-38.49990993605331
 72
     1
 10
-10.49999999928718
 20
-38.49990993605331
 11
-10.49999999928718
 21
-25.79990993605327
 72
     1
 10
-10.49999999928718
 20
-25.79990993605327
 11
-10.99999999928701
 21
-25.79990993605327
 72
     2
 10
-10.99999999928695
 20
-25.59990993605322
 40
0.2000000000000455
 50
90.00000000001628
 51
180.0
 73
     0
 72
     1
 10
-11.199999999287
 20
-25.59990993605322
 11
-11.199999999287
 21
-19.4999099360532
 72
     2
 10
-11.699999999287
 20
-19.4999099360532
 40
0.5
 50
0.0
 51
90.0
 73
     1
 72
     1
 10
-11.699999999287
 20
-18.9999099360532
 11
-13.49999999928696
 21
-18.9999099360532
 72
     2
 10
-13.49999999928696
 20
-19.4999099360532
 40
0.5
 50
90.0
 51
180.0
 73
     1
 72
     1
 10
-13.99999999928695
 20
-19.4999099360532
 11
-13.99999999928695
 21
-21.9999099360532
 72
     2
 10
-14.49999999928707
 20
-21.9999099360532
 40
0.5000000000001137
 50
360.0
 51
540.0
 73
     0
 72
     1
 10
-14.99999999928718
 20
-21.9999099360532
 11
-14.99999999928718
 21
-3.999909936053313
 72
     1
 10
-14.99999999928718
 20
-3.999909936053313
 11
-16.29999999928719
 21
-3.999909936053313
 72
     2
 10
-16.29999999928719
 20
-3.799909936053325
 40
0.1999999999999886
 50
90.0
 51
180.0
 73
     0
 72
     1
 10
-16.49999999928718
 20
-3.799909936053325
 11
-16.49999999928718
 21
-1.799909936053268
 72
     1
 10
-16.49999999928718
 20
-1.799909936053268
 11
-20.49999999928713
 21
-1.799909936053211
 72
     1
 10
-20.49999999928713
 20
-1.799909936053211
 11
-20.49999999928724
 21
-3.49990993605337
 72
     2
 10
-20.99999999928718
 20
-3.49990993605337
 40
0.4999999999999432
 50
360.0
 51
540.0
 73
     0
 72
     1
 10
-21.49999999928713
 20
-3.49990993605337
 11
-21.49999999928713
 21
-1.799909936053268
 72
     1
 10
-21.49999999928713
 20
-1.799909936053268
 11
-26.89999999928728
 21
-1.799909936053268
 72
     1
 10
-26.89999999928728
 20
-1.799909936053268
 11
-26.89999999928728
 21
-3.499909936053313
 72
     2
 10
-27.39999999928727
 20
-3.499909936053313
 40
0.5
 50
360.0
 51
450.0
 73
     0
 72
     1
 10
-27.39999999928727
 20
-3.999909936053313
 11
-28.94999999928723
 21
-3.999909936053313
 72
     2
 10
-28.94999999928723
 20
-3.499909936053313
 40
0.5
 50
90.0
 51
270.0
 73
     0
 72
     1
 10
-28.94999999928723
 20
-2.999909936053313
 11
-28.19999999928723
 21
-2.999909936053313
 72
     1
 10
-28.19999999928723
 20
-2.999909936053313
 11
-28.19999999928723
 21
-1.499909936053313
 72
     1
 10
-28.19999999928723
 20
-1.499909936053313
 11
-33.69999999928723
 21
-1.499909936053313
 72
     1
 10
-33.69999999928723
 20
-1.499909936053313
 11
-33.69999999928723
 21
-2.999909936053313
 72
     1
 10
-33.69999999928723
 20
-2.999909936053313
 11
-32.94999999928723
 21
-2.999909936053313
 72
     2
 10
-32.94999999928723
 20
-3.499909936053313
 40
0.5
 50
270.0
 51
450.0
 73
     0
 72
     1
 10
-32.94999999928723
 20
-3.999909936053313
 11
-34.49999999928718
 21
-3.999909936053313
 72
     2
 10
-34.49999999928718
 20
-3.499909936053313
 40
0.5
 50
90.0
 51
180.0
 73
     0
 72
     1
 10
-34.99999999928718
 20
-3.499909936053313
 11
-34.99999999928718
 21
-2.299909936053268
 72
     1
 10
-34.99999999928718
 20
-2.299909936053268
 11
-36.7999999992872
 21
-2.299909936053268
 72
     2
 10
-36.7999999992872
 20
-2.099909936053279
 40
0.1999999999999886
 50
90.0
 51
180.0
 73
     0
 72
     1
 10
-36.99999999928718
 20
-2.099909936053279
 11
-36.99999999928713
 21
-0.1999099360533023
 72
     2
 10
-36.79999999928714
 20
-0.1999099360533023
 40
0.1999999999999886
 50
180.0
 51
269.9999999999838
 73
     0
 72
     1
 10
-36.7999999992872
 20
0.0000900639466863
 11
-14.99999999928718
 21
0.0000900639466863
 72
     1
 10
-14.99999999928718
 20
0.0000900639466863
 11
-14.99999999928707
 21
59.50009006394669
 72
     2
 10
-14.49999999928707
 20
59.50009006394669
 40
0.5
 50
180.0
 51
270.0
 73
     0
 72
     1
 10
-14.49999999928707
 20
60.00009006394669
 11
14.49999999928775
 21
60.00009006394669
 72
     2
 10
14.49999999928775
 20
59.50009006394669
 40
0.5
 50
270.0
 51
360.0
 73
     0
 72
     1
 10
14.99999999928775
 20
59.50009006394669
 11
14.99999999928764
 21
0.2000900639465613
 72
     2
 10
14.79999999928759
 20
0.2000900639466181
 40
0.2000000000000455
 50
0.0000000000162844
 51
90.0
 73
     0
 72
     1
 10
14.79999999928759
 20
0.0000900639465726
 11
8.99999999928741
 21
0.0000900639465726
 72
     1
 10
8.99999999928741
 20
0.0000900639465726
 11
8.99999999928741
 21
-1.599909936053279
 72
     2
 10
8.799999999287365
 20
-1.599909936053279
 40
0.2000000000000455
 50
360.0
 51
449.9999999999836
 73
     0
 72
     1
 10
8.799999999287422
 20
-1.799909936053325
 11
-11.49999999928718
 21
-1.799909936053268
 72
     2
 10
-11.49999999928718
 20
-2.799909936053268
 40
1.0
 50
90.0
 51
180.0
 73
     1
 72
     1
 10
-12.49999999928718
 20
-2.799909936053268
 11
-12.49999999928719
 21
-4.352329920604233
 72
     2
 10
-11.49999999928726
 20
-4.352329920604163
 40
0.9999999999999271
 50
180.000000000004
 51
271.8485716452345
 73
     1
 97
        1
330
5A02
 75
     0
 76
     1
 98
        1
 10
0.0
 20
0.0
  0
ENDBLK
  5
512A
330
5128
100
AcDbEntity
  8
0
100
AcDbBlockEnd
  0
BLOCK
  5
51C2
330
51C1
100
AcDbEntity
  8
0
100
AcDbBlockBegin
  2
vantage a4 SM border
 70
     0
 10
0.0
 20
0.0
 30
0.0
  3
vantage a4 SM border
  1
vantage a4 SM border.dwg
  0
TEXT
  5
5A05
330
51C1
100
AcDbEntity
  8
APL Border
100
AcDbText
 10
11.59500000000003
 20
3.979818213543524
 30
0.0
 40
1.5
  1
VANTAGE SPECIFIER'S GUIDE 2011:1     ARCHITECTURAL PROFILES LTD. NB. TECHNICAL SPECIFICATIONS SUBJECT TO CHANGE WITHOUT NOTICE.
 41
1.175568529931163
  7
Arial-Regular
 72
     5
 11
189.595
 21
3.979818213543524
 31
0.0
100
AcDbText
  0
LINE
  5
5A06
330
51C1
100
AcDbEntity
  8
APL Border
100
AcDbLine
 10
11.59500000000003
 20
6.189999999999997
 30
0.0
 11
189.595
 21
6.189999999999997
 31
0.0
  0
MTEXT
  5
5A07
330
51C1
100
AcDbEntity
  8
APL Border
100
AcDbMText
 10
57.55102029361978
 20
3.879818213543526
 30
0.0
 40
1.5
 41
0.0
 71
     8
 72
     5
  1
{\fCommercialPi BT|b0|i0|c2|p18;a}
  7
Arial-Regular
 73
     1
 44
1.0
1001
ACAD
1000
MTEXTBEGIN
1070
    73
1070
     1
1070
    44
1040
1.0
1070
    74
1070
     0
1000
MTEXTEND
  0
LINE
  5
5A08
330
51C1
100
AcDbEntity
  8
APL Border
100
AcDbLine
 10
189.595
 20
268.19
 30
0.0
 11
142.595
 21
268.19
 31
0.0
  0
LINE
  5
5A09
330
51C1
100
AcDbEntity
  8
APL Border
100
AcDbLine
 10
189.595
 20
282.19
 30
0.0
 11
189.595
 21
254.19
 31
0.0
  0
LINE
  5
5A0A
330
51C1
100
AcDbEntity
  8
APL Border
100
AcDbLine
 10
166.095
 20
268.19
 30
0.0
 11
166.095
 21
254.19
 31
0.0
  0
LINE
  5
5A0B
330
51C1
100
AcDbEntity
  8
APL Border
100
AcDbLine
 10
189.595
 20
254.19
 30
0.0
 11
24.99473224900737
 21
254.19
 31
0.0
  0
LINE
  5
5A0C
330
51C1
100
AcDbEntity
  8
APL Border
100
AcDbLine
 10
189.595
 20
282.19
 30
0.0
 11
24.99473224900737
 21
282.19
 31
0.0
  0
LINE
  5
5A0D
330
51C1
100
AcDbEntity
  8
APL Border
100
AcDbLine
 10
142.595
 20
282.19
 30
0.0
 11
142.595
 21
254.19
 31
0.0
  0
TEXT
  5
5A0E
330
51C1
100
AcDbEntity
  8
APL Border
100
AcDbText
 10
147.845
 20
273.69
 30
0.0
 40
2.5
  1
CAD REF.
  7
Arial-Regular
100
AcDbText
  0
TEXT
  5
5A0F
330
51C1
100
AcDbEntity
  8
APL Border
100
AcDbText
 10
149.6877694406548
 20
262.19
 30
0.0
 40
2.5
  1
DATE
  7
Arial-Regular
 72
     1
 11
154.345
 21
262.19
 31
0.0
100
AcDbText
  0
TEXT
  5
5A10
330
51C1
100
AcDbEntity
  8
APL Border
100
AcDbText
 10
172.1185334242838
 20
262.19
 30
0.0
 40
2.5
  1
SCALE
  7
Arial-Regular
 72
     1
 11
177.845
 21
262.19
 31
0.0
100
AcDbText
  0
INSERT
  5
5A11
102
{ACAD_XDICTIONARY
360
5A12
102
}
330
51C1
100
AcDbEntity
  8
APL Border
100
AcDbBlockReference
  2
vantage black & white logo
 10
24.99473224900737
 20
256.19
 30
0.0
 41
0.5
 42
0.5
 43
0.5
  0
LINE
  5
5A56
330
51C1
100
AcDbEntity
  8
APL Border
100
AcDbLine
 10
24.99473224900737
 20
256.19
 30
0.0
 11
24.99473224900737
 21
254.19
 31
0.0
  0
LINE
  5
5A57
330
51C1
100
AcDbEntity
  8
APL Border
100
AcDbLine
 10
24.99473224900716
 20
279.6304177948761
 30
0.0
 11
24.99473224900737
 21
282.19
 31
0.0
  0
ENDBLK
  5
51C3
330
51C1
100
AcDbEntity
  8
0
100
AcDbBlockEnd
  0
BLOCK
  5
584A
330
583F
100
AcDbEntity
  8
0
100
AcDbBlockBegin
  2
vantage a4 SM attributes (4)
 70
     2
 10
0.0
 20
0.0
 30
0.0
  3
vantage a4 SM attributes (4)
  1

  0
ATTDEF
  5
5840
330
583F
100
AcDbEntity
  8
APL Border
100
AcDbText
 10
41.78979785863009
 20
276.19
 30
0.0
 40
3.5
  1
DRAWING TITLE LINE 1
  7
Arial-Bold
100
AcDbAttributeDefinition
  3
Drawing Title Line 1
  2
DRAWINGTITLE_1
 70
     0
1001
AcDbBlockRepETag
1070
     1
1071
        0
1005
0
  0
ATTDEF
  5
5841
330
583F
100
AcDbEntity
  8
APL Border
100
AcDbText
 10
41.78979785863009
 20
270.19
 30
0.0
 40
3.5
  1
DRAWING TITLE LINE 2
  7
Arial-Bold
100
AcDbAttributeDefinition
  3
Drawing Title Line 2
  2
DRAWINGTITLE_2
 70
     0
1001
AcDbBlockRepETag
1070
     1
1071
        1
1005
0
  0
ATTDEF
  5
5842
330
583F
100
AcDbEntity
  8
APL Border
100
AcDbText
 10
41.78979785863009
 20
264.19
 30
0.0
 40
3.5
  1
DRAWING TITLE LINE 3
  7
Arial-Bold
100
AcDbAttributeDefinition
  3
Drawing Title Line 3
  2
DRAWINGTITLE_3
 70
     0
1001
AcDbBlockRepETag
1070
     1
1071
        2
1005
0
  0
ATTDEF
  5
5843
330
583F
100
AcDbEntity
  8
APL Border
100
AcDbText
 10
41.78979785863009
 20
258.19
 30
0.0
 40
3.0
  1
CROSS SECTION
  7
Arial-Regular
100
AcDbAttributeDefinition
  3
Drawing Title Line 4
  2
DRAWINGTITLE_4
 70
     0
1001
AcDbBlockRepETag
1070
     1
1071
        3
1005
0
  0
ATTDEF
  5
5844
330
583F
100
AcDbEntity
  8
APL Border
100
AcDbText
 10
165.845
 20
273.69
 30
0.0
 40
2.5
  1
AW123-456
  7
Arial-Regular
100
AcDbAttributeDefinition
  3
CAD Reference
  2
AW12-0
 70
     0
1001
AcDbBlockRepETag
1070
     1
1071
        4
1005
0
  0
ATTDEF
  5
5845
330
583F
100
AcDbEntity
  8
APL Border
100
AcDbText
 10
147.5475920873124
 20
257.1899999999999
 30
0.0
 40
2.5
  1
25.07.08
  7
Arial-Regular
 72
     1
 11
154.345
 21
257.1899999999999
 31
0.0
100
AcDbAttributeDefinition
  3
Date
  2
25.07.08
 70
     0
1001
AcDbBlockRepETag
1070
     1
1071
        5
1005
0
  0
ATTDEF
  5
5846
330
583F
100
AcDbEntity
  8
APL Border
100
AcDbText
 10
175.4174761255116
 20
257.1899999999999
 30
0.0
 40
2.5
  1
1:2
  7
Arial-Regular
 72
     1
 11
177.845
 21
257.1899999999999
 31
0.0
100
AcDbAttributeDefinition
  3
Scale
  2
1:2
 70
     0
1001
AcDbBlockRepETag
1070
     1
1071
        6
1005
0
  0
ATTDEF
  5
5847
330
583F
100
AcDbEntity
  8
APL Border
100
AcDbText
 10
189.595
 20
1.189999999999997
 30
0.0
 40
3.75
  1

  7
Arial-Bold
 72
     2
 11
189.595
 21
1.189999999999997
 31
0.0
100
AcDbAttributeDefinition
  3
Page Number (Right)
  2
1.2.34
 70
     0
1001
AcDbBlockRepETag
1070
     1
1071
        7
1005
0
  0
ATTDEF
  5
5848
330
583F
100
AcDbEntity
  8
APL Border
100
AcDbText
 10
11.59500000000003
 20
1.189999999999997
 30
0.0
 40
3.75
  1

  7
Arial-Bold
100
AcDbAttributeDefinition
  3
Page Number (Left)
  2
1.2.34
 70
     0
1001
AcDbBlockRepETag
1070
     1
1071
        8
1005
0
  0
ENDBLK
  5
584B
330
583F
100
AcDbEntity
  8
0
100
AcDbBlockEnd
  0
BLOCK
  5
5A16
330
5A13
100
AcDbEntity
  8
0
 62
     9
100
AcDbBlockBegin
  2
vantage black & white logo
 70
     0
 10
0.0
 20
0.0
 30
0.0
  3
vantage black & white logo
  1

  0
SPLINE
  5
5A17
102
{ACAD_REACTORS
330
5A47
102
}
330
5A13
100
AcDbEntity
  8
APL Border
 62
     8
100
AcDbSpline
210
0.0
220
0.0
230
1.0
 70
     8
 71
     3
 72
    16
 73
    12
 74
    10
 42
0.0000000001
 43
0.0000000001
 44
0.0000000001
 40
0.0
 40
0.0
 40
0.0
 40
0.0
 40
0.1978277931646383
 40
0.361463118001824
 40
0.5540499897785108
 40
0.7796220130725381
 40
0.979106605438038
 40
1.222151590302332
 40
1.40748727220097
 40
1.607226525619232
 40
1.815049166761618
 40
1.815049166761618
 40
1.815049166761618
 40
1.815049166761618
 10
-6.679452083611295
 20
24.89125032803118
 30
0.0
 10
-6.685371732996674
 20
24.82559351525051
 30
0.0
 10
-6.696187882184245
 20
24.70562798418881
 30
0.0
 10
-6.721757155054659
 20
24.52229576436942
 30
0.0
 10
-6.768469983285688
 20
24.33480615160983
 30
0.0
 10
-6.86071972339088
 20
24.14153771241002
 30
0.0
 10
-7.051789745146238
 20
24.01851519430105
 30
0.0
 10
-7.233921808197289
 20
23.91285203345822
 30
0.0
 10
-7.443451931375125
 20
23.87675735439051
 30
0.0
 10
-7.641222718647389
 20
23.88093312949101
 30
0.0
 10
-7.776581895343343
 20
23.89281010788354
 30
0.0
 10
-7.845603808282817
 20
23.89886637823479
 30
0.0
 11
-6.679452083611295
 21
24.89125032803118
 31
0.0
 11
-6.698967886443824
 21
24.69438750983487
 31
0.0
 11
-6.7229873764864
 21
24.53252465544059
 31
0.0
 11
-6.771947617386814
 21
24.34626516442952
 31
0.0
 11
-6.880972027936735
 21
24.14879006322128
 31
0.0
 11
-7.039699899396197
 21
24.02796140183178
 31
0.0
 11
-7.25666078222261
 21
23.91842218515177
 31
0.0
 11
-7.438645676318543
 21
23.88333923622035
 31
0.0
 11
-7.638384704687155
 21
23.88303939885124
 31
0.0
 11
-7.845603808282817
 21
23.89886637823479
 31
0.0
1001
AcDbBlockRepETag
1070
     1
1071
      590
1005
5A17
  0
SPLINE
  5
5A18
102
{ACAD_REACTORS
330
5A47
102
}
330
5A13
100
AcDbEntity
  8
APL Border
 62
     8
100
AcDbSpline
210
0.0
220
0.0
230
1.0
 70
     8
 71
     3
 72
    11
 73
     7
 74
     5
 42
0.0000000001
 43
0.0000000001
 44
0.0000000001
 40
0.0
 40
0.0
 40
0.0
 40
0.0
 40
0.0680840587483313
 40
0.1752723045973904
 40
0.2784233367375334
 40
0.4826852714337078
 40
0.4826852714337078
 40
0.4826852714337078
 40
0.4826852714337078
 10
-7.465264214605014
 20
24.80065518845331
 30
0.0
 10
-7.468646137215252
 20
24.77808681972154
 30
0.0
 10
-7.47735239504952
 20
24.719987903891
 30
0.0
 10
-7.524447891091254
 20
24.63752792323728
 30
0.0
 10
-7.635129760920157
 20
24.54333837224584
 30
0.0
 10
-7.743266182308203
 20
24.55714977626708
 30
0.0
 10
-7.815117916056323
 20
24.56632682606847
 30
0.0
 11
-7.465264214605014
 21
24.80065518845331
 31
0.0
 11
-7.478569823577657
 21
24.73388393846117
 31
0.0
 11
-7.530473398252325
 21
24.64010046985295
 31
0.0
 11
-7.611072397370236
 21
24.57572705319073
 31
0.0
 11
-7.815117916056323
 21
24.56632682606847
 31
0.0
1001
AcDbBlockRepETag
1070
     1
1071
      593
1005
5A18
  0
SPLINE
  5
5A19
102
{ACAD_REACTORS
330
5A47
102
}
330
5A13
100
AcDbEntity
  8
APL Border
 62
     8
100
AcDbSpline
210
0.0
220
0.0
230
1.0
 70
     8
 71
     3
 72
    20
 73
    16
 74
     0
 42
0.0000000001
 43
0.0000000001
 40
0.0
 40
0.0
 40
0.0
 40
0.0
 40
0.1774120264923274
 40
0.3258093286713144
 40
0.4834060703451958
 40
0.6311237014699663
 40
0.811161917566129
 40
0.9605198197290178
 40
1.289502400757101
 40
1.459697744220917
 40
1.604754171475458
 40
1.794797311213428
 40
2.030760379210173
 40
2.301729078160567
 40
2.393267743077617
 40
2.393267743077617
 40
2.393267743077617
 40
2.393267743077617
 10
5.780015564168593
 20
26.87985997284487
 30
0.0
 10
5.839056126904296
 20
26.87337384475878
 30
0.0
 10
5.947481505327601
 20
26.86146235781404
 30
0.0
 10
6.098807931884806
 20
26.80185114122353
 30
0.0
 10
6.227972759762906
 20
26.72168911843352
 30
0.0
 10
6.347510602881385
 20
26.61140356622764
 30
0.0
 10
6.442310149474394
 20
26.48207375794227
 30
0.0
 10
6.536759215535255
 20
26.28338234239492
 30
0.0
 10
6.578465181725675
 20
26.06469589684353
 30
0.0
 10
6.553150099427256
 20
25.85079503063701
 30
0.0
 10
6.524121382020268
 20
25.68499989147718
 30
0.0
 10
6.464236525716046
 20
25.50199988960434
 30
0.0
 10
6.327150620479812
 20
25.31187331731421
 30
0.0
 10
6.179477266233362
 20
25.17172660684537
 30
0.0
 10
6.072729148555964
 20
25.11631253421805
 30
0.0
 10
6.045077525535504
 20
25.10350570839811
 30
0.0
1001
AcDbBlockRepETag
1070
     1
1071
      594
1005
5A19
  0
SPLINE
  5
5A1A
102
{ACAD_REACTORS
330
5A47
102
}
330
5A13
100
AcDbEntity
  8
APL Border
 62
     8
100
AcDbSpline
210
0.0
220
0.0
230
1.0
 70
     8
 71
     3
 72
    17
 73
    13
 74
    11
 42
0.0000000001
 43
0.0000000001
 44
0.0000000001
 40
0.0
 40
0.0
 40
0.0
 40
0.0
 40
0.0975027714782739
 40
0.2117924486065133
 40
0.317678689712162
 40
0.4843960423119905
 40
0.5983164751676271
 40
0.7475672999664091
 40
0.8854036234346642
 40
1.040732215041493
 40
1.197661337444246
 40
1.243973057737614
 40
1.243973057737614
 40
1.243973057737614
 40
1.243973057737614
 10
5.580769717272147
 20
26.18861664944085
 30
0.0
 10
5.613502616848285
 20
26.1875961553427
 30
0.0
 10
5.684603990133519
 20
26.18537947021098
 30
0.0
 10
5.781919321100519
 20
26.1258482190374
 30
0.0
 10
5.832561030472812
 20
26.0011917111029
 30
0.0
 10
5.820388894698232
 20
25.86817511516085
 30
0.0
 10
5.765298612935113
 20
25.7349784962169
 30
0.0
 10
5.67725421213275
 20
25.62965962372396
 30
0.0
 10
5.546675458142082
 20
25.55725132865025
 30
0.0
 10
5.401760839408257
 20
25.51345804330555
 30
0.0
 10
5.281860155064943
 20
25.50729075876586
 30
0.0
 10
5.21427201805345
 20
25.50302975767877
 30
0.0
 10
5.198870965514487
 20
25.50205881951548
 30
0.0
 11
5.580769717272147
 21
26.18861664944085
 31
0.0
 11
5.67764963039707
 21
26.17761333726443
 31
0.0
 11
5.774085473546278
 21
26.11627608549865
 31
0.0
 11
5.81791994770495
 21
26.01988918322082
 31
0.0
 11
5.809153052873227
 21
25.85340249542595
 31
0.0
 11
5.765318578714499
 21
25.74825305939683
 31
0.0
 11
5.668882735565347
 21
25.63434108961652
 31
0.0
 11
5.55010046754208
 21
25.56441523695462
 31
0.0
 11
5.401316428353624
 21
25.51980267086244
 31
0.0
 11
5.245093480229996
 21
25.50493189624708
 31
0.0
 11
5.198870965514487
 21
25.50205881951548
 31
0.0
1001
AcDbBlockRepETag
1070
     1
1071
      595
1005
5A1A
  0
SPLINE
  5
5A1B
102
{ACAD_REACTORS
330
5A51
330
5A52
102
}
330
5A13
100
AcDbEntity
  8
APL Border
 62
     8
100
AcDbSpline
210
0.0
220
0.0
230
1.0
 70
     8
 71
     3
 72
    25
 73
    21
 74
     0
 42
0.0000000001
 43
0.0000000001
 40
0.0289432764998855
 40
0.0289432764998855
 40
0.0289432764998855
 40
0.0289432764998855
 40
0.7134165119202287
 40
1.411731005087882
 40
2.041147618059464
 40
3.036171077105474
 40
3.957911241576911
 40
4.83592253147705
 40
5.676684481733094
 40
6.271141751551381
 40
6.974058201941041
 40
7.825808739104269
 40
8.5265481701528
 40
9.125733480364379
 40
9.891766509798275
 40
10.6767880070383
 40
11.66821110410527
 40
12.42950909475574
 40
13.09855121203093
 40
13.70132750762923
 40
13.70132750762923
 40
13.70132750762923
 40
13.70132750762923
 10
13.141643811855
 20
43.40554077871886
 30
0.0
 10
12.91988216430481
 20
43.459256627421
 30
0.0
 10
12.47168844867874
 20
43.5669624691983
 30
0.0
 10
11.80600758681791
 20
43.66484839798013
 30
0.0
 10
11.02988777388427
 20
43.6649333207477
 30
0.0
 10
10.1361516270939
 20
43.55263717791944
 30
0.0
 10
9.306733533720876
 20
43.19741938393827
 30
0.0
 10
8.599762003673276
 20
42.45478219212527
 30
0.0
 10
8.236440109363229
 20
41.77191325718488
 30
0.0
 10
8.073464067873601
 20
41.07996170309042
 30
0.0
 10
8.007035995439764
 20
40.3638923215899
 30
0.0
 10
7.98103501985804
 20
39.60493317412716
 30
0.0
 10
8.107710769833204
 20
38.92055182387923
 30
0.0
 10
8.442098079777224
 20
38.21445924826959
 30
0.0
 10
9.036296716232907
 20
37.66873436641545
 30
0.0
 10
9.909689132144507
 20
37.42421376773082
 30
0.0
 10
10.75775873959412
 20
37.35554609345542
 30
0.0
 10
11.56487972715851
 20
37.38454149767491
 30
0.0
 10
12.23983007222788
 20
37.44815687239099
 30
0.0
 10
12.66077873273661
 20
37.49837935861893
 30
0.0
 10
12.86026661033734
 20
37.52234731786496
 30
0.0
1001
AcDbBlockRepETag
1070
     1
1071
      596
1005
5A1B
  0
SPLINE
  5
5A1C
102
{ACAD_REACTORS
330
5A51
330
5A52
102
}
330
5A13
100
AcDbEntity
  8
APL Border
 62
     8
100
AcDbSpline
210
0.0
220
0.0
230
1.0
 70
     8
 71
     3
 72
    19
 73
    15
 74
     0
 42
0.0000000001
 43
0.0000000001
 40
1.529304964685563
 40
1.529304964685563
 40
1.529304964685563
 40
1.529304965389289
 40
2.032016958536417
 40
2.556791262130423
 40
2.964493033520332
 40
3.465275586793771
 40
4.160836826595903
 40
4.71800698457321
 40
5.304510401169525
 40
5.733359288828643
 40
6.099728421126306
 40
6.422629926283571
 40
6.722447272622213
 40
6.957123473755099
 40
6.957123473755099
 40
6.957123473755099
 40
6.957123473755099
 10
11.64369617822672
 20
42.03297741382947
 30
0.0
 10
11.47589856643677
 20
42.04574754506741
 30
0.0
 10
11.13485165915975
 20
42.01473204050012
 30
0.0
 10
10.65553906793815
 20
41.91613810684326
 30
0.0
 10
10.23036575101369
 20
41.67654609785123
 30
0.0
 10
9.854221329784113
 20
41.27113304911427
 30
0.0
 10
9.717431528044755
 20
40.66388266631498
 30
0.0
 10
9.641062203095145
 20
40.05806431643046
 30
0.0
 10
9.716968816830743
 20
39.48770259248511
 30
0.0
 10
10.00680770225198
 20
39.09661486818469
 30
0.0
 10
10.3797311442331
 20
38.98358798973799
 30
0.0
 10
10.70216182646531
 20
38.92661434152812
 30
0.0
 10
10.99026249243499
 20
38.92783484269152
 30
0.0
 10
11.24302802126629
 20
38.95177692242413
 30
0.0
 10
11.33360452536307
 20
38.96406177273881
 30
0.0
1001
AcDbBlockRepETag
1070
     1
1071
      597
1005
5A1C
  0
LWPOLYLINE
  5
5A1D
102
{ACAD_REACTORS
330
5A4E
102
}
330
5A13
100
AcDbEntity
  8
APL Border
 62
     8
100
AcDbPolyline
 90
       12
 70
     1
 43
0.0
 10
14.13627631352983
 20
43.61979184908029
 10
18.38986203356285
 20
43.61979184908029
 10
18.21321428445671
 20
41.9726305274507
 10
15.84058876400877
 20
41.9726305274507
 10
15.75340373709809
 20
41.15966911198297
 10
17.71732334684157
 20
41.15966911198297
 10
17.56969663746741
 20
39.57967635988449
 10
15.58395939694927
 20
39.57967635988449
 10
15.5052467299167
 20
38.84571591422678
 10
17.87787225036464
 20
38.84571591422678
 10
17.72077299807506
 20
37.38083558975206
 10
13.46718727804204
 20
37.38083558975206
1001
AcDbBlockRepETag
1070
     1
1071
      599
1005
5A1D
  0
LWPOLYLINE
  5
5A1E
102
{ACAD_REACTORS
330
5A51
330
5A52
102
}
330
5A13
100
AcDbEntity
  8
APL Border
 62
     8
100
AcDbPolyline
 90
        2
 70
     0
 43
0.0
 10
13.141643811855
 20
43.40554077871887
 10
13.141643811855
 20
41.76981947766621
1001
AcDbBlockRepETag
1070
     1
1071
      600
1005
5A1E
  0
LWPOLYLINE
  5
5A1F
102
{ACAD_REACTORS
330
5A51
330
5A52
102
}
330
5A13
100
AcDbEntity
  8
APL Border
 62
     8
100
AcDbPolyline
 90
        6
 70
     0
 43
0.0
 10
11.33358781659778
 20
38.96390597096916
 10
11.39962533929804
 20
39.57967635988449
 10
10.96889270630695
 20
39.57967635988449
 10
11.12639005748273
 20
41.04826877857415
 10
13.23839963312048
 20
41.04826877857415
 10
12.86026661033734
 20
37.52234731786496
1001
AcDbBlockRepETag
1070
     1
1071
      601
1005
5A1F
  0
LWPOLYLINE
  5
5A20
102
{ACAD_REACTORS
330
5A4B
102
}
330
5A13
100
AcDbEntity
  8
APL Border
 62
     8
100
AcDbPolyline
 90
        8
 70
     1
 43
0.0
 10
3.105743226874893
 20
43.61998313276061
 10
2.929095477768755
 20
41.97282181113101
 10
1.466301152475638
 20
41.97282181113101
 10
0.9741138955425029
 20
37.38339558452146
 10
-0.867968570535281
 20
37.38102687343238
 10
-0.3755272841536326
 20
41.97282181113101
 10
-1.891167362926863
 20
41.97282181113101
 10
-1.725754035154749
 20
43.61998313276061
1001
AcDbBlockRepETag
1070
     1
1071
      604
1005
5A20
  0
LWPOLYLINE
  5
5A21
102
{ACAD_REACTORS
330
5A4A
102
}
330
5A13
100
AcDbEntity
  8
APL Border
 62
     8
100
AcDbPolyline
 90
       10
 70
     1
 43
0.0
 10
-4.228474015381578
 20
40.14164596649268
 10
-3.855464624526035
 20
43.61979184908029
 10
-2.181839912298443
 20
43.61979184908029
 10
-2.850928947786229
 20
37.38083558975206
 10
-5.032306754624556
 20
37.38083558975206
 10
-6.131920885667284
 20
40.6246666384634
 10
-6.479801476178323
 20
37.38083558975206
 10
-8.135186891292875
 20
37.38083558975206
 10
-7.466097855805088
 20
43.61979184908029
 10
-5.40751765387219
 20
43.61979184908029
1001
AcDbBlockRepETag
1070
     1
1071
      605
1005
5A21
  0
LWPOLYLINE
  5
5A22
102
{ACAD_REACTORS
330
5A51
102
}
330
5A13
100
AcDbEntity
  8
APL Border
  6
Continuous
 62
     8
100
AcDbPolyline
 90
        8
 70
     1
 43
0.0
 10
-8.449177928734428
 20
37.38083558975206
 10
-9.847253547555595
 20
43.61979184908029
 10
-12.02298966350147
 20
43.61979184908029
 10
-14.82679588919473
 20
37.38083558975206
 10
-12.95240022532295
 20
37.38083558975206
 10
-12.35252874042399
 20
38.71565392391761
 10
-10.64639685172309
 20
38.71565392391761
 10
-10.34727999772013
 20
37.38083558975206
1001
AcDbBlockRepETag
1070
     1
1071
      606
1005
5A22
  0
LWPOLYLINE
  5
5A23
330
5A13
100
AcDbEntity
  8
APL Border
  6
Continuous
 62
     8
100
AcDbPolyline
 90
        7
 70
     1
 43
0.0
 10
-18.99614352503855
 20
43.61979184908029
 10
-17.7875751270476
 20
37.38083558975206
 10
-15.77022638070494
 20
37.38083558975206
 10
-12.96642015501169
 20
43.61979184908029
 10
-14.7664201550117
 20
43.61979184908029
 10
-16.54136876356097
 20
39.42215966960597
 10
-17.19614352503853
 20
43.61979184908029
1001
AcDbBlockRepETag
1070
     1
1071
      608
1005
5A23
  0
LWPOLYLINE
  5
5A24
102
{ACAD_REACTORS
330
5A54
102
}
330
5A13
100
AcDbEntity
  8
APL Border
  6
Continuous
 62
     8
100
AcDbPolyline
 90
        4
 70
     1
 43
0.0
 10
16.33779773177886
 20
35.29789574745093
 10
-16.33747952551644
 20
35.29789574745093
 10
-12.98884796421711
 20
29.49789574745094
 10
12.98916617047902
 20
29.49789574745094
1001
AcDbBlockRepETag
1070
     1
1071
      609
1005
5A24
  0
LWPOLYLINE
  5
5A25
102
{ACAD_REACTORS
330
5A47
102
}
330
5A13
100
AcDbEntity
  8
APL Border
 62
     8
100
AcDbPolyline
 90
        9
 70
     1
 43
0.0
 10
7.455500104221528
 20
25.00957443408062
 10
6.800478684667126
 20
26.87985997284487
 10
7.607536311785906
 20
26.87985997284487
 10
7.963471882016364
 20
25.86355557445326
 10
8.538893993587493
 20
26.87985997284487
 10
9.414203966725494
 20
26.87985997284487
 10
8.232331174709315
 20
25.00957443408062
 10
8.120338037129926
 20
23.87985997284487
 10
7.343506966642138
 20
23.87985997284487
1001
AcDbBlockRepETag
1070
     1
1071
      611
1005
5A25
  0
LWPOLYLINE
  5
5A26
102
{ACAD_REACTORS
330
5A47
102
}
330
5A13
100
AcDbEntity
  8
APL Border
 62
     8
100
AcDbPolyline
 90
        4
 70
     1
 43
0.0
 10
12.20974330707307
 20
28.14789574745094
 10
8.850698786449385
 20
22.32985997284487
 10
-8.850380580188158
 20
22.32985997284487
 10
-12.20942510081127
 20
28.14789574745094
1001
AcDbBlockRepETag
1070
     1
1071
      613
1005
5A26
  0
LWPOLYLINE
  5
5A27
102
{ACAD_REACTORS
330
5A47
102
}
330
5A13
100
AcDbEntity
  8
APL Border
 62
     8
100
AcDbPolyline
 90
        6
 70
     0
 43
0.0
 10
5.580769717272147
 20
26.18861664944085
 10
5.137953374950967
 20
26.18861664944085
 10
4.909077041159065
 20
23.87985997284487
 10
4.132245970671277
 20
23.87985997284487
 10
4.429648034880159
 20
26.87985997284487
 10
5.793677369303878
 20
26.87985997284487
1001
AcDbBlockRepETag
1070
     1
1071
      614
1005
5A27
  0
LWPOLYLINE
  5
5A28
102
{ACAD_REACTORS
330
5A54
102
}
330
5A13
100
AcDbEntity
  8
APL Border
  6
Continuous
 62
     8
100
AcDbPolyline
 90
        4
 70
     1
 43
0.0
 10
1.119422795136273
 20
34.02289574745092
 10
0.3425917246484857
 20
34.02289574745092
 10
0.0451896604396041
 20
31.02289574745093
 10
0.8220207309273916
 20
31.02289574745093
1001
AcDbBlockRepETag
1070
     1
1071
      620
1005
5A28
  0
LWPOLYLINE
  5
5A29
102
{ACAD_REACTORS
330
5A47
102
}
330
5A13
100
AcDbEntity
  8
APL Border
 62
     8
100
AcDbPolyline
 90
        4
 70
     0
 43
0.0
 10
6.045077525535504
 20
25.1035057083981
 10
6.339444173005233
 20
23.87985997284487
 10
5.532386545886623
 20
23.87985997284487
 10
5.142141867913778
 20
25.50205881951548
1001
AcDbBlockRepETag
1070
     1
1071
      621
1005
5A29
  0
LWPOLYLINE
  5
5A2A
102
{ACAD_REACTORS
330
5A48
102
}
330
5A13
100
AcDbEntity
  8
APL Border
 62
     8
100
AcDbPolyline
 90
        4
 70
     1
 43
0.0
 10
0.0001591031300165
 20
7.000275566930961
 10
3.563095122801513
 20
13.17146177711931
 10
-0.9450856774407441
 20
20.97985997284487
 10
-8.070957716782203
 20
20.97985997284487
1001
AcDbBlockRepETag
1070
     1
1071
      622
1005
5A2A
  0
LWPOLYLINE
  5
5A2B
102
{ACAD_REACTORS
330
5A4C
102
}
330
5A13
100
AcDbEntity
  8
APL Border
 62
     8
100
AcDbPolyline
 90
        3
 70
     1
 43
0.0
 10
0.8484489512626112
 20
20.97985997284487
 10
4.459862437153191
 20
14.72470832814346
 10
8.071275923043373
 20
20.97985997284487
1001
AcDbBlockRepETag
1070
     1
1071
      623
1005
5A2B
  0
LWPOLYLINE
  5
5A2C
102
{ACAD_REACTORS
330
5A47
102
}
330
5A13
100
AcDbEntity
  8
APL Border
 62
     8
100
AcDbPolyline
 90
        4
 70
     0
 43
0.0
 10
-7.465264214605014
 20
24.80065518845331
 10
-7.259144283007998
 20
26.87985997284487
 10
-6.48231321252021
 20
26.87985997284487
 10
-6.679452083611295
 20
24.89125032803118
1001
AcDbBlockRepETag
1070
     1
1071
      626
1005
5A2C
  0
LWPOLYLINE
  5
5A2D
102
{ACAD_REACTORS
330
5A47
102
}
330
5A13
100
AcDbEntity
  8
APL Border
 62
     8
100
AcDbPolyline
 90
        4
 70
     0
 43
0.0
 10
-7.845603808282817
 20
23.89886637823479
 10
-8.399876560405061
 20
23.98304774476413
 10
-8.399876560405061
 20
24.64579492155148
 10
-7.81511791605564
 20
24.56632682606838
1001
AcDbBlockRepETag
1070
     1
1071
      627
1005
5A2D
  0
LWPOLYLINE
  5
5A2E
102
{ACAD_REACTORS
330
5A54
102
}
330
5A13
100
AcDbEntity
  8
APL Border
  6
Continuous
 62
     8
100
AcDbPolyline
 90
        6
 70
     1
 43
0.0
 10
-7.549934049473819
 20
34.02289574745092
 10
-8.326765119961606
 20
34.02289574745092
 10
-8.624167184170488
 20
31.02289574745093
 10
-6.770246795158442
 20
31.02289574745093
 10
-6.700109532938455
 20
31.73039516316516
 10
-7.777198851462713
 20
31.73039516316516
1001
AcDbBlockRepETag
1070
     1
1071
      628
1005
5A2E
  0
LWPOLYLINE
  5
5A2F
102
{ACAD_REACTORS
330
5A54
102
}
330
5A13
100
AcDbEntity
  8
APL Border
  6
Continuous
 62
     8
100
AcDbPolyline
 90
        3
 70
     1
 43
0.0
 10
-10.14693849009504
 20
33.12550842600547
 10
-10.00044093617224
 20
32.51653621849665
 10
-10.45444607654239
 20
32.51653621849665
1001
AcDbBlockRepETag
1070
     1
1071
      629
1005
5A2F
  0
LWPOLYLINE
  5
5A30
102
{ACAD_REACTORS
330
5A54
102
}
330
5A13
100
AcDbEntity
  8
APL Border
  6
Continuous
 62
     8
100
AcDbPolyline
 90
        8
 70
     1
 43
0.0
 10
-8.834065309397374
 20
31.02289574745093
 10
-9.555761072109191
 20
34.02289574745092
 10
-10.50084997043805
 20
34.02289574745092
 10
-12.01573480092304
 20
31.02289574745093
 10
-11.20867717380426
 20
31.02289574745093
 10
-10.74455961985978
 20
31.94201027933759
 10
-9.862229957552528
 20
31.94201027933759
 10
-9.641122936515984
 20
31.02289574745093
1001
AcDbBlockRepETag
1070
     1
1071
      630
1005
5A30
  0
LWPOLYLINE
  5
5A31
102
{ACAD_REACTORS
330
5A4D
102
}
330
5A13
100
AcDbEntity
  8
APL Border
 62
     8
100
AcDbPolyline
 90
        3
 70
     1
 43
0.0
 10
0.0000000003145431
 20
4.000000000000009
 10
23.60256143704041
 20
44.88083558975217
 10
-23.60256142783933
 20
44.88083558975206
1001
AcDbBlockRepETag
1070
     1
1071
      631
1005
5A31
  0
LWPOLYLINE
  5
5A32
102
{ACAD_REACTORS
330
5A4D
102
}
330
5A13
100
AcDbEntity
  8
APL Border
 62
     8
100
AcDbPolyline
 90
        3
 70
     1
 43
0.0
 10
27.06666305249243
 20
46.88083558975206
 10
-27.06666304266244
 20
46.88083558975206
 10
-0.0000000000000284
 20
0.0000000000000238
1001
AcDbBlockRepETag
1070
     1
1071
      703
1005
5A32
  0
LWPOLYLINE
  5
5A33
102
{ACAD_REACTORS
330
5A51
330
5A53
102
}
330
5A13
100
AcDbEntity
  8
APL Border
  6
Continuous
 62
     8
100
AcDbPolyline
 90
        8
 70
     1
 43
0.0
 10
7.980630193374565
 20
37.38083558975206
 10
6.582554574553398
 20
43.61979184908029
 10
4.406818458607517
 20
43.61979184908029
 10
1.603012232914267
 20
37.38083558975206
 10
3.477407896786047
 20
37.38083558975206
 10
4.077279381685002
 20
38.71565392391761
 10
5.783411270385897
 20
38.71565392391761
 10
6.082528124388858
 20
37.38083558975206
1001
AcDbBlockRepETag
1070
     1
1071
      760
1005
5A33
  0
LWPOLYLINE
  5
5A34
102
{ACAD_REACTORS
330
5A51
330
5A53
102
}
330
5A13
100
AcDbEntity
  8
APL Border
  6
Continuous
 62
     8
100
AcDbPolyline
 90
        3
 70
     1
 43
0.0
 10
5.206046831612667
 20
41.69367581194667
 10
5.552066120962537
 20
40.14955389030274
 10
4.512113667606024
 20
40.14955389030274
1001
AcDbBlockRepETag
1070
     1
1071
      761
1005
5A34
  0
LWPOLYLINE
  5
5A35
102
{ACAD_REACTORS
330
5A54
102
}
330
5A13
100
AcDbEntity
  8
APL Border
  6
Continuous
 62
     8
100
AcDbPolyline
 90
        4
 70
     1
 43
0.0
 10
5.615530392135354
 20
34.02289574745092
 10
4.838699321647567
 20
34.02289574745092
 10
4.541297257438685
 20
31.02289574745093
 10
5.318128327926473
 20
31.02289574745093
1001
AcDbBlockRepETag
1070
     1
1071
      785
1005
5A35
  0
LWPOLYLINE
  5
5A36
102
{ACAD_REACTORS
330
5A54
102
}
330
5A13
100
AcDbEntity
  8
APL Border
 62
     8
100
AcDbPolyline
 90
       13
 70
     0
 43
0.0
 10
-5.535628094882099
 20
32.1870929174454
 10
-5.353790768486447
 20
34.02289574745092
 10
-6.130425112774389
 20
34.0248801943346
 10
-6.333826921263238
 20
31.9730940808461
 42
0.1695250701542156
 10
-6.106840682758871
 20
31.39301551086222
 42
0.0826087127293405
 10
-5.813961912619959
 20
31.13108995311734
 42
0.1017056431856583
 10
-5.510404689928634
 20
31.02488019433462
 10
-4.760057203160528
 20
31.0248801943346
 42
0.1918846087154957
 10
-4.136172756560569
 20
31.41919793838074
 42
0.1021851328841131
 10
-3.889225876952792
 20
31.97309408084612
 10
-3.685824068463887
 20
34.0248801943346
 10
-4.462655138951674
 20
34.0248801943346
 10
-4.65073703420694
 20
32.12763147393075
1001
AcDbBlockRepETag
1070
     1
1071
      866
1005
5A36
  0
SPLINE
  5
5A37
102
{ACAD_REACTORS
330
5A54
102
}
330
5A13
100
AcDbEntity
  8
APL Border
 62
     8
100
AcDbSpline
210
0.0
220
0.0
230
1.0
 70
     8
 71
     3
 72
    24
 73
    20
 74
    18
 42
0.0000000001
 43
0.0000000001
 44
0.0000000001
 40
0.0
 40
0.0
 40
0.0
 40
0.0
 40
0.1612668085855933
 40
0.2532303870616441
 40
0.3214574742553387
 40
0.4101806452459026
 40
0.5031588697521256
 40
0.5664511009171887
 40
0.624871878778038
 40
0.6731644290699905
 40
0.7797386132933425
 40
0.9206747739903356
 40
1.025058962643435
 40
1.116412352300609
 40
1.212929457806147
 40
1.276240530363035
 40
1.339961572016457
 40
1.386280507025952
 40
1.435584820291647
 40
1.435584820291647
 40
1.435584820291647
 40
1.435584820291647
 10
-5.535628094882099
 20
32.1870929174454
 30
0.0
 10
-5.53213414748617
 20
32.13312332644234
 30
0.0
 10
-5.526647751003197
 20
32.04837718097616
 30
0.0
 10
-5.488860432547518
 20
31.94683424540268
 30
0.0
 10
-5.447171648840961
 20
31.8753242559261
 30
0.0
 10
-5.395818187958767
 20
31.80737001333622
 30
0.0
 10
-5.320761662408248
 20
31.77062767698265
 30
0.0
 10
-5.254477128417399
 20
31.74466351916423
 30
0.0
 10
-5.200112096792143
 20
31.72723210184819
 30
0.0
 10
-5.128888988289486
 20
31.72198763189771
 30
0.0
 10
-5.030042811850907
 20
31.72786870372271
 30
0.0
 10
-4.915707066470194
 20
31.75812586881066
 30
0.0
 10
-4.815771266393483
 20
31.81405298527761
 30
0.0
 10
-4.754740567305573
 20
31.89193427605802
 30
0.0
 10
-4.714673995441981
 20
31.96546823314959
 30
0.0
 10
-4.683526695854578
 20
32.03313813212702
 30
0.0
 10
-4.662006183068958
 20
32.08703079743258
 30
0.0
 10
-4.651792807669443
 20
32.13930455656534
 30
0.0
 10
-4.647206914869654
 20
32.17083533130903
 30
0.0
 10
-4.644842382192905
 20
32.1870929174454
 30
0.0
 11
-5.535628094882099
 21
32.1870929174454
 31
0.0
 11
-5.515298846223288
 21
32.02711258990369
 31
0.0
 11
-5.483433995220536
 21
31.94084596230824
 31
0.0
 11
-5.44947766231354
 21
31.88166908437061
 31
0.0
 11
-5.392321718875223
 21
31.8138089399536
 31
0.0
 11
-5.311535231450477
 21
31.76778184269665
 31
0.0
 11
-5.252609732475718
 21
31.74468006578604
 31
0.0
 11
-5.196420818688864
 21
31.72868652792477
 31
0.0
 11
-5.148347479287053
 21
31.72409039341204
 31
0.0
 11
-5.041949649235618
 21
31.73021889267523
 31
0.0
 11
-4.906104524581394
 21
31.76775692005663
 31
0.0
 11
-4.816802280674096
 21
31.82180475140893
 31
0.0
 11
-4.758009512288197
 21
31.89172507883507
 31
0.0
 11
-4.710553499371997
 21
31.97576958188711
 31
0.0
 11
-4.684063009443377
 21
32.03327215445256
 31
0.0
 11
-4.662061522518769
 21
32.09307437617135
 31
0.0
 11
-4.652346246099511
 21
32.13836297456555
 31
0.0
 11
-4.644842382192905
 21
32.1870929174454
 31
0.0
1001
AcDbBlockRepETag
1070
     1
1071
      827
1005
5A37
  0
LWPOLYLINE
  5
5A38
102
{ACAD_REACTORS
330
5A54
102
}
330
5A13
100
AcDbEntity
  8
APL Border
 62
     8
100
AcDbPolyline
 90
       13
 70
     0
 43
0.0
 10
6.787553510813182
 20
32.18510847056172
 10
6.969390837208834
 20
34.02091130056725
 10
6.192756492920892
 20
34.02289574745092
 10
5.989354684432043
 20
31.97110963396243
 42
0.1695250701542156
 10
6.21634092293641
 20
31.39103106397854
 42
0.0826087127293405
 10
6.509219693075323
 20
31.12910550623367
 42
0.1017056431856583
 10
6.812776915766647
 20
31.02289574745094
 10
7.563124402534754
 20
31.02289574745093
 42
0.1918846087154957
 10
8.187008849134713
 20
31.41721349149707
 42
0.1021851328841131
 10
8.433955728742489
 20
31.97110963396244
 10
8.637357537231395
 20
34.02289574745092
 10
7.860526466743607
 20
34.02289574745092
 10
7.672444571488341
 20
32.12564702704707
1001
AcDbBlockRepETag
1070
     1
1071
      837
1005
5A38
  0
LWPOLYLINE
  5
5A39
102
{ACAD_REACTORS
330
5A54
102
}
330
5A13
100
AcDbEntity
  8
APL Border
  6
Continuous
 62
     8
100
AcDbPolyline
 90
       13
 70
     1
 43
0.0
 10
-1.295012624591635
 20
34.02807364104484
 10
-0.1975458970834154
 20
34.0280551402308
 10
-0.4949479612922972
 20
31.0280551402308
 10
-1.115886909891884
 20
31.0280551402308
 10
-0.9222174129992311
 20
32.98166797820307
 10
-1.611942464131544
 20
31.0280551402308
 10
-2.344230471214956
 20
31.0280551402308
 10
-2.63016252924163
 20
32.98166797820306
 10
-2.823832026134283
 20
31.0280551402308
 10
-3.44477097473387
 20
31.0280551402308
 10
-3.147349004861581
 20
34.02825593571061
 10
-2.047349004861558
 20
34.02825593571061
 10
-1.8272453185659
 20
32.52441131541936
1001
AcDbBlockRepETag
1070
     1
1071
      867
1005
5A39
  0
LWPOLYLINE
  5
5A3A
102
{ACAD_REACTORS
330
5A54
102
}
330
5A13
100
AcDbEntity
  8
APL Border
  6
Continuous
 62
     8
100
AcDbPolyline
 90
       10
 70
     1
 43
0.0
 10
1.724974710806094
 20
34.02289574745092
 10
1.427552740933805
 20
31.02269495197112
 10
2.048491689533392
 20
31.02269495197112
 10
2.231899581960561
 20
32.87279534971117
 10
3.051434648859952
 20
31.02269495197112
 10
3.902826396438257
 20
31.02269495197112
 10
4.200228460647139
 20
34.02269495197112
 10
3.580266230192904
 20
34.02269495197112
 10
3.395920304875374
 20
32.17298478610545
 10
2.576558098165463
 20
34.02269495197112
1001
AcDbBlockRepETag
1070
     1
1071
      616
1005
5A3A
  0
LWPOLYLINE
  5
5A3B
102
{ACAD_REACTORS
330
5A54
102
}
330
5A13
100
AcDbEntity
  8
APL Border
  6
Continuous
 62
     8
100
AcDbPolyline
 90
       13
 70
     1
 43
0.0
 10
11.01183437133605
 20
34.02271345278515
 10
12.10930109884427
 20
34.02269495197111
 10
11.81189903463539
 20
31.02269495197111
 10
11.1909600860358
 20
31.02269495197111
 10
11.38462958292845
 20
32.97630778994339
 10
10.69490453179614
 20
31.02269495197111
 10
9.962616524712728
 20
31.02269495197111
 10
9.676684466686054
 20
32.97630778994338
 10
9.483014969793401
 20
31.02269495197111
 10
8.862076021193814
 20
31.02269495197111
 10
9.159497991066103
 20
34.02289574745092
 10
10.25949799106612
 20
34.02289574745092
 10
10.47960167736178
 20
32.51905112715967
1001
AcDbBlockRepETag
1070
     1
1071
      847
1005
5A3B
  0
SPLINE
  5
5A3C
102
{ACAD_REACTORS
330
5A54
102
}
330
5A13
100
AcDbEntity
  8
APL Border
 62
     8
100
AcDbSpline
210
0.0
220
0.0
230
1.0
 70
     8
 71
     3
 72
    24
 73
    20
 74
    18
 42
0.0000000001
 43
0.0000000001
 44
0.0000000001
 40
0.0
 40
0.0
 40
0.0
 40
0.0
 40
0.1612668085856004
 40
0.2532303870616512
 40
0.3214574742553458
 40
0.4101806452458731
 40
0.5031588697521455
 40
0.5664511009172086
 40
0.6248718787780579
 40
0.6731644290699537
 40
0.7797386132933625
 40
0.9206747739903555
 40
1.025058962643406
 40
1.116412352300617
 40
1.212929457806155
 40
1.276240530363043
 40
1.339961572016455
 40
1.386280507025956
 40
1.435584820291643
 40
1.435584820291643
 40
1.435584820291643
 40
1.435584820291643
 10
6.787553510813182
 20
32.18510847056172
 30
0.0
 10
6.791047458209138
 20
32.13113887955867
 30
0.0
 10
6.796533854692151
 20
32.04639273409249
 30
0.0
 10
6.834321173147815
 20
31.94484979851901
 30
0.0
 10
6.876009956854381
 20
31.87333980904243
 30
0.0
 10
6.927363417736518
 20
31.80538556645249
 30
0.0
 10
7.002419943287081
 20
31.76864323009899
 30
0.0
 10
7.068704477277941
 20
31.74267907228054
 30
0.0
 10
7.123069508903178
 20
31.72524765496453
 30
0.0
 10
7.194292617405833
 20
31.72000318501402
 30
0.0
 10
7.293138793844411
 20
31.72588425683905
 30
0.0
 10
7.407474539225143
 20
31.75614142192696
 30
0.0
 10
7.507410339301799
 20
31.81206853839397
 30
0.0
 10
7.568441038389779
 20
31.88994982917432
 30
0.0
 10
7.608507610253345
 20
31.96348378626594
 30
0.0
 10
7.639654909840773
 20
32.03115368524333
 30
0.0
 10
7.661175422626328
 20
32.08504635054892
 30
0.0
 10
7.671388798025919
 20
32.13732010968165
 30
0.0
 10
7.675974690825655
 20
32.16885088442535
 30
0.0
 10
7.678339223502376
 20
32.18510847056172
 30
0.0
 11
6.787553510813182
 21
32.18510847056172
 31
0.0
 11
6.80788275947205
 21
32.02512814302002
 31
0.0
 11
6.839747610474802
 21
31.93886151542456
 31
0.0
 11
6.873703943381798
 21
31.87968463748693
 31
0.0
 11
6.930859886820059
 21
31.81182449306993
 31
0.0
 11
7.011646374244861
 21
31.76579739581298
 31
0.0
 11
7.07057187321962
 21
31.74269561890237
 31
0.0
 11
7.126760787006475
 21
31.72670208104109
 31
0.0
 11
7.174834126408228
 21
31.72210594652836
 31
0.0
 11
7.28123195645972
 21
31.72823444579155
 31
0.0
 11
7.417077081113944
 21
31.76577247317295
 31
0.0
 11
7.506379325021185
 21
31.81982030452526
 31
0.0
 11
7.565172093407142
 21
31.88974063195139
 31
0.0
 11
7.612628106323342
 21
31.97378513500343
 31
0.0
 11
7.639118596251961
 21
32.03128770756889
 31
0.0
 11
7.661120083176541
 21
32.09108992928768
 31
0.0
 11
7.670835359595827
 21
32.13637852768188
 31
0.0
 11
7.678339223502376
 21
32.18510847056172
 31
0.0
1001
AcDbBlockRepETag
1070
     1
1071
      848
1005
5A3C
  0
LWPOLYLINE
  5
5A3D
102
{ACAD_REACTORS
330
5A47
102
}
330
5A13
100
AcDbEntity
  8
APL Border
  6
Continuous
 62
     8
100
AcDbPolyline
 90
        4
 70
     1
 43
0.0
 10
-1.87552020613694
 20
26.87985997284487
 10
-2.652351276624727
 20
26.87985997284487
 10
-2.949753340833609
 20
23.87985997284487
 10
-2.172922270345821
 20
23.87985997284487
1001
AcDbBlockRepETag
1070
     1
1071
      851
1005
5A3D
  0
LWPOLYLINE
  5
5A3E
102
{ACAD_REACTORS
330
5A47
102
}
330
5A13
100
AcDbEntity
  8
APL Border
  6
Continuous
 62
     8
100
AcDbPolyline
 90
       10
 70
     1
 43
0.0
 10
-1.269968290467119
 20
26.87985997284487
 10
-1.567390260339408
 20
23.87965917736506
 10
-0.9464513117398212
 20
23.87965917736506
 10
-0.7630434193126519
 20
25.72975957510511
 10
0.0564916475867392
 20
23.87965917736506
 10
0.9078833951650437
 20
23.87965917736506
 10
1.205285459373925
 20
26.87965917736506
 10
0.5853232289196911
 20
26.87965917736506
 10
0.4009773036021614
 20
25.0299490114994
 10
-0.41838490310775
 20
26.87965917736506
1001
AcDbBlockRepETag
1070
     1
1071
      852
1005
5A3E
  0
LWPOLYLINE
  5
5A3F
102
{ACAD_REACTORS
330
5A47
102
}
330
5A13
100
AcDbEntity
  8
APL Border
 62
     8
100
AcDbPolyline
 90
       13
 70
     0
 43
0.0
 10
1.882971499788112
 20
26.87985997284487
 10
3.847979515363789
 20
26.87985997284487
 10
3.788499102522024
 20
26.27985997284487
 10
2.600322157434135
 20
26.27985997284487
 10
2.540562294183217
 20
25.67704105755032
 10
3.542578834455781
 20
25.67704105755032
 10
3.476410183919
 20
25.07985997284487
 10
2.474393643646379
 20
25.07985997284487
 10
2.421932428393546
 20
24.48037956726917
 10
3.610109373481435
 20
24.48037956726917
 10
3.550577451154907
 20
23.87985997284487
 10
1.58556943557923
 20
23.87985997284487
 10
1.882971499788112
 20
26.87985997284487
1001
AcDbBlockRepETag
1070
     1
1071
      864
1005
5A3F
  0
LINE
  5
5A40
102
{ACAD_REACTORS
330
5A47
102
}
330
5A13
100
AcDbEntity
  8
APL Border
 62
     8
100
AcDbLine
 10
5.198870965514487
 20
25.50205881951548
 30
0.0
 11
5.142141867913778
 21
25.50205881951548
 31
0.0
1001
AcDbBlockRepETag
1070
     1
1071
      865
1005
5A40
  0
SPLINE
  5
5A41
102
{ACAD_REACTORS
330
5A47
102
}
330
5A13
100
AcDbEntity
  8
APL Border
 62
     8
100
AcDbSpline
210
0.0
220
0.0
230
1.0
 70
     8
 71
     3
 72
    25
 73
    21
 74
     0
 42
0.0000000001
 43
0.0000000001
 40
0.0
 40
0.0
 40
0.0
 40
0.0
 40
0.3463130802699203
 40
0.6043703055549736
 40
0.8524756959462802
 40
1.099102870182333
 40
1.318598063912852
 40
1.521064627602771
 40
1.694788988362445
 40
1.912615757663666
 40
2.142780600046976
 40
2.483378398179008
 40
2.873129106540456
 40
3.09179617846886
 40
3.322387155839943
 40
3.509181810940893
 40
3.69147909649244
 40
3.927844502409028
 40
4.143063657146388
 40
4.406491840702669
 40
4.406491840702669
 40
4.406491840702669
 40
4.406491840702669
 10
-5.114032196843737
 20
23.8798599728377
 30
0.0
 10
-5.228982970363915
 20
23.89503832123493
 30
0.0
 10
-5.429589987754155
 20
23.92152690506636
 30
0.0
 10
-5.693675021857103
 20
24.03567408988205
 30
0.0
 10
-5.892941488864977
 20
24.19306688135278
 30
0.0
 10
-6.036314150572081
 20
24.38541826526996
 30
0.0
 10
-6.137502326421099
 20
24.58575647986304
 30
0.0
 10
-6.184089306330008
 20
24.77995730666768
 30
0.0
 10
-6.209030826709039
 20
24.97670983726675
 30
0.0
 10
-6.206060891535827
 20
25.18442176502657
 30
0.0
 10
-6.186178297010457
 20
25.44676950423098
 30
0.0
 10
-6.128537036390639
 20
25.76177491648128
 30
0.0
 10
-6.024273636684796
 20
26.06592307272473
 30
0.0
 10
-5.858617591962229
 20
26.29271170654482
 30
0.0
 10
-5.725334295882049
 20
26.45803039682342
 30
0.0
 10
-5.575727893531166
 20
26.59168695454355
 30
0.0
 10
-5.409633372236157
 20
26.70740493083671
 30
0.0
 10
-5.217340570729675
 20
26.79721770551459
 30
0.0
 10
-4.988026372094168
 20
26.86731869684436
 30
0.0
 10
-4.849424991220388
 20
26.87777876054341
 30
0.0
 10
-4.7645039250757
 20
26.87985997283595
 30
0.0
1001
AcDbBlockRepETag
1070
     1
1071
      875
1005
5A41
  0
ELLIPSE
  5
5A42
102
{ACAD_REACTORS
330
5A46
330
5A47
102
}
330
5A13
100
AcDbEntity
  8
APL Border
 62
     8
100
AcDbEllipse
 10
-4.728528852722632
 20
25.3825150979867
 30
0.0
 11
-0.2732326585474372
 21
-0.8283682112856686
 31
0.0
210
0.0
220
0.0
230
-1.0
 40
0.767138872147242
 41
0.0
 42
6.283185307179586
1001
AcDbBlockRepETag
1070
     1
1071
      876
1005
5A42
  0
SPLINE
  5
5A43
102
{ACAD_REACTORS
330
5A47
102
}
330
5A13
100
AcDbEntity
  8
APL Border
 62
     8
100
AcDbSpline
210
0.0
220
0.0
230
1.0
 70
     8
 71
     3
 72
    26
 73
    22
 74
     0
 42
0.0000000001
 43
0.0000000001
 40
4.60284491300692
 40
4.60284491300692
 40
4.60284491300692
 40
4.60284491300692
 40
4.695921259854779
 40
4.963507654731998
 40
5.182979392648435
 40
5.397234555269768
 40
5.619529682274728
 40
5.869260387557257
 40
6.093250787730498
 40
6.263427758207029
 40
6.582064557968705
 40
6.800458868269094
 40
7.179401531729983
 40
7.575889850719137
 40
7.787844664578662
 40
8.01909420716162
 40
8.205730502580088
 40
8.387453763945252
 40
8.621856230932909
 40
8.833419194479944
 40
8.988019761194074
 40
8.988019761194074
 40
8.988019761194074
 40
8.988019761194074
 10
-4.486699891621668
 20
26.8798599728377
 30
0.0
 10
-4.440001835107608
 20
26.87954742494388
 30
0.0
 10
-4.335540249228728
 20
26.87475925711838
 30
0.0
 10
-4.164200665084621
 20
26.85307202884131
 30
0.0
 10
-3.96932086400659
 20
26.77880589501945
 30
0.0
 10
-3.766465201232762
 20
26.6658847706859
 30
0.0
 10
-3.60114437794968
 20
26.50570040783856
 30
0.0
 10
-3.471205788265336
 20
26.31143584383913
 30
0.0
 10
-3.381388817883674
 20
26.11392472080339
 30
0.0
 10
-3.317144182132551
 20
25.88552622199355
 30
0.0
 10
-3.281793375658168
 20
25.65006475492956
 30
0.0
 10
-3.30137826591374
 20
25.34538614523087
 30
0.0
 10
-3.327064239225308
 20
25.0112478652753
 30
0.0
 10
-3.471288581215731
 20
24.71021445059323
 30
0.0
 10
-3.60460091530777
 20
24.4641890220082
 30
0.0
 10
-3.737092402415015
 20
24.29954990084814
 30
0.0
 10
-3.882945983371143
 20
24.16225529150343
 30
0.0
 10
-4.046861838463826
 20
24.04508050911121
 30
0.0
 10
-4.233796525969012
 20
23.94884265716423
 30
0.0
 10
-4.427631511903911
 20
23.89220734010023
 30
0.0
 10
-4.549580407823555
 20
23.882511578974
 30
0.0
 10
-4.601116794093542
 20
23.87985997285202
 30
0.0
1001
AcDbBlockRepETag
1070
     1
1071
      877
1005
5A43
  0
LWPOLYLINE
  5
5A44
102
{ACAD_REACTORS
330
5A47
102
}
330
5A13
100
AcDbEntity
  8
APL Border
 62
     8
100
AcDbPolyline
 90
        2
 70
     0
 43
0.0
 10
-4.764503925211641
 20
26.8798599728377
 10
-4.486699891621924
 20
26.8798599728377
1001
AcDbBlockRepETag
1070
     1
1071
      878
1005
5A44
  0
LWPOLYLINE
  5
5A45
102
{ACAD_REACTORS
330
5A47
102
}
330
5A13
100
AcDbEntity
  8
APL Border
 62
     8
100
AcDbPolyline
 90
        2
 70
     0
 43
0.0
 10
-5.114032196843737
 20
23.8798599728377
 10
-4.601116794093513
 20
23.87985997285202
1001
AcDbBlockRepETag
1070
     1
1071
      879
1005
5A45
  0
HATCH
  5
5A46
330
5A13
100
AcDbEntity
  8
APL Border
 62
     8
100
AcDbHatch
 10
0.0
 20
0.0
 30
0.0
210
0.0
220
0.0
230
1.0
  2
SOLID
 70
     1
 71
     1
 91
        1
 92
        5
 93
        1
 72
     3
 10
-4.728528852722632
 20
25.3825150979867
 11
-0.2732326585474372
 21
-0.8283682112856686
 40
0.767138872147242
 50
0.0
 51
360.0
 73
     0
 97
        1
330
5A42
 75
     0
 76
     1
 47
0.0172809346375552
 98
        1
 10
-4.520972790815363
 20
25.15086651129009
1001
ACAD
1010
0.0
1020
0.0
1030
0.0
1001
AcDbBlockRepETag
1070
     1
1071
      880
1005
5A46
  0
HATCH
  5
5A47
330
5A13
100
AcDbEntity
  8
APL Border
 62
     8
100
AcDbHatch
 10
0.0
 20
0.0
 30
0.0
210
0.0
220
0.0
230
1.0
  2
SOLID
 70
     1
 71
     1
 91
        9
 92
        7
 72
     0
 73
     1
 93
        4
 10
-12.20942510081127
 20
28.14789574745095
 10
-8.85038058018816
 20
22.32985997284487
 10
8.850698786449385
 20
22.32985997284487
 10
12.20974330707306
 20
28.14789574745094
 97
        1
330
5A26
 92
       20
 93
        4
 72
     4
 94
        3
 73
     0
 74
     0
 95
       25
 96
       21
 40
0.0
 40
0.0
 40
0.0
 40
0.0
 40
0.3463130802699203
 40
0.6043703055549736
 40
0.8524756959462802
 40
1.099102870182333
 40
1.318598063912852
 40
1.521064627602771
 40
1.694788988362445
 40
1.912615757663666
 40
2.142780600046976
 40
2.483378398179008
 40
2.873129106540456
 40
3.09179617846886
 40
3.322387155839943
 40
3.509181810940893
 40
3.69147909649244
 40
3.927844502409028
 40
4.143063657146388
 40
4.406491840702669
 40
4.406491840702669
 40
4.406491840702669
 40
4.406491840702669
 10
-5.114032196843737
 20
23.8798599728377
 10
-5.228982970363915
 20
23.89503832123493
 10
-5.429589987754155
 20
23.92152690506636
 10
-5.693675021857103
 20
24.03567408988205
 10
-5.892941488864977
 20
24.19306688135278
 10
-6.036314150572081
 20
24.38541826526996
 10
-6.137502326421099
 20
24.58575647986304
 10
-6.184089306330008
 20
24.77995730666768
 10
-6.209030826709039
 20
24.97670983726675
 10
-6.206060891535827
 20
25.18442176502657
 10
-6.186178297010457
 20
25.44676950423098
 10
-6.128537036390639
 20
25.76177491648128
 10
-6.024273636684796
 20
26.06592307272473
 10
-5.858617591962229
 20
26.29271170654482
 10
-5.725334295882049
 20
26.45803039682342
 10
-5.575727893531166
 20
26.59168695454355
 10
-5.409633372236157
 20
26.70740493083671
 10
-5.217340570729675
 20
26.79721770551459
 10
-4.988026372094168
 20
26.86731869684436
 10
-4.849424991220388
 20
26.87777876054341
 10
-4.7645039250757
 20
26.87985997283595
 72
     1
 10
-4.764503925020689
 20
26.87985997283771
 11
-4.486699891621347
 21
26.8798599728377
 72
     4
 94
        3
 73
     0
 74
     0
 95
       26
 96
       22
 40
4.60284491300692
 40
4.60284491300692
 40
4.60284491300692
 40
4.60284491300692
 40
4.695921259854779
 40
4.963507654731998
 40
5.182979392648435
 40
5.397234555269768
 40
5.619529682274728
 40
5.869260387557257
 40
6.093250787730498
 40
6.263427758207029
 40
6.582064557968705
 40
6.800458868269094
 40
7.179401531729983
 40
7.575889850719137
 40
7.787844664578662
 40
8.01909420716162
 40
8.205730502580088
 40
8.387453763945252
 40
8.621856230932909
 40
8.833419194479944
 40
8.988019761194074
 40
8.988019761194074
 40
8.988019761194074
 40
8.988019761194074
 10
-4.486699891621668
 20
26.8798599728377
 10
-4.440001835107608
 20
26.87954742494388
 10
-4.335540249228728
 20
26.87475925711838
 10
-4.164200665084621
 20
26.85307202884131
 10
-3.96932086400659
 20
26.77880589501945
 10
-3.766465201232762
 20
26.6658847706859
 10
-3.60114437794968
 20
26.50570040783856
 10
-3.471205788265336
 20
26.31143584383913
 10
-3.381388817883674
 20
26.11392472080339
 10
-3.317144182132551
 20
25.88552622199355
 10
-3.281793375658168
 20
25.65006475492956
 10
-3.30137826591374
 20
25.34538614523087
 10
-3.327064239225308
 20
25.0112478652753
 10
-3.471288581215731
 20
24.71021445059323
 10
-3.60460091530777
 20
24.4641890220082
 10
-3.737092402415015
 20
24.29954990084814
 10
-3.882945983371143
 20
24.16225529150343
 10
-4.046861838463826
 20
24.04508050911121
 10
-4.233796525969012
 20
23.94884265716423
 10
-4.427631511903911
 20
23.89220734010023
 10
-4.549580407823555
 20
23.882511578974
 10
-4.601116794093542
 20
23.87985997285202
 72
     1
 10
-4.601116794093525
 20
23.87985997285202
 11
-5.114032196843729
 21
23.8798599728377
 97
        4
330
5A41
330
5A44
330
5A43
330
5A45
 92
        4
 93
        1
 72
     3
 10
-4.728528852722632
 20
25.3825150979867
 11
-0.2732326585474372
 21
-0.8283682112856686
 40
0.767138872147242
 50
0.0
 51
360.0
 73
     0
 97
        1
330
5A42
 92
       20
 93
        8
 72
     1
 10
-6.482313212520211
 20
26.87985997284487
 11
-6.679452083611267
 21
24.89125032803125
 72
     4
 94
        3
 73
     0
 74
     0
 95
       16
 96
       12
 40
0.0
 40
0.0
 40
0.0
 40
0.0
 40
0.1978277931646383
 40
0.361463118001824
 40
0.5540499897785108
 40
0.7796220130725381
 40
0.979106605438038
 40
1.222151590302332
 40
1.40748727220097
 40
1.607226525619232
 40
1.815049166761618
 40
1.815049166761618
 40
1.815049166761618
 40
1.815049166761618
 10
-6.679452083611295
 20
24.89125032803118
 10
-6.685371732996685
 20
24.82559351525052
 10
-6.696187882184318
 20
24.70562798418881
 10
-6.721757155054632
 20
24.52229576436942
 10
-6.768469983285655
 20
24.33480615160982
 10
-6.860719723390843
 20
24.14153771241002
 10
-7.051789745146265
 20
24.01851519430106
 10
-7.233921808197266
 20
23.91285203345821
 10
-7.443451931375136
 20
23.87675735439051
 10
-7.641222718647384
 20
23.88093312949101
 10
-7.776581895343355
 20
23.89281010788354
 10
-7.845603808282817
 20
23.89886637823479
 72
     1
 10
-7.845603808282787
 20
23.89886637823479
 11
-8.399876560405061
 21
23.98304774476413
 72
     1
 10
-8.399876560405061
 20
23.98304774476413
 11
-8.399876560405061
 21
24.64579492155148
 72
     1
 10
-8.399876560405061
 20
24.64579492155148
 11
-7.815117916056302
 21
24.56632682606845
 72
     4
 94
        3
 73
     0
 74
     0
 95
       11
 96
        7
 40
0.0
 40
0.0
 40
0.0
 40
0.0
 40
0.2042619346961744
 40
0.3074129668363174
 40
0.4146012126853764
 40
0.4826852714337078
 40
0.4826852714337078
 40
0.4826852714337078
 40
0.4826852714337078
 10
-7.815117916056323
 20
24.56632682606847
 10
-7.743266182308218
 20
24.55714977626708
 10
-7.635129760920136
 20
24.54333837224583
 10
-7.524447891091284
 20
24.63752792323729
 10
-7.477352395049535
 20
24.71998790389099
 10
-7.468646137215245
 20
24.77808681972154
 10
-7.465264214605014
 20
24.80065518845331
 72
     1
 10
-7.465264214605014
 20
24.80065518845333
 11
-7.259144283007996
 21
26.87985997284487
 72
     1
 10
-7.259144283007996
 20
26.87985997284487
 11
-6.482313212520211
 21
26.87985997284487
 97
        4
330
5A2C
330
5A17
330
5A2D
330
5A18
 92
       22
 72
     0
 73
     1
 93
        4
 10
-2.652351276624725
 20
26.87985997284486
 10
-1.87552020613694
 20
26.87985997284486
 10
-2.172922270345821
 20
23.87985997284487
 10
-2.949753340833609
 20
23.87985997284487
 97
        1
330
5A3D
 92
       22
 72
     0
 73
     1
 93
       10
 10
-1.269968290467114
 20
26.87985997284487
 10
-0.4183849031077484
 20
26.87965917736506
 10
0.4009773036021615
 20
25.0299490114994
 10
0.5853232289196909
 20
26.87965917736506
 10
1.205285459373925
 20
26.87965917736506
 10
0.9078833951650439
 20
23.87965917736506
 10
0.056491647586738
 20
23.87965917736506
 10
-0.7630434193126518
 20
25.72975957510511
 10
-0.946451311739821
 20
23.87965917736506
 10
-1.567390260339408
 20
23.87965917736506
 97
        1
330
5A3E
 92
       22
 72
     0
 73
     1
 93
       12
 10
1.882971499788112
 20
26.87985997284486
 10
3.847979515363789
 20
26.87985997284486
 10
3.788499102522024
 20
26.27985997284486
 10
2.600322157434135
 20
26.27985997284487
 10
2.540562294183218
 20
25.67704105755032
 10
3.542578834455781
 20
25.67704105755032
 10
3.476410183919
 20
25.07985997284487
 10
2.47439364364638
 20
25.07985997284487
 10
2.421932428393546
 20
24.48037956726917
 10
3.610109373481436
 20
24.48037956726917
 10
3.550577451154907
 20
23.87985997284487
 10
1.585569435579231
 20
23.87985997284487
 97
        1
330
5A3F
 92
       20
 93
       11
 72
     1
 10
4.429648034880159
 20
26.87985997284486
 11
5.780015564168562
 21
26.87985997284487
 72
     4
 94
        3
 73
     0
 74
     0
 95
       20
 96
       16
 40
0.0
 40
0.0
 40
0.0
 40
0.0
 40
0.1774120264923274
 40
0.3258093286713144
 40
0.4834060703451958
 40
0.6311237014699663
 40
0.811161917566129
 40
0.9605198197290178
 40
1.289502400757101
 40
1.459697744220917
 40
1.604754171475458
 40
1.794797311213428
 40
2.030760379210173
 40
2.301729078160567
 40
2.393267743077617
 40
2.393267743077617
 40
2.393267743077617
 40
2.393267743077617
 10
5.780015564168593
 20
26.87985997284487
 10
5.839056126904296
 20
26.87337384475878
 10
5.947481505327601
 20
26.86146235781404
 10
6.098807931884806
 20
26.80185114122353
 10
6.227972759762906
 20
26.72168911843352
 10
6.347510602881385
 20
26.61140356622764
 10
6.442310149474394
 20
26.48207375794227
 10
6.536759215535255
 20
26.28338234239492
 10
6.578465181725675
 20
26.06469589684353
 10
6.553150099427256
 20
25.85079503063701
 10
6.524121382020268
 20
25.68499989147718
 10
6.464236525716046
 20
25.50199988960434
 10
6.327150620479812
 20
25.31187331731421
 10
6.179477266233362
 20
25.17172660684537
 10
6.072729148555964
 20
25.11631253421805
 10
6.045077525535504
 20
25.10350570839811
 72
     1
 10
6.045077525535502
 20
25.1035057083981
 11
6.339444173005232
 21
23.87985997284487
 72
     1
 10
6.339444173005232
 20
23.87985997284487
 11
5.532386545886621
 21
23.87985997284487
 72
     1
 10
5.532386545886621
 20
23.87985997284487
 11
5.142141867913776
 21
25.50205881951548
 72
     1
 10
5.142141867913776
 20
25.50205881951548
 11
5.19887096551445
 21
25.50205881951548
 72
     4
 94
        3
 73
     0
 74
     0
 95
       17
 96
       13
 40
0.0
 40
0.0
 40
0.0
 40
0.0
 40
0.0463117202933683
 40
0.2032408426961212
 40
0.3585694343029505
 40
0.4964057577712057
 40
0.6456565825699876
 40
0.7595770154256244
 40
0.9262943680254526
 40
1.032180609131101
 40
1.14647028625934
 40
1.243973057737614
 40
1.243973057737614
 40
1.243973057737614
 40
1.243973057737614
 10
5.198870965514487
 20
25.50205881951548
 10
5.214272018053407
 20
25.50302975767877
 10
5.28186015506489
 20
25.50729075876586
 10
5.40176083940824
 20
25.51345804330556
 10
5.546675458142118
 20
25.55725132865025
 10
5.67725421213268
 20
25.62965962372397
 10
5.765298612935083
 20
25.7349784962169
 10
5.820388894698254
 20
25.86817511516085
 10
5.832561030472788
 20
26.0011917111029
 10
5.781919321100474
 20
26.1258482190374
 10
5.684603990133524
 20
26.18537947021099
 10
5.613502616848251
 20
26.1875961553427
 10
5.580769717272147
 20
26.18861664944085
 72
     1
 10
5.580769717272125
 20
26.18861664944085
 11
5.137953374950967
 21
26.18861664944085
 72
     1
 10
5.137953374950967
 20
26.18861664944085
 11
4.909077041159065
 21
23.87985997284487
 72
     1
 10
4.909077041159065
 20
23.87985997284487
 11
4.132245970671278
 21
23.87985997284487
 72
     1
 10
4.132245970671278
 20
23.87985997284487
 11
4.429648034880159
 21
26.87985997284486
 97
        5
330
5A27
330
5A19
330
5A29
330
5A40
330
5A1A
 92
       22
 72
     0
 73
     1
 93
        9
 10
6.800478684667179
 20
26.87985997284487
 10
7.607536311785904
 20
26.87985997284487
 10
7.963471882016363
 20
25.86355557445326
 10
8.538893993587493
 20
26.87985997284487
 10
9.414203966725493
 20
26.87985997284487
 10
8.232331174709315
 20
25.00957443408062
 10
8.120338037129924
 20
23.87985997284486
 10
7.343506966642139
 20
23.87985997284486
 10
7.455500104221528
 20
25.00957443408062
 97
        1
330
5A25
 75
     0
 76
     1
 47
0.0276408434878157
 98
        9
 10
-5.110068937762804
 20
27.30829258594788
 10
-5.110068937762804
 20
27.30829258594788
 10
-5.110068937762804
 20
27.30829258594788
 10
-5.110068937762804
 20
27.30829258594788
 10
-5.110068937762804
 20
27.30829258594788
 10
-5.110068937762804
 20
27.30829258594788
 10
-5.110068937762804
 20
27.30829258594788
 10
-5.110068937762804
 20
27.30829258594788
 10
-5.110068937762804
 20
27.30829258594788
1001
ACAD
1010
0.0
1020
0.0
1030
0.0
1001
AcDbBlockRepETag
1070
     1
1071
      881
1005
5A47
  0
HATCH
  5
5A48
330
5A13
100
AcDbEntity
  8
APL Border
 62
     8
100
AcDbHatch
 10
0.0
 20
0.0
 30
0.0
210
0.0
220
0.0
230
1.0
  2
SOLID
 70
     1
 71
     1
 91
        1
 92
        7
 72
     0
 73
     1
 93
        4
 10
0.0001591031300169
 20
7.000275566930961
 10
3.563095122801513
 20
13.17146177711931
 10
-0.9450856774407473
 20
20.97985997284487
 10
-8.070957716782199
 20
20.97985997284487
 97
        1
330
5A2A
 75
     0
 76
     1
 47
0.0707162833847576
 98
        3
 10
-2.675438732228172
 20
16.47794635472378
 10
6.312751868664321
 20
42.28939048605213
 10
-9.894301834166896
 20
39.60217176706084
1001
ACAD
1010
0.0
1020
0.0
1030
0.0
1001
AcDbBlockRepETag
1070
     1
1071
      883
1005
5A48
  0
HATCH
  5
5A49
330
5A13
100
AcDbEntity
  8
APL Border
 62
     8
100
AcDbHatch
 10
0.0
 20
0.0
 30
0.0
210
0.0
220
0.0
230
1.0
  2
SOLID
 70
     1
 71
     0
 91
        1
 92
        7
 72
     0
 73
     1
 93
        7
 10
-12.96642015501169
 20
43.61979184908029
 10
-14.7664201550117
 20
43.61979184908029
 10
-16.54136876356097
 20
39.42215966960598
 10
-17.19614352503853
 20
43.61979184908029
 10
-18.99614352503854
 20
43.61979184908029
 10
-17.7875751270476
 20
37.38083558975206
 10
-15.77022638070493
 20
37.38083558975206
 97
        0
 75
     0
 76
     1
 47
0.0707162833847576
 98
        3
 10
6.249678794057444
 20
42.28939048605213
 10
-9.957374908773772
 20
39.60217176706084
 10
-16.39773218462096
 20
38.68285940442952
1001
ACAD
1010
0.0
1020
0.0
1030
0.0
1001
AcDbBlockRepETag
1070
     1
1071
      884
1005
5A49
  0
HATCH
  5
5A4A
330
5A13
100
AcDbEntity
  8
APL Border
 62
     8
100
AcDbHatch
 10
0.0
 20
0.0
 30
0.0
210
0.0
220
0.0
230
1.0
  2
SOLID
 70
     1
 71
     1
 91
        1
 92
        7
 72
     0
 73
     1
 93
       10
 10
-2.850928947786229
 20
37.38083558975206
 10
-2.181839912298442
 20
43.6197918490803
 10
-3.855464624526036
 20
43.61979184908029
 10
-4.228474015381578
 20
40.14164596649268
 10
-5.40751765387219
 20
43.61979184908029
 10
-7.466097855805088
 20
43.61979184908029
 10
-8.135186891292875
 20
37.38083558975206
 10
-6.479801476178323
 20
37.38083558975206
 10
-6.131920885667285
 20
40.6246666384634
 10
-5.032306754624555
 20
37.38083558975206
 97
        1
330
5A21
 75
     0
 76
     1
 47
0.0707162833847576
 98
        3
 10
6.312751868664321
 20
42.28939048605213
 10
-5.364819983741796
 20
40.80434854252457
 10
-9.894301834166896
 20
39.60217176706084
1001
ACAD
1010
0.0
1020
0.0
1030
0.0
1001
AcDbBlockRepETag
1070
     1
1071
      886
1005
5A4A
  0
HATCH
  5
5A4B
330
5A13
100
AcDbEntity
  8
APL Border
 62
     8
100
AcDbHatch
 10
0.0
 20
0.0
 30
0.0
210
0.0
220
0.0
230
1.0
  2
SOLID
 70
     1
 71
     1
 91
        1
 92
        7
 72
     0
 73
     1
 93
        8
 10
2.929095477768755
 20
41.97282181113101
 10
3.105743226874893
 20
43.6199831327606
 10
-1.725754035154748
 20
43.61998313276061
 10
-1.891167362926863
 20
41.97282181113101
 10
-0.3755272841536335
 20
41.97282181113101
 10
-0.8679685705352806
 20
37.38102687343239
 10
0.9741138955425025
 20
37.38339558452146
 10
1.466301152475638
 20
41.97282181113101
 97
        1
330
5A20
 75
     0
 76
     1
 47
0.0707162833847576
 98
        3
 10
6.461508006627583
 20
42.28958176973246
 10
0.3042431306128051
 20
42.36029787294049
 10
-9.745545696203633
 20
39.60236305074117
1001
ACAD
1010
0.0
1020
0.0
1030
0.0
1001
AcDbBlockRepETag
1070
     1
1071
      887
1005
5A4B
  0
HATCH
  5
5A4C
330
5A13
100
AcDbEntity
  8
APL Border
 62
     8
100
AcDbHatch
 10
0.0
 20
0.0
 30
0.0
210
0.0
220
0.0
230
1.0
  2
SOLID
 70
     1
 71
     1
 91
        1
 92
        7
 72
     0
 73
     1
 93
        3
 10
8.071275923043375
 20
20.97985997284487
 10
0.8484489512626126
 20
20.97985997284487
 10
4.459862437153192
 20
14.72470832814346
 97
        1
330
5A2B
 75
     0
 76
     1
 47
0.0707162833847576
 98
        3
 10
4.897289869501349
 20
18.17513736310713
 10
6.312751868664321
 20
42.28939048605213
 10
-9.894301834166896
 20
39.60217176706084
1001
ACAD
1010
0.0
1020
0.0
1030
0.0
1001
AcDbBlockRepETag
1070
     1
1071
      891
1005
5A4C
  0
HATCH
  5
5A4D
330
5A13
100
AcDbEntity
  8
APL Border
 62
     8
100
AcDbHatch
 10
0.0
 20
0.0
 30
0.0
210
0.0
220
0.0
230
1.0
  2
SOLID
 70
     1
 71
     1
 91
        2
 92
       16
 93
        3
 72
     1
 10
0.0000000003145431
 20
4.000000000000009
 11
23.60256143704041
 21
44.88083558975217
 72
     1
 10
23.60256143704041
 20
44.88083558975217
 11
-23.60256142783933
 21
44.88083558975206
 72
     1
 10
-23.60256142783933
 20
44.88083558975206
 11
0.0000000003145431
 21
4.000000000000007
 97
        1
330
5A31
 92
        1
 93
        3
 72
     1
 10
27.06666305249243
 20
46.88083558975206
 11
-27.06666304266244
 21
46.88083558975206
 72
     1
 10
-27.06666304266244
 20
46.88083558975206
 11
-0.0000000000000284
 21
0.0000000000000213
 72
     1
 10
-0.0000000000000284
 20
0.0000000000000238
 11
27.06666305249243
 21
46.88083558975206
 97
        1
330
5A32
 75
     0
 76
     1
 98
        1
 10
-236.5641112216887
 20
1.231020082252661
1001
ACAD
1010
0.0
1020
0.0
1030
0.0
1001
AcDbBlockRepETag
1070
     1
1071
      892
1005
5A4D
  0
HATCH
  5
5A4E
330
5A13
100
AcDbEntity
  8
APL Border
 62
     8
100
AcDbHatch
 10
0.0
 20
0.0
 30
0.0
210
0.0
220
0.0
230
1.0
  2
SOLID
 70
     1
 71
     1
 91
        1
 92
        7
 72
     0
 73
     1
 93
       12
 10
15.84058876400877
 20
41.9726305274507
 10
18.21321428445671
 20
41.9726305274507
 10
18.38986203356285
 20
43.61979184908029
 10
14.13627631352983
 20
43.61979184908029
 10
13.46718727804204
 20
37.38083558975206
 10
17.72077299807506
 20
37.38083558975207
 10
17.87787225036464
 20
38.84571591422678
 10
15.50524672991671
 20
38.84571591422678
 10
15.58395939694927
 20
39.5796763598845
 10
17.56969663746741
 20
39.57967635988449
 10
17.71732334684157
 20
41.15966911198297
 10
15.75340373709809
 20
41.15966911198297
 97
        1
330
5A1D
 75
     0
 76
     1
 47
0.0265225354961204
 98
        1
 10
15.74642260871314
 20
42.54140343148856
1001
ACAD
1010
0.0
1020
0.0
1030
0.0
1001
AcDbBlockRepETag
1070
     1
1071
      895
1005
5A4E
  0
SPLINE
  5
5A4F
102
{ACAD_REACTORS
330
5A51
330
5A52
102
}
330
5A13
100
AcDbEntity
  8
APL Border
 62
     8
100
AcDbSpline
210
0.0
220
0.0
230
1.0
 70
     8
 71
     3
 72
    12
 73
     8
 74
     0
 42
0.0000000001
 43
0.0000000001
 40
0.0
 40
0.0
 40
0.0
 40
0.0
 40
0.6153828260925694
 40
0.6153828260925694
 40
1.184895113366773
 40
1.184895113366773
 40
1.406874102447421
 40
1.406874102447421
 40
1.406874102447421
 40
1.406874102447421
 10
13.141643811855
 20
41.76981947766621
 30
0.0
 10
12.65093549588437
 20
41.90084145687704
 30
0.0
 10
12.40139116615246
 20
41.94113120867605
 30
0.0
 10
12.08548087756223
 20
41.99544455363318
 30
0.0
 10
11.92864742837253
 20
42.01465504085827
 30
0.0
 10
11.75444086026641
 20
42.02973960983341
 30
0.0
 10
11.75444086026641
 20
42.02973960983341
 30
0.0
 10
11.64369617822672
 20
42.03297741382947
 30
0.0
1001
AcDbBlockRepETag
1070
     1
1071
      898
1005
5A4F
  0
LWPOLYLINE
  5
5A50
102
{ACAD_REACTORS
330
5A51
102
}
330
5A13
100
AcDbEntity
  8
APL Border
  6
Continuous
 62
     8
100
AcDbPolyline
 90
        3
 70
     1
 43
0.0
 10
-11.22376129049633
 20
41.69367581194667
 10
-10.87774200114645
 20
40.14955389030274
 10
-11.91769445450297
 20
40.14955389030274
1001
AcDbBlockRepETag
1070
     1
1071
      902
1005
5A50
  0
HATCH
  5
5A51
330
5A13
100
AcDbEntity
  8
APL Border
 62
     8
100
AcDbHatch
 10
0.0
 20
0.0
 30
0.0
210
0.0
220
0.0
230
1.0
  2
SOLID
 70
     1
 71
     1
 91
        2
 92
        7
 72
     0
 73
     1
 93
        8
 10
-9.847253547555595
 20
43.61979184908029
 10
-12.02298966350147
 20
43.61979184908029
 10
-14.82679588919472
 20
37.38083558975206
 10
-12.95240022532295
 20
37.38083558975206
 10
-12.352528740424
 20
38.71565392391761
 10
-10.64639685172309
 20
38.71565392391761
 10
-10.34727999772013
 20
37.38083558975206
 10
-8.449177928734428
 20
37.38083558975207
 97
        1
330
5A22
 92
       22
 72
     0
 73
     1
 93
        3
 10
-11.22376129049633
 20
41.69367581194668
 10
-10.87774200114645
 20
40.14955389030274
 10
-11.91769445450297
 20
40.14955389030274
 97
        1
330
5A50
 75
     0
 76
     1
 47
0.0464409783890934
 98
        3
 10
-10.7866676671747
 20
42.18285929720354
 10
-10.7866676671747
 20
42.18285929720354
 10
4.318789658947025
 20
41.34692151769582
1001
ACAD
1010
0.0
1020
0.0
1030
0.0
1001
AcDbBlockRepETag
1070
     1
1071
      903
1005
5A51
  0
HATCH
  5
5A52
330
5A13
100
AcDbEntity
  8
APL Border
 62
     8
100
AcDbHatch
 10
0.0
 20
0.0
 30
0.0
210
0.0
220
0.0
230
1.0
  2
SOLID
 70
     1
 71
     1
 91
        1
 92
        5
 93
        9
 72
     4
 94
        3
 73
     0
 74
     0
 95
       25
 96
       21
 40
0.0289432764998855
 40
0.0289432764998855
 40
0.0289432764998855
 40
0.0289432764998855
 40
0.7134165119202287
 40
1.411731005087882
 40
2.041147618059464
 40
3.036171077105474
 40
3.957911241576911
 40
4.83592253147705
 40
5.676684481733094
 40
6.271141751551381
 40
6.974058201941041
 40
7.825808739104269
 40
8.5265481701528
 40
9.125733480364379
 40
9.891766509798275
 40
10.6767880070383
 40
11.66821110410527
 40
12.42950909475574
 40
13.09855121203093
 40
13.70132750762923
 40
13.70132750762923
 40
13.70132750762923
 40
13.70132750762923
 10
13.141643811855
 20
43.40554077871886
 10
12.91988216430481
 20
43.459256627421
 10
12.47168844867874
 20
43.5669624691983
 10
11.80600758681791
 20
43.66484839798013
 10
11.02988777388427
 20
43.6649333207477
 10
10.1361516270939
 20
43.55263717791944
 10
9.306733533720876
 20
43.19741938393827
 10
8.599762003673276
 20
42.45478219212527
 10
8.236440109363229
 20
41.77191325718488
 10
8.073464067873601
 20
41.07996170309042
 10
8.007035995439764
 20
40.3638923215899
 10
7.98103501985804
 20
39.60493317412716
 10
8.107710769833204
 20
38.92055182387923
 10
8.442098079777224
 20
38.21445924826959
 10
9.036296716232907
 20
37.66873436641545
 10
9.909689132144507
 20
37.42421376773082
 10
10.75775873959412
 20
37.35554609345542
 10
11.56487972715851
 20
37.38454149767491
 10
12.23983007222788
 20
37.44815687239099
 10
12.66077873273661
 20
37.49837935861893
 10
12.86026661033734
 20
37.52234731786496
 72
     1
 10
12.86026661033734
 20
37.52234731786496
 11
13.23839963312048
 21
41.04826877857415
 72
     1
 10
13.23839963312048
 20
41.04826877857415
 11
11.12639005748273
 21
41.04826877857415
 72
     1
 10
11.12639005748273
 20
41.04826877857415
 11
10.96889270630695
 21
39.57967635988449
 72
     1
 10
10.96889270630695
 20
39.57967635988449
 11
11.39962533929804
 21
39.57967635988449
 72
     1
 10
11.39962533929804
 20
39.57967635988449
 11
11.33360452536307
 21
38.96406177273883
 72
     4
 94
        3
 73
     0
 74
     0
 95
       19
 96
       15
 40
1.529304964685562
 40
1.529304964685562
 40
1.529304964685562
 40
1.529304964685562
 40
1.763981165818448
 40
2.06379851215709
 40
2.386700017314354
 40
2.753069149612017
 40
3.181918037271135
 40
3.768421453867451
 40
4.325591611844758
 40
5.021152851646889
 40
5.521935404920329
 40
5.929637176310238
 40
6.454411479904243
 40
6.957123473051371
 40
6.957123473755098
 40
6.957123473755098
 40
6.957123473755098
 10
11.33360452536307
 20
38.96406177273881
 10
11.24302802126629
 20
38.95177692242413
 10
10.99026249243499
 20
38.92783484269152
 10
10.70216182646531
 20
38.92661434152812
 10
10.3797311442331
 20
38.98358798973799
 10
10.00680770225198
 20
39.09661486818469
 10
9.716968816830743
 20
39.48770259248511
 10
9.641062203095145
 20
40.05806431643046
 10
9.717431528044755
 20
40.66388266631498
 10
9.854221329784113
 20
41.27113304911427
 10
10.23036575101369
 20
41.67654609785123
 10
10.65553906793815
 20
41.91613810684326
 10
11.13485165915975
 20
42.01473204050012
 10
11.47589856643677
 20
42.04574754506741
 10
11.64369617822672
 20
42.03297741382947
 72
     4
 94
        3
 73
     0
 74
     0
 95
       12
 96
        8
 40
0.0
 40
0.0
 40
0.0
 40
0.0
 40
0.2219789890806476
 40
0.2219789890806476
 40
0.7914912763548521
 40
0.7914912763548521
 40
1.406874102447421
 40
1.406874102447421
 40
1.406874102447421
 40
1.406874102447421
 10
11.64369617822672
 20
42.03297741382947
 10
11.75444086026641
 20
42.02973960983341
 10
11.75444086026641
 20
42.02973960983341
 10
11.92864742837253
 20
42.01465504085827
 10
12.08548087756223
 20
41.99544455363318
 10
12.40139116615246
 20
41.94113120867605
 10
12.65093549588437
 20
41.90084145687704
 10
13.141643811855
 20
41.76981947766621
 72
     1
 10
13.14164381185501
 20
41.76981947766621
 11
13.141643811855
 21
43.40554077871886
 97
        5
330
5A1B
330
5A1F
330
5A1C
330
5A4F
330
5A1E
 75
     0
 76
     1
 47
0.0464409783890934
 98
        3
 10
-10.7866676671747
 20
42.18285929720354
 10
4.318789658947025
 20
41.34692151769582
 10
10.26801654887663
 20
42.50794595375691
1001
ACAD
1010
0.0
1020
0.0
1030
0.0
1001
AcDbBlockRepETag
1070
     1
1071
      904
1005
5A52
  0
HATCH
  5
5A53
330
5A13
100
AcDbEntity
  8
APL Border
 62
     8
100
AcDbHatch
 10
0.0
 20
0.0
 30
0.0
210
0.0
220
0.0
230
1.0
  2
SOLID
 70
     1
 71
     1
 91
        2
 92
        7
 72
     0
 73
     1
 93
        8
 10
6.582554574553399
 20
43.61979184908029
 10
4.406818458607519
 20
43.6197918490803
 10
1.603012232914266
 20
37.38083558975206
 10
3.477407896786048
 20
37.38083558975206
 10
4.077279381684999
 20
38.71565392391761
 10
5.783411270385895
 20
38.71565392391761
 10
6.082528124388858
 20
37.38083558975206
 10
7.980630193374566
 20
37.38083558975207
 97
        1
330
5A33
 92
       22
 72
     0
 73
     1
 93
        3
 10
5.206046831612668
 20
41.69367581194667
 10
5.552066120962536
 20
40.14955389030274
 10
4.512113667606024
 20
40.14955389030274
 97
        1
330
5A34
 75
     0
 76
     1
 47
0.0464409783890934
 98
        3
 10
-10.7866676671747
 20
42.18285929720354
 10
4.318789658947025
 20
41.34692151769582
 10
4.318789658947025
 20
41.34692151769582
1001
ACAD
1010
0.0
1020
0.0
1030
0.0
1001
AcDbBlockRepETag
1070
     1
1071
      905
1005
5A53
  0
HATCH
  5
5A54
330
5A13
100
AcDbEntity
  8
APL Border
 62
     8
100
AcDbHatch
 10
0.0
 20
0.0
 30
0.0
210
0.0
220
0.0
230
1.0
  2
SOLID
 70
     1
 71
     1
 91
       11
 92
        7
 72
     0
 73
     1
 93
        4
 10
-16.33747952551644
 20
35.29789574745092
 10
-12.98884796421712
 20
29.49789574745095
 10
12.98916617047902
 20
29.49789574745094
 10
16.33779773177886
 20
35.29789574745093
 97
        1
330
5A24
 92
       22
 72
     0
 73
     1
 93
        8
 10
-10.50084997043805
 20
34.02289574745092
 10
-9.555761072109191
 20
34.02289574745092
 10
-8.834065309397374
 20
31.02289574745093
 10
-9.641122936515984
 20
31.02289574745093
 10
-9.86222995755253
 20
31.94201027933759
 10
-10.74455961985978
 20
31.94201027933758
 10
-11.20867717380426
 20
31.02289574745093
 10
-12.01573480092304
 20
31.02289574745093
 97
        1
330
5A30
 92
        6
 72
     0
 73
     1
 93
        3
 10
-10.14693849009504
 20
33.12550842600547
 10
-10.00044093617224
 20
32.51653621849666
 10
-10.45444607654239
 20
32.51653621849665
 97
        1
330
5A2F
 92
       22
 72
     0
 73
     1
 93
        6
 10
-8.326765119961606
 20
34.02289574745092
 10
-7.549934049473819
 20
34.02289574745092
 10
-7.777198851462713
 20
31.73039516316516
 10
-6.700109532938454
 20
31.73039516316516
 10
-6.770246795158442
 20
31.02289574745093
 10
-8.624167184170486
 20
31.02289574745092
 97
        1
330
5A2E
 92
       20
 93
       13
 72
     1
 10
-6.13042511277439
 20
34.02488019433461
 11
-5.353790768486449
 21
34.02289574745093
 72
     1
 10
-5.353790768486449
 20
34.02289574745093
 11
-5.5356280948821
 21
32.18709291744541
 72
     4
 94
        3
 73
     0
 74
     0
 95
       24
 96
       20
 40
0.0
 40
0.0
 40
0.0
 40
0.0
 40
0.1612668085855933
 40
0.2532303870616441
 40
0.3214574742553387
 40
0.4101806452459026
 40
0.5031588697521256
 40
0.5664511009171887
 40
0.624871878778038
 40
0.6731644290699905
 40
0.7797386132933425
 40
0.9206747739903356
 40
1.025058962643435
 40
1.116412352300609
 40
1.212929457806147
 40
1.276240530363035
 40
1.339961572016457
 40
1.386280507025952
 40
1.435584820291647
 40
1.435584820291647
 40
1.435584820291647
 40
1.435584820291647
 10
-5.535628094882099
 20
32.1870929174454
 10
-5.53213414748617
 20
32.13312332644234
 10
-5.526647751003197
 20
32.04837718097616
 10
-5.488860432547518
 20
31.94683424540268
 10
-5.447171648840961
 20
31.8753242559261
 10
-5.395818187958767
 20
31.80737001333622
 10
-5.320761662408248
 20
31.77062767698265
 10
-5.254477128417399
 20
31.74466351916423
 10
-5.200112096792143
 20
31.72723210184819
 10
-5.128888988289486
 20
31.72198763189771
 10
-5.030042811850907
 20
31.72786870372271
 10
-4.915707066470194
 20
31.75812586881066
 10
-4.815771266393483
 20
31.81405298527762
 10
-4.754740567305573
 20
31.89193427605802
 10
-4.71467399544198
 20
31.96546823314959
 10
-4.683526695854578
 20
32.03313813212702
 10
-4.662006183068958
 20
32.08703079743258
 10
-4.651792807669443
 20
32.13930455656534
 10
-4.647206914869654
 20
32.17083533130903
 10
-4.644842382192905
 20
32.1870929174454
 72
     1
 10
-4.644842382192908
 20
32.18709291744538
 11
-4.462655138951674
 21
34.0248801943346
 72
     1
 10
-4.462655138951674
 20
34.0248801943346
 11
-3.685824068463886
 21
34.0248801943346
 72
     1
 10
-3.685824068463886
 20
34.0248801943346
 11
-3.889225876952792
 21
31.97309408084612
 72
     2
 10
-5.35367831607159
 20
32.29400281725688
 40
1.499200908332752
 50
12.35998596222624
 51
34.57361697223234
 73
     0
 72
     2
 10
-4.942942423735221
 20
32.00494866311196
 40
0.9969860617863467
 50
34.29038331790704
 51
79.42991665428312
 73
     0
 72
     1
 10
-4.760057203160528
 20
31.0248801943346
 11
-5.510404689928634
 21
31.02488019433462
 72
     2
 10
-5.403812384664131
 20
31.8164328281441
 40
0.7986973717449786
 50
97.66944495435136
 51
120.898786067779
 73
     0
 72
     2
 10
-5.173141343771899
 20
32.14234761068797
 40
1.197202176515717
 50
122.3618931068037
 51
141.2515245137382
 73
     0
 72
     2
 10
-5.389471681131198
 20
32.00817328375058
 40
0.9450065449727091
 50
139.3862736078239
 51
177.8726579657922
 73
     0
 72
     1
 10
-6.333826921263238
 20
31.9730940808461
 11
-6.13042511277439
 21
34.02488019433461
 97
        2
330
5A36
330
5A37
 92
       22
 72
     0
 73
     1
 93
       13
 10
-3.14734900486158
 20
34.02825593571061
 10
-2.047349004861559
 20
34.02825593571061
 10
-1.827245318565901
 20
32.52441131541936
 10
-1.295012624591634
 20
34.02807364104484
 10
-0.1975458970834157
 20
34.0280551402308
 10
-0.4949479612922965
 20
31.0280551402308
 10
-1.115886909891883
 20
31.02805514023081
 10
-0.9222174129992312
 20
32.98166797820307
 10
-1.611942464131546
 20
31.02805514023081
 10
-2.344230471214956
 20
31.0280551402308
 10
-2.630162529241629
 20
32.98166797820306
 10
-2.823832026134283
 20
31.02805514023081
 10
-3.444770974733871
 20
31.0280551402308
 97
        1
330
5A39
 92
       22
 72
     0
 73
     1
 93
        4
 10
0.342591724648486
 20
34.02289574745092
 10
1.119422795136273
 20
34.02289574745092
 10
0.822020730927392
 20
31.02289574745093
 10
0.045189660439604
 20
31.02289574745093
 97
        1
330
5A28
 92
       22
 72
     0
 73
     1
 93
       10
 10
1.724974710806094
 20
34.02289574745093
 10
2.57655809816546
 20
34.02269495197112
 10
3.395920304875375
 20
32.17298478610545
 10
3.580266230192904
 20
34.02269495197112
 10
4.200228460647139
 20
34.02269495197112
 10
3.902826396438257
 20
31.02269495197112
 10
3.051434648859951
 20
31.02269495197112
 10
2.231899581960561
 20
32.87279534971117
 10
2.048491689533392
 20
31.02269495197111
 10
1.427552740933804
 20
31.02269495197111
 97
        1
330
5A3A
 92
       22
 72
     0
 73
     1
 93
        4
 10
4.838699321647566
 20
34.02289574745092
 10
5.615530392135354
 20
34.02289574745092
 10
5.318128327926473
 20
31.02289574745093
 10
4.541297257438685
 20
31.02289574745093
 97
        1
330
5A35
 92
       20
 93
       13
 72
     1
 10
6.192756492920892
 20
34.02289574745092
 11
6.969390837208833
 21
34.02091130056725
 72
     1
 10
6.969390837208833
 20
34.02091130056725
 11
6.787553510813181
 21
32.18510847056173
 72
     4
 94
        3
 73
     0
 74
     0
 95
       24
 96
       20
 40
0.0
 40
0.0
 40
0.0
 40
0.0
 40
0.1612668085856004
 40
0.2532303870616512
 40
0.3214574742553458
 40
0.4101806452458731
 40
0.5031588697521455
 40
0.5664511009172086
 40
0.6248718787780579
 40
0.6731644290699537
 40
0.7797386132933625
 40
0.9206747739903555
 40
1.025058962643406
 40
1.116412352300617
 40
1.212929457806155
 40
1.276240530363043
 40
1.339961572016455
 40
1.386280507025956
 40
1.435584820291643
 40
1.435584820291643
 40
1.435584820291643
 40
1.435584820291643
 10
6.787553510813182
 20
32.18510847056172
 10
6.791047458209138
 20
32.13113887955868
 10
6.796533854692151
 20
32.04639273409249
 10
6.834321173147815
 20
31.944849798519
 10
6.876009956854381
 20
31.87333980904244
 10
6.927363417736517
 20
31.80538556645249
 10
7.002419943287081
 20
31.76864323009899
 10
7.068704477277941
 20
31.74267907228055
 10
7.123069508903178
 20
31.72524765496452
 10
7.194292617405833
 20
31.72000318501404
 10
7.293138793844411
 20
31.72588425683904
 10
7.407474539225143
 20
31.75614142192696
 10
7.507410339301799
 20
31.81206853839398
 10
7.568441038389779
 20
31.88994982917431
 10
7.608507610253345
 20
31.96348378626593
 10
7.639654909840775
 20
32.03115368524333
 10
7.661175422626328
 20
32.08504635054892
 10
7.671388798025919
 20
32.13732010968165
 10
7.675974690825655
 20
32.16885088442535
 10
7.678339223502376
 20
32.18510847056172
 72
     1
 10
7.678339223502373
 20
32.1851084705617
 11
7.860526466743608
 21
34.02289574745092
 72
     1
 10
7.860526466743608
 20
34.02289574745092
 11
8.637357537231395
 21
34.02289574745092
 72
     1
 10
8.637357537231395
 20
34.02289574745092
 11
8.433955728742489
 21
31.97110963396244
 72
     2
 10
6.969503289623695
 20
32.29201837037321
 40
1.499200908332751
 50
12.35998596222655
 51
34.57361697220028
 73
     0
 72
     2
 10
7.38023918196006
 20
32.00296421622829
 40
0.9969860617863467
 50
34.2903833178587
 51
79.42991665428322
 73
     0
 72
     1
 10
7.563124402534754
 20
31.02289574745093
 11
6.812776915766647
 21
31.02289574745094
 72
     2
 10
6.919369221031151
 20
31.81444838126043
 40
0.7986973717449786
 50
97.66944495435136
 51
120.898786067779
 73
     0
 72
     2
 10
7.150040261923383
 20
32.14036316380429
 40
1.197202176515717
 50
122.3618931068037
 51
141.2515245137382
 73
     0
 72
     2
 10
6.933709924564084
 20
32.0061888368669
 40
0.9450065449727091
 50
139.3862736078239
 51
177.8726579657922
 73
     0
 72
     1
 10
5.989354684432043
 20
31.97110963396243
 11
6.192756492920892
 21
34.02289574745092
 97
        2
330
5A38
330
5A3C
 92
       22
 72
     0
 73
     1
 93
       13
 10
9.159497991066102
 20
34.02289574745092
 10
10.25949799106612
 20
34.02289574745092
 10
10.47960167736178
 20
32.51905112715967
 10
11.01183437133604
 20
34.02271345278515
 10
12.10930109884427
 20
34.02269495197111
 10
11.81189903463539
 20
31.02269495197112
 10
11.1909600860358
 20
31.02269495197111
 10
11.38462958292845
 20
32.97630778994339
 10
10.69490453179614
 20
31.02269495197111
 10
9.962616524712728
 20
31.02269495197112
 10
9.676684466686056
 20
32.97630778994339
 10
9.4830149697934
 20
31.02269495197111
 10
8.862076021193814
 20
31.02269495197111
 97
        1
330
5A3B
 75
     0
 76
     1
 47
0.0356978143457059
 98
       11
 10
-12.74387987022192
 20
34.13164800304253
 10
-12.74387987022192
 20
34.13164800304253
 10
-12.74387987022192
 20
34.13164800304253
 10
-12.74387987022192
 20
34.13164800304253
 10
-12.74387987022192
 20
34.13164800304253
 10
-12.74387987022192
 20
34.13164800304253
 10
-12.74387987022192
 20
34.13164800304253
 10
-12.74387987022192
 20
34.13164800304253
 10
-12.74387987022192
 20
34.13164800304253
 10
-12.74387987022192
 20
34.13164800304253
 10
-12.74387987022192
 20
34.13164800304253
1001
ACAD
1010
0.0
1020
0.0
1030
0.0
1001
AcDbBlockRepETag
1070
     1
1071
      906
1005
5A54
  0
ENDBLK
  5
5A55
330
5A13
100
AcDbEntity
  8
0
 62
     9
100
AcDbBlockEnd
  0
ENDSEC
  0
SECTION
  2
ENTITIES
  0
INSERT
  5
37BA
330
1F
100
AcDbEntity
  8
APL Joinery
100
AcDbBlockReference
  2
08617
 10
201.9155715677811
 20
117.1571754731368
 30
0.0
  0
INSERT
  5
37C0
330
1F
100
AcDbEntity
  8
APL Joinery
100
AcDbBlockReference
  2
08619
 10
213.9155715670685
 20
117.1571754731368
 30
0.0
  0
INSERT
  5
37D2
330
1F
100
AcDbEntity
  8
APL Joinery
100
AcDbBlockReference
  2
08610
 10
113.1435924134613
 20
117.1571754731368
 30
0.0
  0
INSERT
  5
3C63
330
1F
100
AcDbEntity
  8
0
100
AcDbBlockReference
  2
a4 specifiers manual
 10
0.0
 20
0.0
 30
0.0
  0
INSERT
  5
3E6C
330
1F
100
AcDbEntity
  8
APL Joinery
100
AcDbBlockReference
  2
08634Glaze
 10
98.14359241417401
 20
77.15717547313684
 30
0.0
 41
-1.0
  0
INSERT
  5
3E70
330
1F
100
AcDbEntity
  8
APL Joinery
100
AcDbBlockReference
  2
08634Glaze
 10
128.1435924127487
 20
77.15717547313684
 30
0.0
  0
INSERT
  5
3E71
330
1F
100
AcDbEntity
  8
APL Joinery
100
AcDbBlockReference
  2
08634Glaze
 10
186.915571568494
 20
77.15717547313684
 30
0.0
 41
-1.0
  0
INSERT
  5
3E73
330
1F
100
AcDbEntity
  8
APL Joinery
100
AcDbBlockReference
  2
08634Glaze
 10
219.9155715670681
 20
77.15717547313684
 30
0.0
  0
INSERT
  5
4C5D
330
1F
100
AcDbEntity
  8
APL Joinery
100
AcDbBlockReference
  2
08625
 10
98.46642069209861
 20
282.756982501138
 30
0.0
 43
2.0
  0
INSERT
  5
4EF1
330
1F
100
AcDbEntity
  8
APL Joinery
100
AcDbBlockReference
  2
08640
 10
16.0955870738785
 20
117.1571754731367
 30
0.0
 41
-1.0
 50
270.0
  0
INSERT
  5
4F0C
330
1F
100
AcDbEntity
  8
APL Joinery
100
AcDbBlockReference
  2
08644
 10
63.56642069209829
 20
177.455716268454
 30
0.0
 43
2.0
  0
INSERT
  5
4F0E
330
1F
100
AcDbEntity
  8
APL Joinery
100
AcDbBlockReference
  2
08641
 10
98.46642069209838
 20
181.4557162684541
 30
0.0
 43
2.0
  0
INSERT
  5
4F1A
330
1F
100
AcDbEntity
  8
APL Joinery
100
AcDbBlockReference
  2
08640
 10
98.46642069209838
 20
381.7014739388632
 30
0.0
 41
-1.0
 43
2.0
 50
180.0
  0
LINE
  5
4F63
330
1F
100
AcDbEntity
  8
APL Notes
 62
     2
100
AcDbLine
 10
186.1809219585434
 20
352.9387898956924
 30
0.0
 11
326.1610442192462
 21
352.9387898956924
 31
0.0
  0
LINE
  5
4F64
330
1F
100
AcDbEntity
  8
APL Notes
 62
     2
100
AcDbLine
 10
186.1809219585434
 20
437.4187898956924
 30
0.0
 11
324.166550620766
 21
437.4187898956925
 31
0.0
  0
LINE
  5
4F65
330
1F
100
AcDbEntity
  8
APL Notes
 62
     2
100
AcDbLine
 10
187.9409219585432
 20
435.6587898956924
 30
0.0
 11
323.621372246701
 21
435.6587898956924
 31
0.0
  0
LINE
  5
4F66
330
1F
100
AcDbEntity
  8
APL Notes
 62
     2
100
AcDbLine
 10
187.9409219585432
 20
354.6987898956925
 30
0.0
 11
327.1128246090291
 21
354.6987898956925
 31
0.0
  0
LINE
  5
4F67
330
1F
100
AcDbEntity
  8
APL Notes
 62
     2
100
AcDbLine
 10
229.3009219585435
 20
396.0587898956924
 30
0.0
 11
267.1409219585436
 21
396.0587898956924
 31
0.0
  0
LINE
  5
4F68
330
1F
100
AcDbEntity
  8
APL Notes
 62
     2
100
AcDbLine
 10
229.3009219585435
 20
394.2987898956925
 30
0.0
 11
267.1409219585436
 21
394.2987898956924
 31
0.0
  0
LINE
  5
4F69
330
1F
100
AcDbEntity
  8
APL Notes
 62
     2
100
AcDbLine
 10
186.1809219585434
 20
437.4187898956923
 30
0.0
 11
186.1809219585434
 21
352.9387898956924
 31
0.0
  0
LINE
  5
4F6A
330
1F
100
AcDbEntity
  8
APL Notes
 62
     2
100
AcDbLine
 10
187.9409219585432
 20
435.6587898956924
 30
0.0
 11
187.9409219585432
 21
354.6987898956925
 31
0.0
  0
LINE
  5
4F6B
330
1F
100
AcDbEntity
  8
APL Notes
 62
     2
100
AcDbLine
 10
227.5409219585434
 20
435.6587898956924
 30
0.0
 11
227.5409219585432
 21
354.6987898956925
 31
0.0
  0
LINE
  5
4F6C
330
1F
100
AcDbEntity
  8
APL Notes
 62
     2
100
AcDbLine
 10
229.3009219585435
 20
435.6587898956924
 30
0.0
 11
229.3009219585432
 21
354.6987898956925
 31
0.0
  0
LINE
  5
4F6D
330
1F
100
AcDbEntity
  8
APL Notes
 62
     2
100
AcDbLine
 10
187.9409219585432
 20
354.6987898956925
 30
0.0
 11
186.1809219585434
 21
352.9387898956924
 31
0.0
  0
LINE
  5
4F6E
330
1F
100
AcDbEntity
  8
APL Notes
 62
     2
100
AcDbLine
 10
187.9409219585432
 20
394.2987898956925
 30
0.0
 11
227.5409219585434
 21
394.2987898956925
 31
0.0
  0
LINE
  5
4F6F
330
1F
100
AcDbEntity
  8
APL Notes
 62
     2
100
AcDbLine
 10
187.9409219585432
 20
396.0587898956924
 30
0.0
 11
227.5409219585434
 21
396.0587898956926
 31
0.0
  0
LINE
  5
4F70
330
1F
100
AcDbEntity
  8
APL Notes
 62
     2
100
AcDbLine
 10
306.7409219585439
 20
435.6587898956924
 30
0.0
 11
306.7409219585437
 21
354.6987898956923
 31
0.0
  0
LINE
  5
4F71
330
1F
100
AcDbEntity
  8
APL Notes
 62
     2
100
AcDbLine
 10
308.500921958544
 20
435.6587898956924
 30
0.0
 11
308.5009219585437
 21
354.6987898956923
 31
0.0
  0
LINE
  5
4F72
330
1F
100
AcDbEntity
  8
APL Notes
 62
     2
100
AcDbLine
 10
308.5009219585437
 20
396.0587898956924
 30
0.0
 11
333.8376747305341
 21
396.0587898956924
 31
0.0
  0
LINE
  5
4F73
330
1F
100
AcDbEntity
  8
APL Notes
 62
     2
100
AcDbLine
 10
308.5009219585437
 20
394.2987898956923
 30
0.0
 11
334.1189036405721
 21
394.2987898956923
 31
0.0
  0
LINE
  5
4F74
330
1F
100
AcDbEntity
  8
APL Notes
 62
     2
100
AcDbLine
 10
189.7009219585432
 20
435.6587898956924
 30
0.0
 11
189.7009219585432
 21
396.0587898956926
 31
0.0
  0
LINE
  5
4F75
330
1F
100
AcDbEntity
  8
APL Notes
 62
     2
100
AcDbLine
 10
189.7009219585432
 20
394.2987898956925
 30
0.0
 11
189.7009219585432
 21
354.6987898956925
 31
0.0
  0
LINE
  5
4F76
330
1F
100
AcDbEntity
  8
APL Notes
 62
     2
100
AcDbLine
 10
189.7009219585432
 20
356.4587898956924
 30
0.0
 11
227.5409219585432
 21
356.4587898956925
 31
0.0
  0
LINE
  5
4F77
330
1F
100
AcDbEntity
  8
APL Notes
 62
     2
100
AcDbLine
 10
189.7009219585432
 20
433.8987898956923
 30
0.0
 11
227.5409219585434
 21
433.8987898956923
 31
0.0
  0
LINE
  5
4F78
330
1F
100
AcDbEntity
  8
APL Notes
 62
     2
100
AcDbLine
 10
229.3009219585435
 20
433.8987898956924
 30
0.0
 11
267.1409219585437
 21
433.8987898956925
 31
0.0
  0
LINE
  5
4F79
330
1F
100
AcDbEntity
  8
APL Notes
 62
     2
100
AcDbLine
 10
229.3009219585432
 20
356.4587898956924
 30
0.0
 11
267.1409219585434
 21
356.4587898956924
 31
0.0
  0
LINE
  5
4F7A
330
1F
100
AcDbEntity
  8
APL Notes
 62
     2
100
AcDbLine
 10
308.500921958544
 20
433.8987898956925
 30
0.0
 11
323.242949678976
 21
433.8987898956924
 31
0.0
  0
LINE
  5
4F7B
330
1F
100
AcDbEntity
  8
APL Notes
 62
     2
100
AcDbLine
 10
308.500921958544
 20
356.4587898956925
 30
0.0
 11
328.0224612963247
 21
356.4587898956925
 31
0.0
  0
LINE
  5
4F7C
330
1F
100
AcDbEntity
  8
APL Notes
 62
     2
100
AcDbLine
 10
187.9409219585432
 20
435.6587898956924
 30
0.0
 11
186.1809219585434
 21
437.4187898956923
 31
0.0
  0
SPLINE
  5
4F7D
330
1F
100
AcDbEntity
  8
APL Notes
 62
     3
100
AcDbSpline
210
0.0
220
0.0
230
1.0
 70
     8
 71
     3
 72
    13
 73
     9
 74
     7
 42
0.0000000001
 43
0.0000000001
 44
0.0000000001
 40
0.0
 40
0.0
 40
0.0
 40
0.0
 40
14.14579424903907
 40
31.02780990713701
 40
48.02655196302176
 40
65.3228217052895
 40
86.83896545867916
 40
104.8702126000174
 40
104.8702126000174
 40
104.8702126000174
 40
104.8702126000174
 10
328.6099454336202
 20
446.3486168479339
 30
0.0
 10
326.1697802896062
 20
442.0816007245222
 30
0.0
 10
320.8174487840334
 20
432.7221994200037
 30
0.0
 10
326.4277012111952
 20
416.3676213931274
 30
0.0
 10
333.6980197215718
 20
401.1796969358242
 30
0.0
 10
335.5756680851905
 20
382.2783840073125
 30
0.0
 10
332.2671501646383
 20
363.2143294653989
 30
0.0
 10
325.55463813335
 20
351.7753865799882
 30
0.0
 10
322.4941337451451
 20
346.5599121444803
 30
0.0
 11
328.6099454336202
 21
446.3486168479339
 31
0.0
 11
323.1553017054392
 21
433.29678338536
 31
0.0
 11
326.6264375248608
 21
416.775473848783
 31
0.0
 11
332.7422512272745
 21
400.9150181731135
 31
0.0
 11
334.7257571220957
 21
383.7328573263954
 31
0.0
 11
330.7587433185151
 21
362.5855822419139
 31
0.0
 11
322.4941337451451
 21
346.5599121444803
 31
0.0
  0
LEADER
  5
4F90
330
1F
100
AcDbEntity
  8
APL Notes
 62
     8
100
AcDbLeader
  3
ISO-25
 76
     2
 10
172.9809219585431
 20
401.7787898956923
 30
0.0
 10
172.9809219585431
 20
415.8587898956922
 30
0.0
1001
ACAD
1000
DSTYLE
1002
{
1070
   147
1040
0.625
1070
    77
1070
     0
1002
}
  0
LINE
  5
4F91
330
1F
100
AcDbEntity
  8
APL Notes
 62
     8
100
AcDbLine
 10
202.9009219585432
 20
415.8587898956922
 30
0.0
 11
172.9809219585431
 21
415.8587898956922
 31
0.0
  0
LEADER
  5
4F92
330
1F
100
AcDbEntity
  8
APL Notes
 62
     8
100
AcDbLeader
  3
ISO-25
 76
     2
 10
194.5409219585434
 20
450.6187898956924
 30
0.0
 10
208.6209219585434
 20
450.6187898956924
 30
0.0
211
-0.0000000000000002
221
-1.0
231
0.0
1001
ACAD
1000
DSTYLE
1002
{
1070
   147
1040
0.625
1070
    77
1070
     0
1002
}
  0
LINE
  5
4F93
330
1F
100
AcDbEntity
  8
APL Notes
 62
     8
100
AcDbLine
 10
208.6209219585434
 20
420.6987898956924
 30
0.0
 11
208.6209219585434
 21
450.6187898956924
 31
0.0
  0
LINE
  5
4F94
330
1F
100
AcDbEntity
  8
APL Notes
 62
     8
100
AcDbLine
 10
208.6209219585434
 20
369.6587898956922
 30
0.0
 11
208.6209219585434
 21
339.7387898956922
 31
0.0
  0
LEADER
  5
4F95
330
1F
100
AcDbEntity
  8
APL Notes
 62
     8
100
AcDbLeader
  3
ISO-25
 76
     2
 10
194.5409219585434
 20
339.7387898956923
 30
0.0
 10
208.6209219585434
 20
339.7387898956923
 30
0.0
211
-0.0000000000000002
221
1.0
231
0.0
210
0.0
220
0.0
230
-1.0
1001
ACAD
1000
DSTYLE
1002
{
1070
   147
1040
0.625
1070
    77
1070
     0
1002
}
  0
LINE
  5
4F96
330
1F
100
AcDbEntity
  8
APL Notes
 62
     8
100
AcDbLine
 10
292.3842410139707
 20
415.8587898956922
 30
0.0
 11
341.9618568114897
 21
415.8587898956922
 31
0.0
  0
LEADER
  5
4F97
330
1F
100
AcDbEntity
  8
APL Notes
 62
     8
100
AcDbLeader
  3
ISO-25
 76
     2
 10
341.9618568114897
 20
401.7787898956923
 30
0.0
 10
341.9618568114897
 20
415.8587898956922
 30
0.0
211
-1.0
221
0.0
231
0.0
210
0.0
220
0.0
230
-1.0
1001
ACAD
1000
DSTYLE
1002
{
1070
   147
1040
0.625
1070
    77
1070
     0
1002
}
  0
LINE
  5
4F98
330
1F
100
AcDbEntity
  8
APL Notes
 62
     8
100
AcDbLine
 10
207.7409219585435
 20
387.2587898956924
 30
0.0
 11
207.7409219585435
 21
404.8587898956924
 31
0.0
  0
LINE
  5
4F99
330
1F
100
AcDbEntity
  8
APL Notes
 62
     8
100
AcDbLine
 10
219.6209219585434
 20
415.8587898956922
 30
0.0
 11
237.2209219585434
 21
415.8587898956922
 31
0.0
  0
LINE
  5
4F9F
330
1F
100
AcDbEntity
  8
APL Notes
 62
     8
100
AcDbLine
 10
307.620921958544
 20
435.6587898956924
 30
0.0
 11
307.6209219585438
 21
354.6987898956923
 31
0.0
  0
TEXT
  5
4FA1
330
1F
100
AcDbEntity
  8
APL Notes
100
AcDbText
 10
170.6800897643452
 20
394.5857143174688
 30
0.0
 40
5.5
  1
B
  7
Arial-Bold
100
AcDbText
  0
TEXT
  5
4FA3
330
1F
100
AcDbEntity
  8
APL Notes
100
AcDbText
 10
187.9494788933294
 20
448.1207791388757
 30
0.0
 40
5.5
  1
A
  7
Arial-Bold
100
AcDbText
  0
INSERT
  5
5120
330
1F
100
AcDbEntity
  8
APL Joinery
100
AcDbBlockReference
  2
08634Glaze
 10
278.6875507228134
 20
77.15717547313684
 30
0.0
 41
-1.0
  0
INSERT
  5
5123
330
1F
100
AcDbEntity
  8
APL Joinery
100
AcDbBlockReference
  2
08619
 10
305.6875507213879
 20
117.1571754731368
 30
0.0
  0
INSERT
  5
5124
330
1F
100
AcDbEntity
  8
APL Joinery
100
AcDbBlockReference
  2
08634Glaze
 10
311.6875507213876
 20
77.15717547313684
 30
0.0
  0
INSERT
  5
512D
330
1F
100
AcDbEntity
  8
APL Joinery
100
AcDbBlockReference
  2
08620
 10
293.6875507221008
 20
117.1571754731368
 30
0.0
  0
TEXT
  5
513D
330
1F
100
AcDbEntity
  8
APL Notes
100
AcDbText
 10
164.915571568494
 20
120.1773132687015
 30
0.0
 40
5.0
  1
Fin Chair
  7
Arial-Regular
100
AcDbText
  0
LINE
  5
5140
330
1F
100
AcDbEntity
  8
APL Notes
 62
     2
100
AcDbLine
 10
268.9009219585437
 20
435.6587898956924
 30
0.0
 11
268.9009219585435
 21
354.6987898956925
 31
0.0
  0
LINE
  5
5141
330
1F
100
AcDbEntity
  8
APL Notes
 62
     2
100
AcDbLine
 10
267.1409219585437
 20
435.6587898956924
 30
0.0
 11
267.1409219585434
 21
354.6987898956925
 31
0.0
  0
LINE
  5
5145
330
1F
100
AcDbEntity
  8
APL Notes
 62
     8
100
AcDbLine
 10
259.0618013211424
 20
415.8587898956922
 30
0.0
 11
276.6618013211423
 21
415.8587898956922
 31
0.0
  0
LINE
  5
514C
330
1F
100
AcDbEntity
  8
APL Notes
 62
     8
100
AcDbLine
 10
268.0209219585437
 20
435.6587898956924
 30
0.0
 11
268.0209219585435
 21
354.6987898956923
 31
0.0
  0
LINE
  5
514D
330
1F
100
AcDbEntity
  8
APL Notes
 62
     2
100
AcDbLine
 10
268.9009219585437
 20
433.8987898956925
 30
0.0
 11
306.7409219585437
 21
433.8987898956925
 31
0.0
  0
LINE
  5
514E
330
1F
100
AcDbEntity
  8
APL Notes
 62
     2
100
AcDbLine
 10
268.9009219585436
 20
396.0587898956924
 30
0.0
 11
306.7409219585439
 21
396.0587898956924
 31
0.0
  0
LINE
  5
514F
330
1F
100
AcDbEntity
  8
APL Notes
 62
     2
100
AcDbLine
 10
268.9009219585436
 20
394.2987898956924
 30
0.0
 11
306.7409219585439
 21
394.2987898956923
 31
0.0
  0
LINE
  5
5150
330
1F
100
AcDbEntity
  8
APL Notes
 62
     2
100
AcDbLine
 10
268.9009219585435
 20
356.4587898956924
 30
0.0
 11
306.7409219585437
 21
356.4587898956924
 31
0.0
  0
INSERT
  5
5187
330
1F
100
AcDbEntity
  8
APL Joinery
100
AcDbBlockReference
  2
08634Glaze
 10
40.0955870724531
 20
77.15717547313684
 30
0.0
  0
INSERT
  5
518A
330
1F
100
AcDbEntity
  8
APL Joinery
100
AcDbBlockReference
  2
08634Glaze
 10
58.46642069209861
 20
205.4557162670285
 30
0.0
 41
-1.0
 50
270.0
  0
INSERT
  5
518E
330
1F
100
AcDbEntity
  8
APL Joinery
100
AcDbBlockReference
  2
08634Glaze
 10
58.46642069209861
 20
267.7569825018509
 30
0.0
 50
270.0
  0
INSERT
  5
5191
330
1F
100
AcDbEntity
  8
APL Joinery
100
AcDbBlockReference
  2
08634Glaze
 10
58.46642069209861
 20
297.756982500425
 30
0.0
 41
-1.0
 50
270.0
  0
INSERT
  5
5192
330
1F
100
AcDbEntity
  8
APL Joinery
100
AcDbBlockReference
  2
08634Glaze
 10
58.46642069209861
 20
357.7014739402887
 30
0.0
 50
270.0
  0
TEXT
  5
5208
330
1F
100
AcDbEntity
  8
APL Notes
100
AcDbText
 10
100.7492707385313
 20
275.3032686716489
 30
0.0
 40
5.0
  1
span requirements
  7
Arial-Regular
100
AcDbText
  0
TEXT
  5
5209
330
1F
100
AcDbEntity
  8
APL Notes
100
AcDbText
 10
100.4664206920986
 20
282.756982501138
 30
0.0
 40
5.0
  1
Refer to tables for
  7
Arial-Regular
100
AcDbText
  0
TEXT
  5
520A
330
1F
100
AcDbEntity
  8
APL Notes
100
AcDbText
 10
100.7456979157252
 20
290.7567471300962
 30
0.0
 40
5.0
  1
08625 Transom
  7
Arial-Bold
100
AcDbText
  0
LWPOLYLINE
  5
520B
330
1F
100
AcDbEntity
  8
APL Notes
100
AcDbPolyline
 90
        4
 70
     1
 43
0.3
 10
158.178300419341
 20
322.6471085282378
 10
158.178300419341
 20
333.6471085282378
 10
107.178300419341
 20
333.6471085282378
 10
107.178300419341
 20
322.6471085282378
  0
TEXT
  5
520C
330
1F
100
AcDbEntity
  8
APL Notes
100
AcDbText
 10
110.178300419341
 20
325.6471085282378
 30
0.0
 40
5.0
  1
SECTION A-A
  7
Arial-Bold
100
AcDbText
  0
LWPOLYLINE
  5
520D
330
1F
100
AcDbEntity
  8
APL Notes
100
AcDbPolyline
 90
        4
 70
     1
 43
0.3
 10
227.4155715677811
 20
166.1571754731368
 10
227.4155715677811
 20
177.1571754731368
 10
176.415571567781
 20
177.1571754731368
 10
176.415571567781
 20
166.1571754731368
  0
TEXT
  5
520E
330
1F
100
AcDbEntity
  8
APL Notes
100
AcDbText
 10
179.415571567781
 20
169.1571754731368
 30
0.0
 40
5.0
  1
SECTION B-B
  7
Arial-Bold
100
AcDbText
  0
TEXT
  5
5210
330
1F
100
AcDbEntity
  8
APL Notes
100
AcDbText
 10
212.7636714953911
 20
120.1773132687012
 30
0.0
 40
5.0
  1
Chair Cap
  7
Arial-Regular
100
AcDbText
  0
TEXT
  5
5211
330
1F
100
AcDbEntity
  8
APL Notes
100
AcDbText
 10
212.9544685446163
 20
127.1773132687012
 30
0.0
 40
5.0
  1
08619
  7
Arial-Bold
100
AcDbText
  0
TEXT
  5
5214
330
1F
100
AcDbEntity
  8
APL Notes
100
AcDbText
 10
339.6610246172917
 20
394.5857143174688
 30
0.0
 40
5.5
  1
B
  7
Arial-Bold
100
AcDbText
  0
TEXT
  5
5215
330
1F
100
AcDbEntity
  8
APL Notes
100
AcDbText
 10
187.9494788933294
 20
337.2407791388756
 30
0.0
 40
5.5
  1
A
  7
Arial-Bold
100
AcDbText
  0
TEXT
  5
5282
330
1F
100
AcDbEntity
  8
APL Notes
100
AcDbText
 10
37.04281905499083
 20
364.9420224334874
 30
0.0
 40
5.0
  1
08640
  7
Arial-Bold
 72
     2
 11
56.4664206920986
 21
364.9420224334874
 31
0.0
100
AcDbText
  0
TEXT
  5
528A
330
1F
100
AcDbEntity
  8
APL Notes
100
AcDbText
 10
37.04281905499083
 20
344.4131900436191
 30
0.0
 40
5.0
  1
08634
  7
Arial-Bold
 72
     2
 11
56.4664206920986
 21
344.4131900436191
 31
0.0
100
AcDbText
  0
TEXT
  5
528B
330
1F
100
AcDbEntity
  8
APL Notes
100
AcDbText
 10
37.04281905499083
 20
305.686241859104
 30
0.0
 40
5.0
  1
08634
  7
Arial-Bold
 72
     2
 11
56.4664206920986
 21
305.686241859104
 31
0.0
100
AcDbText
  0
TEXT
  5
528C
330
1F
100
AcDbEntity
  8
APL Notes
100
AcDbText
 10
37.04281905499083
 20
254.4686986051813
 30
0.0
 40
5.0
  1
08634
  7
Arial-Bold
 72
     2
 11
56.4664206920986
 21
254.4686986051813
 31
0.0
100
AcDbText
  0
TEXT
  5
528D
330
1F
100
AcDbEntity
  8
APL Notes
100
AcDbText
 10
37.04281905499083
 20
213.3849756257075
 30
0.0
 40
5.0
  1
08634
  7
Arial-Bold
 72
     2
 11
56.4664206920986
 21
213.3849756257075
 31
0.0
100
AcDbText
  0
TEXT
  5
528E
330
1F
100
AcDbEntity
  8
APL Notes
100
AcDbText
 10
37.04281905499083
 20
186.8831461689227
 30
0.0
 40
5.0
  1
08641
  7
Arial-Bold
 72
     2
 11
56.4664206920986
 21
186.8831461689227
 31
0.0
100
AcDbText
  0
TEXT
  5
528F
330
1F
100
AcDbEntity
  8
APL Notes
100
AcDbText
 10
65.56642069209828
 20
167.455716268454
 30
0.0
 40
5.0
  1
08644
  7
Arial-Bold
 72
     2
 11
84.99002232920606
 21
167.455716268454
 31
0.0
100
AcDbText
  0
TEXT
  5
5296
330
1F
100
AcDbEntity
  8
APL Notes
100
AcDbText
 10
207.915571567781
 20
39.65717547313682
 30
0.0
 40
5.0
  1
Refer to tables for
  7
Arial-Regular
100
AcDbText
  0
TEXT
  5
5297
330
1F
100
AcDbEntity
  8
APL Notes
100
AcDbText
 10
207.915571567781
 20
32.65717547313682
 30
0.0
 40
5.0
  1
span requirements
  7
Arial-Regular
100
AcDbText
  0
TEXT
  5
529C
330
1F
100
AcDbEntity
  8
APL Notes
100
AcDbText
 10
164.915571568494
 20
127.1773132687015
 30
0.0
 40
5.0
  1
08617
  7
Arial-Bold
100
AcDbText
  0
TEXT
  5
52A3
330
1F
100
AcDbEntity
  8
APL Notes
100
AcDbText
 10
16.49934911298055
 20
70.15717547313681
 30
0.0
 40
5.0
  1
08640
  7
Arial-Bold
 11
16.49934911298055
 21
75.15717547313681
 31
0.0
100
AcDbText
 73
     3
  0
TEXT
  5
52AB
330
1F
100
AcDbEntity
  8
APL Notes
100
AcDbText
 10
43.11520416582584
 20
70.15717547313681
 30
0.0
 40
5.0
  1
08634
  7
Arial-Bold
 11
43.11520416582584
 21
75.15717547313681
 31
0.0
100
AcDbText
 73
     3
  0
TEXT
  5
52AC
330
1F
100
AcDbEntity
  8
APL Notes
100
AcDbText
 10
76.38555236689012
 20
70.15717547313681
 30
0.0
 40
5.0
  1
08634
  7
Arial-Bold
 11
76.38555236689012
 21
75.15717547313681
 31
0.0
100
AcDbText
 73
     3
  0
TEXT
  5
52AD
330
1F
100
AcDbEntity
  8
APL Notes
100
AcDbText
 10
132.4420999612869
 20
70.15717547313681
 30
0.0
 40
5.0
  1
08634
  7
Arial-Bold
 11
132.4420999612869
 21
75.15717547313681
 31
0.0
100
AcDbText
 73
     3
  0
TEXT
  5
52AE
330
1F
100
AcDbEntity
  8
APL Notes
100
AcDbText
 10
167.3769934700681
 20
70.15717547313681
 30
0.0
 40
5.0
  1
08634
  7
Arial-Bold
 11
167.3769934700681
 21
75.15717547313681
 31
0.0
100
AcDbText
 73
     3
  0
TEXT
  5
52AF
330
1F
100
AcDbEntity
  8
APL Notes
100
AcDbText
 10
224.9025263217808
 20
70.15717547313681
 30
0.0
 40
5.0
  1
08634
  7
Arial-Bold
 11
224.9025263217808
 21
75.15717547313681
 31
0.0
100
AcDbText
 73
     3
  0
TEXT
  5
52B0
330
1F
100
AcDbEntity
  8
APL Notes
100
AcDbText
 10
259.1489726243875
 20
70.15717547313681
 30
0.0
 40
5.0
  1
08634
  7
Arial-Bold
 11
259.1489726243875
 21
75.15717547313681
 31
0.0
100
AcDbText
 73
     3
  0
TEXT
  5
52B1
330
1F
100
AcDbEntity
  8
APL Notes
100
AcDbText
 10
316.6745054761002
 20
70.15717547313681
 30
0.0
 40
5.0
  1
08634
  7
Arial-Bold
 11
316.6745054761002
 21
75.15717547313681
 31
0.0
100
AcDbText
 73
     3
  0
TEXT
  5
52B6
330
1F
100
AcDbEntity
  8
APL Notes
100
AcDbText
 10
310.6875507213882
 20
152.0071754731367
 30
0.0
 40
5.0
  1
08620
  7
Arial-Bold
100
AcDbText
  0
TEXT
  5
52B7
330
1F
100
AcDbEntity
  8
APL Notes
100
AcDbText
 10
310.6875507213882
 20
138.0071754731368
 30
0.0
 40
5.0
  1
Chair
  7
Arial-Regular
100
AcDbText
  0
TEXT
  5
52B8
330
1F
100
AcDbEntity
  8
APL Notes
100
AcDbText
 10
310.6875507213882
 20
145.0071754731368
 30
0.0
 40
5.0
  1
Internal Box
  7
Arial-Regular
100
AcDbText
  0
TEXT
  5
52BB
330
1F
100
AcDbEntity
  8
APL Notes
100
AcDbText
 10
103.4317915949074
 20
119.1571754731368
 30
0.0
 40
5.0
  1
08610
  7
Arial-Bold
 72
     1
 11
113.1435924134613
 21
119.1571754731368
 31
0.0
100
AcDbText
  0
TEXT
  5
52BC
330
1F
100
AcDbEntity
  8
APL Notes
100
AcDbText
 10
314.6875507213879
 20
119.1571754731369
 30
0.0
 40
5.0
  1
08619
  7
Arial-Bold
100
AcDbText
  0
VIEWPORT
  5
51BE
102
{ACAD_XDICTIONARY
360
597E
102
}
330
51B6
100
AcDbEntity
 67
     1
  8
0
100
AcDbViewport
 10
99.91724538803099
 20
143.1184201240539
 30
0.0
 40
430.1964563810208
 41
299.4231128286808
 68
     1
 69
     1
 12
99.91724538803099
 22
143.1184201240539
 13
0.0
 23
0.0
 14
10.0
 24
10.0
 15
10.0
 25
10.0
 16
0.0
 26
0.0
 36
1.0
 17
0.0
 27
0.0
 37
0.0
 42
50.0
 43
0.0
 44
0.0
 45
299.4231128286808
 50
0.0
 51
0.0
 72
 20000
 90
    32800
  1

281
     0
 71
     1
 74
     0
110
0.0
120
0.0
130
0.0
111
1.0
121
0.0
131
0.0
112
0.0
122
1.0
132
0.0
 79
     0
146
0.0
  0
VIEWPORT
  5
51C0
102
{ACAD_XDICTIONARY
360
5980
102
}
330
51B6
100
AcDbEntity
 67
     1
  8
0
100
AcDbViewport
 10
100.595
 20
131.1899999999999
 30
0.0
 40
178.0
 41
241.9999999999999
 68
     2
 69
     2
 12
176.9864980489121
 22
240.981617142896
 13
0.0
 23
0.0
 14
10.0
 24
10.0
 15
2.0
 25
2.0
 16
0.0
 26
0.0
 36
1.0
 17
0.0
 27
0.0
 37
0.0
 42
50.0
 43
0.0
 44
0.0
 45
483.9999999999998
 50
0.0
 51
0.0
 72
 20000
 90
    32864
  1

281
     0
 71
     1
 74
     0
110
0.0
120
0.0
130
0.0
111
1.0
121
0.0
131
0.0
112
0.0
122
1.0
132
0.0
 79
     0
146
0.0
  0
INSERT
  5
51C5
330
51B6
100
AcDbEntity
 67
     1
  8
APL Border
100
AcDbBlockReference
  2
vantage a4 SM border
 10
0.0
 20
0.0
 30
0.0
  0
INSERT
  5
584C
330
51B6
100
AcDbEntity
 67
     1
  8
APL Border
100
AcDbBlockReference
 66
     1
  2
vantage a4 SM attributes (4)
 10
0.0
 20
0.0
 30
0.0
  0
ATTRIB
  5
584E
330
584C
100
AcDbEntity
 67
     1
  8
APL Border
100
AcDbText
 10
41.78979785863009
 20
276.19
 30
0.0
 40
3.5
  1
40MM WINDOW SERIES
  7
Arial-Bold
100
AcDbAttribute
  2
DRAWINGTITLE_1
 70
     0
1001
AcDbBlockRepETag
1070
     1
1071
        0
1005
0
  0
ATTRIB
  5
584F
330
584C
100
AcDbEntity
 67
     1
  8
APL Border
100
AcDbText
 10
41.78979785863009
 20
270.19
 30
0.0
 40
3.5
  1
STRIP WINDOW
  7
Arial-Bold
100
AcDbAttribute
  2
DRAWINGTITLE_2
 70
     0
1001
AcDbBlockRepETag
1070
     1
1071
        1
1005
0
  0
ATTRIB
  5
5850
330
584C
100
AcDbEntity
 67
     1
  8
APL Border
100
AcDbText
 10
41.78979785863009
 20
264.19
 30
0.0
 40
3.5
  1
SQUARE BEAD
  7
Arial-Bold
100
AcDbAttribute
  2
DRAWINGTITLE_3
 70
     0
1001
AcDbBlockRepETag
1070
     1
1071
        2
1005
0
  0
ATTRIB
  5
5851
330
584C
100
AcDbEntity
 67
     1
  8
APL Border
100
AcDbText
 10
41.78979785863009
 20
258.19
 30
0.0
 40
3.0
  1
CROSS SECTION
  7
Arial-Regular
100
AcDbAttribute
  2
DRAWINGTITLE_4
 70
     0
1001
AcDbBlockRepETag
1070
     1
1071
        3
1005
0
  0
ATTRIB
  5
5852
330
584C
100
AcDbEntity
 67
     1
  8
APL Border
100
AcDbText
 10
165.845
 20
273.69
 30
0.0
 40
2.5
  1
VC4004-0
  7
Arial-Regular
100
AcDbAttribute
  2
AW12-0
 70
     0
1001
AcDbBlockRepETag
1070
     1
1071
        4
1005
0
  0
ATTRIB
  5
5853
330
584C
100
AcDbEntity
 67
     1
  8
APL Border
100
AcDbText
 10
147.5475920873124
 20
257.1899999999999
 30
0.0
 40
2.5
  1
01.06.11
  7
Arial-Regular
 72
     1
 11
154.345
 21
257.1899999999999
 31
0.0
100
AcDbAttribute
  2
25.07.08
 70
     0
1001
AcDbBlockRepETag
1070
     1
1071
        5
1005
0
  0
ATTRIB
  5
5854
330
584C
100
AcDbEntity
 67
     1
  8
APL Border
100
AcDbText
 10
175.4174761255116
 20
257.1899999999999
 30
0.0
 40
2.5
  1
1:2
  7
Arial-Regular
 72
     1
 11
177.845
 21
257.1899999999999
 31
0.0
100
AcDbAttribute
  2
1:2
 70
     0
1001
AcDbBlockRepETag
1070
     1
1071
        6
1005
0
  0
ATTRIB
  5
5855
330
584C
100
AcDbEntity
 67
     1
  8
APL Border
100
AcDbText
 10
189.595
 20
1.189999999999997
 30
0.0
 40
3.75
  1

  7
Arial-Bold
 72
     2
 11
189.595
 21
1.189999999999997
 31
0.0
100
AcDbAttribute
  2
1.2.34
 70
     0
1001
AcDbBlockRepETag
1070
     1
1071
        7
1005
0
  0
ATTRIB
  5
5856
330
584C
100
AcDbEntity
 67
     1
  8
APL Border
100
AcDbText
 10
11.59500000000003
 20
1.189999999999997
 30
0.0
 40
3.75
  1

  7
Arial-Bold
100
AcDbAttribute
  2
1.2.34
 70
     0
1001
AcDbBlockRepETag
1070
     1
1071
        8
1005
0
  0
SEQEND
  5
584D
330
584C
100
AcDbEntity
 67
     1
  8
APL Border
  0
ENDSEC
  0
SECTION
  2
OBJECTS
  0
DICTIONARY
  5
C
330
0
100
AcDbDictionary
281
     1
  3
ACAD_COLOR
350
5417
  3
ACAD_GROUP
350
D
  3
ACAD_LAYOUT
350
1A
  3
ACAD_MATERIAL
350
53ED
  3
ACAD_MLEADERSTYLE
350
543C
  3
ACAD_MLINESTYLE
350
17
  3
ACAD_PLOTSETTINGS
350
19
  3
ACAD_PLOTSTYLENAME
350
E
  3
ACAD_SCALELIST
350
541A
  3
ACAD_TABLESTYLE
350
5418
  3
ACAD_VISUALSTYLE
350
5406
  3
AcadDim
350
86
  3
ACDB_RECOMPOSE_DATA
350
54E4
  3
ACDBHEADERROUNDTRIPXREC
350
5E18
  3
AcDbVariableDictionary
350
3B
  3
DWGPROPS
350
5E17
  0
DICTIONARY
  5
54E6
330
8
100
AcDbDictionary
280
     1
281
     1
  3
ACAD_XREC_ROUNDTRIP
360
5970
  0
DICTIONARY
  5
5466
330
2
100
AcDbDictionary
280
     1
281
     1
  3
ACAD_LAYERSTATES
360
5467
  0
DICTIONARY
  5
54AA
330
10
100
AcDbDictionary
280
     1
281
     1
  3
ACAD_XREC_ROUNDTRIP
360
5971
  3
ADSK_XREC_LAYER_RECONCILED
360
54AB
  0
DICTIONARY
  5
54AC
330
2B
100
AcDbDictionary
280
     1
281
     1
  3
ACAD_XREC_ROUNDTRIP
360
5974
  3
ADSK_XREC_LAYER_RECONCILED
360
54AD
  0
DICTIONARY
  5
54AE
330
75
100
AcDbDictionary
280
     1
281
     1
  3
ACAD_XREC_ROUNDTRIP
360
5975
  3
ADSK_XREC_LAYER_RECONCILED
360
54AF
  0
DICTIONARY
  5
54B0
330
4FBB
100
AcDbDictionary
280
     1
281
     1
  3
ACAD_XREC_ROUNDTRIP
360
5976
  3
ADSK_XREC_LAYER_RECONCILED
360
54B1
  0
DICTIONARY
  5
54B4
330
5446
100
AcDbDictionary
280
     1
281
     1
  3
ACAD_XREC_ROUNDTRIP
360
598F
  3
ADSK_XREC_LAYER_RECONCILED
360
54B5
  0
DICTIONARY
  5
59E2
330
37B5
100
AcDbDictionary
280
     1
281
     1
  3
ACAD_SORTENTS
360
59E3
  0
DICTIONARY
  5
5849
330
583F
100
AcDbDictionary
280
     1
281
     1
  0
DICTIONARY
  5
5A14
330
5A13
100
AcDbDictionary
280
     1
281
     1
  3
ACAD_SORTENTS
360
5A15
  0
DICTIONARY
  5
5A12
330
5A11
100
AcDbDictionary
280
     1
281
     1
  0
DICTIONARY
  5
597E
330
51BE
100
AcDbDictionary
280
     1
281
     1
  3
ACAD_XREC_ROUNDTRIP
360
597F
  0
DICTIONARY
  5
5980
330
51C0
100
AcDbDictionary
280
     1
281
     1
  3
ACAD_XREC_ROUNDTRIP
360
5981
  0
DICTIONARY
  5
5417
102
{ACAD_REACTORS
330
C
102
}
330
C
100
AcDbDictionary
281
     1
  0
DICTIONARY
  5
D
102
{ACAD_REACTORS
330
C
102
}
330
C
100
AcDbDictionary
281
     1
  3
*A1
350
4F03
  3
*A2
350
4F04
  3
*A3
350
4F16
  0
DICTIONARY
  5
1A
102
{ACAD_REACTORS
330
C
102
}
330
C
100
AcDbDictionary
281
     1
  3
Model
350
22
  3
Vantage A4
350
51B7
  0
DICTIONARY
  5
53ED
102
{ACAD_REACTORS
330
C
102
}
330
C
100
AcDbDictionary
281
     1
  3
ByBlock
350
53F6
  3
ByLayer
350
53EE
  3
Global
350
53FE
  0
DICTIONARY
  5
543C
102
{ACAD_REACTORS
330
C
102
}
330
C
100
AcDbDictionary
281
     1
  3
Standard
350
5959
  0
DICTIONARY
  5
17
102
{ACAD_REACTORS
330
C
102
}
330
C
100
AcDbDictionary
281
     1
  3
Standard
350
18
  0
DICTIONARY
  5
19
102
{ACAD_REACTORS
330
C
102
}
330
C
100
AcDbDictionary
281
     1
  3
A4 Specifier Manual Hardcopy
350
510C
  3
A4 Specifier Manual PDF
350
510D
  0
ACDBDICTIONARYWDFLT
  5
E
102
{ACAD_REACTORS
330
C
102
}
330
C
100
AcDbDictionary
281
     1
  3
Normal
350
F
100
AcDbDictionaryWithDefault
340
F
  0
DICTIONARY
  5
541A
102
{ACAD_REACTORS
330
C
102
}
330
C
100
AcDbDictionary
281
     1
  3
A0
350
541B
  3
A1
350
541C
  3
A2
350
541D
  3
A3
350
541E
  3
A4
350
541F
  3
A5
350
5420
  3
A6
350
5421
  3
A7
350
5422
  3
A8
350
5423
  3
A9
350
5424
  3
B0
350
5425
  3
B1
350
5426
  3
B2
350
5427
  3
B3
350
5428
  3
B4
350
5429
  3
B5
350
542A
  3
B6
350
542B
  3
B7
350
542C
  3
B8
350
542D
  3
B9
350
542E
  3
C0
350
542F
  3
C1
350
5430
  3
C2
350
5431
  3
C3
350
5432
  3
C4
350
5433
  3
C5
350
5434
  3
C6
350
5435
  3
C7
350
5436
  3
C8
350
5437
  3
C9
350
5438
  3
D0
350
5439
  3
D1
350
543A
  3
D2
350
543B
  0
DICTIONARY
  5
5418
102
{ACAD_REACTORS
330
C
102
}
330
C
100
AcDbDictionary
281
     1
  3
Standard
350
5419
  0
DICTIONARY
  5
5406
102
{ACAD_REACTORS
330
C
102
}
330
C
100
AcDbDictionary
281
     1
  3
2dWireframe
350
540C
  3
3D Hidden
350
540E
  3
3dWireframe
350
540D
  3
Basic
350
540B
  3
Brighten
350
5412
  3
ColorChange
350
5416
  3
Conceptual
350
540F
  3
Dim
350
5411
  3
Facepattern
350
5415
  3
Flat
350
5407
  3
FlatWithEdges
350
5408
  3
Gouraud
350
5409
  3
GouraudWithEdges
350
540A
  3
Linepattern
350
5414
  3
Realistic
350
5410
  3
Thicken
350
5413
  0
XRECORD
  5
86
102
{ACAD_REACTORS
330
C
102
}
330
C
100
AcDbXrecord
280
     1
 90
   990106
  3

 60
     0
 61
     0
 62
     1
 63
     3
 64
     0
 65
     0
 66
     0
 67
     3
 68
     1
 69
     0
 70
     0
 71
     0
 72
     0
 40
8.188652110585962
170
     0
  0
XRECORD
  5
54E4
102
{ACAD_REACTORS
330
C
102
}
330
C
100
AcDbXrecord
280
     1
 90
        1
330
5419
  0
DICTIONARY
  5
5E18
102
{ACAD_REACTORS
330
C
102
}
330
C
100
AcDbDictionary
281
     1
  0
DICTIONARY
  5
3B
102
{ACAD_REACTORS
330
C
102
}
330
C
100
AcDbDictionary
281
     1
  3
CANNOSCALE
350
551F
  3
CMLEADERSTYLE
350
551E
  3
CTABLESTYLE
350
551D
  3
DIMASSOC
350
3D
  3
HIDETEXT
350
3C
  3
INDEXCTL
350
5521
  3
PROJECTNAME
350
59D7
  3
SORTENTS
350
5520
  0
XRECORD
  5
5E17
102
{ACAD_REACTORS
330
C
102
}
330
C
100
AcDbXrecord
280
     1
  1
DWGPROPS COOKIE
  2

  3

  4

  6

  7

  8
homer
  9

300
=
301
=
302
=
303
=
304
=
305
=
306
=
307
=
308
=
309
=
 40
1.014394409722222
 41
2452286.590325035
 42
2455660.508431806
  1

 90
        0
  0
XRECORD
  5
5970
102
{ACAD_REACTORS
330
54E6
102
}
330
54E6
100
AcDbXrecord
280
     1
102
VTR_0.000_0.000_1.000_1.000_VISUALSTYLE
340
540C
102
VTR_0.000_0.000_1.000_1.000_GRIDDISPLAY
 70
     3
102
VTR_0.000_0.000_1.000_1.000_GRIDMAJOR
 70
     5
102
VTR_0.000_0.000_1.000_1.000_DEFAULTLIGHTING
280
     1
102
VTR_0.000_0.000_1.000_1.000_DEFAULTLIGHTINGTYPE
 70
     1
102
VTR_0.000_0.000_1.000_1.000_BRIGHTNESS
141
0.0
102
VTR_0.000_0.000_1.000_1.000_CONTRAST
142
0.0
  0
DICTIONARY
  5
5467
102
{ACAD_REACTORS
330
5466
102
}
330
5466
100
AcDbDictionary
281
     1
  0
XRECORD
  5
5971
102
{ACAD_REACTORS
330
54AA
102
}
330
54AA
100
AcDbXrecord
280
     1
102
MATERIAL
340
53FE
  0
XRECORD
  5
54AB
102
{ACAD_REACTORS
330
54AA
102
}
330
54AA
100
AcDbXrecord
280
     1
290
     1
  0
XRECORD
  5
5974
102
{ACAD_REACTORS
330
54AC
102
}
330
54AC
100
AcDbXrecord
280
     1
102
MATERIAL
340
53FE
  0
XRECORD
  5
54AD
102
{ACAD_REACTORS
330
54AC
102
}
330
54AC
100
AcDbXrecord
280
     1
290
     1
  0
XRECORD
  5
5975
102
{ACAD_REACTORS
330
54AE
102
}
330
54AE
100
AcDbXrecord
280
     1
102
MATERIAL
340
53FE
  0
XRECORD
  5
54AF
102
{ACAD_REACTORS
330
54AE
102
}
330
54AE
100
AcDbXrecord
280
     1
290
     1
  0
XRECORD
  5
5976
102
{ACAD_REACTORS
330
54B0
102
}
330
54B0
100
AcDbXrecord
280
     1
102
MATERIAL
340
53FE
  0
XRECORD
  5
54B1
102
{ACAD_REACTORS
330
54B0
102
}
330
54B0
100
AcDbXrecord
280
     1
290
     1
  0
XRECORD
  5
598F
102
{ACAD_REACTORS
330
54B4
102
}
330
54B4
100
AcDbXrecord
280
     1
102
MATERIAL
340
53FE
  0
XRECORD
  5
54B5
102
{ACAD_REACTORS
330
54B4
102
}
330
54B4
100
AcDbXrecord
280
     1
290
     1
  0
SORTENTSTABLE
  5
59E3
102
{ACAD_REACTORS
330
59E2
102
}
330
59E2
100
AcDbSortentsTable
330
37B5
  0
SORTENTSTABLE
  5
5A15
102
{ACAD_REACTORS
330
5A14
102
}
330
5A14
100
AcDbSortentsTable
330
5A13
  0
XRECORD
  5
597F
102
{ACAD_REACTORS
330
597E
102
}
330
597E
100
AcDbXrecord
280
     1
102
VISUALSTYLE
340
540C
102
GRIDDISPLAY
 70
     0
102
GRIDMAJOR
 70
     5
102
DEFAULTLIGHTING
280
     1
102
DEFAULTLIGHTINGTYPE
 70
     1
102
BRIGHTNESS
141
0.0
102
CONTRAST
142
0.0
102
SHADEPLOT
 70
     0
  0
XRECORD
  5
5981
102
{ACAD_REACTORS
330
5980
102
}
330
5980
100
AcDbXrecord
280
     1
102
VISUALSTYLE
340
540C
102
GRIDDISPLAY
 70
     0
102
GRIDMAJOR
 70
     5
102
DEFAULTLIGHTING
280
     1
102
DEFAULTLIGHTINGTYPE
 70
     1
102
BRIGHTNESS
141
0.0
102
CONTRAST
142
0.0
102
SHADEPLOT
 70
     0
  0
GROUP
  5
4F03
102
{ACAD_REACTORS
330
D
102
}
330
D
100
AcDbGroup
300

 70
     1
 71
     1
  0
GROUP
  5
4F04
102
{ACAD_REACTORS
330
D
102
}
330
D
100
AcDbGroup
300

 70
     1
 71
     1
  0
GROUP
  5
4F16
102
{ACAD_REACTORS
330
D
102
}
330
D
100
AcDbGroup
300

 70
     1
 71
     1
  0
LAYOUT
  5
22
102
{ACAD_XDICTIONARY
360
5E19
102
}
102
{ACAD_REACTORS
330
1A
102
}
330
1A
100
AcDbPlotSettings
  1

  2
A4 Specifier Manual.pc3
  4
A4
  6

 40
6.0
 41
5.0
 42
6.97332763671875
 43
5.96832275390625
 44
209.9733276367187
 45
296.9683227539062
 46
10.5
 47
1.0
 48
55.19893561856474
 49
77.41415496436935
140
329.6878846931311
141
251.7976535946928
142
1.0
143
2.0
 70
 11952
 72
     1
 73
     0
 74
     1
  7
A4 Specifier Manual.ctb
 75
    17
147
0.5
148
2.754290319896881
149
26.13925412475783
100
AcDbLayout
  1
Model
 70
     1
 71
     0
 10
0.0
 20
0.0
 11
12.0
 21
9.0
 12
0.0
 22
0.0
 32
0.0
 14
0.0
 24
0.0
 34
0.0
 15
0.0
 25
0.0
 35
0.0
146
0.0
 13
0.0
 23
0.0
 33
0.0
 16
1.0
 26
0.0
 36
0.0
 17
0.0
 27
1.0
 37
0.0
 76
     0
330
1F
  0
LAYOUT
  5
51B7
102
{ACAD_XDICTIONARY
360
546B
102
}
102
{ACAD_REACTORS
330
1A
102
}
330
1A
100
AcDbPlotSettings
  1

  2
\\Aplfp01\APL Technical HP5100 PSLaser
  4
A4
  6

 40
5.027082920074462
 41
5.408084392547607
 42
5.70440673828125
 43
5.365753173828125
 44
209.8886566162109
 45
297.0530090332031
 46
0.0
 47
0.0
 48
0.0
 49
0.0
140
0.0
141
0.0
142
1.0
143
1.0
 70
   688
 72
     1
 73
     0
 74
     5
  7
A4 Specifier Manual.ctb
 75
    16
147
1.0
148
0.0
149
0.0
100
AcDbLayout
  1
Vantage A4
 70
     1
 71
     1
 10
-5.027082920074462
 20
-5.408084392547607
 11
204.8615736961365
 21
291.6449246406555
 12
0.0
 22
0.0
 32
0.0
 14
11.46014299460751
 24
3.285575844812797
 34
-0.0015258207003583
 15
189.6073677543587
 25
282.2033753668244
 35
0.0000000349246037
146
0.0
 13
0.0
 23
0.0
 33
0.0
 16
1.0
 26
0.0
 36
0.0
 17
0.0
 27
1.0
 37
0.0
 76
     0
330
51B6
331
51BE
1001
ACAD_PSEXT
1000
\\Aplfp01\APL Technical HP5100 PSLaser
1000
HP LaserJet 5100 PS
1000
APL Technical Office
1000

1070
     0
  0
MATERIAL
  5
53F6
102
{ACAD_XDICTIONARY
360
53F7
102
}
102
{ACAD_REACTORS
330
53ED
102
}
330
53ED
100
AcDbMaterial
  1
ByBlock
 72
     0
 73
     2
 43
0.0008202099737533
 43
0.0
 43
0.0
 43
0.0
 43
0.0
 43
0.0008202099737533
 43
0.0
 43
0.0
 43
0.0
 43
0.0
 43
1.0
 43
0.0
 43
0.0
 43
0.0
 43
0.0
 43
1.0
 77
     0
 78
     2
 47
0.0008202099737533
 47
0.0
 47
0.0
 47
0.0
 47
0.0
 47
0.0008202099737533
 47
0.0
 47
0.0
 47
0.0
 47
0.0
 47
1.0
 47
0.0
 47
0.0
 47
0.0
 47
0.0
 47
1.0
171
     0
172
     2
 49
0.0008202099737533
 49
0.0
 49
0.0
 49
0.0
 49
0.0
 49
0.0008202099737533
 49
0.0
 49
0.0
 49
0.0
 49
0.0
 49
1.0
 49
0.0
 49
0.0
 49
0.0
 49
0.0
 49
1.0
175
     0
176
     2
142
0.0008202099737533
142
0.0
142
0.0
142
0.0
142
0.0
142
0.0008202099737533
142
0.0
142
0.0
142
0.0
142
0.0
142
1.0
142
0.0
142
0.0
142
0.0
142
0.0
142
1.0
179
     0
270
     2
144
0.0008202099737533
144
0.0
144
0.0
144
0.0
144
0.0
144
0.0008202099737533
144
0.0
144
0.0
144
0.0
144
0.0
144
1.0
144
0.0
144
0.0
144
0.0
144
0.0
144
1.0
274
     2
147
0.0008202099737533
147
0.0
147
0.0
147
0.0
147
0.0
147
0.0008202099737533
147
0.0
147
0.0
147
0.0
147
0.0
147
1.0
147
0.0
147
0.0
147
0.0
147
0.0
147
1.0
  0
MATERIAL
  5
53EE
102
{ACAD_XDICTIONARY
360
53EF
102
}
102
{ACAD_REACTORS
330
53ED
102
}
330
53ED
100
AcDbMaterial
  1
ByLayer
 72
     0
 73
     2
 43
0.0008202099737533
 43
0.0
 43
0.0
 43
0.0
 43
0.0
 43
0.0008202099737533
 43
0.0
 43
0.0
 43
0.0
 43
0.0
 43
1.0
 43
0.0
 43
0.0
 43
0.0
 43
0.0
 43
1.0
 77
     0
 78
     2
 47
0.0008202099737533
 47
0.0
 47
0.0
 47
0.0
 47
0.0
 47
0.0008202099737533
 47
0.0
 47
0.0
 47
0.0
 47
0.0
 47
1.0
 47
0.0
 47
0.0
 47
0.0
 47
0.0
 47
1.0
171
     0
172
     2
 49
0.0008202099737533
 49
0.0
 49
0.0
 49
0.0
 49
0.0
 49
0.0008202099737533
 49
0.0
 49
0.0
 49
0.0
 49
0.0
 49
1.0
 49
0.0
 49
0.0
 49
0.0
 49
0.0
 49
1.0
175
     0
176
     2
142
0.0008202099737533
142
0.0
142
0.0
142
0.0
142
0.0
142
0.0008202099737533
142
0.0
142
0.0
142
0.0
142
0.0
142
1.0
142
0.0
142
0.0
142
0.0
142
0.0
142
1.0
179
     0
270
     2
144
0.0008202099737533
144
0.0
144
0.0
144
0.0
144
0.0
144
0.0008202099737533
144
0.0
144
0.0
144
0.0
144
0.0
144
1.0
144
0.0
144
0.0
144
0.0
144
0.0
144
1.0
274
     2
147
0.0008202099737533
147
0.0
147
0.0
147
0.0
147
0.0
147
0.0008202099737533
147
0.0
147
0.0
147
0.0
147
0.0
147
1.0
147
0.0
147
0.0
147
0.0
147
0.0
147
1.0
  0
MATERIAL
  5
53FE
102
{ACAD_XDICTIONARY
360
53FF
102
}
102
{ACAD_REACTORS
330
53ED
102
}
330
53ED
100
AcDbMaterial
  1
Global
 72
     0
 73
     2
 43
0.0008202099737533
 43
0.0
 43
0.0
 43
0.0
 43
0.0
 43
0.0008202099737533
 43
0.0
 43
0.0
 43
0.0
 43
0.0
 43
1.0
 43
0.0
 43
0.0
 43
0.0
 43
0.0
 43
1.0
 77
     0
 78
     2
 47
0.0008202099737533
 47
0.0
 47
0.0
 47
0.0
 47
0.0
 47
0.0008202099737533
 47
0.0
 47
0.0
 47
0.0
 47
0.0
 47
1.0
 47
0.0
 47
0.0
 47
0.0
 47
0.0
 47
1.0
171
     0
172
     2
 49
0.0008202099737533
 49
0.0
 49
0.0
 49
0.0
 49
0.0
 49
0.0008202099737533
 49
0.0
 49
0.0
 49
0.0
 49
0.0
 49
1.0
 49
0.0
 49
0.0
 49
0.0
 49
0.0
 49
1.0
175
     0
176
     2
142
0.0008202099737533
142
0.0
142
0.0
142
0.0
142
0.0
142
0.0008202099737533
142
0.0
142
0.0
142
0.0
142
0.0
142
1.0
142
0.0
142
0.0
142
0.0
142
0.0
142
1.0
179
     0
270
     2
144
0.0008202099737533
144
0.0
144
0.0
144
0.0
144
0.0
144
0.0008202099737533
144
0.0
144
0.0
144
0.0
144
0.0
144
1.0
144
0.0
144
0.0
144
0.0
144
0.0
144
1.0
274
     2
147
0.0008202099737533
147
0.0
147
0.0
147
0.0
147
0.0
147
0.0008202099737533
147
0.0
147
0.0
147
0.0
147
0.0
147
1.0
147
0.0
147
0.0
147
0.0
147
0.0
147
1.0
  0
ACAD_PROXY_OBJECT
  5
5959
102
{ACAD_REACTORS
330
543C
102
}
330
543C
100
AcDbProxyObject
 90
      499
 91
      510
 95
   983063
 70
     0
 93
      618
310
40901902A4063FBFFFFFE000000000000002040AD7A3703D0AD73F4254DD185B99185C99000000000000000104090141901A00000000000004100000000000000041025764000000000000300FC0
340
14
340
0
340
11
340
0
 94
        0
1001
ACAD_MLEADERVER
1070
     2
1001
ACAD
1000
AcRTDxfName
1000
MLEADERSTYLE
1000
AcRTDxfName
1000
MLEADERSTYLE
1000
AcRTDxfName
1000
MLEADERSTYLE
  0
MLINESTYLE
  5
18
102
{ACAD_REACTORS
330
17
102
}
330
17
100
AcDbMlineStyle
  2
STANDARD
 70
     0
  3

 62
   256
 51
90.0
 52
90.0
 71
     2
 49
0.5
 62
   256
  6
BYLAYER
 49
-0.5
 62
   256
  6
BYLAYER
  0
PLOTSETTINGS
  5
510C
102
{ACAD_XDICTIONARY
360
5E1B
102
}
102
{ACAD_REACTORS
330
19
102
}
330
19
100
AcDbPlotSettings
  1
A4 Specifier Manual Hardcopy
  2
A4 Specifier Manual.pc3
  4
A4
  6

 40
6.0
 41
5.0
 42
6.97332763671875
 43
5.96832275390625
 44
209.9733276367187
 45
296.9683227539062
 46
10.5
 47
-1.0
 48
55.19893561856474
 49
77.41415496436935
140
329.6878846931311
141
251.7976535946928
142
1.0
143
2.0
 70
  1712
 72
     1
 73
     0
 74
     1
  7
A4 specifier manual.ctb
 75
    17
147
0.5
148
2.225667800726114
149
26.13925412475783
  0
PLOTSETTINGS
  5
510D
102
{ACAD_XDICTIONARY
360
5E1D
102
}
102
{ACAD_REACTORS
330
19
102
}
330
19
100
AcDbPlotSettings
  1
A4 Specifier Manual PDF
  2
Acrobat Distiller.pc3
  4
A4
  6

 40
3.174999952316284
 41
3.174999952316284
 42
3.175003051757812
 43
3.17498779296875
 44
209.9098358154297
 45
297.0318298339844
 46
12.0
 47
3.0
 48
55.19893561856474
 49
77.41415496436935
140
329.6878846931311
141
251.7976535946928
142
1.0
143
2.0
 70
  1712
 72
     1
 73
     0
 74
     1
  7
A4 Specifier Manual.ctb
 75
    17
147
0.5
148
2.231438335389952
149
26.15846035871732
  0
ACDBPLACEHOLDER
  5
F
102
{ACAD_REACTORS
330
E
102
}
330
E
  0
ACAD_PROXY_OBJECT
  5
541B
102
{ACAD_REACTORS
330
541A
102
}
330
541A
100
AcDbProxyObject
 90
      499
 91
      509
 95
   983063
 70
     0
 93
       49
310
904313A3100580
 94
        0
1001
ACAD
1000
AcRTDxfName
1000
SCALE
1000
AcRTDxfName
1000
SCALE
1000
AcRTDxfName
1000
SCALE
  0
ACAD_PROXY_OBJECT
  5
541C
102
{ACAD_REACTORS
330
541A
102
}
330
541A
100
AcDbProxyObject
 90
      499
 91
      509
 95
   983063
 70
     0
 93
      113
310
904313A32004000000000000004040
 94
        0
1001
ACAD
1000
AcRTDxfName
1000
SCALE
1000
AcRTDxfName
1000
SCALE
1000
AcRTDxfName
1000
SCALE
  0
ACAD_PROXY_OBJECT
  5
541D
102
{ACAD_REACTORS
330
541A
102
}
330
541A
100
AcDbProxyObject
 90
      499
 91
      509
 95
   983063
 70
     0
 93
      113
310
904313A34004000000000000104040
 94
        0
1001
ACAD
1000
AcRTDxfName
1000
SCALE
1000
AcRTDxfName
1000
SCALE
1000
AcRTDxfName
1000
SCALE
  0
ACAD_PROXY_OBJECT
  5
541E
102
{ACAD_REACTORS
330
541A
102
}
330
541A
100
AcDbProxyObject
 90
      499
 91
      509
 95
   983063
 70
     0
 93
      113
310
904313A35004000000000000144040
 94
        0
1001
ACAD
1000
AcRTDxfName
1000
SCALE
1000
AcRTDxfName
1000
SCALE
1000
AcRTDxfName
1000
SCALE
  0
ACAD_PROXY_OBJECT
  5
541F
102
{ACAD_REACTORS
330
541A
102
}
330
541A
100
AcDbProxyObject
 90
      499
 91
      509
 95
   983063
 70
     0
 93
      113
310
904313A38004000000000000204040
 94
        0
1001
ACAD
1000
AcRTDxfName
1000
SCALE
1000
AcRTDxfName
1000
SCALE
1000
AcRTDxfName
1000
SCALE
  0
ACAD_PROXY_OBJECT
  5
5420
102
{ACAD_REACTORS
330
541A
102
}
330
541A
100
AcDbProxyObject
 90
      499
 91
      509
 95
   983063
 70
     0
 93
      121
310
905313A3130004000000000000244001
 94
        0
1001
ACAD
1000
AcRTDxfName
1000
SCALE
1000
AcRTDxfName
1000
SCALE
1000
AcRTDxfName
1000
SCALE
  0
ACAD_PROXY_OBJECT
  5
5421
102
{ACAD_REACTORS
330
541A
102
}
330
541A
100
AcDbProxyObject
 90
      499
 91
      509
 95
   983063
 70
     0
 93
      121
310
905313A3136004000000000000304000
 94
        0
1001
ACAD
1000
AcRTDxfName
1000
SCALE
1000
AcRTDxfName
1000
SCALE
1000
AcRTDxfName
1000
SCALE
  0
ACAD_PROXY_OBJECT
  5
5422
102
{ACAD_REACTORS
330
541A
102
}
330
541A
100
AcDbProxyObject
 90
      499
 91
      509
 95
   983063
 70
     0
 93
      121
310
905313A3230004000000000000344001
 94
        0
1001
ACAD
1000
AcRTDxfName
1000
SCALE
1000
AcRTDxfName
1000
SCALE
1000
AcRTDxfName
1000
SCALE
  0
ACAD_PROXY_OBJECT
  5
5423
102
{ACAD_REACTORS
330
541A
102
}
330
541A
100
AcDbProxyObject
 90
      499
 91
      509
 95
   983063
 70
     0
 93
      121
310
905313A33300040000000000003E4000
 94
        0
1001
ACAD
1000
AcRTDxfName
1000
SCALE
1000
AcRTDxfName
1000
SCALE
1000
AcRTDxfName
1000
SCALE
  0
ACAD_PROXY_OBJECT
  5
5424
102
{ACAD_REACTORS
330
541A
102
}
330
541A
100
AcDbProxyObject
 90
      499
 91
      509
 95
   983063
 70
     0
 93
      121
310
905313A3430004000000000000444001
 94
        0
1001
ACAD
1000
AcRTDxfName
1000
SCALE
1000
AcRTDxfName
1000
SCALE
1000
AcRTDxfName
1000
SCALE
  0
ACAD_PROXY_OBJECT
  5
5425
102
{ACAD_REACTORS
330
541A
102
}
330
541A
100
AcDbProxyObject
 90
      499
 91
      509
 95
   983063
 70
     0
 93
      121
310
905313A3530004000000000000494000
 94
        0
1001
ACAD
1000
AcRTDxfName
1000
SCALE
1000
AcRTDxfName
1000
SCALE
1000
AcRTDxfName
1000
SCALE
  0
ACAD_PROXY_OBJECT
  5
5426
102
{ACAD_REACTORS
330
541A
102
}
330
541A
100
AcDbProxyObject
 90
      499
 91
      509
 95
   983063
 70
     0
 93
      129
310
906313A313030004000000000000594000
 94
        0
1001
ACAD
1000
AcRTDxfName
1000
SCALE
1000
AcRTDxfName
1000
SCALE
1000
AcRTDxfName
1000
SCALE
  0
ACAD_PROXY_OBJECT
  5
5427
102
{ACAD_REACTORS
330
541A
102
}
330
541A
100
AcDbProxyObject
 90
      499
 91
      509
 95
   983063
 70
     0
 93
      113
310
904323A31000000000000000010165
 94
        0
1001
ACAD
1000
AcRTDxfName
1000
SCALE
1000
AcRTDxfName
1000
SCALE
1000
AcRTDxfName
1000
SCALE
  0
ACAD_PROXY_OBJECT
  5
5428
102
{ACAD_REACTORS
330
541A
102
}
330
541A
100
AcDbProxyObject
 90
      499
 91
      509
 95
   983063
 70
     0
 93
      113
310
904343A31000000000000000410101
 94
        0
1001
ACAD
1000
AcRTDxfName
1000
SCALE
1000
AcRTDxfName
1000
SCALE
1000
AcRTDxfName
1000
SCALE
  0
ACAD_PROXY_OBJECT
  5
5429
102
{ACAD_REACTORS
330
541A
102
}
330
541A
100
AcDbProxyObject
 90
      499
 91
      509
 95
   983063
 70
     0
 93
      113
310
904383A31000000000000000810165
 94
        0
1001
ACAD
1000
AcRTDxfName
1000
SCALE
1000
AcRTDxfName
1000
SCALE
1000
AcRTDxfName
1000
SCALE
  0
ACAD_PROXY_OBJECT
  5
542A
102
{ACAD_REACTORS
330
541A
102
}
330
541A
100
AcDbProxyObject
 90
      499
 91
      509
 95
   983063
 70
     0
 93
      121
310
90531303A31000000000000000910120
 94
        0
1001
ACAD
1000
AcRTDxfName
1000
SCALE
1000
AcRTDxfName
1000
SCALE
1000
AcRTDxfName
1000
SCALE
  0
ACAD_PROXY_OBJECT
  5
542B
102
{ACAD_REACTORS
330
541A
102
}
330
541A
100
AcDbProxyObject
 90
      499
 91
      509
 95
   983063
 70
     0
 93
      129
310
9063130303A31000000000000001650100
 94
        0
1001
ACAD
1000
AcRTDxfName
1000
SCALE
1000
AcRTDxfName
1000
SCALE
1000
AcRTDxfName
1000
SCALE
  0
ACAD_PROXY_OBJECT
  5
542C
102
{ACAD_REACTORS
330
541A
102
}
330
541A
100
AcDbProxyObject
 90
      499
 91
      509
 95
   983063
 70
     0
 93
      265
310
90F312F31323822203D2031272D302200000000000000200FC000000000000284018
 94
        0
1001
ACAD
1000
AcRTDxfName
1000
SCALE
1000
AcRTDxfName
1000
SCALE
1000
AcRTDxfName
1000
SCALE
  0
ACAD_PROXY_OBJECT
  5
542D
102
{ACAD_REACTORS
330
541A
102
}
330
541A
100
AcDbProxyObject
 90
      499
 91
      509
 95
   983063
 70
     0
 93
      257
310
90E312F363422203D2031272D302200000000000000240FC000000000000284000
 94
        0
1001
ACAD
1000
AcRTDxfName
1000
SCALE
1000
AcRTDxfName
1000
SCALE
1000
AcRTDxfName
1000
SCALE
  0
ACAD_PROXY_OBJECT
  5
542E
102
{ACAD_REACTORS
330
541A
102
}
330
541A
100
AcDbProxyObject
 90
      499
 91
      509
 95
   983063
 70
     0
 93
      257
310
90E312F333222203D2031272D302200000000000000280FC000000000000284040
 94
        0
1001
ACAD
1000
AcRTDxfName
1000
SCALE
1000
AcRTDxfName
1000
SCALE
1000
AcRTDxfName
1000
SCALE
  0
ACAD_PROXY_OBJECT
  5
542F
102
{ACAD_REACTORS
330
541A
102
}
330
541A
100
AcDbProxyObject
 90
      499
 91
      509
 95
   983063
 70
     0
 93
      257
310
90E312F313622203D2031272D3022000000000000002C0FC000000000000284000
 94
        0
1001
ACAD
1000
AcRTDxfName
1000
SCALE
1000
AcRTDxfName
1000
SCALE
1000
AcRTDxfName
1000
SCALE
  0
ACAD_PROXY_OBJECT
  5
5430
102
{ACAD_REACTORS
330
541A
102
}
330
541A
100
AcDbProxyObject
 90
      499
 91
      509
 95
   983063
 70
     0
 93
      257
310
90E332F333222203D2031272D3022000000000000002E0FC000000000000284040
 94
        0
1001
ACAD
1000
AcRTDxfName
1000
SCALE
1000
AcRTDxfName
1000
SCALE
1000
AcRTDxfName
1000
SCALE
  0
ACAD_PROXY_OBJECT
  5
5431
102
{ACAD_REACTORS
330
541A
102
}
330
541A
100
AcDbProxyObject
 90
      499
 91
      509
 95
   983063
 70
     0
 93
      249
310
90D312F3822203D2031272D302200000000000000300FC000000000000284040
 94
        0
1001
ACAD
1000
AcRTDxfName
1000
SCALE
1000
AcRTDxfName
1000
SCALE
1000
AcRTDxfName
1000
SCALE
  0
ACAD_PROXY_OBJECT
  5
5432
102
{ACAD_REACTORS
330
541A
102
}
330
541A
100
AcDbProxyObject
 90
      499
 91
      509
 95
   983063
 70
     0
 93
      257
310
90E332F313622203D2031272D302200000000000000320FC000000000000284040
 94
        0
1001
ACAD
1000
AcRTDxfName
1000
SCALE
1000
AcRTDxfName
1000
SCALE
1000
AcRTDxfName
1000
SCALE
  0
ACAD_PROXY_OBJECT
  5
5433
102
{ACAD_REACTORS
330
541A
102
}
330
541A
100
AcDbProxyObject
 90
      499
 91
      509
 95
   983063
 70
     0
 93
      249
310
90D312F3422203D2031272D302200000000000000340FC000000000000284040
 94
        0
1001
ACAD
1000
AcRTDxfName
1000
SCALE
1000
AcRTDxfName
1000
SCALE
1000
AcRTDxfName
1000
SCALE
  0
ACAD_PROXY_OBJECT
  5
5434
102
{ACAD_REACTORS
330
541A
102
}
330
541A
100
AcDbProxyObject
 90
      499
 91
      509
 95
   983063
 70
     0
 93
      249
310
90D332F3822203D2031272D302200000000000000360FC000000000000284028
 94
        0
1001
ACAD
1000
AcRTDxfName
1000
SCALE
1000
AcRTDxfName
1000
SCALE
1000
AcRTDxfName
1000
SCALE
  0
ACAD_PROXY_OBJECT
  5
5435
102
{ACAD_REACTORS
330
541A
102
}
330
541A
100
AcDbProxyObject
 90
      499
 91
      509
 95
   983063
 70
     0
 93
      249
310
90D312F3222203D2031272D302200000000000000380FC000000000000284040
 94
        0
1001
ACAD
1000
AcRTDxfName
1000
SCALE
1000
AcRTDxfName
1000
SCALE
1000
AcRTDxfName
1000
SCALE
  0
ACAD_PROXY_OBJECT
  5
5436
102
{ACAD_REACTORS
330
541A
102
}
330
541A
100
AcDbProxyObject
 90
      499
 91
      509
 95
   983063
 70
     0
 93
      249
310
90D332F3422203D2031272D3022000000000000003A0FC000000000000284028
 94
        0
1001
ACAD
1000
AcRTDxfName
1000
SCALE
1000
AcRTDxfName
1000
SCALE
1000
AcRTDxfName
1000
SCALE
  0
ACAD_PROXY_OBJECT
  5
5437
102
{ACAD_REACTORS
330
541A
102
}
330
541A
100
AcDbProxyObject
 90
      499
 91
      509
 95
   983063
 70
     0
 93
      169
310
90B3122203D2031272D3022004000000000000284000
 94
        0
1001
ACAD
1000
AcRTDxfName
1000
SCALE
1000
AcRTDxfName
1000
SCALE
1000
AcRTDxfName
1000
SCALE
  0
ACAD_PROXY_OBJECT
  5
5438
102
{ACAD_REACTORS
330
541A
102
}
330
541A
100
AcDbProxyObject
 90
      499
 91
      509
 95
   983063
 70
     0
 93
      265
310
90F312D312F3222203D2031272D3022000000000000003E0FC000000000000284018
 94
        0
1001
ACAD
1000
AcRTDxfName
1000
SCALE
1000
AcRTDxfName
1000
SCALE
1000
AcRTDxfName
1000
SCALE
  0
ACAD_PROXY_OBJECT
  5
5439
102
{ACAD_REACTORS
330
541A
102
}
330
541A
100
AcDbProxyObject
 90
      499
 91
      509
 95
   983063
 70
     0
 93
      233
310
90B3322203D2031272D30220000000000000002100000000000000284000
 94
        0
1001
ACAD
1000
AcRTDxfName
1000
SCALE
1000
AcRTDxfName
1000
SCALE
1000
AcRTDxfName
1000
SCALE
  0
ACAD_PROXY_OBJECT
  5
543A
102
{ACAD_REACTORS
330
541A
102
}
330
541A
100
AcDbProxyObject
 90
      499
 91
      509
 95
   983063
 70
     0
 93
      233
310
90B3622203D2031272D3022000000000000000610000000000000028405D
 94
        0
1001
ACAD
1000
AcRTDxfName
1000
SCALE
1000
AcRTDxfName
1000
SCALE
1000
AcRTDxfName
1000
SCALE
  0
ACAD_PROXY_OBJECT
  5
543B
102
{ACAD_REACTORS
330
541A
102
}
330
541A
100
AcDbProxyObject
 90
      499
 91
      509
 95
   983063
 70
     0
 93
      257
310
90E31272D3022203D2031272D3022000000000000000A100000000000000284000
 94
        0
1001
ACAD
1000
AcRTDxfName
1000
SCALE
1000
AcRTDxfName
1000
SCALE
1000
AcRTDxfName
1000
SCALE
  0
TABLESTYLE
  5
5419
102
{ACAD_XDICTIONARY
360
54E2
102
}
102
{ACAD_REACTORS
330
5418
102
}
330
5418
100
AcDbTableStyle
  3
Standard
 70
     0
 71
     0
 40
1.5
 41
1.5
280
     0
281
     0
  7
Standard
140
4.5
170
     2
 62
     0
 63
     7
283
     0
274
    -2
284
     1
 64
     0
275
    -2
285
     1
 65
     0
276
    -2
286
     1
 66
     0
277
    -2
287
     1
 67
     0
278
    -2
288
     1
 68
     0
279
    -2
289
     1
 69
     0
  7
Standard
140
6.0
170
     5
 62
     0
 63
     7
283
     0
274
    -2
284
     1
 64
     0
275
    -2
285
     1
 65
     0
276
    -2
286
     1
 66
     0
277
    -2
287
     1
 67
     0
278
    -2
288
     1
 68
     0
279
    -2
289
     1
 69
     0
  7
Standard
140
4.5
170
     5
 62
     0
 63
     7
283
     0
274
    -2
284
     1
 64
     0
275
    -2
285
     1
 65
     0
276
    -2
286
     1
 66
     0
277
    -2
287
     1
 67
     0
278
    -2
288
     1
 68
     0
279
    -2
289
     1
 69
     0
  0
ACAD_PROXY_OBJECT
  5
540C
102
{ACAD_REACTORS
330
5406
102
}
330
5406
100
AcDbProxyObject
 90
      499
 91
      507
 95
   983063
 70
     0
 93
      444
310
430C9915DA5C99599C985B59401049028333333333333E3BF0000000000000FB0107901411070040501600405405064090741402480A0340
 94
        0
1001
ACAD
1000
AcDbSavedByObjectVersion
1070
     0
1000
AcRTDxfName
1000
VISUALSTYLE
1000
AcRTDxfName
1000
VISUALSTYLE
1000
AcRTDxfName
1000
VISUALSTYLE
  0
ACAD_PROXY_OBJECT
  5
540E
102
{ACAD_REACTORS
330
5406
102
}
330
5406
100
AcDbProxyObject
 90
      499
 91
      507
 95
   983063
 70
     0
 93
      508
310
428CD108121A5919195B8010640502408333333333333E3BF0000000000000FB01079024090700405020000000000001110200405405064090740C02480A0340
 94
        0
1001
ACAD
1000
AcDbSavedByObjectVersion
1070
     0
1000
AcRTDxfName
1000
VISUALSTYLE
1000
AcRTDxfName
1000
VISUALSTYLE
1000
AcRTDxfName
1000
VISUALSTYLE
  0
ACAD_PROXY_OBJECT
  5
540D
102
{ACAD_REACTORS
330
5406
102
}
330
5406
100
AcDbProxyObject
 90
      499
 91
      507
 95
   983063
 70
     0
 93
      444
310
430CD915DA5C99599C985B59401059028333333333333E3BF0000000000000FB0107901411070040501600405405064090741402480A0340
 94
        0
1001
ACAD
1000
AcDbSavedByObjectVersion
1070
     0
1000
AcRTDxfName
1000
VISUALSTYLE
1000
AcRTDxfName
1000
VISUALSTYLE
1000
AcRTDxfName
1000
VISUALSTYLE
  0
ACAD_PROXY_OBJECT
  5
540B
102
{ACAD_REACTORS
330
5406
102
}
330
5406
100
AcDbProxyObject
 90
      499
 91
      507
 95
   983063
 70
     0
 93
      396
310
4190985CDA58C0107406404333333333333E3BF0000000000000FB0107A41107004050150841D405064090741402480A0354
 94
        0
1001
ACAD
1000
AcDbSavedByObjectVersion
1070
     0
1000
AcRTDxfName
1000
VISUALSTYLE
1000
AcRTDxfName
1000
VISUALSTYLE
1000
AcRTDxfName
1000
VISUALSTYLE
  0
ACAD_PROXY_OBJECT
  5
5412
102
{ACAD_REACTORS
330
5406
102
}
330
5406
100
AcDbProxyObject
 90
      499
 91
      507
 95
   983063
 70
     0
 93
      436
310
42509C9A59DA1D195B8010C409028333333333333E3BF0000000000000FB010790141107004050150841D405064090741402480A02995A
 94
        0
1001
ACAD
1000
AcDbSavedByObjectVersion
1070
     0
1000
AcRTDxfName
1000
VISUALSTYLE
1000
AcRTDxfName
1000
VISUALSTYLE
1000
AcRTDxfName
1000
VISUALSTYLE
  0
ACAD_PROXY_OBJECT
  5
5416
102
{ACAD_REACTORS
330
5406
102
}
330
5406
100
AcDbProxyObject
 90
      499
 91
      507
 95
   983063
 70
     0
 93
      460
310
4310DBDB1BDC90DA185B99D9401104090240C333333333333E3BF0000000000000FB0108901411070040501508421405064090741402480A0350
 94
        0
1001
ACAD
1000
AcDbSavedByObjectVersion
1070
     0
1000
AcRTDxfName
1000
VISUALSTYLE
1000
AcRTDxfName
1000
VISUALSTYLE
1000
AcRTDxfName
1000
VISUALSTYLE
  0
ACAD_PROXY_OBJECT
  5
540F
102
{ACAD_REACTORS
330
5406
102
}
330
5406
100
AcDbProxyObject
 90
      499
 91
      507
 95
   983063
 70
     0
 93
      508
310
42D0DBDB98D95C1D1D585B0010940D028333333333333E3BF0000000000000FB0107902409070040501000000000000111010841D405064090740C02480A0340
 94
        0
1001
ACAD
1000
AcDbSavedByObjectVersion
1070
     0
1000
AcRTDxfName
1000
VISUALSTYLE
1000
AcRTDxfName
1000
VISUALSTYLE
1000
AcRTDxfName
1000
VISUALSTYLE
  0
ACAD_PROXY_OBJECT
  5
5411
102
{ACAD_REACTORS
330
5406
102
}
330
5406
100
AcDbProxyObject
 90
      499
 91
      507
 95
   983063
 70
     0
 93
      420
310
41111A5B4010B409028333333333333E3BF0000000000000FB010790141107004050150841D405064090741402480A02677FFFFFD2
 94
        0
1001
ACAD
1000
AcDbSavedByObjectVersion
1070
     0
1000
AcRTDxfName
1000
VISUALSTYLE
1000
AcRTDxfName
1000
VISUALSTYLE
1000
AcRTDxfName
1000
VISUALSTYLE
  0
ACAD_PROXY_OBJECT
  5
5415
102
{ACAD_REACTORS
330
5406
102
}
330
5406
100
AcDbProxyObject
 90
      499
 91
      507
 95
   983063
 70
     0
 93
      452
310
43119858D95C185D1D195C9B8010F409028333333333333E3BF0000000000000FB010790141107004050150841D405064090741402480A0356
 94
        0
1001
ACAD
1000
AcDbSavedByObjectVersion
1070
     0
1000
AcRTDxfName
1000
VISUALSTYLE
1000
AcRTDxfName
1000
VISUALSTYLE
1000
AcRTDxfName
1000
VISUALSTYLE
  0
ACAD_PROXY_OBJECT
  5
5407
102
{ACAD_REACTORS
330
5406
102
}
330
5406
100
AcDbProxyObject
 90
      499
 91
      507
 95
   983063
 70
     0
 93
      396
310
41519B185D00240901404333333333333E3BF0000000000000F9010740A41107004050150841D405064090741402480A1B58
 94
        0
1001
ACAD
1000
AcDbSavedByObjectVersion
1070
     0
1000
AcRTDxfName
1000
VISUALSTYLE
1000
AcRTDxfName
1000
VISUALSTYLE
1000
AcRTDxfName
1000
VISUALSTYLE
  0
ACAD_PROXY_OBJECT
  5
5408
102
{ACAD_REACTORS
330
5406
102
}
330
5406
100
AcDbProxyObject
 90
      499
 91
      507
 95
   983063
 70
     0
 93
      484
310
43919B185D15DA5D1A115919D95CC010140901404333333333333E3BF0000000000000F9010740901411070040501600405405064090741402480A1B58
 94
        0
1001
ACAD
1000
AcDbSavedByObjectVersion
1070
     0
1000
AcRTDxfName
1000
VISUALSTYLE
1000
AcRTDxfName
1000
VISUALSTYLE
1000
AcRTDxfName
1000
VISUALSTYLE
  0
ACAD_PROXY_OBJECT
  5
5409
102
{ACAD_REACTORS
330
5406
102
}
330
5406
100
AcDbProxyObject
 90
      499
 91
      507
 95
   983063
 70
     0
 93
      420
310
4211DBDD5C985D590010240902404333333333333E3BF0000000000000F9010740A411070040501641D405064090741402480A1B58
 94
        0
1001
ACAD
1000
AcDbSavedByObjectVersion
1070
     0
1000
AcRTDxfName
1000
VISUALSTYLE
1000
AcRTDxfName
1000
VISUALSTYLE
1000
AcRTDxfName
1000
VISUALSTYLE
  0
ACAD_PROXY_OBJECT
  5
540A
102
{ACAD_REACTORS
330
5406
102
}
330
5406
100
AcDbProxyObject
 90
      499
 91
      507
 95
   983063
 70
     0
 93
      508
310
4451DBDD5C985D5915DA5D1A115919D95CC010340902404333333333333E3BF0000000000000F9010740901411070040501600405405064090741402480A1B50
 94
        0
1001
ACAD
1000
AcDbSavedByObjectVersion
1070
     0
1000
AcRTDxfName
1000
VISUALSTYLE
1000
AcRTDxfName
1000
VISUALSTYLE
1000
AcRTDxfName
1000
VISUALSTYLE
  0
ACAD_PROXY_OBJECT
  5
5414
102
{ACAD_REACTORS
330
5406
102
}
330
5406
100
AcDbProxyObject
 90
      499
 91
      507
 95
   983063
 70
     0
 93
      452
310
43131A5B995C185D1D195C9B8010E409028333333333333E3BF0000000000000FB010790141107004050750841D405064090741402483A0353
 94
        0
1001
ACAD
1000
AcDbSavedByObjectVersion
1070
     0
1000
AcRTDxfName
1000
VISUALSTYLE
1000
AcRTDxfName
1000
VISUALSTYLE
1000
AcRTDxfName
1000
VISUALSTYLE
  0
ACAD_PROXY_OBJECT
  5
5410
102
{ACAD_REACTORS
330
5406
102
}
330
5406
100
AcDbProxyObject
 90
      499
 91
      507
 95
   983063
 70
     0
 93
      428
310
429499585B1A5CDD1A58C0108409028333333333333E3BF0000000000000FB01079019070040501508421405064090741402480A1B49
 94
        0
1001
ACAD
1000
AcDbSavedByObjectVersion
1070
     0
1000
AcRTDxfName
1000
VISUALSTYLE
1000
AcRTDxfName
1000
VISUALSTYLE
1000
AcRTDxfName
1000
VISUALSTYLE
  0
ACAD_PROXY_OBJECT
  5
5413
102
{ACAD_REACTORS
330
5406
102
}
330
5406
100
AcDbProxyObject
 90
      499
 91
      507
 95
   983063
 70
     0
 93
      420
310
42151A1A58DAD95B8010D409028333333333333E3BF0000000000000FB010790141107004050150C41D405064090741402480A0352
 94
        0
1001
ACAD
1000
AcDbSavedByObjectVersion
1070
     0
1000
AcRTDxfName
1000
VISUALSTYLE
1000
AcRTDxfName
1000
VISUALSTYLE
1000
AcRTDxfName
1000
VISUALSTYLE
  0
DICTIONARYVAR
  5
551F
102
{ACAD_REACTORS
330
3B
102
}
330
3B
100
DictionaryVariables
280
     0
  1
1:1
  0
DICTIONARYVAR
  5
551E
102
{ACAD_REACTORS
330
3B
102
}
330
3B
100
DictionaryVariables
280
     0
  1
STANDARD
  0
DICTIONARYVAR
  5
551D
102
{ACAD_REACTORS
330
3B
102
}
330
3B
100
DictionaryVariables
280
     0
  1
STANDARD
  0
DICTIONARYVAR
  5
3D
102
{ACAD_REACTORS
330
3B
102
}
330
3B
100
DictionaryVariables
280
     0
  1
2
  0
DICTIONARYVAR
  5
3C
102
{ACAD_REACTORS
330
3B
102
}
330
3B
100
DictionaryVariables
280
     0
  1
1
  0
DICTIONARYVAR
  5
5521
102
{ACAD_REACTORS
330
3B
102
}
330
3B
100
DictionaryVariables
280
     0
  1
0
  0
DICTIONARYVAR
  5
59D7
102
{ACAD_REACTORS
330
3B
102
}
330
3B
100
DictionaryVariables
280
     0
  1

  0
DICTIONARYVAR
  5
5520
102
{ACAD_REACTORS
330
3B
102
}
330
3B
100
DictionaryVariables
280
     0
  1
127
  0
DICTIONARY
  5
5E19
330
22
100
AcDbDictionary
280
     1
281
     1
  3
ACAD_XREC_ROUNDTRIP
360
5E1A
  0
DICTIONARY
  5
546B
330
51B7
100
AcDbDictionary
280
     1
281
     1
  3
ACAD_XREC_ROUNDTRIP
360
5E1F
  3
ADSK_XREC_LAYOUTTHUMBNAIL
360
546C
  0
DICTIONARY
  5
53F7
330
53F6
100
AcDbDictionary
280
     1
281
     1
  3
ACAD_XREC_ROUNDTRIP
360
598B
  3
BUMPTILE
360
53F9
  3
DIFFUSETILE
360
53F8
  3
OPACITYTILE
360
53FC
  3
REFLECTIONTILE
360
53FB
  3
REFRACTIONTILE
360
53FD
  3
SPECULARTILE
360
53FA
  0
DICTIONARY
  5
53EF
330
53EE
100
AcDbDictionary
280
     1
281
     1
  3
ACAD_XREC_ROUNDTRIP
360
598A
  3
BUMPTILE
360
53F1
  3
DIFFUSETILE
360
53F0
  3
OPACITYTILE
360
53F4
  3
REFLECTIONTILE
360
53F3
  3
REFRACTIONTILE
360
53F5
  3
SPECULARTILE
360
53F2
  0
DICTIONARY
  5
53FF
330
53FE
100
AcDbDictionary
280
     1
281
     1
  3
ACAD_XREC_ROUNDTRIP
360
598C
  3
BUMPTILE
360
5401
  3
DIFFUSETILE
360
5400
  3
OPACITYTILE
360
5404
  3
REFLECTIONTILE
360
5403
  3
REFRACTIONTILE
360
5405
  3
SPECULARTILE
360
5402
  0
DICTIONARY
  5
5E1B
330
510C
100
AcDbDictionary
280
     1
281
     1
  3
ACAD_XREC_ROUNDTRIP
360
5E1C
  0
DICTIONARY
  5
5E1D
330
510D
100
AcDbDictionary
280
     1
281
     1
  3
ACAD_XREC_ROUNDTRIP
360
5E1E
  0
DICTIONARY
  5
54E2
330
5419
100
AcDbDictionary
280
     1
281
     1
  3
ACAD_ROUNDTRIP_2008_TABLESTYLE_CELLSTYLEMAP
360
596E
  3
ACAD_XREC_ROUNDTRIP
360
598D
  0
XRECORD
  5
5E1A
102
{ACAD_REACTORS
330
5E19
102
}
330
5E19
100
AcDbXrecord
280
     1
102
SHADEPLOT
 70
     0
102
SHADEPLOTRESLEVEL
 70
     2
102
SHADEPLOTCUSTOMDPI
 70
   300
  0
XRECORD
  5
5E1F
102
{ACAD_REACTORS
330
546B
102
}
330
546B
100
AcDbXrecord
280
     1
102
SHADEPLOT
 70
     1
102
SHADEPLOTRESLEVEL
 70
     2
102
SHADEPLOTCUSTOMDPI
 70
   300
  0
XRECORD
  5
546C
102
{ACAD_REACTORS
330
546B
102
}
330
546B
100
AcDbXrecord
280
     1
310
28000000630000008C0000000100080000000000B0360000000000000000000000010000000000000000000000000000FFFFFF000000000000000000000000000000000000000000000000000000000000000000330000006600000099000000CC000000FF00000000330000333300006633000099330000CC330000FF3300
310
0000660000336600006666000099660000CC660000FF66000000990000339900006699000099990000CC990000FF99000000CC000033CC000066CC000099CC0000CCCC0000FFCC000000FF000033FF000066FF000099FF0000CCFF0000FFFF000000003300330033006600330099003300CC003300FF003300003333003333
310
33006633330099333300CC333300FF33330000663300336633006666330099663300CC663300FF66330000993300339933006699330099993300CC993300FF99330000CC330033CC330066CC330099CC3300CCCC3300FFCC330000FF330033FF330066FF330099FF3300CCFF3300FFFF330000006600330066006600660099
310
006600CC006600FF00660000336600333366006633660099336600CC336600FF33660000666600336666006666660099666600CC666600FF66660000996600339966006699660099996600CC996600FF99660000CC660033CC660066CC660099CC6600CCCC6600FFCC660000FF660033FF660066FF660099FF6600CCFF6600
310
FFFF660000009900330099006600990099009900CC009900FF00990000339900333399006633990099339900CC339900FF33990000669900336699006666990099669900CC669900FF66990000999900339999006699990099999900CC999900FF99990000CC990033CC990066CC990099CC9900CCCC9900FFCC990000FF99
310
0033FF990066FF990099FF9900CCFF9900FFFF99000000CC003300CC006600CC009900CC00CC00CC00FF00CC000033CC003333CC006633CC009933CC00CC33CC00FF33CC000066CC003366CC006666CC009966CC00CC66CC00FF66CC000099CC003399CC006699CC009999CC00CC99CC00FF99CC0000CCCC0033CCCC0066CC
310
CC0099CCCC00CCCCCC00FFCCCC0000FFCC0033FFCC0066FFCC0099FFCC00CCFFCC00FFFFCC000000FF003300FF006600FF009900FF00CC00FF00FF00FF000033FF003333FF006633FF009933FF00CC33FF00FF33FF000066FF003366FF006666FF009966FF00CC66FF00FF66FF000099FF003399FF006699FF009999FF00CC
310
99FF00FF99FF0000CCFF0033CCFF0066CCFF0099CCFF00CCCCFF00FFCCFF0000FFFF0033FFFF0066FFFF0099FFFF00CCFFFF00FFFFFF00000000000D0D0D001A1A1A00282828003535350043434300505050005D5D5D006B6B6B00787878008686860093939300A1A1A100AEAEAE00BBBBBB00C9C9C900D6D6D600E4E4E400
310
F1F1F100FFFFFF0000000000000000000000000000000000000000000000000000000000000000000000000000000000F5F5F5F5F5F5F5F5F5F5F5F5F5F5F5F5F5F5F5F5F5F5F5F5F5F5F5F5F5F5F5F5F5F5F5F5F5F5F5F5F5F5F5F5F5F5F5F5F5F5F5F5F5F5F5F5F5F5F5F5F5F5F5F5F5F5F5F5F5F5F5F5F5F5F5F5F5F5F5
310
F5F5F5F5F5F5F5F5F5F5F5F5F5F5F5F5F5F5F5EF00E2E2E2E2E2E2E2E2E2E2E2E2E2E2E2E2E2E2E2E2E2E2E2E2E2E2E2E2E2E2E2E2E2E2E2E2E2E2E2E2E2E2E2E2E2E2E2E2E2E2E2E2E2E2E2E2E2E2E2E2E2E2E2E2E2E2E2E2E2E2E2E2E2E2E2E2E2E2E2E2E2E2E2E2E2E2E2E2E2E2E2E2E2E2E2E2E2F5EF00E2E2E2E2E2E2
310
E2E2E2E2E2E2E2E2E2E2E2E2E2E2E2E2E2E2E2E2E2E2E2E2E2E2E2E2E2E2E2E2E2E2E2E2E2E2E2E2E2E2E2E2E2E2E2E2E2E2E2E2E2E2E2E2E2E2E2E2E2E2E2E2E2E2E2E2E2E2E2E2E2E2E2E2E2E2E2E2E2E2E2E2E2E2E2E2E2E2E2F5EF00E2F5F5F5F5F5F5F5F5E2E2E2E2E2E2E2E2F5F5F5F5F5F5F5F5F5F5F5F5F5F5F5E2
310
E2E2E2E2E2E2E2E2F5F5F5F5F5F5F5F5F5F5F5F5F5F5E2E2E2E2E2E2E2E2E2F5F5F5F5F5F5F5F5F5F5F5F5F5F5F5E2E2E2E2E2E2E2E2F5F5F5F5F5F5F5F5E2E2F5EF00E2F5E2E2E2E2E2E2E2E2E2E2E2E2E2E2E2E2E2E2E2E2E2E2E2E2E2E2F5F5E2E2E2E2E2E2E2E2E2E2E2E2E2E2E2E2E2E2E2E2E2E2E2E2E2E2E2E2E2E2
310
E2E2E2E2E2E2E2E2E2E2E2E2E2E2E2E2E2E2E2E2E2E2E2E2E2E2E2E2E2E2E2E2E2E2F5E2E2F5EF00E2F5E2E2E2E2E2F5F5F5F5F5F5F5F5F5F5F5F5F5F5F5F5F5F5F5F5F5F5F5F5F5F5F5F5F5F5F5F5F5F5F5F5F5F5F5F5F5F5F5F5F5F5F5F5F5F5F5F5F5F5F5F5F5F5F5F5F5F5F5F5F5F5F5F5F5F5F5F5F5F5F5F5F5F5F5F5
310
F5F5F5E2E2E2E2F5E2E2F5EF00E2F5E2E2E2E2E2F5F5F5F5F5F5F5F5F5F5F5F5F5F5F5F5F5F5F5F5F5F5F5F5F5F5F5F5F5F5F5F5F5F5F5F5F5F5F5F5F5F5F5F5F5F5F5F5F5F5F5F5F5F5F5F5F5F5F5F5F5F5F5F5F5F5F5F5F5F5F5F5F5F5F5F5F5F5F5F5F5F5F5F5E2E2E2F5E2E2F5EF00E2F5E2E2E2E2E2E2E2E2E2E2E2E2
310
E2E2E2E2E2E2E2E2E2E2E2E2E2E2E2E2E2E2E2E2E2E2E2E2E2E2E2E2E2E2E2E2E2E2E2E2E2E2E2E2E2E2E2E2E2E2E2E2E2E2E2E2E2E2E2E2E2E2E2E2E2E2E2E2E2E2E2E2E2E2E2E2E2E2E2E2E2E2E2E2F5E2E2F5EF00E2F5E2E2E2E2E2EAEAEAEAEAEAEAEAEAEAEAEAEAEAEAEAEAEAEAEAEAEAEAEAEAEAEAEAEAEAEAEAEAEA
310
EAEAEAEAEAEAEAEAEAEAEAEAEAEAEAEAEAEAEAEAEAEAEAEAEAEAEAEAEAEAEAEAEAEAEAEAEAEAEAEAEAEAEAEAEAEAEAEAEAEAE2E2E2F5E2E2F5EF00E2F5E2E2E2E2E2EAE2E2E2E2E2E2E2E2E2E2E2E2E2E2E2E2E2E2E2E2E2E2E2E2E2E2E2E2E2E2E2E2E2E2E2E2E2E2E2E2E2E2E2E2E2E2E2E2E2E2E2E2E2E2E2E2E2E2E2E2
310
E2E2E2E2E2E2E2E2E2E2E2E2E2E2E2E2E2E2E2E2E2E2EAE2E2E2F5E2E2F5EF00E2F5E2E2E2E2E2EAE2E2E2E2E2E2E2E2E2E2E2E2E2E2E2E2E2E2E2E2E2E2E2E2E2E2E2E2E2E2E2E2E2E2E2E2E2E2E2E2E2E2E2E2E2E2E2E2E2E2E2E2E2E2E2E2E2E2E2E2E2E2E2E2E2E2E2E2E2E2E2E2E2E2E2E2E2E2E2E2E2E2EAE2E2E2F5
310
E2E2F5EF00E2F5E2E2E2E2E2EAE2E2E2E2E2E2E2E2E2E2E2E2E2E2E2E2E2E2E2E2E2E2E2E2E2E2E2E2E2E2E2E2E2E2E2E2E2E2E2E2E2E2E2E2E2E2E2E2E2E2E2E2E2E2E2E2E2E2E2E2E2E2E2E2E2E2E2E2E2E2E2E2E2E2E2E2E2E2E2E2E2E2EAE2E2E2F5E2E2F5EF00E2E2E2E2E2E2E2EAE2E2E2E2E2E2E2E2E2E2E2E2E2E2
310
E2E2E2E2E2E2E2E2E2E2E2E2E2E2E2E2E2E2E2E2E2E2E2E2E2E2E2E2E2E2E2E2E2E2E2E2E2E2E2E2E2E2E2E2E2E2E2E2E2E2E2E2E2E2E2E2E2E2E2E2E2E2E2E2E2E2E2E2EAE2E2E2E2E2E2F5EF00E2E2E2E2E2E2E2EAE2E2E2E2E2E2E2E2E2E2E2E2E2E2E2E2E2E2E2E2E2E2E2E2E2E2E2E2E2E2E2E2E2E2E2E2E2E2E2E2E2
310
E2E2E2E2E2E2E2E2E2E2E2E2E2E2E2E2E2E2E2E2E2E2E2E2E2E2E2E2E2E2E2E2E2E2E2E2E2E2E2E2E2EAE2E2E2E2E2E2F5EF00E2E2E2E2E2E2E2EAE2E2E2E2E2E2E2E2E2E2E2E2E2E2E2E2E2E2E2E2E2E2E2E2E2E2E2E2E2E2E2E2E2E2E2E2E2E2E2E2E2E2E2E2E2E2E2E2E2E2E2E2E2E2E2E2E2E2E2E2E2E2E2E2E2E2E2E2
310
E2E2E2E2E2E2E2E2E2E2E2E2E2E2EAE2E2E2E2E2E2F5EF00E2E2E2E2E2E2E2EAE2E2E2E2E2E2E2E2E2E2E2E2E2E2E2E2E2E2E2E2E2E2E2E2E2E2E2E2E2E2E2E2E2E2E2E2E2E2E2E2E2E2E2E2E2E2E2E2F5F5F5F5F5F5F5F5F5F5F5F5F5E2E2E2E2E2E2E2E2E2E2E2E2E2E2E2E2E2E2E2E2E2EAE2E2E2E2E2E2F5EF00E2E2E2
310
E2E2E2E2EAE2E2E2E2E2E2E2E2E2E2E2E2E2E2E2E2E2E2E2E2E2E2E2E2E2E2E2E2E2E2E2E2E2E2E2E2E2E2E2E2E2E2E2E2E2EFEFEFF5F5F5F5F5F5F5F5F5F5F5F5F5E2E2E2E2E2E2E2E2E2E2E2E2E2E2E2E2E2E2E2E2E2EAE2E2E2E2E2E2F5EF00E2E2E2E2E2E2E2EAE2E2E2E2E2E2E2E2E2E2E2E2E2E2E2E2E2E2E2E2E2E2
310
E2E2E2E2E2E2E2E2E2E2E2E2E2E2E2E2E2E2E2E2E2E2E2EFEFEFF5F5F5F5F5F5F5F5F5F5F5F5F5E2E2E2E2E2E2E2E2E2E2E2E2E2E2E2E2E2E2E2E2E2EAE2E2E2E2E2E2F5EF00E2E2E2E2E2E2E2EAE2E2E2E2E2E2E2E2E2E2E2E2E2E2E2E2E2E2E2E2E2E2E2E2E2E2E2E2E2E2E2E2E2E2E2E2E2E2E2E2E2E2E2E2E2EFEFEFF5
310
F5F5F5F5F5F5F5F5F5F5F5F5E2E2E2E2E2E2E2E2E2E2E2E2E2E2E2E2E2E2E2E2E2EAE2E2E2E2E2E2F5EF00E2E2E2E2E2E2E2EAE2E2E2E2E2E2E2E2E2E2E2E2E2E2E2E2E2E2E2E2E2E2E2E2E2E2E2E2E2E2E2E2E2E2E2E2E2E2E2E2E2E2E2E2E2EFEFEFE2E2E2E2E2E2E2E2E2E2E2E2E2E2E2E2E2E2E2E2E2E2E2E2E2E2E2E2
310
E2E2E2E2E2E2EAE2E2E2E2E2E2F5EF00E2E2E2E2E2E2E2EAE2E2E2E2E2E2E2E2E2E2E2E2E2E2E2E2E2E2E2E2E2E2E2E2E2E2E2E2E2E2E2E2E2E2E2E2E2E2E2E2E2E2E2E2E2E2EFEFE2E2E2E2E2E2E2E2E2E2E2E2E2E2E2E2E2E2E2E2E2E2E2E2E2E2E2E2E2E2E2E2E2E2EAE2E2E2E2E2E2F5EF00E2E2E2E2E2E2E2EAE2E2E2
310
E2E2E2E2E2E2E2E2E2E2E2E2E2E2E2E2E2E2E2E2E2E2E2E2E2E2E2E2E2E2E2E2E2E2E2E2E2E2E2E2E2E2E2EFEFE2E2E2E2E2E2E2E2E2E2E2E2E2E2E2E2E2E2E2E2E2E2E2E2E2E2E2E2E2E2E2E2E2E2EAE2E2E2E2E2E2F5EF00E2F5E2E2E2E2E2EAE2E2E2E2E2E2E2E2E2E2E2E2E2E2E2E2E2E2E2E2E2E2E2E2E2E2E2E2E2E2
310
E2E2E2E2E2E2E2E2E2E2E2E2E2E2E2E2EFEFE2E2E2E2E2E2E2E2E2E2E2E2E2E2E2E2E2E2E2E2E2E2E2E2E2E2E2E2E2E2E2E2E2E2EAE2E2E2F5E2E2F5EF00E2F5E2E2E2E2E2EAE2E2E2E2E2E2E2E2E2E2E2E2E2E2E2E2E2E2E2E2E2E2E2E2E2E2E2E2E2E2E2E2E2E2E2E2E2E2E2E2E2E2E2E2E2E2EFEFE2E2E2E2E2E2E2E2E2
310
E2E2E2E2E2E2E2E2E2E2E2E2E2E2E2E2E2E2E2E2E2E2E2E2E2EAE2E2E2F5E2E2F5EF00E2F5E2E2E2E2E2EAE2E2E2F5F5F5F5E2E2F5F5F5F5F5E2E2E2F5F5F5F5E2E2E2E2E2E2E2E2E2F5F5F5F5F5E2E2E2F5F5F5F5F5E2E2E2EFEFE2E2E2E2F5F5F5F5E2E2E2E2F5F5F5F5E2E2E2E2E2E2E2E2E2F5F5F5F5F5E2E2E2E2EAE2
310
E2E2F5E2E2F5EF00E2F5E2E2E2E2E2EAE2E2E2F5F5F5F5E2E2F5F5F5F5F5E2E2E2F5F5F5F5E2E2E2E2E2E2E2E2E2F5F5F5F5F5E2E2E2F5F5F5F5F5E2E2E2EFEFE2E2E2E2F5F5F5F5E2E2E2E2F5F5F5F5E2E2E2E2E2E2E2E2E2F5F5F5F5F5E2E2E2E2EAE2E2E2F5E2E2F5EF00E2F5E2E2E2E2E2EAE2E2E2EFEFEFEFEFEFEFEF
310
EFEFEFEFE2E2EFEFEFEFEFEFEFEFEFEFEFEFEFEFEFEFEFEFE2E2E2EFEFEFEFEFEFEFEFEFEFEFEFEFEFEFEFEFEFEFE2E2EFEFEFEFEFEFEFEFEFEFEFEFEFEFEFEFEFEFEFE2E2E2E2EAE2E2E2F5E2E2F5EF00E2F5E2E2E2E2E2EAE2E2E2E2E2E2EFEFEFEFEFEFE2EFEFE2E2EFE2EFEFE2EFEFEFEFEFE2EFEFEFEFEFE2EFE2E2E2
310
EFE2EFEFEFEFEFEFEFEFEFEFEFEFEFEFE2EFEFE2E2EFE2EFEFEFEFEFEFEFEFEFEFEFEFEFEFEFE2EFE2E2E2E2EAE2E2E2F5E2E2F5EF00E2F5E2E2E2E2E2EAE2E2E2E2E2E2EFEFE2E2E2EFEFEFEFE2E2EFDCEFE2E2E2EFEFEFEFE2EFE2E2E2EFDCEFE2E2E2EFEFEFE2E2E2EFEFE2E2EFEFEFE2E2EFEFEFEFE2E2EFE2EFEFE2E2
310
EFEFEFE2EFEFEFE2E2E2EFDCEFE2E2E2E2EAE2E2E2F5E2E2F5EF00E2F5E2E2E2E2E2EAE2E2E2E2E2E2EFEFEFE2E2E2DCEFEFE2E2EFEFE2E2E2E2EFEFEFEFE2EFE2E2E2E2EFEFE2E2E2EFEFE2E2E2E2EFEFE2E2EFEFEFE2E2E2DCEFEFE2E2EFEFE2E2E2E2EFEFEFE2EFEFEFE2E2E2E2EFEFE2E2E2E2EAE2E2E2F5E2E2F5EF00
310
E2F5E2E2E2E2E2EAE2E2E2E2E2E2E2EFEFEFEFE2E2EFEFE2E2EFE2E2E2EFEFEFEFE2E2E2EFEFEFE2E2E2EFE2E2E2EFE2E2E2EFEFEFE2E2E2E2EFEFEFEFE2E2EFEFE2E2EFEFE2E2EFEFEFEFE2E2E2E2EFEFEFE2E2E2EFE2E2E2E2EAE2E2E2F5E2E2F5EF00E2F5E2E2E2E2E2EAE2E2E2E2E2E2E2EFEFE2EFEFECECECE2E2ECEC
310
EFEFEFEFEFE2E2E2E2EFEFEFEFEFECECE2E2E2ECECEFEFEFEFEFE2E2E2E2EFEFEFEFEFECECECE2E2ECECEFEFEFEFEFEFE2E2E2E2EFEFEFEFEFECECE2E2E2E2EAE2E2E2F5E2E2F5EF00E2F5E2E2E2E2E2EAE2E2E2E2E2E2E2EFEFE2F5F5F5F5F5F5F5F5F5F5F5F5EFEFE2E2E2E2EFEFF5F5F5F5F5F5E2F5F5F5F5F5E2EFEFE2
310
E2E2E2EFEFEFF5F5F5F5F5F5F5F5F5F5F5F5EFEFEFE2E2E2E2EFEFF5F5F5F5F5F5E2E2E2EAE2E2E2F5E2E2F5EF00E2F5E2E2E2E2E2EAE2E2E2E2E2E2E2EFEFE2ECECECECECECECECECECECECEFEFEFE2E2E2EFEFECECECECECECE2ECECECECECE2EFEFE2E2E2E2EFEFEFECECECECECECECECECECECECEFEFEFE2E2E2E2EFEF
310
ECECECECECECE2E2E2EAE2E2E2F5E2E2F5EF00E2F5E2E2E2E2E2EAE2E2E2E2E2E2E2EFEFEFF5F5F5F5F5F5F5F5F5F5F5F5EFEFEFE2E2E2EFEFF5F5F5F5F5F5E2F5F5F5F5F5EFEFEFE2EFEFEFEFEFEFF5F5F5F5F5F5F5F5EFEFEFEFEFEFEFEFEFEFEFEFEFF5F5F5F5F5F5E2E2E2EAE2E2E2F5E2E2F5EF00E2F5E2E2E2E2E2EA
310
E2E2E2EFEFEFEFEFEFEFEFEFECECECE2E2ECECECEFEFEFF5F5F5F5F5EFEFEFEFECECECE2E2E2ECECECEFEFEFEFEFEFEFEFEFEFEFEFEFECECECE2E2EFEFEFEFEFEFEFEFEFEFEFEFEFEFF5F5F5F5ECE2E2E2E2EAE2E2E2F5E2E2F5EF00E2F5E2E2E2E2E2EAE2E2E2E2E2E2E2E2E2E2E2E2E2E2E2E2E2E2E2E2E2E2E2F5F5F5F5
310
F5E2E2E2E2E2E2E2E2E2E2F5F5F5F5F5F5E2E2E2E2E2F5F5F5F5F5F5F5E2E2E2E2E2E2E2E2EFEFE2E2E2E2EFEFE2F5F5F5F5E2E2E2E2E2EAE2E2E2F5E2E2F5EF00E2F5E2E2E2E2E2EAE2E2E2E2E2E2E2E2E2E2E2E2E2E2E2E2E2E2E2E2E2E2E2E2E2E2E2E2E2E2E2E2E2E2E2E2E2E2F5F5F5F5E2E2E2E2E2E2E2F5F5F5F5E2
310
E2E2E2E2E2E2E2E2E2E2EFEFE2E2E2E2E2EFE2E2E2E2E2E2E2E2E2E2EAE2E2E2F5E2E2F5EF00E2F5E2E2E2E2E2EAE2E2E2E2E2E2E2E2E2E2E2E2E2E2E2E2E2E2E2E2E2E2E2E2E2E2E2E2E2E2E2E2E2E2E2E2E2E2F5F5F5F5E2E2E2E2E2E2E2F5F5F5F5E2E2E2E2E2E2E2E2E2E2E2EFEFE2E2E2E2E2EFE2E2E2E2E2E2E2E2E2
310
E2EAE2E2E2F5E2E2F5EF00E2E2E2E2E2E2E2EAE2E2E2E2E2E2E2E2E2E2E2E2E2E2E2E2E2E2E2E2E2E2E2E2E2E2E2E2E2E2E2E2E2E2E2E2E2E2E2E2E2E2E2E2E2E2E2E2E2E2E2E2E2E2E2E2E2E2E2E2E2E2E2E2EFEFE2E2E2E2E2EFE2E2E2E2E2E2E2E2E2E2EAE2E2E2E2E2E2F5EF00E2E2E2E2E2E2E2EAE2E2E2E2E2E2E2E2
310
E2E2E2E2E2E2E2E2E2E2E2E2E2E2E2E2E2E2E2E2E2E2E2E2E2E2E2E2E2E2E2E2E2E2E2E2E2E2E2E2E2E2E2E2E2E2E2E2E2E2E2E2E2E2E2E2EFEFE2E2E2E2E2EFF5F5F5F5E2E2E2E2E2E2EAE2E2E2E2E2E2F5EF00E2E2E2E2E2E2E2EAE2E2E2E2E2E2E2E2E2E2E2E2E2E2E2E2E2E2E2E2E2E2E2E2E2E2E2E2E2E2E2E2E2E2E2
310
E2E2E2E2E2E2E2E2E2E2E2E2E2E2E2E2E2E2E2E2E2E2E2E2E2E2E2E2E2EFEFE2E2E2E2E2EFF5F5F5F5F5F5F5F5F5E2EAE2E2E2E2E2E2F5EF00E2E2E2E2E2E2E2EAE2E2E2E2E2E2E2E2E2E2E2E2E2E2E2E2E2E2E2E2E2E2E2E2E2E2E2E2E2E2E2E2E2E2E2E2E2E2E2E2E2E2E2E2E2E2E2E2E2E2E2E2E2E2E2E2E2E2E2E2E2E2
310
E2E2EFEFE2E2E2E2E2EFF5F5F5F5F5F5F5F5F5E2EAE2E2E2E2E2E2F5EF00E2E2E2E2E2E2E2EAE2E2E2E2E2E2E2E2E2E2E2E2E2E2EFE2E2E2E2E2E2E2E2E2E2E2E2E2E2E2E2E2E2E2E2E2E2E2E2E2E2E2E2E2E2E2E2E2E2E2E2E2E2E2E2E2E2E2E2E2E2E2E2E2EFEFE2E2E2E2E2EFF5F5F5F5E2E2E2E2E2E2EAE2E2E2E2E2E2
310
F5EF00E2E2E2E2E2E2E2EAE2E2E2E2E2E2E2E2E2E2E2E2E2E2EFE2E2E2E2E2E2E2E2E2E2E2E2E2E2E2E2E2E2E2E2E2E2E2E2E2E2E2E2E2E2E2E2E2E2E2E2E2E2E2E2E2E2E2E2E2E2E2E2E2EFEFE2E2E2E2E2EFF5F5F5F5E2E2E2E2E2E2EAE2E2E2E2E2E2F5EF00E2E2E2E2E2E2E2EAE2E2E2E2E2E2E2E2E2E2E2E2E2E2EFE2
310
E2E2E2E2E2E2E2E2E2E2E2E2E2E2E2E2E2E2E2E2E2E2E2E2E2E2E2E2E2E2E2E2E2E2E2E2E2E2E2E2E2E2E2E2E2E2E2E2EFEFE2E2E2E2E2EFE2E2E2E2E2E2E2E2E2E2EAE2E2E2E2E2E2F5EF00E2E2E2E2E2E2E2EAE2E2E2E2E2E2E2E2E2E2E2E2E2E2EFE2E2E2E2E2E2E2E2E2E2E2E2E2E2E2E2E2E2E2E2E2E2E2E2E2E2E2E2
310
E2E2E2E2E2E2E2E2E2E2E2E2E2E2E2E2E2E2E2E2E2EFEFE2E2E2E2E2EFE2E2E2E2E2E2E2E2E2E2EAE2E2E2E2E2E2F5EF00E2E2E2E2E2E2E2EAE2E2E2E2E2E2E2E2E2E2E2E2E2E2F5F5F5F5F5E2E2E2E2E2E2E2E2E2E2E2E2E2E2E2E2E2E2E2E2E2F5F5F5F5F5F5F5F5F5F5F5F5F5E2E2E2E2E2E2E2E2E2E2E2EFEFE2E2E2E2
310
E2EFE2E2E2E2E2E2E2E2E2E2EAE2E2E2E2E2E2F5EF00E2F5E2E2E2E2E2EAE2E2E2E2E2E2E2E2E2E2E2E2E2E2EFE2E2E2E2E2E2E2E2E2E2E2E2E2E2E2E2E2E2E2E2E2E2E2E2E2F5F5F5F5F5F5F5F5F5F5F5F5F5E2E2E2E2E2E2E2E2E2E2E2EFEFEFEFEFEFEFEFE2E2E2E2E2E2E2E2E2E2EAE2E2E2F5E2E2F5EF00E2F5E2E2E2
310
E2E2EAE2E2E2E2E2E2E2E2E2E2E2E2E2E2EFEFEFEFEFEFEFEFE2EFEFEFEFEFE2E2E2E2E2E2E2E2E2E2E2E2F5F5F5F5F5F5F5F5F5F5F5F5F5E2E2E2E2E2E2E2E2E2E2E2EFEFEFEFEFEFEFEFE2E2E2E2E2E2E2E2E2E2EAE2E2E2F5E2E2F5EF00E2F5E2E2E2E2E2EAE2E2E2E2E2E2E2E2E2E2E2E2E2EFEFEFEFEFEFEFEFEFEFEF
310
EFEFEFEFE2E2E2E2E2E2E2E2E2E2E2E2E2E2E2E2E2E2E2E2E2E2E2E2E2E2E2E2E2E2E2E2E2E2E2E2E2E2E2E2E2E2E2E2E2E2E2E2E2E2E2E2E2E2EAE2E2E2F5E2E2F5EF00E2F5E2E2E2E2E2EAE2E2E2E2E2E2E2E2F5F5F5F5E2EFE2E2E2E2E2E2E2E2EFEFE2E2E2E2E2E2E2E2E2E2E2E2E2E2E2E2E2E2E2E2E2E2E2E2E2E2E2
310
E2E2E2E2E2E2E2E2E2E2E2E2E2E2E2E2E2E2E2E2E2E2E2E2E2E2E2E2E2E2E2EAE2E2E2F5E2E2F5EF00E2F5E2E2E2E2E2EAE2E2E2E2E2E2E2E2F5F5F5F5E2EFEFEFEFE2E2E2E2E2EFEFE2E2E2E2E2E2E2E2E2E2E2E2E2E2E2E2E2E2E2E2E2E2E2E2E2E2E2E2E2E2E2E2E2E2E2E2E2E2E2E2E2E2E2E2E2E2E2E2E2E2E2E2E2E2
310
E2E2E2E2EAE2E2E2F5E2E2F5EF00E2F5E2E2E2E2E2EAE2E2E2E2E2E2E2E2E2E2E2E2E2EFEFEFEFE2E2E2E2E2EFEFE2E2E2E2E2E2E2E2E2E2E2E2E2E2E2E2E2E2E2E2E2E2E2E2E2E2E2E2E2E2E2E2E2E2E2E2E2E2E2E2E2E2E2E2E2E2E2E2E2E2E2E2E2E2E2E2E2E2EAE2E2E2F5E2E2F5EF00E2F5E2E2E2E2E2EAE2E2E2E2E2
310
E2E2E2E2E2E2E2E2EFEFEFEFEFEFEFEFEFEFEFE2E2E2E2E2E2E2E2E2E2E2E2E2E2E2E2E2E2E2E2E2E2E2E2E2E2E2E2E2E2E2E2E2E2E2E2E2E2E2E2E2E2E2E2E2E2E2E2E2E2E2E2E2E2E2E2E2E2EAE2E2E2F5E2E2F5EF00E2F5E2E2E2E2E2EAE2E2E2E2E2E2E2E2E2E2E2E2E2EFEFE2EFEFEFEFEFEFEFE2E2E2E2E2E2E2E2E2
310
E2E2E2E2E2E2E2E2E2E2E2E2E2E2E2E2E2E2E2E2E2E2E2E2E2E2E2E2E2E2E2E2E2E2E2E2E2E2E2E2E2E2E2E2E2E2E2E2E2E2EAE2E2E2F5E2E2F5EF00E2F5E2E2E2E2E2EAE2E2E2E2E2E2E2E2E2E2E2E2E2EFEFE2EFEFEFEFEFEFEFE2E2E2E2E2E2E2E2E2E2E2E2E2E2E2E2E2E2E2E2E2E2E2E2E2E2E2E2E2E2E2E2E2E2E2E2
310
E2E2E2E2E2E2E2E2E2E2E2E2E2E2E2E2E2E2E2E2E2E2E2EAE2E2E2F5E2E2F5EF00E2F5E2E2E2E2E2EAE2E2E2E2E2E2E2E2F5F5F5F5E2EFEFE2E2EFEFF5ECF5EFE2E2E2E2E2E2E2E2E2E2E2E2E2E2E2E2E2E2E2E2E2E2E2E2E2E2E2E2E2E2E2E2E2E2E2E2E2E2E2E2E2E2E2E2E2E2E2E2E2E2E2E2E2E2E2E2E2E2E2EAE2E2E2
310
F5E2E2F5EF00E2F5E2E2E2E2E2EAE2E2E2E2E2E2E2E2F5F5F5F5E2EFEFEFE2E2EFF5ECF5EFE2E2E2E2E2E2E2E2E2E2E2E2E2E2E2E2E2E2E2E2E2E2E2E2E2E2E2E2E2E2E2E2E2E2E2E2E2E2E2E2E2E2E2E2E2E2E2E2E2E2E2E2E2E2E2E2E2E2E2EAE2E2E2F5E2E2F5EF00E2F5E2E2E2E2E2EAE2E2E2E2E2E2E2E2E2E2E2E2E2
310
EFEFEFE2E2EFF5ECF5ECE2E2E2E2E2E2E2E2E2E2E2E2E2E2E2E2E2E2E2E2E2E2E2E2E2E2E2E2E2E2E2E2E2E2E2E2E2E2E2E2E2E2E2E2E2E2E2E2E2E2E2E2E2E2E2E2E2E2E2EAE2E2E2F5E2E2F5EF00E2F5E2E2E2E2E2EAE2E2E2E2E2E2E2E2E2E2E2E2E2EFE2E2EFEFECF5ECF5ECE2E2E2E2E2E2E2E2E2E2E2E2E2E2E2E2E2
310
E2E2E2E2E2E2E2E2E2E2E2E2E2E2E2E2E2E2E2E2E2E2E2E2E2E2E2E2E2E2E2E2E2E2E2E2E2E2E2E2E2E2EAE2E2E2F5E2E2F5EF00E2F5E2E2E2E2E2EAE2E2E2E2E2E2E2E2E2E2E2E2E2EFEFEFEFEFECF5ECF5ECE2E2E2E2E2E2E2E2E2E2E2E2E2E2E2E2E2E2E2E2E2E2E2E2E2E2E2E2E2E2E2E2E2E2E2E2E2E2E2E2E2E2E2E2
310
E2E2E2E2E2E2E2E2E2E2E2E2E2E2E2EAE2E2E2F5E2E2F5EF00E2F5E2E2E2E2E2EAE2E2E2E2E2E2E2E2E2E2E2E2E2E2E2E2E2E2E2F5ECF5E2E2E2E2E2E2E2E2E2E2E2E2E2E2E2E2E2E2E2E2E2E2E2E2E2E2E2E2E2E2E2E2E2E2E2E2E2E2E2E2E2E2E2E2E2E2E2E2E2E2E2E2E2E2E2E2E2E2E2E2EAE2E2E2F5E2E2F5EF00E2F5
310
E2E2E2E2E2EAE2E2E2E2E2E2E2E2E2E2E2E2E2E2E2E2E2E2E2E2E2E2E2E2E2E2E2E2E2E2E2E2E2E2E2E2E2E2E2E2E2E2E2E2E2E2E2E2E2E2E2E2E2E2E2E2E2E2E2E2E2E2E2E2E2E2E2E2E2E2E2E2E2E2E2E2E2E2E2E2E2E2EAE2E2E2F5E2E2F5EF00E2F5E2E2E2E2E2EAE2E2E2E2E2E2E2E2E2E2E2E2E2E2E2E2E2E2E2F5EC
310
F5E2E2E2E2E2E2E2E2E2E2E2E2E2E2E2E2E2E2E2E2E2E2E2E2E2E2E2E2E2E2E2E2E2E2E2E2E2E2E2E2E2E2E2E2E2E2E2E2E2E2E2E2E2E2E2E2E2E2E2E2EAE2E2E2F5E2E2F5EF00E2E2E2E2E2E2E2EAE2E2E2E2E2E2E2E2E2E2E2E2E2EFEFEFEFEFECF5ECF5ECE2E2E2E2E2E2E2E2E2E2E2E2E2E2E2E2E2E2E2E2E2E2E2E2E2
310
E2E2E2E2E2E2E2E2E2E2E2E2E2E2E2E2E2E2E2E2E2E2E2E2E2E2E2E2E2E2E2E2E2E2EAE2E2E2E2E2E2F5EF00E2E2E2E2E2E2E2EAE2E2E2E2E2E2E2E2E2E2E2E2E2EFE2DCEFEFECF5ECF5ECE2E2E2E2E2E2E2E2E2E2E2E2E2E2E2E2E2E2E2E2E2E2E2E2E2E2E2E2E2E2E2E2E2E2E2E2E2E2E2E2E2E2E2E2E2E2E2E2E2E2E2E2
310
E2E2E2E2E2E2E2EAE2E2E2E2E2E2F5EF00E2E2E2E2E2E2E2EAE2E2E2E2E2E2E2E2F5F5F5F5E2EFEFEFE2E2EFF5ECF5ECE2E2E2E2E2E2E2E2E2E2E2E2E2E2E2E2E2E2E2E2E2E2E2E2E2E2E2E2E2E2E2E2E2E2E2E2E2E2E2E2E2E2E2E2E2E2E2E2E2E2E2E2E2E2E2E2E2E2E2EAE2E2E2E2E2E2F5EF00E2E2E2E2E2E2E2EAE2E2
310
E2E2E2E2E2E2F5F5F5F5E2EFEFEFE2E2EFF5ECF5EFE2E2E2E2E2E2E2E2E2E2E2E2E2E2E2E2E2E2E2E2E2E2E2E2E2E2E2E2E2E2E2E2E2E2E2E2E2E2E2E2E2E2E2E2E2E2E2E2E2E2E2E2E2E2E2E2E2E2E2EAE2E2E2E2E2E2F5EF00E2E2E2E2E2E2E2EAE2E2E2E2E2E2E2E2E2E2E2E2E2EFEFE2E2EFEFF5ECF5EFE2E2E2E2E2E2
310
E2E2E2E2E2E2E2E2E2E2E2E2E2E2E2E2E2E2E2E2E2E2E2E2E2E2E2E2E2E2E2E2E2E2E2E2E2E2E2E2E2E2E2E2E2E2E2E2E2E2E2E2E2EAE2E2E2E2E2E2F5EF00E2E2E2E2E2E2E2EAE2E2E2E2E2E2E2E2E2E2E2E2E2EFEFE2EFEFEFEFEFEFEFE2E2E2E2E2E2E2E2E2E2E2E2E2E2E2E2E2E2E2E2E2E2E2E2E2E2E2E2E2E2E2E2E2
310
E2E2E2E2E2E2E2E2E2E2E2E2E2E2E2E2E2E2E2E2E2E2E2E2E2E2EAE2E2E2E2E2E2F5EF00E2E2E2E2E2E2E2EAE2E2E2E2E2E2E2E2E2E2E2E2E2EFEFEFEFEFEFEFEFEFEFE2E2E2E2E2E2E2E2E2E2E2E2E2E2E2E2E2E2E2E2E2E2E2E2E2E2E2E2E2E2E2E2E2E2E2E2E2E2E2E2E2E2E2E2E2E2E2E2E2E2E2E2E2E2E2E2E2E2E2EA
310
E2E2E2E2E2E2F5EF00E2E2E2E2E2E2E2EAE2E2E2E2E2E2E2E2E2E2E2E2E2EFEFEFEFEFEFEFEFEFEFF5F5F5F5F5F5F5F5F5F5F5F5F5E2E2E2E2E2E2E2E2E2E2E2E2E2E2E2E2E2E2E2E2E2E2E2E2E2E2E2E2E2E2E2E2E2E2E2E2E2E2E2E2E2E2E2E2E2E2EAE2E2E2E2E2E2F5EF00E2E2E2E2E2E2E2EAE2E2E2E2E2E2E2E2E2E2
310
E2E2E2EFEFEFEFE2E2E2E2E2EFF5F5F5F5F5F5F5F5F5F5F5F5F5E2E2E2E2E2E2E2E2E2E2E2E2E2E2E2E2E2E2E2E2E2E2E2E2E2E2E2E2E2E2E2E2E2E2E2E2E2E2E2E2E2E2E2E2E2E2EAE2E2E2E2E2E2F5EF00E2E2E2E2E2E2E2EAE2E2E2E2E2E2E2E2E2E2E2E2E2EFEFEFEFE2E2E2E2E2EFF5F5F5F5F5F5F5F5F5F5F5F5F5E2
310
E2E2E2E2E2E2E2E2E2E2E2E2E2E2E2E2E2E2E2E2E2E2E2E2E2E2E2E2E2E2E2E2E2E2E2E2E2E2E2E2E2E2E2E2E2EAE2E2E2E2E2E2F5EF00E2F5E2E2E2E2E2EAE2E2E2E2E2E2E2E2E2E2E2E2E2EFEFEFEFE2E2E2E2E2EFF5F5F5F5F5F5F5F5F5F5F5F5E2E2E2E2E2E2E2E2E2E2E2E2E2E2E2E2E2E2E2E2E2E2E2E2E2E2E2E2E2
310
E2E2E2E2E2E2E2E2E2E2E2E2E2E2E2E2E2E2EAE2E2E2F5E2E2F5EF00E2F5E2E2E2E2E2EAE2E2E2E2E2E2E2E2E2E2E2E2E2EFEFE2EFEFEFEFEFEFEFF5F5F5F5F5F5F5F5F5F5F5F5E2E2E2E2E2E2E2E2E2E2E2E2E2E2E2E2E2E2E2E2E2E2E2E2E2E2E2E2E2E2E2E2E2E2E2E2E2E2E2E2E2E2E2E2E2E2E2EAE2E2E2F5E2E2F5EF
310
00E2F5E2E2E2E2E2EAE2E2E2E2E2E2E2E2E2E2E2E2E2EFEFE2EFEFEFEFEFEFEFE2E2E2E2E2E2E2E2E2E2E2E2E2E2E2E2E2E2E2E2E2E2E2E2E2E2E2E2E2E2E2E2E2E2E2E2E2E2E2E2E2E2E2E2E2E2E2E2E2E2E2E2E2E2E2E2E2E2E2EAE2E2E2F5E2E2F5EF00E2F5E2E2E2E2E2EAE2E2E2E2E2E2E2E2E2E2E2E2E2EFEFE2EFEF
310
EFE2E2EFEFE2E2E2E2E2E2E2E2E2E2E2E2E2E2E2E2E2E2E2E2E2E2E2E2E2E2E2E2E2E2E2E2E2E2E2E2E2E2E2E2E2E2E2E2E2E2E2E2E2E2E2E2E2E2E2E2E2E2E2EAE2E2E2F5E2E2F5EF00E2F5E2E2E2E2E2EAE2E2E2E2E2E2E2E2F5F5F5F5E2EFEFE2E2EFEFF5ECF5EFE2E2E2E2E2E2E2E2E2E2E2E2E2E2E2E2E2E2E2E2E2E2
310
E2E2E2E2E2E2E2E2E2E2E2E2E2E2E2E2E2E2E2E2E2E2E2E2E2E2E2E2E2E2E2E2E2E2E2E2E2EAE2E2E2F5E2E2F5EF00E2F5E2E2E2E2E2EAE2E2E2E2E2E2E2E2E2E2E2E2E2EFEFEFE2E2EFF5ECF5ECE2E2E2E2E2E2E2E2E2E2E2E2E2E2E2E2E2E2E2E2E2E2E2E2E2E2E2E2E2E2E2E2E2E2E2E2E2E2E2E2E2E2E2E2E2E2E2E2E2
310
E2E2E2E2E2E2E2E2E2E2EAE2E2E2F5E2E2F5EF00E2F5E2E2E2E2E2EAE2E2E2E2E2E2E2E2E2E2E2E2E2EFE2EFEFE2ECF5ECF5ECE2E2E2E2E2E2E2E2E2E2E2E2E2E2E2E2E2E2E2E2E2E2E2E2E2E2E2E2E2E2E2E2E2E2E2E2E2E2E2E2E2E2E2E2E2E2E2E2E2E2E2E2E2E2E2E2E2E2E2EAE2E2E2F5E2E2F5EF00E2F5E2E2E2E2E2
310
EAE2E2E2E2E2E2E2E2E2E2E2E2E2EFEFEFEFEFECF5ECF5ECE2E2E2E2E2E2E2E2E2E2E2E2E2E2E2E2E2E2E2E2E2E2E2E2E2E2E2E2E2E2E2E2E2E2E2E2E2E2E2E2E2E2E2E2E2E2E2E2E2E2E2E2E2E2E2E2E2E2E2EAE2E2E2F5E2E2F5EF00E2F5E2E2E2E2E2EAE2E2E2E2E2E2E2E2E2E2E2E2E2E2E2E2E2E2E2F5ECF5E2E2F5F5
310
F5F5F5F5F5F5F5F5F5F5F5E2E2E2E2E2E2E2E2E2E2E2E2E2E2E2E2E2E2E2E2E2E2E2E2E2E2E2E2E2E2E2E2E2E2E2E2E2E2E2E2E2E2E2E2E2EAE2E2E2F5E2E2F5EF00E2F5E2E2E2E2E2EAE2E2E2E2E2E2E2E2E2E2E2E2E2E2E2E2E2E2E2E2E2E2E2E2F5F5F5F5F5F5F5F5F5F5F5E2F5E2E2E2E2E2E2E2E2E2E2E2E2E2E2E2E2
310
E2E2E2E2E2E2E2E2E2E2E2E2E2E2E2E2E2E2E2E2E2E2E2E2E2E2E2E2E2EAE2E2E2F5E2E2F5EF00E2F5E2E2E2E2E2EAE2E2E2E2E2E2E2E2E2E2E2E2E2E2E2E2E2E2E2F5ECF5E2E2F5F5F5F5F5F5F5F5F5F5F5F5F5E2E2E2E2E2E2F5F5E2E2E2E2E2E2E2E2E2E2E2E2E2E2E2E2E2E2E2E2E2E2E2E2E2E2E2E2E2E2E2E2E2E2E2
310
E2E2EAE2E2E2F5E2E2F5EF00E2F5E2E2E2E2E2EAE2E2E2E2E2E2E2E2E2E2E2E2E2EFEFEFEFEFECF5ECF5ECE2F5F5F5F5F5F5F5F5F5F5F5F5F5E2E2E2E2E2E2F5F5E2E2E2E2E2E2E2E2E2E2E2E2E2E2E2E2E2E2E2E2E2E2E2E2E2E2E2E2E2E2E2E2E2E2E2E2E2EAE2E2E2F5E2E2F5EF00E2F5E2E2E2E2E2EAE2E2E2E2E2E2E2
310
E2E2E2E2E2E2EFE2DCEFE2ECF5ECF5ECE2E2E2E2E2E2E2E2E2E2E2E2E2E2E2E2E2E2E2E2F5F5ECECECECE2E2E2E2E2E2E2E2E2E2E2E2E2E2E2E2E2E2E2E2E2E2E2E2E2E2E2E2E2E2E2E2E2EAE2E2E2F5E2E2F5EF00E2F5E2E2E2E2E2EAE2E2E2E2E2E2E2E2F5F5F5F5E2EFEFEFE2E2EFF5ECF5ECE2E2E2E2E2E2E2E2E2E2E2
310
E2E2E2E2E2E2E2E2E2E2E2E2E2E2ECE2E2E2E2E2E2E2E2E2E2E2E2E2E2E2E2E2E2E2E2E2E2E2E2E2E2E2E2E2E2E2E2E2EAE2E2E2F5E2E2F5EF00E2F5E2E2E2E2E2EAE2E2E2E2E2E2E2E2E2E2E2E2E2EFEFE2E2EFEFF5ECF5EFE2E2E2E2E2E2E2E2E2E2E2E2E2E2E2E2E2E2E2E2E2E2E2E2E2ECE2E2E2E2E2E2E2E2E2E2E2E2
310
E2E2E2E2E2E2E2E2E2E2E2E2E2E228E2E2E2E2E2E2EAE2E2E2F5E2E2F5EF00E2F5E2E2E2E2E2EAE2E2E2E2E2E2E2E2E2E2E2E2E2EFE2E2E2EFEFF5ECF5EFE2E2E2E2E2E2E2E2E2E2E2E2E2E2E2E2E2E2E2E2DCDCDCDCDCECDCDCDCDCDCDCDCDCDCDCDCDCDCECDCDCDCDCDCDCDCDCECDCDCDC2828E2E2E2E2E2EAE2E2E2F5E2
310
E2F5EF00E2F5E2E2E2E2E2EAE2E2E2E2E2E2E2E2E2E2E2E2E2EFEFE2EFEFEFEFEFEFEFE2E2E2E2E2E2E2E2E2E2E2E2E2E2E2E2E2E2E2E2DCDCDCDCDCECDCDCDCDCDCDCDCDCDCDCDCDCDCDCDCDCDCDCDCDCDCDCDCDCDCDCDC28E2E2E2E2E2EAE2E2E2F5E2E2F5EF00E2E2E2E2E2E2E2EAE2E2E2E2E2E2E2E2F5F5F5F5E2EFEF
310
EFEFEFEFEFEFEFEFE2E2E2E2E2E2E2E2E2E2E2E2E2E2E2E2E2E2E2E2DCE2E2E2E2ECE2E2E2DCDCE2E2E2E2E2E2E2E2ECE2E2E2E2E2E2E2E2ECE2E2E2E22828E2E2E2E2EAE2E2E2E2E2E2F5EF00E2E2E2E2E2E2E2EAE2E2E2E2E2E2E2E2F5F5F5F5E2EFEFEFEFE2E2EFEFEFEFE2E2E2E2E2E2E2E2E2E2E2E2E2E2E2E2E2E2E2
310
E2DCE2E2E2E2ECE2E2E2DCDCE2E2E2E2E2E2E2E2ECE2E2E2E2E2E2E2E2ECE2E2E2E2E228E2E2E2E2EAE2E2E2E2E2E2F5EF00E2E2E2E2E2E2E2EAE2E2E2E2E2E2E2E2E2E2E2E2E2EFEFEFEFE2E2E2E2E2EFE2E2E2E2E2E2E2E2E2E2E2E2E2E2E2E2E2E2E2E2DCE2E2E2E2ECE2E2E2DCDCE2E2E2E2E2E2E2E2ECE2E2E2E2E2E2
310
E2E2ECE2E2E2E2E228E2E2E2E2EAE2E2E2E2E2E2F5EF00E2E2E2E2E2E2E2EAE2E2E2E2E2E2E2E2E2E2E2E2E2EFE2E2E2E2E2E2E2E2EFE2E2E2E2E2E2E2E2E2E2E2E2E2E2E2E2E2E2E2E2DCE2E2E2E2E2E2E2E2DCDCE2E2E2E2E2E2E2E2ECE2E2E2E2E2E2E2E2ECE2E2E2E2E228E2E2E2E2EAE2E2E2E2E2E2F5EF00E2E2E2E2
310
E2E2E2EAE2E2E2E2E2E2E2E2E2E2E2E2E2EFE2E2E2E2E2E2E2E2EFE2E2E2E2E2E2E2E2E2E2E2E2E2E2E2E2E2E2E2E2DCE2E2E2E2E2E2E2E2DCDCE2E2E2E2E2E2E2E2ECE2E2E2E2E2E2E2E2ECE2E2E2E2E228E2E2E2E2EAE2E2E2E2E2E2F5EF00E2E2E2E2E2E2E2EAE2E2E2E2E2E2E2E2E2E2E2E2E2EFE2E2E2E2E2E2E2E2EF
310
E2E2E2E2E2E2E2E2E2E2E2E2E2E2E2E2E2E2E2E2DCE2E2E2E2E2E2E2E2DCDCE2E2E2E2E2E2E2E2ECE2E2E2E2E2E2E2E2ECE2E2E2E2E228E2E2E2E2EAE2E2E2E2E2E2F5EF00E2E2E2E2E2E2E2EAE2E2E2E2E2E2E2E2E2E2E2E2E2E2E2E2E2E2E2E2E2E2E2E2E2E2E2E2E2E2E2E2E2E2E2E2E2E2E2E2E2E2E2DCE2E2E2E2ECE2
310
E2E2DCDCE2E2E2E2E2E2E2E2ECE2E2E2E2E2E2E2E2ECE2E2E2E2E228E2E2E2E2EAE2E2E2E2E2E2F5EF00E2E2E2E2E2E2E2EAE2E2E2E2E2E2E2E2E2E2E2E2E2E2E2E2E2E2E2E2E2E2E2E2E2E2E2E2E2E2E2E2E2E2E2E2E2E2E2F5F5E2E2DCE2E2E2E2ECE2E2E2DCDCE2E2E2E2E2E2E2E2ECE2E2E2E2E2E2E2E2ECE2E2E2E2E2
310
28E2F5F5E2EAE2E2E2E2E2E2F5EF00E2E2E2E2E2E2E2EAE2E2E2E2E2E2E2E2E2E2E2E2E2E2E2E2E2E2E2E2E2E2E2E2E2E2E2E2E2E2E2E2E2E2E2E2E2E2E2F5F5E2E2DCDCDCDCDCECDCDCDCDCDCDCDCDCDCDCDCDCDCDCDCDCDCDCDCDCDCDCDCDCDCDCDCDC28E2F5F5E2EAE2E2E2E2E2E2F5EF00E2F5E2E2E2E2E2EAE2E2E2E2
310
E2E2E2E2E2E2E2E2E2E2E2E2E2E2E2E2E2E2E2E2E2E2E2E2E2E2E2E2E2E2E2E2E2E2E2E2ECE2E2DCE2E2E2E2ECE2E2E2DCDCE2E2E2E2E2E2E2E2ECE2E2E2E2E2E2E2E2ECE2E2E2E2E228E2ECE2E2EAE2E2E2F5E2E2F5EF00E2F5E2E2E2E2E2EAE2E2E2E2E2E2E2E2E2E2E2E2E2E2E2E2E2E2E2E2E2E2E2E2E2E2E2E2E2E2E2
310
E2E2E2E2E2E2E2E2ECECE2E2DCE2E2E2E2ECE2E2E2DCDCE2E2E2E2E2E2E2E2ECE2E2E2E2E2E2E2E2ECE2E2E2E2E228E2ECE2E2EAE2E2E2F5E2E2F5EF00E2F5E2E2E2E2E2EAE2E2E2E2E2E2E2E2E2E2E2E2E2E2E2E2E2E2E2E2E2E2E2E2E2E2E2E2E2E2E2E2E2E2E2E2E2E2E2E2ECE2E2DCE2E2E2E2E2E2E2E2DCDCE2E2E2E2
310
E2E2E2E2ECE2E2E2E2E2E2E2E2ECE2E2E2E228E2E2ECE2E2EAE2E2E2F5E2E2F5EF00E2F5E2E2E2E2E2EAE2E2E2E2E2E2E2E2E2E2E2E2E2E2E2E2E2E2E2E2E2E2E2E2E2E2E2E2E2E2E2E2E2E2E2E2E2E2E2E2ECE2E2DCE2E2E2E2E2E2E2E2DCDCE2E2E2E2E2E2E2E2ECE2E2E2E2E2E2E2E2ECE2E2E2E228E2E2ECE2E2EAE2E2
310
E2F5E2E2F5EF00E2F5E2E2E2E2E2EAE2E2E2E2E2E2E2E2E2E2E2E2E2E2E2E2E2E2E2E2E2E2E2E2E2E2E2E2E2E2E2E2E2E2E2E2E2E2E2E2ECECECECECECECECE2E2ECECECECECECE2E2E2E2ECECECECECE2E2E2ECECECECECECECECECECECECE2E2EAE2E2E2F5E2E2F5EF00E2F5E2E2E2E2E2EAE2E2E2E2E2E2E2E2E2E2E2E2
310
E2E2E2E2E2E2E2E2E2E2E2E2E2E2E2E2E2E2E2E2E2E2E2E2E2E2E2E2E2E2E2DCE2E2E2E2ECE2E2E2DCDCE2E2E2E2E2E2E2E2ECE2E2E2E2E2E2E2E2ECE2E2E228E2E2E2E2E2E2EAE2E2E2F5E2E2F5EF00E2F5E2E2E2E2E2EAE2E2E2E2E2E2E2E2E2E2E2E2E2E2E2E2E2E2E2E2E2E2E2E2E2E2E2E2E2E2E2E2E2E2E2E2E2E2E2
310
E2E2E2E2DCE2E2E2E2ECE2E2E2DCDCE2E2E2E2E2E2E2E2ECE2E2E2E2E2E2E2E2ECE2E2E228E2E2E2E2E2E2EAE2E2E2F5E2E2F5EF00E2F5E2E2E2E2E2EAE2E2E2E2E2E2E2E2E2E2E2E2E2E2E2E2E2E2E2E2E2E2E2E2E2E2E2E2E2E2E2E2E2E2E2E2E2E2E2E2E2E2E2DCE2E2E2E2ECE2E2E2DCDCE2E2E2E2E2E2E2E2ECE2E2E2
310
E2E2E2E2E2ECE2E2E228E2E2E2E2E2E2EAE2E2E2F5E2E2F5EF00E2F5E2E2E2E2E2EAE2E2E2E2E2E2E2E2E2E2E2E2E2E2E2E2E2E2E2E2E2E2E2E2E2E2E2E2E2E2E2E2E2E2E2E2E2E2E2E2E2E2E2DCDCDCDCDCECDCDCDCDCDCDCDCDCDCDCDCDCDCDCDCDCDCDCDCDCDCDCDCDCDCDC28E2E2E2E2E2E2EAE2E2E2F5E2E2F5EF00E2
310
F5E2E2E2E2E2EAE2E2E2E2E2E2E2E2E2E2E2E2E2E2E2E2E2E2E2E2E2E2E2E2E2E2E2E2E2E2E2E2E2E2E2E2E2E2E2E2E2E2E2DCDCDCDCDCECDCDCDCDCDCDCDCDCDCDCDCDCDCDCDCDCDCDCDCDCDCDCDCDCDCDC28E2E2E2E2E2E2EAE2E2E2F5E2E2F5EF00E2F5E2E2E2E2E2EAE2E2E2E2E2E2E2E2E2E2E2E2E2E2E2E2E2E2E2E2
310
E2E2E2E2E2E2E2E2E2E2E2E2E2E2E2E2E2E2E2E2E2E2E2F5F5E2E2E2ECE2E2E2E2E2E2E2E2E2E2E2E2E2E2E2E2E2E2E2E2E2E2E2E2E2E22828E2E2E2E2E2EAE2E2E2F5E2E2F5EF00E2F5E2E2E2E2E2EAE2E2E2E2E2E2E2E2E2E2E2E2E2E2E2E2E2E2E2E2E2E2E2E2E2E2E2E2E2E2E2E2E2E2E2E2E2E2E2E2E2E2E2F5F5E2E2
310
E2ECE2E2E2E2E2E2E2E2E2E2E2E2E2E2E2E2E2E2E2E2E2E2E2E2E2E2E228E2E2E2E2E2EAE2E2E2F5E2E2F5EF00E2F5E2E2E2E2E2EAE2E2E2E2E2E2E2E2E2E2E2E2E2E2E2E2E2E2E2E2E2E2E2E2E2E2E2E2E2E2E2E2E2E2E2E2E2E2E2E2E2E2E2F5F5ECECECECE2E2E2E2E2E2E2E2E2E2E2E2E2E2E2E2E2E2E2E2E2E2E2E2E2
310
E2E2E2E2E2E2E2E2EAE2E2E2F5E2E2F5EF00E2F5E2E2E2E2E2EAE2E2E2E2E2E2E2E2E2E2E2E2E2E2E2E2E2E2E2E2E2E2E2E2E2E2E2E2E2E2E2E2E2E2E2E2E2E2E2E2E2E2E2E2E2E2E2E2E2E2E2E2E2E2E2E2E2E2E2E2E2E2E2E2E2E2E2E2E2E2E2E2E2E2E2E2E2E2E2E2E2E2EAE2E2E2F5E2E2F5EF00E2F5E2E2E2E2E2EAE2
310
E2E2E2E2E2E2E2E2E2E2E2E2E2E2E2E2E2E2E2E2E2E2E2E2E2E2E2E2E2E2E2E2E2E2E2E2E2E2E2E2E2E2E2E2E2E2E2E2E2E2E2E2E2E2E2E2E2E2E2E2E2E2E2E2E2E2E2E2E2E2E2E2E2E2E2E2E2E2E2E2E2EAE2E2E2F5E2E2F5EF00E2F5E2E2E2E2E2EAE2E2E2E2E2E2E2E2E2E2E2E2E2E2E2E2E2E2E2E2E2E2E2E2E2E2E2E2
310
E2E2E2E2E2E2E2E2E2E2E2E2E2E2E2E2E2E2E2E2E2E2E2E2E2E2E2E2E2E2E2E2E2E2E2E2E2E2E2E2E2E2E2E2E2E2E2E2E2E2E2E2E2E2EAE2E2E2F5E2E2F5EF00E2F5E2E2E2E2E2EAE2E2E2E2E2E2E2E2E2E2E2E2E2E2E2E2E2E2E2E2E2E2E2E2E2E2E2E2E2E2E2E2E2E2E2E2E2E2E2E2E2E2E2E2E2E2E2E2E2E2E2E2E2E2E2
310
E2E2E2E2E2E2E2E2E2E2E2E2E2E2E2E2E2E2E2E2E2E2E2E2E2E2E2EAE2E2E2F5E2E2F5EF00E2E2E2E2E2E2E2EAE2E2E2E2E2E2E2E2E2E2E2E2E2E2E2E2E2E2E2E2E2E2E2E2E2E2E2E2E2E2E2E2E2E2E2E2E2E2E2E2E2E2E2E2E2E2E2E2E2E2E2E2E2E2E2E2E2E2E2E2E2E2E2E2E2E2E2E2E2E2E2E2E2E2E2E2E2E2E2E2E2E2
310
EAE2E2E2E2E2E2F5EF00E2E2E2E2E2E2E2EAE2E2E2E2E2E2E2E2E2E2E2E2E2E2E2E2E2E2E2E2E2E2E2E2E2E2E2E2E2E2E2E2E2E2E2E2E2E2E2E2E2E2E2E2E2E2E2E2E2E2E2E2E2E2E2E2E2E2E2E2E2E2E2E2E2E2E2E2E2E2E2E2E2E2E2E2E2E2E2E2E2E2EAE2E2E2E2E2E2F5EF00E2E2E2E2E2E2E2EAEAEAEAEAEAEAEAEAEA
310
EAEAEAEAEAEAEAEAEAEAEAEAEAEAEAEAEAEAEAEAEAEAEAEAEAEAEAEAEAEAEAEAEAEAEAEAEAEAEAEAEAEAEAEAEAEAEAEAEAEAEAEAEAEAEAEAEAEAEAEAEAEAEAEAEAEAEAEAEAEAEAEAEAEAE2E2E2E2E2E2F5EF00E2E2E2E2E2E2E2E2E2E2E2E2E2F5F5F5F5F5F5F5F5F5F5F5F5F5F5F5F5F5F5F5F5F5F5F5F5F5F5F5F5F5F5F5
310
F5F5F5F5F5F5F5F5F5F5F5F5F5F5F5F5F5F5F5F5F5F5F5F5F5F5F5F5F5F5F5F5F5F5F5F5F5F5F5F5F5F5F5F5F5F5F5E2E2E2E2E2E2F5EF00E2E2E2E2E2E2E2E2E2E2E2E2E2F5E2E2E2E2E2E2E2E2E2E2E2E2E2E2E2E2E2E2E2E2E2E2E2E2E2E2E2E2E2E2E2E2E2E2E2E2E2E2E2E2E2E2E2E2E2E2E2E2E2E2E2E2E2E2F5E2F5
310
F5F5F5F5F5F5E2E2F5E2E2E2F5F5E2E2E2E2E2F5E2E2E2E2E2E2F5EF00E2E2E2E2E2E2E2E2E2E2E2E2ECECECE2E2E2E2E2E2F5F5F5F5F5F5F5F5F5F5F5F5F5F5F5F5E2E2E2E2E2E2E2E2E2E2E2E2E2E2E2E2E2E2E2E2E2E2E2E2E2E2E2E2E2E2E2F5E2F5F5F5F5F5F5F5E2E2F5E2E2E2F5F5E2E2E2E2E2F5E2E2E2E2E2E2F5
310
EF00E2E2E2E2E2E2E2E2E2E2E2E2ECECECECE2E2E2E2E2F5F5F5F5F5F5F5F5F5F5F5F5F5F5F5F5E2E2E2E2E2E2E2E2E2E2E2E2E2E2E2E2E2E2E2E2E2E2E2E2E2E2E2E2E2E2E2F5E2E2E2E2E2E2E2E2E2E2F5E2E2E2E2E2E2E2E2E2E2F5E2E2E2E2E2E2F5EF00E2E2E2E2E2E2E2E2E2E2E2ECECECECECE2E2E2E2E2F5F5F5F5
310
F5F5F5F5F5F5F5F5F5F5F5F5F5E2E2E2E2E2E2E2E2E2E2E2E2E2E2E2E2E2E2E2E2E2E2E2E2E2E2E2E2E2E2F5E2E2F5F5F5F5F5E2E2E2F5E2E2F5F5F5F5F5E2E2E2F5E2E2E2E2E2E2F5EF00E2E2E2E2E2E2E2E2E2E2E2ECECECECECECE2E2E2E2F5F5F5F5F5F5F5F5F5F5F5F5F5F5F5F5F5E2E2E2E2E2E2E2E2E2E2E2E2E2E2
310
E2E2E2E2E2E2E2E2E2E2E2E2E2E2E2E2F5E2E2E2E2E2E2E2E2E2E2F5E2E2E2E2E2E2E2E2E2E2F5E2E2E2E2E2E2F5EF00E2E2E2E2E2E2E2E2E2E2ECECECECECECECE2E2E2E2F5F5F5F5F5F5F5F5F5F5F5F5F5F5F5F5F5E2E2E2E2E2E2E2E2E2E2E2E2E2E2E2E2E2E2E2E2E2E2E2E2E2E2E2E2E2E2F5E2E2E2E2E2E2E2E2E2E2
310
F5E2E2E2E2E2E2E2E2E2E2F5E2E2E2E2E2E2F5EF00E2F5E2E2E2E2E2E2E2E2ECECECECECECECECE2E2E2F5F5F5F5F5F5F5F5F5F5F5F5F5F5F5F5F5F5F5F5F5F5F5F5F5F5E2E2E2E2E2E2E2E2E2E2E2E2E2E2E2E2E2E2E2E2E2F5F5F5F5F5F5F5F5F5F5F5F5F5F5F5F5F5F5F5F5F5F5F5E2E2E2F5E2E2F5EF00E2F5E2E2E2E2
310
E2E2E2ECECECECECECECECECE2E2E2F5F5F5F5F5F5F5F5F5F5F5F5F5F5F5F5F5F5F5F5F5F5F5F5F5F5E2E2E2E2E2E2E2E2E2E2E2E2E2E2E2E2E2E2E2E2E2F5E2E2E2E2E2E2E2E2E2E2E2E2E2E2E2E2E2E2E2E2E2F5E2E2E2F5E2E2F5EF00E2F5E2E2E2E2E2E2ECECECECECECECECECECECE2E2F5F5F5F5F5F5F5F5F5F5F5F5
310
F5F5F5F5F5F5F5F5F5F5F5F5F5F5E2E2E2E2E2E2E2E2E2E2E2E2E2E2E2E2E2E2E2E2E2F5E2F5F5F5F5F5F5F5F5E2F5F5F5F5F5F5F5E2E2E2E2F5E2E2E2F5E2E2F5EF00E2F5E2E2E2E2E2E2ECECECECECECECECECECECE2E2F5F5F5F5F5F5F5F5F5F5F5F5F5F5F5F5F5F5F5F5F5F5F5F5F5F5E2E2E2E2E2E2E2E2E2E2E2E2E2
310
E2E2E2E2E2E2E2E2F5E2F5F5F5F5F5F5F5F5E2F5F5F5F5F5F5F5E2E2E2E2F5E2E2E2F5E2E2F5EF00E2F5E2E2E2E2E2ECECECECECECECECECECECECECE2F5F5F5F5F5F5F5F5F5F5F5F5F5F5F5F5F5F5F5F5F5F5F5F5F5F5E2E2E2E2E2E2E2E2E2E2E2E2E2E2E2E2E2E2E2E2E2F5E2E2E2E2E2E2E2E2E2E2E2E2E2E2E2E2E2E2
310
E2E2E2F5E2E2E2F5E2E2F5EF00E2F5E2E2E2E2E2ECECECECECECF5ECECECECECECE2E2E2E2E2E2E2E2E2E2E2E2E2E2E2E2E2E2E2E2E2E2E2E2E2E2E2E2E2E2E2E2E2E2E2E2E2E2E2E2E2E2E2E2E2E2E2E2F5E2E2E2E2E2E2E2E2E2E2E2E2E2E2E2E2E2E2E2E2E2F5E2E2E2F5E2E2F5EF00E2F5E2E2E2E2E2E2E2E2E2E2E2F5
310
F5F5F5F5F5F5F5F5F5F5F5F5F5F5F5F5F5F5F5F5F5F5F5F5F5F5F5F5F5F5F5F5F5F5F5F5F5F5F5F5F5F5F5F5F5F5F5F5F5F5F5F5F5F5F5F5F5F5F5F5F5F5F5F5F5F5F5F5F5F5F5F5F5F5F5F5F5E2E2E2F5E2E2F5EF00E2F5E2E2E2E2E2E2E2E2E2E2E2E2E2E2E2E2E2E2E2E2E2E2E2E2E2E2E2E2E2E2E2E2E2E2E2E2E2E2E2
310
E2E2E2E2E2E2E2E2E2E2E2E2E2E2E2E2E2E2E2E2E2E2E2E2E2E2E2E2E2E2E2E2E2E2E2E2E2E2E2E2E2E2E2E2E2E2E2E2E2E2E2E2E2F5E2E2F5EF00E2F5F5F5F5F5F5F5F5E2E2E2E2E2E2E2E2F5F5F5F5F5F5F5F5F5F5F5F5F5F5F5E2E2E2E2E2E2E2E2E2F5F5F5F5F5F5F5F5F5F5F5F5F5F5E2E2E2E2E2E2E2E2E2F5F5F5F5
310
F5F5F5F5F5F5F5F5F5F5F5E2E2E2E2E2E2E2E2F5F5F5F5F5F5F5F5E2E2F5EF00E2E2E2E2E2E2E2E2E2E2E2E2E2E2E2E2E2E2E2E2E2E2E2E2E2E2E2E2E2E2E2E2E2E2E2E2E2E2E2E2E2E2E2E2E2E2E2E2E2E2E2E2E2E2E2E2E2E2E2E2E2E2E2E2E2E2E2E2E2E2E2E2E2E2E2E2E2E2E2E2E2E2E2E2E2E2E2E2E2E2E2E2E2E2E2
310
E2E2F5EF00E2E2E2E2E2E2E2E2E2E2E2E2E2E2E2E2E2E2E2E2E2E2E2E2E2E2E2E2E2E2E2E2E2E2E2E2E2E2E2E2E2E2E2E2E2E2E2E2E2E2E2E2E2E2E2E2E2E2E2E2E2E2E2E2E2E2E2E2E2E2E2E2E2E2E2E2E2E2E2E2E2E2E2E2E2E2E2E2E2E2E2E2E2E2E2E2E2F5EF00F5F5F5F5F5F5F5F5F5F5F5F5F5F5F5F5F5F5F5F5F5F5
310
F5F5F5F5F5F5F5F5F5F5F5F5F5F5F5F5F5F5F5F5F5F5F5F5F5F5F5F5F5F5F5F5F5F5F5F5F5F5F5F5F5F5F5F5F5F5F5F5F5F5F5F5F5F5F5F5F5F5F5F5F5F5F5F5F5F5F5F5F5F5F5F5F5F5F5F5EF00
  0
XRECORD
  5
598B
102
{ACAD_REACTORS
330
53F7
102
}
330
53F7
100
AcDbXrecord
280
     1
102
MATERIAL
148
0.0
149
0.0
149
0.0
 93
        0
 94
      127
282
     0
 72
     0
 77
     0
171
     0
175
     0
179
     0
273
     0
  0
XRECORD
  5
53F9
102
{ACAD_REACTORS
330
53F7
102
}
330
53F7
100
AcDbXrecord
280
     1
270
     1
271
     1
  0
XRECORD
  5
53F8
102
{ACAD_REACTORS
330
53F7
102
}
330
53F7
100
AcDbXrecord
280
     1
270
     1
271
     1
  0
XRECORD
  5
53FC
102
{ACAD_REACTORS
330
53F7
102
}
330
53F7
100
AcDbXrecord
280
     1
270
     1
271
     1
  0
XRECORD
  5
53FB
102
{ACAD_REACTORS
330
53F7
102
}
330
53F7
100
AcDbXrecord
280
     1
270
     1
271
     1
  0
XRECORD
  5
53FD
102
{ACAD_REACTORS
330
53F7
102
}
330
53F7
100
AcDbXrecord
280
     1
270
     1
271
     1
  0
XRECORD
  5
53FA
102
{ACAD_REACTORS
330
53F7
102
}
330
53F7
100
AcDbXrecord
280
     1
270
     1
271
     1
  0
XRECORD
  5
598A
102
{ACAD_REACTORS
330
53EF
102
}
330
53EF
100
AcDbXrecord
280
     1
102
MATERIAL
148
0.0
149
0.0
149
0.0
 93
        0
 94
      127
282
     0
 72
     0
 77
     0
171
     0
175
     0
179
     0
273
     0
  0
XRECORD
  5
53F1
102
{ACAD_REACTORS
330
53EF
102
}
330
53EF
100
AcDbXrecord
280
     1
270
     1
271
     1
  0
XRECORD
  5
53F0
102
{ACAD_REACTORS
330
53EF
102
}
330
53EF
100
AcDbXrecord
280
     1
270
     1
271
     1
  0
XRECORD
  5
53F4
102
{ACAD_REACTORS
330
53EF
102
}
330
53EF
100
AcDbXrecord
280
     1
270
     1
271
     1
  0
XRECORD
  5
53F3
102
{ACAD_REACTORS
330
53EF
102
}
330
53EF
100
AcDbXrecord
280
     1
270
     1
271
     1
  0
XRECORD
  5
53F5
102
{ACAD_REACTORS
330
53EF
102
}
330
53EF
100
AcDbXrecord
280
     1
270
     1
271
     1
  0
XRECORD
  5
53F2
102
{ACAD_REACTORS
330
53EF
102
}
330
53EF
100
AcDbXrecord
280
     1
270
     1
271
     1
  0
XRECORD
  5
598C
102
{ACAD_REACTORS
330
53FF
102
}
330
53FF
100
AcDbXrecord
280
     1
102
MATERIAL
148
0.0
149
0.0
149
0.0
 93
        0
 94
      127
282
     0
 72
     0
 77
     0
171
     0
175
     0
179
     0
273
     0
  0
XRECORD
  5
5401
102
{ACAD_REACTORS
330
53FF
102
}
330
53FF
100
AcDbXrecord
280
     1
270
     1
271
     1
  0
XRECORD
  5
5400
102
{ACAD_REACTORS
330
53FF
102
}
330
53FF
100
AcDbXrecord
280
     1
270
     1
271
     1
  0
XRECORD
  5
5404
102
{ACAD_REACTORS
330
53FF
102
}
330
53FF
100
AcDbXrecord
280
     1
270
     1
271
     1
  0
XRECORD
  5
5403
102
{ACAD_REACTORS
330
53FF
102
}
330
53FF
100
AcDbXrecord
280
     1
270
     1
271
     1
  0
XRECORD
  5
5405
102
{ACAD_REACTORS
330
53FF
102
}
330
53FF
100
AcDbXrecord
280
     1
270
     1
271
     1
  0
XRECORD
  5
5402
102
{ACAD_REACTORS
330
53FF
102
}
330
53FF
100
AcDbXrecord
280
     1
270
     1
271
     1
  0
XRECORD
  5
5E1C
102
{ACAD_REACTORS
330
5E1B
102
}
330
5E1B
100
AcDbXrecord
280
     1
102
SHADEPLOT
 70
     0
102
SHADEPLOTRESLEVEL
 70
     2
102
SHADEPLOTCUSTOMDPI
 70
   300
  0
XRECORD
  5
5E1E
102
{ACAD_REACTORS
330
5E1D
102
}
330
5E1D
100
AcDbXrecord
280
     1
102
SHADEPLOT
 70
     0
102
SHADEPLOTRESLEVEL
 70
     2
102
SHADEPLOTCUSTOMDPI
 70
   300
  0
ACAD_PROXY_OBJECT
  5
596E
102
{ACAD_REACTORS
330
54E2
102
}
330
54E2
100
AcDbProxyObject
 90
      499
 91
      514
 95
   983063
 70
     0
 93
     5304
310
40D054060020000020000003200101A000080002A5058000000C10000000000000006101010000000000003E0FC000000000000F83F0000000000003E0FC000000000000F83F000000000000049000000000000001240419019018000000C1003FBFFFFFE0000000000003C8FD029018000000C1003FBFFFFFE00000000000
310
03C8FD049018000000C1003FBFFFFFE0000000000003C8FD089018000000C1003FBFFFFFE0000000000003C8FD109018000000C1003FBFFFFFE0000000000003C8FD209018000000C1003FBFFFFFE0000000000003C8FD01405075F5449544C450041501A8000000C800406800020000A94160000003040000000000000012
310
40404000000000000F83F0000000000003E0FC000000000000F83F0000000000003E0FC0000000000001240000000000000049010640640600000030400FEFFFFFF8000000000000F23F40A40600000030400FEFFFFFF8000000000000F23F41240600000030400FEFFFFFF8000000000000F23F42240600000030400FEFFF
310
FFF8000000000000F23F44240600000030400FEFFFFFF8000000000000F23F48240600000030400FEFFFFFF8000000000000F23F409014217D2115051115480105406A0000003200101A000080002A5028000000C10000000000000004901010000000000003E0FC000000000000F83F0000000000003E0FC000000000000F
310
83F000000000000049000000000000001240419019018000000C1003FBFFFFFE0000000000003C8FD029018000000C1003FBFFFFFE0000000000003C8FD049018000000C1003FBFFFFFE0000000000003C8FD089018000000C1003FBFFFFFE0000000000003C8FD109018000000C1003FBFFFFFE0000000000003C8FD20901
310
8000000C1003FBFFFFFE0000000000003C8FD03409065F444154410000
340
11
340
0
340
0
340
0
340
0
340
0
340
0
340
11
340
0
340
0
340
0
340
0
340
0
340
0
340
11
340
0
340
0
340
0
340
0
340
0
340
0
 94
        0
1001
ACAD
1000
AcRTDxfName
1000
CELLSTYLEMAP
1000
AcRTDxfName
1000
CELLSTYLEMAP
1000
AcRTDxfName
1000
CELLSTYLEMAP
  0
XRECORD
  5
598D
102
{ACAD_REACTORS
330
54E2
102
}
330
54E2
100
AcDbXrecord
280
     1
102
ACAD_ROUNDTRIP_PRE2007_TABLESTYLE
 90
      512
 91
        0
  1

 92
      512
 93
        0
  2

 94
      512
 95
        0
  3

  0
ENDSEC
  0
EOF
