  0
SECTION
  2
HEADER
  9
$ACADVER
  1
AC1015
  9
$ACADMAINTVER
 70
    20
  9
$DWGCODEPAGE
  3
ANSI_1252
  9
$INSBASE
 10
0.0
 20
0.0
 30
0.0
  9
$EXTMIN
 10
-0.0000008078504834
 20
0.0000001108869583
 30
0.0
  9
$EXTMAX
 10
353.9999991921495
 20
482.0000001108869
 30
0.0
  9
$LIMMIN
 10
0.0
 20
0.0
  9
$LIMMAX
 10
353.9999991921495
 20
482.0000001108869
  9
$ORTHOMODE
 70
     0
  9
$REGENMODE
 70
     1
  9
$FILLMODE
 70
     1
  9
$QTEXTMODE
 70
     0
  9
$MIRRTEXT
 70
     0
  9
$LTSCALE
 40
5.0
  9
$ATTMODE
 70
     1
  9
$TEXTSIZE
 40
5.0
  9
$TRACEWID
 40
1.0
  9
$TEXTSTYLE
  7
Arial-Bold
  9
$CLAYER
  8
APL Border
  9
$CELTYPE
  6
ByLayer
  9
$CECOLOR
 62
   256
  9
$CELTSCALE
 40
1.0
  9
$DISPSILH
 70
     0
  9
$DIMSCALE
 40
1.0
  9
$DIMASZ
 40
4.0
  9
$DIMEXO
 40
0.625
  9
$DIMDLI
 40
3.75
  9
$DIMRND
 40
0.0
  9
$DIMDLE
 40
0.0
  9
$DIMEXE
 40
1.25
  9
$DIMTP
 40
0.0
  9
$DIMTM
 40
0.0
  9
$DIMTXT
 40
2.5
  9
$DIMCEN
 40
2.5
  9
$DIMTSZ
 40
0.0
  9
$DIMTOL
 70
     0
  9
$DIMLIM
 70
     0
  9
$DIMTIH
 70
     0
  9
$DIMTOH
 70
     0
  9
$DIMSE1
 70
     0
  9
$DIMSE2
 70
     0
  9
$DIMTAD
 70
     1
  9
$DIMZIN
 70
     8
  9
$DIMBLK
  1

  9
$DIMASO
 70
     1
  9
$DIMSHO
 70
     1
  9
$DIMPOST
  1

  9
$DIMAPOST
  1

  9
$DIMALT
 70
     0
  9
$DIMALTD
 70
     3
  9
$DIMALTF
 40
0.03937007874016
  9
$DIMLFAC
 40
1.0
  9
$DIMTOFL
 70
     1
  9
$DIMTVP
 40
0.0
  9
$DIMTIX
 70
     0
  9
$DIMSOXD
 70
     0
  9
$DIMSAH
 70
     0
  9
$DIMBLK1
  1

  9
$DIMBLK2
  1

  9
$DIMSTYLE
  2
ISO-25
  9
$DIMCLRD
 70
     0
  9
$DIMCLRE
 70
     0
  9
$DIMCLRT
 70
     0
  9
$DIMTFAC
 40
1.0
  9
$DIMGAP
 40
0.625
  9
$DIMJUST
 70
     0
  9
$DIMSD1
 70
     0
  9
$DIMSD2
 70
     0
  9
$DIMTOLJ
 70
     0
  9
$DIMTZIN
 70
     8
  9
$DIMALTZ
 70
     0
  9
$DIMALTTZ
 70
     0
  9
$DIMUPT
 70
     0
  9
$DIMDEC
 70
     2
  9
$DIMTDEC
 70
     2
  9
$DIMALTU
 70
     2
  9
$DIMALTTD
 70
     3
  9
$DIMTXSTY
  7
Standard
  9
$DIMAUNIT
 70
     0
  9
$DIMADEC
 70
     0
  9
$DIMALTRND
 40
0.0
  9
$DIMAZIN
 70
     0
  9
$DIMDSEP
 70
    44
  9
$DIMATFIT
 70
     3
  9
$DIMFRAC
 70
     0
  9
$DIMLDRBLK
  1

  9
$DIMLUNIT
 70
     2
  9
$DIMLWD
 70
    -2
  9
$DIMLWE
 70
    -2
  9
$DIMTMOVE
 70
     0
  9
$LUNITS
 70
     2
  9
$LUPREC
 70
     4
  9
$SKETCHINC
 40
1.0
  9
$FILLETRAD
 40
0.0
  9
$AUNITS
 70
     0
  9
$AUPREC
 70
     0
  9
$MENU
  1
.
  9
$ELEVATION
 40
0.0
  9
$PELEVATION
 40
0.0
  9
$THICKNESS
 40
0.0
  9
$LIMCHECK
 70
     0
  9
$CHAMFERA
 40
0.0
  9
$CHAMFERB
 40
0.0
  9
$CHAMFERC
 40
20.0
  9
$CHAMFERD
 40
0.0
  9
$SKPOLY
 70
     0
  9
$TDCREATE
 40
2452286.590325035
  9
$TDUCREATE
 40
2452286.090325035
  9
$TDUPDATE
 40
2455660.553460127
  9
$TDUUPDATE
 40
2455660.053460127
  9
$TDINDWG
 40
0.9895541898
  9
$TDUSRTIMER
 40
0.9895541898
  9
$USRTIMER
 70
     1
  9
$ANGBASE
 50
0.0
  9
$ANGDIR
 70
     0
  9
$PDMODE
 70
     3
  9
$PDSIZE
 40
3.0
  9
$PLINEWID
 40
0.0
  9
$SPLFRAME
 70
     0
  9
$SPLINETYPE
 70
     6
  9
$SPLINESEGS
 70
     8
  9
$HANDSEED
  5
520E
  9
$SURFTAB1
 70
     6
  9
$SURFTAB2
 70
     6
  9
$SURFTYPE
 70
     6
  9
$SURFU
 70
     6
  9
$SURFV
 70
     6
  9
$UCSBASE
  2

  9
$UCSNAME
  2

  9
$UCSORG
 10
0.0
 20
0.0
 30
0.0
  9
$UCSXDIR
 10
1.0
 20
0.0
 30
0.0
  9
$UCSYDIR
 10
0.0
 20
1.0
 30
0.0
  9
$UCSORTHOREF
  2

  9
$UCSORTHOVIEW
 70
     0
  9
$UCSORGTOP
 10
0.0
 20
0.0
 30
0.0
  9
$UCSORGBOTTOM
 10
0.0
 20
0.0
 30
0.0
  9
$UCSORGLEFT
 10
0.0
 20
0.0
 30
0.0
  9
$UCSORGRIGHT
 10
0.0
 20
0.0
 30
0.0
  9
$UCSORGFRONT
 10
0.0
 20
0.0
 30
0.0
  9
$UCSORGBACK
 10
0.0
 20
0.0
 30
0.0
  9
$PUCSBASE
  2

  9
$PUCSNAME
  2

  9
$PUCSORG
 10
0.0
 20
0.0
 30
0.0
  9
$PUCSXDIR
 10
1.0
 20
0.0
 30
0.0
  9
$PUCSYDIR
 10
0.0
 20
1.0
 30
0.0
  9
$PUCSORTHOREF
  2

  9
$PUCSORTHOVIEW
 70
     0
  9
$PUCSORGTOP
 10
0.0
 20
0.0
 30
0.0
  9
$PUCSORGBOTTOM
 10
0.0
 20
0.0
 30
0.0
  9
$PUCSORGLEFT
 10
0.0
 20
0.0
 30
0.0
  9
$PUCSORGRIGHT
 10
0.0
 20
0.0
 30
0.0
  9
$PUCSORGFRONT
 10
0.0
 20
0.0
 30
0.0
  9
$PUCSORGBACK
 10
0.0
 20
0.0
 30
0.0
  9
$USERI1
 70
     0
  9
$USERI2
 70
     0
  9
$USERI3
 70
     0
  9
$USERI4
 70
     0
  9
$USERI5
 70
     0
  9
$USERR1
 40
0.0
  9
$USERR2
 40
0.0
  9
$USERR3
 40
0.0
  9
$USERR4
 40
0.0
  9
$USERR5
 40
0.0
  9
$WORLDVIEW
 70
     1
  9
$SHADEDGE
 70
     3
  9
$SHADEDIF
 70
    70
  9
$TILEMODE
 70
     0
  9
$MAXACTVP
 70
    64
  9
$PINSBASE
 10
0.0
 20
0.0
 30
0.0
  9
$PLIMCHECK
 70
     0
  9
$PEXTMIN
 10
-1.010169527428502
 20
-0.5101495425839176
 30
-0.0015258207003583
  9
$PEXTMAX
 10
189.6081646382717
 20
282.2024614022765
 30
0.0000000349246037
  9
$PLIMMIN
 10
-5.873749
 20
-5.916083
  9
$PLIMMAX
 10
204.099579
 20
291.05224
  9
$UNITMODE
 70
     0
  9
$VISRETAIN
 70
     1
  9
$PLINEGEN
 70
     0
  9
$PSLTSCALE
 70
     1
  9
$TREEDEPTH
 70
  3020
  9
$CMLSTYLE
  2
Standard
  9
$CMLJUST
 70
     0
  9
$CMLSCALE
 40
20.0
  9
$PROXYGRAPHICS
 70
     1
  9
$MEASUREMENT
 70
     1
  9
$CELWEIGHT
370
    -1
  9
$ENDCAPS
280
     0
  9
$JOINSTYLE
280
     0
  9
$LWDISPLAY
290
     0
  9
$INSUNITS
 70
     4
  9
$HYPERLINKBASE
  1

  9
$STYLESHEET
  1
A4 Specifier Manual.ctb
  9
$XEDIT
290
     1
  9
$CEPSNTYPE
380
     0
  9
$PSTYLEMODE
290
     1
  9
$FINGERPRINTGUID
  2
{D079D194-C9C2-11D5-B123-005004D48FB5}
  9
$VERSIONGUID
  2
{A907D714-20D9-449D-8C59-306CA6A4A9D7}
  9
$EXTNAMES
290
     1
  9
$PSVPSCALE
 40
0.0
  9
$OLESTARTUP
290
     0
  0
ENDSEC
  0
SECTION
  2
CLASSES
  0
CLASS
  1
ACDBDICTIONARYWDFLT
  2
AcDbDictionaryWithDefault
  3
ObjectDBX Classes
 90
        0
280
     0
281
     0
  0
CLASS
  1
ACDBPLACEHOLDER
  2
AcDbPlaceHolder
  3
ObjectDBX Classes
 90
        0
280
     0
281
     0
  0
CLASS
  1
LAYOUT
  2
AcDbLayout
  3
ObjectDBX Classes
 90
        0
280
     0
281
     0
  0
CLASS
  1
DICTIONARYVAR
  2
AcDbDictionaryVar
  3
ObjectDBX Classes
 90
        0
280
     0
281
     0
  0
CLASS
  1
PLOTSETTINGS
  2
AcDbPlotSettings
  3
ObjectDBX Classes
 90
        0
280
     0
281
     0
  0
CLASS
  1
DIMASSOC
  2
AcDbDimAssoc
  3
"AcDbDimAssoc|Product Desc:     AcDim ARX App For Dimension|Company:          Autodesk, Inc.|WEB Address:      www.autodesk.com"
 90
    32768
280
     0
281
     0
  0
CLASS
  1
MATERIAL
  2
AcDbMaterial
  3
ObjectDBX Classes
 90
        0
280
     0
281
     0
  0
CLASS
  1
VISUALSTYLE
  2
AcDbVisualStyle
  3
ObjectDBX Classes
 90
     4095
280
     0
281
     0
  0
CLASS
  1
TABLESTYLE
  2
AcDbTableStyle
  3
ObjectDBX Classes
 90
     2047
280
     0
281
     0
  0
CLASS
  1
SCALE
  2
AcDbScale
  3
ObjectDBX Classes
 90
     1153
280
     0
281
     0
  0
CLASS
  1
MLEADERSTYLE
  2
AcDbMLeaderStyle
  3
ACDB_MLEADERSTYLE_CLASS
 90
     4095
280
     0
281
     0
  0
CLASS
  1
EXACTERMXREFMAP
  2
ExAcTermXrefMap
  3
EXAC_SERVICE
 90
    33793
280
     0
281
     0
  0
CLASS
  1
NPOCOLLECTION
  2
AcDbImpNonPersistentObjectsCollection
  3
ObjectDBX Classes
 90
    33921
280
     0
281
     0
  0
CLASS
  1
EXACXREFPANELOBJECT
  2
ExAcXREFPanelObject
  3
EXAC_ESW
 90
    33793
280
     0
281
     0
  0
CLASS
  1
SORTENTSTABLE
  2
AcDbSortentsTable
  3
ObjectDBX Classes
 90
        0
280
     0
281
     0
  0
CLASS
  1
CELLSTYLEMAP
  2
AcDbCellStyleMap
  3
ObjectDBX Classes
 90
     1152
280
     0
281
     0
  0
ENDSEC
  0
SECTION
  2
TABLES
  0
TABLE
  2
VPORT
  5
8
102
{ACAD_XDICTIONARY
360
48B2
102
}
330
0
100
AcDbSymbolTable
 70
     1
  0
VPORT
  5
4560
330
8
100
AcDbSymbolTableRecord
100
AcDbViewportTableRecord
  2
*Active
 70
     0
 10
0.0
 20
0.0
 11
1.0
 21
1.0
 12
177.0000000163699
 22
241.0000011776872
 13
0.0
 23
0.0
 14
10.0
 24
10.0
 15
2.0
 25
2.0
 16
0.0
 26
0.0
 36
1.0
 17
0.0
 27
0.0
 37
0.0
 40
486.0631380441587
 41
2.208100558659217
 42
50.0
 43
0.0
 44
0.0
 50
0.0
 51
0.0
 71
     0
 72
 20000
 73
     1
 74
     3
 75
     0
 76
     0
 77
     0
 78
     1
281
     0
 65
     1
110
0.0
120
0.0
130
0.0
111
1.0
121
0.0
131
0.0
112
0.0
122
1.0
132
0.0
 79
     0
146
0.0
  0
ENDTAB
  0
TABLE
  2
LTYPE
  5
5
330
0
100
AcDbSymbolTable
 70
     2
  0
LTYPE
  5
14
330
5
100
AcDbSymbolTableRecord
100
AcDbLinetypeTableRecord
  2
ByBlock
 70
     0
  3

 72
    65
 73
     0
 40
0.0
  0
LTYPE
  5
15
330
5
100
AcDbSymbolTableRecord
100
AcDbLinetypeTableRecord
  2
ByLayer
 70
     0
  3

 72
    65
 73
     0
 40
0.0
  0
LTYPE
  5
16
330
5
100
AcDbSymbolTableRecord
100
AcDbLinetypeTableRecord
  2
Continuous
 70
     0
  3
Solid line
 72
    65
 73
     0
 40
0.0
  0
LTYPE
  5
1123
330
5
100
AcDbSymbolTableRecord
100
AcDbLinetypeTableRecord
  2
DASHED
 70
     0
  3
_ _ _ _ _ _ _ _ _ _ _ _ _ _ _ _
 72
    65
 73
     2
 40
0.2
 49
0.1
 74
     0
 49
-0.1
 74
     0
  0
ENDTAB
  0
TABLE
  2
LAYER
  5
2
102
{ACAD_XDICTIONARY
360
4654
102
}
330
0
100
AcDbSymbolTable
 70
     6
  0
LAYER
  5
10
102
{ACAD_XDICTIONARY
360
4806
102
}
330
2
100
AcDbSymbolTableRecord
100
AcDbLayerTableRecord
  2
0
 70
     4
 62
     7
  6
Continuous
290
     0
370
    -3
390
F
  0
LAYER
  5
2B
102
{ACAD_XDICTIONARY
360
4808
102
}
330
2
100
AcDbSymbolTableRecord
100
AcDbLayerTableRecord
  2
APL Joinery
 70
     0
 62
     2
  6
Continuous
370
    -3
390
F
  0
LAYER
  5
75
102
{ACAD_XDICTIONARY
360
480A
102
}
330
2
100
AcDbSymbolTableRecord
100
AcDbLayerTableRecord
  2
APL Notes
 70
     0
 62
     7
  6
Continuous
370
    -3
390
F
  0
LAYER
  5
4016
102
{ACAD_XDICTIONARY
360
480C
102
}
330
2
100
AcDbSymbolTableRecord
100
AcDbLayerTableRecord
  2
APL Border
 70
     0
 62
     7
  6
Continuous
370
    -3
390
F
  0
LAYER
  5
4639
102
{ACAD_XDICTIONARY
360
4810
102
}
330
2
100
AcDbSymbolTableRecord
100
AcDbLayerTableRecord
  2
APL Hatch
 70
     0
 62
   253
  6
Continuous
370
    -3
390
F
  0
ENDTAB
  0
TABLE
  2
STYLE
  5
3
330
0
100
AcDbSymbolTable
 70
     5
  0
STYLE
  5
11
330
3
100
AcDbSymbolTableRecord
100
AcDbTextStyleTableRecord
  2
Standard
 70
     0
 40
0.0
 41
1.0
 50
0.0
 71
     0
 42
3.0
  3
txt.shx
  4

  0
STYLE
  5
3E7F
330
3
100
AcDbSymbolTableRecord
100
AcDbTextStyleTableRecord
  2
Arial-Bold
 70
     0
 40
0.0
 41
1.0
 50
0.0
 71
     0
 42
5.0
  3
ARIALBD.TTF
  4

1001
ACAD
1000
Arial
1071
 33554466
  0
STYLE
  5
413A
330
3
100
AcDbSymbolTableRecord
100
AcDbTextStyleTableRecord
  2
Arial-Regular
 70
     0
 40
0.0
 41
1.0
 50
0.0
 71
     0
 42
2.5
  3
ARIAL.TTF
  4

1001
ACAD
1000
Arial
1071
       34
  0
ENDTAB
  0
TABLE
  2
VIEW
  5
6
330
0
100
AcDbSymbolTable
 70
     0
  0
ENDTAB
  0
TABLE
  2
UCS
  5
7
330
0
100
AcDbSymbolTable
 70
     0
  0
ENDTAB
  0
TABLE
  2
APPID
  5
9
330
0
100
AcDbSymbolTable
 70
    12
  0
APPID
  5
12
330
9
100
AcDbSymbolTableRecord
100
AcDbRegAppTableRecord
  2
ACAD
 70
     0
  0
APPID
  5
4631
330
9
100
AcDbSymbolTableRecord
100
AcDbRegAppTableRecord
  2
ACAD_MLEADERVER
 70
     0
  0
APPID
  5
463A
330
9
100
AcDbSymbolTableRecord
100
AcDbRegAppTableRecord
  2
DCO15
 70
     0
  0
APPID
  5
493B
330
9
100
AcDbSymbolTableRecord
100
AcDbRegAppTableRecord
  2
ACAD_DSTYLE_DIMJAG
 70
     0
  0
APPID
  5
493C
330
9
100
AcDbSymbolTableRecord
100
AcDbRegAppTableRecord
  2
ACAD_DSTYLE_DIMTALN
 70
     0
  0
APPID
  5
49D0
330
9
100
AcDbSymbolTableRecord
100
AcDbRegAppTableRecord
  2
ACAD_PSEXT
 70
     0
  0
APPID
  5
4BDC
330
9
100
AcDbSymbolTableRecord
100
AcDbRegAppTableRecord
  2
ACAUTHENVIRON
 70
     0
  0
APPID
  5
4BDD
330
9
100
AcDbSymbolTableRecord
100
AcDbRegAppTableRecord
  2
AcDbDynamicBlockTrueName
 70
     0
  0
APPID
  5
4BDE
330
9
100
AcDbSymbolTableRecord
100
AcDbRegAppTableRecord
  2
AcDbDynamicBlockGUID
 70
     0
  0
APPID
  5
4BDF
330
9
100
AcDbSymbolTableRecord
100
AcDbRegAppTableRecord
  2
AcDbBlockRepETag
 70
     0
  0
APPID
  5
4BE0
330
9
100
AcDbSymbolTableRecord
100
AcDbRegAppTableRecord
  2
AcDbBlockRepBTag
 70
     0
  0
APPID
  5
4BE1
330
9
100
AcDbSymbolTableRecord
100
AcDbRegAppTableRecord
  2
ACAD_EXEMPT_FROM_CAD_STANDARDS
 70
     0
  0
ENDTAB
  0
TABLE
  2
DIMSTYLE
  5
A
330
0
100
AcDbSymbolTable
 70
     2
100
AcDbDimStyleTable
 71
     1
340
3E40
  0
DIMSTYLE
105
3E40
330
A
100
AcDbSymbolTableRecord
100
AcDbDimStyleTableRecord
  2
ISO-25
 70
     0
 41
4.0
 42
0.625
 43
3.75
 44
1.25
 73
     0
 74
     0
 77
     1
 78
     8
140
2.5
141
2.5
143
0.03937007874016
147
0.625
171
     3
172
     1
271
     2
272
     2
274
     3
278
    44
283
     0
284
     8
340
11
  0
ENDTAB
  0
TABLE
  2
BLOCK_RECORD
  5
1
330
0
100
AcDbSymbolTable
 70
    27
  0
BLOCK_RECORD
  5
1F
102
{ACAD_XDICTIONARY
360
4697
102
}
330
1
100
AcDbSymbolTableRecord
100
AcDbBlockTableRecord
  2
*Model_Space
340
22
  0
BLOCK_RECORD
  5
41C1
330
1
100
AcDbSymbolTableRecord
100
AcDbBlockTableRecord
  2
*Paper_Space
340
41C2
  0
BLOCK_RECORD
  5
36E4
330
1
100
AcDbSymbolTableRecord
100
AcDbBlockTableRecord
  2
_Dot
340
0
102
{BLKREFS
331
41F0
102
}
  0
BLOCK_RECORD
  5
37C6
330
1
100
AcDbSymbolTableRecord
100
AcDbBlockTableRecord
  2
08600
340
0
102
{BLKREFS
331
37CD
331
3E62
331
3E64
102
}
  0
BLOCK_RECORD
  5
37CE
330
1
100
AcDbSymbolTableRecord
100
AcDbBlockTableRecord
  2
08658
340
0
102
{BLKREFS
331
4A37
331
4A3D
331
4A43
331
4A49
102
}
  0
BLOCK_RECORD
  5
37D4
330
1
100
AcDbSymbolTableRecord
100
AcDbBlockTableRecord
  2
08657
340
0
102
{BLKREFS
331
4693
331
4A34
331
4A3A
331
4A40
331
4A46
102
}
  0
BLOCK_RECORD
  5
37DA
330
1
100
AcDbSymbolTableRecord
100
AcDbBlockTableRecord
  2
08630
340
0
102
{BLKREFS
331
3F92
102
}
  0
BLOCK_RECORD
  5
3816
330
1
100
AcDbSymbolTableRecord
100
AcDbBlockTableRecord
  2
9010331
340
0
102
{BLKREFS
331
4691
331
4692
331
4A36
331
4A38
331
4A3C
331
4A3E
331
4A42
331
4A44
331
4A48
331
4A4A
102
}
1001
ACAD
1000
DesignCenter Data
1002
{
1070
     1
1070
     4
1002
}
  0
BLOCK_RECORD
  5
382D
330
1
100
AcDbSymbolTableRecord
100
AcDbBlockTableRecord
  2
9010100
340
0
102
{BLKREFS
331
4694
331
4A39
331
4A3F
331
4A45
331
4A4B
102
}
  0
BLOCK_RECORD
  5
3DF4
330
1
100
AcDbSymbolTableRecord
100
AcDbBlockTableRecord
  2
9010312r
340
0
102
{BLKREFS
331
3F94
102
}
  0
BLOCK_RECORD
  5
3E09
330
1
100
AcDbSymbolTableRecord
100
AcDbBlockTableRecord
  2
08659
340
0
102
{BLKREFS
331
4690
102
}
  0
BLOCK_RECORD
  5
3E80
330
1
100
AcDbSymbolTableRecord
100
AcDbBlockTableRecord
  2
a4 specifiers manual
340
0
102
{BLKREFS
331
3E87
102
}
1001
ACAD
1000
DesignCenter Data
1002
{
1070
     1
1070
     4
1002
}
  0
BLOCK_RECORD
  5
3F72
330
1
100
AcDbSymbolTableRecord
100
AcDbBlockTableRecord
  2
6Glass
340
0
102
{BLKREFS
331
3F93
102
}
  0
BLOCK_RECORD
  5
3F8B
330
1
100
AcDbSymbolTableRecord
100
AcDbBlockTableRecord
  2
9010240l
340
0
102
{BLKREFS
331
3F95
102
}
  0
BLOCK_RECORD
  5
3F91
330
1
100
AcDbSymbolTableRecord
100
AcDbBlockTableRecord
  2
08630Glaze
340
0
310
2800000020000000200000000100080000000000000400000000000000000000000000000000000000000000000080000080000000808000800000008000800080800000C0C0C000C0DCC000F0CAA6000020400000206000002080000020A0000020C0000020E00000400000004020000040400000406000004080000040A0
310
000040C0000040E00000600000006020000060400000606000006080000060A0000060C0000060E00000800000008020000080400000806000008080000080A0000080C0000080E00000A0000000A0200000A0400000A0600000A0800000A0A00000A0C00000A0E00000C0000000C0200000C0400000C0600000C0800000C0
310
A00000C0C00000C0E00000E0000000E0200000E0400000E0600000E0800000E0A00000E0C00000E0E00040000000400020004000400040006000400080004000A0004000C0004000E00040200000402020004020400040206000402080004020A0004020C0004020E000404000004040200040404000404060004040800040
310
40A0004040C0004040E00040600000406020004060400040606000406080004060A0004060C0004060E00040800000408020004080400040806000408080004080A0004080C0004080E00040A0000040A0200040A0400040A0600040A0800040A0A00040A0C00040A0E00040C0000040C0200040C0400040C0600040C08000
310
40C0A00040C0C00040C0E00040E0000040E0200040E0400040E0600040E0800040E0A00040E0C00040E0E00080000000800020008000400080006000800080008000A0008000C0008000E00080200000802020008020400080206000802080008020A0008020C0008020E00080400000804020008040400080406000804080
310
008040A0008040C0008040E00080600000806020008060400080606000806080008060A0008060C0008060E00080800000808020008080400080806000808080008080A0008080C0008080E00080A0000080A0200080A0400080A0600080A0800080A0A00080A0C00080A0E00080C0000080C0200080C0400080C0600080C0
310
800080C0A00080C0C00080C0E00080E0000080E0200080E0400080E0600080E0800080E0A00080E0C00080E0E000C0000000C0002000C0004000C0006000C0008000C000A000C000C000C000E000C0200000C0202000C0204000C0206000C0208000C020A000C020C000C020E000C0400000C0402000C0404000C0406000C0
310
408000C040A000C040C000C040E000C0600000C0602000C0604000C0606000C0608000C060A000C060C000C060E000C0800000C0802000C0804000C0806000C0808000C080A000C080C000C080E000C0A00000C0A02000C0A04000C0A06000C0A08000C0A0A000C0A0C000C0A0E000C0C00000C0C02000C0C04000C0C06000
310
C0C08000C0C0A000F0FBFF00A4A0A000808080000000FF0000FF000000FFFF00FF000000FF00FF00FFFF0000FFFFFF0000000000000000000000000000000000000000000000000000000000000000000000000000000000000000000000000000000000000000000000000000000000000000000000000000000000000000
310
00000000000000000000000000000000000000000000000000000000000000000000000000000000000000000000000000000000000000000000000000000000000000000000000000000000000000000000000000FB000000000000000000FBFB00000000000000000000000000000000000000FBFB0000000000000000FB
310
FBFBFBFB00000000000000000000000000000000FBFBFB0000000000000000FBFB000000000000000000000000000000000000FB0000FB0000000000000000FBFB00000000000000000000000000000000000000FB00FB0000000000000000FBFB0000000000000000000000000000000000000000FB00FB00000000000000
310
00FBFB0000000000000000000000000000000000000000FB00FB0000000000000000FBFB0000000000000000000000000000000000000000FB00FB0000000000000000FBFB00000000FFA4FFA4FF0000000000000000000000FB00FB00000000000000FBFB00000000FFA400A4FF000000000000000000000000FB00FB0000
310
00000000FBFB00000000FFA400A4A4A4000000000000000000000000FBFBFB0000000000FBFB00000000FFA400A4A4A40000000000000000000000000000FBFB00000000FBFBFBFB0000FFA400A4A4A4000000000000000000000000000000FBFB000000FBFBFBFBA400FFA400A4A4A400A400000000000000000000000000
310
00FBFB0000FBFB00A4A4A4A4A400A4A4A4A4A4000000000000000000000000000000FBFB00FBFBA400A4A4A4A400A4FFA400A400000000000000000000000000000000FBFBFBFBFBA4A4A4A4A400A4A4A4A4A40000000000000000000000000000000000FBFBFBFBA4A4A4A4A400A4A4A4A400000000000000000000000000
310
000000000000FB00A4A40000A4A400A4A4A4A4A400000000000000000000000000000000000000FBA4A40000A4A400A4A40000A400000000000000000000000000000000000000000000A4A4A4A400A4A4A4A400000000000000000000000000000000000000000000000000FFA400A4A4A400000000000000000000000000
310
00000000000000000000000000FFA400A4FF00000000000000000000000000000000000000000000000000000000000000000000000000000000000000000000000000000000000000000000000000000000000000000000000000000000000000000000000000000000000000000000000000000000000000000000000000
310
0000000000000000000000000000000000000000000000000000000000000000000000000000000000000000000000000000000000000000
102
{BLKREFS
331
4695
331
4A35
331
4A3B
331
4A41
331
4A47
102
}
1001
ACAD
1000
DesignCenter Data
1002
{
1070
     1
1070
     4
1002
}
  0
BLOCK_RECORD
  5
3FEC
330
1
100
AcDbSymbolTableRecord
100
AcDbBlockTableRecord
  2
19mmliner
340
0
102
{BLKREFS
331
3FF0
331
3FF2
331
3FF3
102
}
  0
BLOCK_RECORD
  5
4171
330
1
100
AcDbSymbolTableRecord
100
AcDbBlockTableRecord
  2
08615
340
0
102
{BLKREFS
331
4176
102
}
  0
BLOCK_RECORD
  5
41CC
330
1
100
AcDbSymbolTableRecord
100
AcDbBlockTableRecord
  2
vantage a4 SM border
340
0
102
{BLKREFS
331
41D0
102
}
  0
BLOCK_RECORD
  5
47CA
330
1
100
AcDbSymbolTableRecord
100
AcDbBlockTableRecord
  2
Spectrum Security Handle 1
340
0
102
{BLKREFS
331
4805
102
}
  0
BLOCK_RECORD
  5
4CA0
330
1
100
AcDbSymbolTableRecord
100
AcDbBlockTableRecord
  2
vantage a4 SM attributes (3)
340
0
102
{BLKREFS
331
4CAB
102
}
1001
ACAD
1000
DesignCenter Data
1002
{
1070
     1
1070
     4
1002
}
  0
BLOCK_RECORD
  5
4DFE
102
{ACAD_XDICTIONARY
360
4DFF
102
}
330
1
100
AcDbSymbolTableRecord
100
AcDbBlockTableRecord
  2
vantage black & white logo
340
0
310
2800000020000000200000000100080000000000000400000000000000000000000000000000000000000000000080000080000000808000800000008000800080800000C0C0C000C0DCC000F0CAA6000020400000206000002080000020A0000020C0000020E00000400000004020000040400000406000004080000040A0
310
000040C0000040E00000600000006020000060400000606000006080000060A0000060C0000060E00000800000008020000080400000806000008080000080A0000080C0000080E00000A0000000A0200000A0400000A0600000A0800000A0A00000A0C00000A0E00000C0000000C0200000C0400000C0600000C0800000C0
310
A00000C0C00000C0E00000E0000000E0200000E0400000E0600000E0800000E0A00000E0C00000E0E00040000000400020004000400040006000400080004000A0004000C0004000E00040200000402020004020400040206000402080004020A0004020C0004020E000404000004040200040404000404060004040800040
310
40A0004040C0004040E00040600000406020004060400040606000406080004060A0004060C0004060E00040800000408020004080400040806000408080004080A0004080C0004080E00040A0000040A0200040A0400040A0600040A0800040A0A00040A0C00040A0E00040C0000040C0200040C0400040C0600040C08000
310
40C0A00040C0C00040C0E00040E0000040E0200040E0400040E0600040E0800040E0A00040E0C00040E0E00080000000800020008000400080006000800080008000A0008000C0008000E00080200000802020008020400080206000802080008020A0008020C0008020E00080400000804020008040400080406000804080
310
008040A0008040C0008040E00080600000806020008060400080606000806080008060A0008060C0008060E00080800000808020008080400080806000808080008080A0008080C0008080E00080A0000080A0200080A0400080A0600080A0800080A0A00080A0C00080A0E00080C0000080C0200080C0400080C0600080C0
310
800080C0A00080C0C00080C0E00080E0000080E0200080E0400080E0600080E0800080E0A00080E0C00080E0E000C0000000C0002000C0004000C0006000C0008000C000A000C000C000C000E000C0200000C0202000C0204000C0206000C0208000C020A000C020C000C020E000C0400000C0402000C0404000C0406000C0
310
408000C040A000C040C000C040E000C0600000C0602000C0604000C0606000C0608000C060A000C060C000C060E000C0800000C0802000C0804000C0806000C0808000C080A000C080C000C080E000C0A00000C0A02000C0A04000C0A06000C0A08000C0A0A000C0A0C000C0A0E000C0C00000C0C02000C0C04000C0C06000
310
C0C08000C0C0A000F0FBFF00A4A0A000808080000000FF0000FF000000FFFF00FF000000FF00FF00FFFF0000FFFFFF0000000000000000000000000000000000000000000000000000000000000000000000000000000000000000000000000000000000000000000000000000000000000000000000000000000000000000
310
0000000000000000000000000000000000000000000000000000000000000000A4A40000000000000000000000000000000000000000000000000000000000A400000700000000000000000000000000000000000000000000000000000000A4000707000000000000000000000000000000000000000000000000000000A4
310
00A4A407070000000000000000000000000000000000000000000000000000A400A400A40700000000000000000000000000000000000000000000000000A400A4A400A407070000000000000000000000000000000000000000000000A40700A4000000A4070000000000000000000000000000000000000000000000A400
310
A4A4000000A40707000000000000000000000000000000000000000000A400A4A4000000A4A4A400070000000000000000000000000000000000000000A400A400000000A400A4070700000000000000000000000000000000000000A400A4A4000000A4A40000A40007000000000000000000000000000000000000A400A4
310
A4A4A4A4A4A4A4A4A407070000000000000000000000000000000000A400A4A4A4A4A4A4A4A4A4A4A4A40007000000000000000000000000000000A40000A4A4A4A4A4A4A4A4A4A4A4A40700070000000000000000000000000000A400A4A400A4A4A4A4A4A4A4A4A4A4A4070700000000000000000000000000A400A4A4A4
310
A4A4A4A4A4A4A4A4A4A4A4A4070007000000000000000000000000A400A4A4A4A4A4A4A4A4A4A4A4A4A4A4A4A407070000000000000000000000A400A4A400A4A4A4A4A4A4A4A4A4A4A4A4A4A4070007000000000000000000A40700A4A400A4A4A4A4A4A4A4A4A4A4A4A4A400A40707000000000000000000A400A4A4A4A4
310
A4A4A4A4A4A4A4A4A4A4A4A4A4A4A407000700000000000000A400A4A4A4A4A4A4A4A4A4A4A4A4A4A4A4A4A4A4A4A4A4070007000000000000A400A4A4A4A4A4A4A4A4A4A4A4A4A4A4A4A4A4A4A4A4A40700070000000000A400A4A400A4A4A4A4A4A4A4A4A4A4A4A4A4A4A4A4A4A4A40007000700000000A400A4A4A400A4
310
A4A4A4A4A4A4A4A4A4A4A4A4A4A4A4A4A4000700070000000700A4A4A4A4A4A4A4A4A4A4A4A4A4A4A4A4A4A4A4A4A4A4A4A4A40700070000A407A4A4A4A4A4A4A4A4A4A4A4A4A4A4A4A4A4A4A4A4A4A4A4A4A4A407A40000000000000000000000000000000000000000000000000000000000000000000000000000000000
310
0000000000000000000000000000000000000000000000000000000000000000000000000000000000000000000000000000000000000000
102
{BLKREFS
331
4DFC
102
}
1001
AcDbDynamicBlockGUID
1000
{7D04BC3F-8AE2-40EA-A482-CE6E620AF154}
1001
AcDbBlockRepETag
1070
     1
1071
      907
1001
ACAD
1000
DesignCenter Data
1002
{
1070
     1
1070
     4
1002
}
  0
ENDTAB
  0
ENDSEC
  0
SECTION
  2
BLOCKS
  0
BLOCK
  5
20
330
1F
100
AcDbEntity
  8
0
100
AcDbBlockBegin
  2
*Model_Space
 70
     0
 10
0.0
 20
0.0
 30
0.0
  3
*Model_Space
  1

  0
ENDBLK
  5
21
330
1F
100
AcDbEntity
  8
0
100
AcDbBlockEnd
  0
BLOCK
  5
41C3
330
41C1
100
AcDbEntity
 67
     1
  8
0
100
AcDbBlockBegin
  2
*Paper_Space
 70
     0
 10
0.0
 20
0.0
 30
0.0
  3
*Paper_Space
  1

  0
ENDBLK
  5
41C4
330
41C1
100
AcDbEntity
 67
     1
  8
0
100
AcDbBlockEnd
  0
BLOCK
  5
36E7
330
36E4
100
AcDbEntity
  8
0
100
AcDbBlockBegin
  2
_Dot
 70
     0
 10
0.0
 20
0.0
 30
0.0
  3
_Dot
  1

  0
LWPOLYLINE
  5
36E5
330
36E4
100
AcDbEntity
  8
0
  6
ByBlock
 62
     0
100
AcDbPolyline
 90
        2
 70
     1
 43
0.5
 10
-0.25
 20
0.0
 42
1.0
 10
0.25
 20
0.0
 42
1.0
  0
LINE
  5
36E6
330
36E4
100
AcDbEntity
  8
0
  6
ByBlock
 62
     0
370
    -2
100
AcDbLine
 10
-0.5
 20
0.0
 30
0.0
 11
-1.0
 21
0.0
 31
0.0
  0
ENDBLK
  5
36E8
330
36E4
100
AcDbEntity
  8
0
100
AcDbBlockEnd
  0
BLOCK
  5
37C7
330
37C6
100
AcDbEntity
  8
0
100
AcDbBlockBegin
  2
08600
 70
     0
 10
199.1571794166645
 20
219.760503870769
 30
0.0
  3
08600
  1
08600.dwg
  0
LWPOLYLINE
  5
4DD1
102
{ACAD_REACTORS
330
4DD2
102
}
330
37C6
100
AcDbEntity
  8
APL Joinery
  6
Continuous
100
AcDbPolyline
 90
      144
 70
     1
 43
0.0
 10
244.8269242989592
 20
238.8559584162235
 42
0.1432248589116724
 10
245.276939789862
 20
238.6262656100214
 42
-0.2959768337492813
 10
245.2769397898612
 20
236.3947421315165
 42
0.1432248589116831
 10
244.8269242989602
 20
236.1650493253145
 42
-0.3973597071195351
 10
242.2874345343681
 20
236.1650493253144
 42
0.599363233483035
 10
240.782308840381
 20
235.660503870769
 10
240.3071794166645
 20
235.660503870769
 42
0.4142135623730951
 10
240.0571794166646
 20
235.410503870769
 10
240.0571794166646
 20
234.4105038707691
 42
0.4142135623730951
 10
240.3071794166645
 20
234.160503870769
 10
247.6571794166646
 20
234.1605038707689
 10
247.6571794166646
 20
224.960503870769
 42
0.4142135623728455
 10
247.8571794166646
 20
224.760503870769
 10
248.7571794166649
 20
224.760503870769
 10
249.1571794166646
 20
225.160503870769
 10
262.7571824166651
 20
225.160503870769
 10
263.1571824166647
 20
224.760503870769
 10
264.9071794166648
 20
224.760503870769
 42
0.9999999999999998
 10
264.9071794166648
 20
226.260503870769
 10
249.1571794166646
 20
226.260503870769
 10
249.1571794166649
 20
234.360503870769
 42
0.4142135623731336
 10
247.8571794166648
 20
235.660503870769
 10
247.4814627907343
 20
235.660503870769
 42
-0.5149445451952161
 10
247.0086575649427
 20
236.3231544731787
 42
0.2034359732099162
 10
246.8089892460779
 20
239.1682833595222
 42
-0.4477817127676043
 10
247.0791368053804
 20
239.8636369037673
 42
0.3127834059992393
 10
249.1571794166646
 20
242.860503870769
 10
249.1571794166646
 20
245.7605038707689
 10
252.4571794166647
 20
245.760503870769
 42
1.044748832512376
 10
252.3959900701673
 20
247.1578243594076
 10
248.9610247293112
 20
246.8564087436709
 42
0.3888043079714984
 10
247.9571794166647
 20
245.7606194043816
 10
247.9571794166647
 20
242.860503870769
 42
-0.4142135623730951
 10
245.9571794166647
 20
240.860503870769
 10
235.6571794166646
 20
240.860503870769
 42
-0.4142135623730951
 10
234.6571794166646
 20
241.860503870769
 10
234.6571794166646
 20
262.560503870769
 42
0.4142135623730118
 10
234.4571794166646
 20
262.7605038707689
 10
232.5571794166648
 20
262.760503870769
 42
0.4142135623730118
 10
232.3571794166649
 20
262.560503870769
 10
232.3571794166649
 20
260.7605038707689
 10
231.1571794166646
 20
260.7605038707689
 42
0.4142135623730951
 10
230.6571794166646
 20
260.2605038707689
 10
230.6571794166646
 20
258.7105038707689
 42
0.9999999999999998
 10
231.6571794166646
 20
258.7105038707689
 10
231.6571794166646
 20
259.4605038707689
 10
233.1571794166646
 20
259.4605038707689
 10
233.1571794166646
 20
253.9605038707689
 10
231.6571794166646
 20
253.9605038707689
 10
231.6571794166646
 20
254.7105038707689
 42
0.9999999999999998
 10
230.6571794166646
 20
254.7105038707689
 10
230.6571794166646
 20
253.1605038707689
 42
0.4142135623730951
 10
231.1571794166646
 20
252.6605038707689
 10
232.8571794166649
 20
252.6605038707689
 10
232.8571794166649
 20
247.260503870769
 10
231.1571794166647
 20
247.260503870769
 42
0.9999999999999998
 10
231.1571794166647
 20
246.2605038707689
 10
232.8571794166649
 20
246.2605038707689
 10
232.8571794166649
 20
242.260503870769
 10
230.8571794166645
 20
242.260503870769
 42
0.4142135623730118
 10
230.6571794166647
 20
242.060503870769
 10
230.6571794166646
 20
240.760503870769
 10
226.0571794166647
 20
240.760503870769
 10
225.6571794166646
 20
240.3605038707689
 10
225.2571794166649
 20
240.760503870769
 10
212.657179416665
 20
240.760503870769
 42
0.9999999999999998
 10
212.6571794166646
 20
239.7605038707687
 10
215.1571794166646
 20
239.7605038707687
 42
-0.4142135623730951
 10
215.6571794166646
 20
239.2605038707687
 10
215.6571794166646
 20
237.4605038707687
 42
-0.4142135623730951
 10
215.1571794166646
 20
236.9605038707687
 10
212.5071794166647
 20
236.9605038707687
 42
0.4142135623730951
 10
208.8571794166647
 20
233.3105038707687
 10
208.8571794166646
 20
232.810503870769
 42
-0.4142135623730951
 10
208.6071794166646
 20
232.560503870769
 10
204.0571794166647
 20
232.560503870769
 10
203.6571794166646
 20
232.1605038707691
 10
203.2571794166645
 20
232.560503870769
 10
197.4571794166645
 20
232.560503870769
 42
-0.4142135623730951
 10
196.4571794166645
 20
233.560503870769
 10
196.4571794166647
 20
236.060503870769
 42
0.4142135623730118
 10
196.2571794166647
 20
236.260503870769
 10
196.1571794166646
 20
236.260503870769
 10
196.1571794166646
 20
239.260503870769
 10
196.9071794166645
 20
239.260503870769
 42
0.4744978678080102
 10
197.1521283909429
 20
239.560503870769
 42
0.3563939586925959
 10
195.682434545273
 20
240.760503870769
 10
194.9071794166646
 20
240.760503870769
 42
0.4142135623730951
 10
194.6571794166646
 20
240.510503870769
 10
194.6571794166646
 20
200.760503870769
 42
0.4142135623730951
 10
195.6571794166645
 20
199.7605038707689
 10
198.1571794166645
 20
199.7605038707689
 42
0.4142135623730951
 10
199.1571794166645
 20
200.760503870769
 10
199.1571794166645
 20
202.060503870769
 42
0.4142135623730118
 10
198.9571794166646
 20
202.2605038707689
 10
198.3571794166645
 20
202.2605038707689
 42
0.4142135623730118
 10
198.1571794166645
 20
202.060503870769
 10
198.1571794166645
 20
201.260503870769
 10
196.1571794166646
 20
201.260503870769
 10
196.1571794166646
 20
206.3605038707689
 42
0.9999999999999998
 10
196.1571794166646
 20
207.160503870769
 10
196.1571794166646
 20
212.260503870769
 10
198.1571794166645
 20
212.260503870769
 10
198.1571794166645
 20
211.460503870769
 42
0.4142135623728455
 10
198.3571794166645
 20
211.260503870769
 10
198.9571794166646
 20
211.260503870769
 42
0.4142135623728453
 10
199.1571794166645
 20
211.460503870769
 10
199.1571794166645
 20
212.7605038707689
 42
0.4142135623730951
 10
198.1571794166645
 20
213.760503870769
 10
196.4571794166647
 20
213.760503870769
 10
196.4571794166645
 20
230.3605038707691
 10
208.5071794166647
 20
230.3605038707686
 10
208.5071794166647
 20
229.5105038707687
 42
0.414213562373012
 10
208.7071794166647
 20
229.3105038707687
 10
216.6071794166646
 20
229.3105038707687
 10
216.6071794166646
 20
224.960503870769
 42
0.4142135623728455
 10
216.8071794166646
 20
224.760503870769
 10
217.9071794166646
 20
224.760503870769
 42
0.4142135623730118
 10
218.1071794166646
 20
224.9605038707689
 10
218.1071794166646
 20
229.3105038707687
 42
0.4142135623730951
 10
216.6071794166646
 20
230.8105038707687
 10
215.2946380254823
 20
230.8105038707687
 10
215.2946380254823
 20
231.3105038707687
 42
0.657763010441712
 10
213.7769242989604
 20
231.9650493253142
 42
-0.3973597071194602
 10
211.2374345343701
 20
231.9650493253141
 42
0.1432248589116724
 10
210.7874190434673
 20
232.1947421315162
 42
-0.2959768337492813
 10
210.7874190434681
 20
234.4262656100212
 42
0.1432248589116831
 10
211.2374345343696
 20
234.6559584162235
 42
-0.3973597071194223
 10
213.7769242989602
 20
234.6559584162234
 42
0.6006744515322297
 10
215.2826218615389
 20
235.1639272460893
 42
0.3983200018818864
 10
217.4571794166646
 20
237.4605038707687
 10
217.4571794166648
 20
238.4605038707689
 42
-0.4142135623730951
 10
217.9571794166648
 20
238.9605038707689
 10
221.6571794166646
 20
238.9605038707689
 10
221.6571794166646
 20
238.760503870769
 42
0.4142135623728455
 10
221.8571794166646
 20
238.5605038707689
 10
229.4571794166645
 20
238.5605038707689
 42
0.4142135623729286
 10
229.6571794166646
 20
238.760503870769
 10
229.6571794166646
 20
238.9605038707689
 10
234.4571794166646
 20
238.9605038707689
 42
0.4142135623728453
 10
234.6571794166646
 20
239.1605038707689
 10
234.6571794166646
 20
239.3605038707689
 10
240.782308840381
 20
239.3605038707689
 42
0.5993632334830349
 10
242.287434534369
 20
238.8559584162234
 42
-0.3973597071195353
  0
HATCH
  5
4DD2
330
37C6
100
AcDbEntity
  8
APL Hatch
100
AcDbHatch
 10
0.0
 20
0.0
 30
0.0
210
0.0
220
0.0
230
1.0
  2
SOLID
 70
     1
 71
     1
 91
        1
 92
        1
 93
      144
 72
     2
 10
245.4446380254818
 20
239.5105038707705
 40
0.9000000000014225
 50
226.6582417728268
 51
259.2612357600979
 73
     1
 72
     2
 10
243.5571794166642
 20
237.5105038707696
 40
2.049999999999971
 50
327.0249334069859
 51
392.9750665930549
 73
     0
 72
     2
 10
245.4446380254817
 20
235.5105038707705
 40
0.8999999999985508
 50
100.7387642399847
 51
133.3417582272588
 73
     1
 72
     2
 10
243.557179416664
 20
237.5105038707694
 40
1.850000000000651
 50
46.65824177277285
 51
133.3417582272221
 73
     0
 72
     2
 10
241.6697208078459
 20
235.5105038707689
 40
0.8999999999999918
 50
46.65824177277566
 51
170.4059317731335
 73
     1
 72
     1
 10
240.782308840381
 20
235.660503870769
 11
240.3071794166645
 21
235.660503870769
 72
     2
 10
240.3071794166645
 20
235.410503870769
 40
0.25
 50
90.0
 51
180.0
 73
     1
 72
     1
 10
240.0571794166646
 20
235.410503870769
 11
240.0571794166646
 21
234.4105038707691
 72
     2
 10
240.3071794166645
 20
234.4105038707691
 40
0.25
 50
180.0
 51
270.0
 73
     1
 72
     1
 10
240.3071794166645
 20
234.160503870769
 11
247.6571794166646
 21
234.1605038707689
 72
     1
 10
247.6571794166646
 20
234.1605038707689
 11
247.6571794166646
 21
224.960503870769
 72
     2
 10
247.8571794166647
 20
224.9605038707691
 40
0.2000000000001023
 50
180.0000000000163
 51
269.9999999999674
 73
     1
 72
     1
 10
247.8571794166646
 20
224.760503870769
 11
248.7571794166649
 21
224.760503870769
 72
     1
 10
248.7571794166649
 20
224.760503870769
 11
249.1571794166646
 21
225.160503870769
 72
     1
 10
249.1571794166646
 20
225.160503870769
 11
262.7571824166651
 21
225.160503870769
 72
     1
 10
262.7571824166651
 20
225.160503870769
 11
263.1571824166647
 21
224.760503870769
 72
     1
 10
263.1571824166647
 20
224.760503870769
 11
264.9071794166648
 21
224.760503870769
 72
     2
 10
264.9071794166648
 20
225.5105038707689
 40
0.75
 50
270.0
 51
450.0
 73
     1
 72
     1
 10
264.9071794166648
 20
226.260503870769
 11
249.1571794166646
 21
226.260503870769
 72
     1
 10
249.1571794166646
 20
226.260503870769
 11
249.1571794166649
 21
234.360503870769
 72
     2
 10
247.857179416665
 20
234.360503870769
 40
1.299999999999897
 50
359.9999999999975
 51
450.0000000000049
 73
     1
 72
     1
 10
247.8571794166648
 20
235.660503870769
 11
247.4814627907343
 21
235.660503870769
 72
     2
 10
247.4814627907343
 20
236.160503870769
 40
0.5
 50
90.00000000000325
 51
198.9838243850384
 73
     0
 72
     2
 10
243.5571794166647
 20
237.5105038707689
 40
3.649999999999852
 50
341.0161756149603
 51
387.0125826341198
 73
     1
 72
     2
 10
247.2544426473673
 20
239.3953764401733
 40
0.4999999999999973
 50
152.9874173658788
 51
249.4752670041154
 73
     0
 72
     2
 10
245.9571794166649
 20
242.8605038707688
 40
3.199999999999662
 50
290.5247329958711
 51
360.0000000000036
 73
     1
 72
     1
 10
249.1571794166646
 20
242.860503870769
 11
249.1571794166646
 21
245.7605038707689
 72
     1
 10
249.1571794166646
 20
245.7605038707689
 11
252.4571794166647
 21
245.760503870769
 72
     2
 10
252.4571794166648
 20
246.460503870769
 40
0.6999999999999887
 50
269.9999999999954
 51
455.0148164792156
 73
     1
 72
     1
 10
252.3959900701673
 20
247.1578243594076
 11
248.9610247293112
 21
246.8564087436709
 72
     2
 10
249.0571794166648
 20
245.7606194043817
 40
1.099999999999999
 50
95.01481647922753
 51
180.0000000000029
 73
     1
 72
     1
 10
247.9571794166647
 20
245.7606194043816
 11
247.9571794166647
 21
242.860503870769
 72
     2
 10
245.9571794166647
 20
242.860503870769
 40
2.0
 50
360.0
 51
450.0
 73
     0
 72
     1
 10
245.9571794166647
 20
240.860503870769
 11
235.6571794166646
 21
240.860503870769
 72
     2
 10
235.6571794166646
 20
241.860503870769
 40
1.0
 50
90.0
 51
180.0
 73
     0
 72
     1
 10
234.6571794166646
 20
241.860503870769
 11
234.6571794166646
 21
262.560503870769
 72
     2
 10
234.4571794166646
 20
262.560503870769
 40
0.1999999999999886
 50
0.0
 51
89.99999999998371
 73
     1
 72
     1
 10
234.4571794166646
 20
262.7605038707689
 11
232.5571794166648
 21
262.760503870769
 72
     2
 10
232.5571794166649
 20
262.560503870769
 40
0.1999999999999886
 50
90.00000000001628
 51
180.0
 73
     1
 72
     1
 10
232.3571794166649
 20
262.560503870769
 11
232.3571794166649
 21
260.7605038707689
 72
     1
 10
232.3571794166649
 20
260.7605038707689
 11
231.1571794166646
 21
260.7605038707689
 72
     2
 10
231.1571794166646
 20
260.2605038707689
 40
0.5
 50
90.0
 51
180.0
 73
     1
 72
     1
 10
230.6571794166646
 20
260.2605038707689
 11
230.6571794166646
 21
258.7105038707689
 72
     2
 10
231.1571794166646
 20
258.7105038707689
 40
0.5
 50
180.0
 51
360.0
 73
     1
 72
     1
 10
231.6571794166646
 20
258.7105038707689
 11
231.6571794166646
 21
259.4605038707689
 72
     1
 10
231.6571794166646
 20
259.4605038707689
 11
233.1571794166646
 21
259.4605038707689
 72
     1
 10
233.1571794166646
 20
259.4605038707689
 11
233.1571794166646
 21
253.9605038707689
 72
     1
 10
233.1571794166646
 20
253.9605038707689
 11
231.6571794166646
 21
253.9605038707689
 72
     1
 10
231.6571794166646
 20
253.9605038707689
 11
231.6571794166646
 21
254.7105038707689
 72
     2
 10
231.1571794166646
 20
254.7105038707689
 40
0.5
 50
0.0
 51
180.0
 73
     1
 72
     1
 10
230.6571794166646
 20
254.7105038707689
 11
230.6571794166646
 21
253.1605038707689
 72
     2
 10
231.1571794166646
 20
253.1605038707689
 40
0.5
 50
180.0
 51
270.0
 73
     1
 72
     1
 10
231.1571794166646
 20
252.6605038707689
 11
232.8571794166649
 21
252.6605038707689
 72
     1
 10
232.8571794166649
 20
252.6605038707689
 11
232.8571794166649
 21
247.260503870769
 72
     1
 10
232.8571794166649
 20
247.260503870769
 11
231.1571794166647
 21
247.260503870769
 72
     2
 10
231.1571794166647
 20
246.760503870769
 40
0.5
 50
90.0
 51
270.0
 73
     1
 72
     1
 10
231.1571794166647
 20
246.2605038707689
 11
232.8571794166649
 21
246.2605038707689
 72
     1
 10
232.8571794166649
 20
246.2605038707689
 11
232.8571794166649
 21
242.260503870769
 72
     1
 10
232.8571794166649
 20
242.260503870769
 11
230.8571794166645
 21
242.260503870769
 72
     2
 10
230.8571794166646
 20
242.060503870769
 40
0.1999999999999886
 50
90.00000000001628
 51
180.0
 73
     1
 72
     1
 10
230.6571794166647
 20
242.060503870769
 11
230.6571794166646
 21
240.760503870769
 72
     1
 10
230.6571794166646
 20
240.760503870769
 11
226.0571794166647
 21
240.760503870769
 72
     1
 10
226.0571794166647
 20
240.760503870769
 11
225.6571794166646
 21
240.3605038707689
 72
     1
 10
225.6571794166646
 20
240.3605038707689
 11
225.2571794166649
 21
240.760503870769
 72
     1
 10
225.2571794166649
 20
240.760503870769
 11
212.657179416665
 21
240.760503870769
 72
     2
 10
212.6571794166648
 20
240.2605038707688
 40
0.5000000000001137
 50
89.99999999997395
 51
269.9999999999739
 73
     1
 72
     1
 10
212.6571794166646
 20
239.7605038707687
 11
215.1571794166646
 21
239.7605038707687
 72
     2
 10
215.1571794166646
 20
239.2605038707687
 40
0.5
 50
270.0
 51
360.0
 73
     0
 72
     1
 10
215.6571794166646
 20
239.2605038707687
 11
215.6571794166646
 21
237.4605038707687
 72
     2
 10
215.1571794166646
 20
237.4605038707687
 40
0.5
 50
360.0
 51
450.0
 73
     0
 72
     1
 10
215.1571794166646
 20
236.9605038707687
 11
212.5071794166647
 21
236.9605038707687
 72
     2
 10
212.5071794166647
 20
233.3105038707687
 40
3.649999999999977
 50
90.0
 51
180.0
 73
     1
 72
     1
 10
208.8571794166647
 20
233.3105038707687
 11
208.8571794166646
 21
232.810503870769
 72
     2
 10
208.6071794166646
 20
232.810503870769
 40
0.25
 50
360.0
 51
450.0
 73
     0
 72
     1
 10
208.6071794166646
 20
232.560503870769
 11
204.0571794166647
 21
232.560503870769
 72
     1
 10
204.0571794166647
 20
232.560503870769
 11
203.6571794166646
 21
232.1605038707691
 72
     1
 10
203.6571794166646
 20
232.1605038707691
 11
203.2571794166645
 21
232.560503870769
 72
     1
 10
203.2571794166645
 20
232.560503870769
 11
197.4571794166645
 21
232.560503870769
 72
     2
 10
197.4571794166645
 20
233.560503870769
 40
1.0
 50
90.0
 51
180.0
 73
     0
 72
     1
 10
196.4571794166645
 20
233.560503870769
 11
196.4571794166647
 21
236.060503870769
 72
     2
 10
196.2571794166647
 20
236.060503870769
 40
0.1999999999999886
 50
0.0000000000162844
 51
90.0
 73
     1
 72
     1
 10
196.2571794166647
 20
236.260503870769
 11
196.1571794166646
 21
236.260503870769
 72
     1
 10
196.1571794166646
 20
236.260503870769
 11
196.1571794166646
 21
239.260503870769
 72
     1
 10
196.1571794166646
 20
239.260503870769
 11
196.9071794166645
 21
239.260503870769
 72
     2
 10
196.9071794166645
 20
239.510503870769
 40
0.2500000000000568
 50
270.000000000013
 51
371.5369590328156
 73
     1
 72
     2
 10
195.682434545273
 20
239.260503870769
 40
1.499999999999934
 50
11.53695903281644
 51
90.0
 73
     1
 72
     1
 10
195.682434545273
 20
240.760503870769
 11
194.9071794166646
 21
240.760503870769
 72
     2
 10
194.9071794166646
 20
240.510503870769
 40
0.25
 50
90.0
 51
180.0
 73
     1
 72
     1
 10
194.6571794166646
 20
240.510503870769
 11
194.6571794166646
 21
200.760503870769
 72
     2
 10
195.6571794166645
 20
200.760503870769
 40
1.0
 50
180.0
 51
270.0
 73
     1
 72
     1
 10
195.6571794166645
 20
199.7605038707689
 11
198.1571794166645
 21
199.7605038707689
 72
     2
 10
198.1571794166645
 20
200.760503870769
 40
1.0
 50
270.0
 51
360.0
 73
     1
 72
     1
 10
199.1571794166645
 20
200.760503870769
 11
199.1571794166645
 21
202.060503870769
 72
     2
 10
198.9571794166646
 20
202.060503870769
 40
0.1999999999999886
 50
0.0000000000162844
 51
90.0
 73
     1
 72
     1
 10
198.9571794166646
 20
202.2605038707689
 11
198.3571794166645
 21
202.2605038707689
 72
     2
 10
198.3571794166645
 20
202.060503870769
 40
0.1999999999999886
 50
90.0
 51
179.9999999999837
 73
     1
 72
     1
 10
198.1571794166645
 20
202.060503870769
 11
198.1571794166645
 21
201.260503870769
 72
     1
 10
198.1571794166645
 20
201.260503870769
 11
196.1571794166646
 21
201.260503870769
 72
     1
 10
196.1571794166646
 20
201.260503870769
 11
196.1571794166646
 21
206.3605038707689
 72
     2
 10
196.1571794166646
 20
206.7605038707689
 40
0.4000000000000341
 50
270.0
 51
450.0
 73
     1
 72
     1
 10
196.1571794166646
 20
207.160503870769
 11
196.1571794166646
 21
212.260503870769
 72
     1
 10
196.1571794166646
 20
212.260503870769
 11
198.1571794166645
 21
212.260503870769
 72
     1
 10
198.1571794166645
 20
212.260503870769
 11
198.1571794166645
 21
211.460503870769
 72
     2
 10
198.3571794166646
 20
211.460503870769
 40
0.2000000000001023
 50
180.0000000000163
 51
269.9999999999674
 73
     1
 72
     1
 10
198.3571794166645
 20
211.260503870769
 11
198.9571794166646
 21
211.260503870769
 72
     2
 10
198.9571794166645
 20
211.460503870769
 40
0.2000000000001023
 50
270.0000000000326
 51
359.9999999999837
 73
     1
 72
     1
 10
199.1571794166645
 20
211.460503870769
 11
199.1571794166645
 21
212.7605038707689
 72
     2
 10
198.1571794166645
 20
212.7605038707689
 40
1.0
 50
0.0
 51
90.0
 73
     1
 72
     1
 10
198.1571794166645
 20
213.760503870769
 11
196.4571794166647
 21
213.760503870769
 72
     1
 10
196.4571794166647
 20
213.760503870769
 11
196.4571794166645
 21
230.3605038707691
 72
     1
 10
196.4571794166645
 20
230.3605038707691
 11
208.5071794166647
 21
230.3605038707686
 72
     1
 10
208.5071794166647
 20
230.3605038707686
 11
208.5071794166647
 21
229.5105038707687
 72
     2
 10
208.7071794166647
 20
229.5105038707687
 40
0.2000000000000455
 50
180.0000000000163
 51
270.0
 73
     1
 72
     1
 10
208.7071794166647
 20
229.3105038707687
 11
216.6071794166646
 21
229.3105038707687
 72
     1
 10
216.6071794166646
 20
229.3105038707687
 11
216.6071794166646
 21
224.960503870769
 72
     2
 10
216.8071794166647
 20
224.9605038707691
 40
0.2000000000001023
 50
180.0000000000163
 51
269.9999999999674
 73
     1
 72
     1
 10
216.8071794166646
 20
224.760503870769
 11
217.9071794166646
 21
224.760503870769
 72
     2
 10
217.9071794166646
 20
224.960503870769
 40
0.2000000000000455
 50
270.0
 51
359.9999999999837
 73
     1
 72
     1
 10
218.1071794166646
 20
224.9605038707689
 11
218.1071794166646
 21
229.3105038707687
 72
     2
 10
216.6071794166646
 20
229.3105038707687
 40
1.5
 50
0.0
 51
90.0
 73
     1
 72
     1
 10
216.6071794166646
 20
230.8105038707687
 11
215.2946380254823
 21
230.8105038707687
 72
     1
 10
215.2946380254823
 20
230.8105038707687
 11
215.2946380254823
 21
231.3105038707687
 72
     2
 10
214.3946380254824
 20
231.3105038707688
 40
0.8999999999998919
 50
359.9999999999964
 51
493.341758227219
 73
     1
 72
     2
 10
212.5071794166652
 20
233.3105038707685
 40
1.849999999999593
 50
46.65824177278063
 51
133.341758227215
 73
     0
 72
     2
 10
210.6197208078475
 20
231.3105038707671
 40
0.9000000000014225
 50
46.65824177282679
 51
79.26123576009786
 73
     1
 72
     2
 10
212.5071794166651
 20
233.3105038707681
 40
2.049999999999971
 50
147.0249334069858
 51
212.9750665930549
 73
     0
 72
     2
 10
210.6197208078472
 20
235.3105038707681
 40
0.8999999999995306
 50
280.7387642399932
 51
313.341758227267
 73
     1
 72
     2
 10
212.5071794166648
 20
233.3105038707687
 40
1.849999999999963
 50
226.658241772789
 51
313.3417582272159
 73
     0
 72
     2
 10
214.3946380254824
 20
235.3105038707688
 40
0.9000000000000309
 50
226.658241772773
 51
350.6268906309589
 73
     1
 72
     2
 10
215.1571794166647
 20
237.4605038707687
 40
2.299999999999914
 50
273.1264742241181
 51
360.0
 73
     1
 72
     1
 10
217.4571794166646
 20
237.4605038707687
 11
217.4571794166648
 21
238.4605038707689
 72
     2
 10
217.9571794166648
 20
238.4605038707689
 40
0.5
 50
180.0
 51
270.0
 73
     0
 72
     1
 10
217.9571794166648
 20
238.9605038707689
 11
221.6571794166646
 21
238.9605038707689
 72
     1
 10
221.6571794166646
 20
238.9605038707689
 11
221.6571794166646
 21
238.760503870769
 72
     2
 10
221.8571794166647
 20
238.760503870769
 40
0.2000000000001023
 50
180.0000000000163
 51
269.9999999999674
 73
     1
 72
     1
 10
221.8571794166646
 20
238.5605038707689
 11
229.4571794166645
 21
238.5605038707689
 72
     2
 10
229.4571794166645
 20
238.760503870769
 40
0.2000000000001023
 50
270.0000000000163
 51
359.9999999999837
 73
     1
 72
     1
 10
229.6571794166646
 20
238.760503870769
 11
229.6571794166646
 21
238.9605038707689
 72
     1
 10
229.6571794166646
 20
238.9605038707689
 11
234.4571794166646
 21
238.9605038707689
 72
     2
 10
234.4571794166645
 20
239.160503870769
 40
0.2000000000001023
 50
270.0000000000326
 51
359.9999999999837
 73
     1
 72
     1
 10
234.6571794166646
 20
239.1605038707689
 11
234.6571794166646
 21
239.3605038707689
 72
     1
 10
234.6571794166646
 20
239.3605038707689
 11
240.782308840381
 21
239.3605038707689
 72
     2
 10
241.6697208078463
 20
239.5105038707692
 40
0.9000000000004636
 50
189.5940682268723
 51
313.341758227233
 73
     1
 72
     2
 10
243.5571794166642
 20
237.5105038707695
 40
1.849999999999345
 50
226.6582417727734
 51
313.3417582272216
 73
     0
 97
        1
330
4DD1
 75
     0
 76
     1
 98
        1
 10
0.0
 20
0.0
  0
ENDBLK
  5
37C8
330
37C6
100
AcDbEntity
  8
0
100
AcDbBlockEnd
  0
BLOCK
  5
37CF
330
37CE
100
AcDbEntity
  8
0
100
AcDbBlockBegin
  2
08658
 70
     0
 10
-18.91057809592212
 20
-46.37611721404226
 30
0.0
  3
08658
  1
08658.dwg
  0
LWPOLYLINE
  5
4DD4
102
{ACAD_REACTORS
330
4DD6
102
}
330
37CE
100
AcDbEntity
  8
APL Joinery
  6
Continuous
100
AcDbPolyline
 90
       61
 70
     1
 43
0.0
 10
-8.910578095922119
 20
-46.57611721404225
 10
-8.910578095922119
 20
-48.37611721404226
 10
-1.260578095922141
 20
-48.37611721404226
 42
-0.4142135623730951
 10
-1.010578095922141
 20
-48.62611721404227
 10
-1.010578095922141
 20
-54.62611721404233
 42
0.4142135623730951
 10
-0.510578095922142
 20
-55.12611721404232
 10
4.871045285671129
 20
-55.12611721404232
 10
6.948000547840592
 20
-53.04916195187286
 42
-0.4142135623730951
 10
7.230843260315168
 20
-53.04916195187286
 10
9.307798522484631
 20
-55.12611721404232
 10
14.6894219040779
 20
-55.12611721404232
 42
0.4142135623730951
 10
15.1894219040779
 20
-54.62611721404233
 10
15.1894219040779
 20
-48.57611721404225
 42
-0.4142135623730118
 10
15.38942190407789
 20
-48.37611721404226
 10
16.78942190407787
 20
-48.37611721404226
 42
-0.4142135623730118
 10
16.98942190407786
 20
-48.57611721404225
 10
16.98942190407786
 20
-70.37611721404232
 10
21.58942190407788
 20
-70.37611721404232
 10
21.58942190407788
 20
-66.57611721404236
 42
-0.4142135623730118
 10
21.78942190407787
 20
-66.37611721404232
 10
22.88942190407789
 20
-66.37611721404238
 42
-0.4142135623730118
 10
23.08942190407788
 20
-66.57611721404236
 10
23.08942190407788
 20
-70.37611721404232
 10
26.83942190407788
 20
-70.37611721404232
 42
-0.4142135623730951
 10
27.08942190407788
 20
-70.62611721404232
 10
27.08942190407788
 20
-71.92611721404228
 42
-0.4142135623730951
 10
26.83942190407788
 20
-72.17611721404228
 10
15.6894219040779
 20
-72.17611721404228
 42
-0.4142135623730951
 10
15.1894219040779
 20
-71.67611721404227
 10
15.1894219040779
 20
-56.92611721404228
 10
7.489421904077289
 20
-56.92611721404228
 10
7.08942190407788
 20
-56.52611721404287
 10
6.689421904078415
 20
-56.92611721404228
 10
-1.010578095922141
 20
-56.92611721404228
 10
-1.010578095922141
 20
-71.67611721404227
 42
-0.4142135623730951
 10
-1.510578095922141
 20
-72.17611721404228
 10
-17.41057809592212
 20
-72.17611721404228
 10
-17.41057809592212
 20
-81.2761172140423
 10
-15.41057809592212
 20
-81.2761172140423
 42
-0.4142135623730951
 10
-14.91057809592212
 20
-81.77611721404231
 10
-14.91057809592212
 20
-83.32611721404225
 42
-0.9999999999999998
 10
-15.91057809592212
 20
-83.32611721404225
 10
-15.91057809592212
 20
-82.57611721404225
 10
-17.41057809592212
 20
-82.57611721404225
 10
-17.41057809592212
 20
-88.07611721404226
 10
-15.91057809592212
 20
-88.07611721404226
 10
-15.91057809592212
 20
-87.32611721404225
 42
-0.9999999999999998
 10
-14.91057809592212
 20
-87.32611721404225
 10
-14.91057809592212
 20
-88.87611721404232
 42
-0.4142135623730951
 10
-15.41057809592212
 20
-89.37611721404232
 10
-18.71057809592213
 20
-89.37611721404227
 42
-0.4142135623730118
 10
-18.91057809592212
 20
-89.17611721404227
 10
-18.91057809592212
 20
-70.62611721404232
 42
-0.4142135623730951
 10
-18.66057809592212
 20
-70.37611721404232
 10
-12.91057809592212
 20
-70.37611721404232
 10
-12.91057809592212
 20
-48.62611721404227
 42
-0.4142135623730951
 10
-12.66057809592212
 20
-48.37611721404226
 10
-10.41057809592212
 20
-48.37611721404226
 10
-10.41057809592212
 20
-46.57611721404225
 42
-0.4142135623730118
 10
-10.21057809592213
 20
-46.37611721404226
 10
-9.110578095922107
 20
-46.37611721404226
 42
-0.4142135623730118
  0
LWPOLYLINE
  5
4DD5
102
{ACAD_REACTORS
330
4DD6
102
}
330
37CE
100
AcDbEntity
  8
APL Joinery
  6
Continuous
100
AcDbPolyline
 90
        8
 70
     1
 43
0.0
 10
-11.11057809592216
 20
-50.67611721404228
 42
-0.4142135623730951
 10
-10.61057809592216
 20
-50.17611721404228
 10
-3.310578095922096
 20
-50.17611721404228
 42
-0.4142135623730951
 10
-2.810578095922096
 20
-50.67611721404228
 10
-2.810578095922096
 20
-69.87611721404232
 42
-0.4142135623730951
 10
-3.310578095922096
 20
-70.37611721404232
 10
-10.61057809592216
 20
-70.37611721404232
 42
-0.4142135623730951
 10
-11.11057809592216
 20
-69.87611721404232
  0
HATCH
  5
4DD6
330
37CE
100
AcDbEntity
  8
APL Hatch
100
AcDbHatch
 10
0.0
 20
0.0
 30
0.0
210
0.0
220
0.0
230
1.0
  2
SOLID
 70
     1
 71
     1
 91
        2
 92
        1
 93
       61
 72
     1
 10
-8.910578095922119
 20
-46.57611721404225
 11
-8.910578095922119
 21
-48.37611721404226
 72
     1
 10
-8.910578095922119
 20
-48.37611721404226
 11
-1.260578095922141
 21
-48.37611721404226
 72
     2
 10
-1.260578095922141
 20
-48.62611721404227
 40
0.25
 50
270.0
 51
360.0
 73
     0
 72
     1
 10
-1.010578095922141
 20
-48.62611721404227
 11
-1.010578095922141
 21
-54.62611721404233
 72
     2
 10
-0.510578095922142
 20
-54.62611721404233
 40
0.5
 50
180.0
 51
270.0
 73
     1
 72
     1
 10
-0.510578095922142
 20
-55.12611721404232
 11
4.871045285671129
 21
-55.12611721404232
 72
     1
 10
4.871045285671129
 20
-55.12611721404232
 11
6.948000547840592
 21
-53.04916195187286
 72
     2
 10
7.08942190407788
 20
-53.19058330811015
 40
0.1999999999999694
 50
225.0
 51
315.0
 73
     0
 72
     1
 10
7.230843260315168
 20
-53.04916195187286
 11
9.307798522484631
 21
-55.12611721404232
 72
     1
 10
9.307798522484631
 20
-55.12611721404232
 11
14.6894219040779
 21
-55.12611721404232
 72
     2
 10
14.6894219040779
 20
-54.62611721404233
 40
0.5
 50
270.0
 51
360.0
 73
     1
 72
     1
 10
15.1894219040779
 20
-54.62611721404233
 11
15.1894219040779
 21
-48.57611721404225
 72
     2
 10
15.38942190407792
 20
-48.57611721404229
 40
0.200000000000017
 50
180.0000000000081
 51
269.9999999999919
 73
     0
 72
     1
 10
15.38942190407789
 20
-48.37611721404226
 11
16.78942190407787
 21
-48.37611721404226
 72
     2
 10
16.78942190407784
 20
-48.57611721404229
 40
0.200000000000017
 50
270.0000000000081
 51
359.9999999999919
 73
     0
 72
     1
 10
16.98942190407786
 20
-48.57611721404225
 11
16.98942190407786
 21
-70.37611721404232
 72
     1
 10
16.98942190407786
 20
-70.37611721404232
 11
21.58942190407788
 21
-70.37611721404232
 72
     1
 10
21.58942190407788
 20
-70.37611721404232
 11
21.58942190407788
 21
-66.57611721404236
 72
     2
 10
21.78942190407793
 20
-66.57611721404236
 40
0.2000000000000455
 50
180.0
 51
269.9999999999838
 73
     0
 72
     1
 10
21.78942190407787
 20
-66.37611721404232
 11
22.88942190407789
 21
-66.37611721404238
 72
     2
 10
22.88942190407786
 20
-66.5761172140424
 40
0.200000000000017
 50
270.0000000000081
 51
359.9999999999919
 73
     0
 72
     1
 10
23.08942190407788
 20
-66.57611721404236
 11
23.08942190407788
 21
-70.37611721404232
 72
     1
 10
23.08942190407788
 20
-70.37611721404232
 11
26.83942190407788
 21
-70.37611721404232
 72
     2
 10
26.83942190407788
 20
-70.62611721404232
 40
0.25
 50
270.0
 51
360.0
 73
     0
 72
     1
 10
27.08942190407788
 20
-70.62611721404232
 11
27.08942190407788
 21
-71.92611721404228
 72
     2
 10
26.83942190407788
 20
-71.92611721404228
 40
0.25
 50
360.0
 51
450.0
 73
     0
 72
     1
 10
26.83942190407788
 20
-72.17611721404228
 11
15.6894219040779
 21
-72.17611721404228
 72
     2
 10
15.6894219040779
 20
-71.67611721404227
 40
0.5
 50
90.0
 51
180.0
 73
     0
 72
     1
 10
15.1894219040779
 20
-71.67611721404227
 11
15.1894219040779
 21
-56.92611721404228
 72
     1
 10
15.1894219040779
 20
-56.92611721404228
 11
7.489421904077289
 21
-56.92611721404228
 72
     1
 10
7.489421904077289
 20
-56.92611721404228
 11
7.08942190407788
 21
-56.52611721404287
 72
     1
 10
7.08942190407788
 20
-56.52611721404287
 11
6.689421904078415
 21
-56.92611721404228
 72
     1
 10
6.689421904078415
 20
-56.92611721404228
 11
-1.010578095922141
 21
-56.92611721404228
 72
     1
 10
-1.010578095922141
 20
-56.92611721404228
 11
-1.010578095922141
 21
-71.67611721404227
 72
     2
 10
-1.510578095922141
 20
-71.67611721404227
 40
0.5
 50
360.0
 51
450.0
 73
     0
 72
     1
 10
-1.510578095922141
 20
-72.17611721404228
 11
-17.41057809592212
 21
-72.17611721404228
 72
     1
 10
-17.41057809592212
 20
-72.17611721404228
 11
-17.41057809592212
 21
-81.2761172140423
 72
     1
 10
-17.41057809592212
 20
-81.2761172140423
 11
-15.41057809592212
 21
-81.2761172140423
 72
     2
 10
-15.41057809592212
 20
-81.77611721404231
 40
0.5
 50
270.0
 51
360.0
 73
     0
 72
     1
 10
-14.91057809592212
 20
-81.77611721404231
 11
-14.91057809592212
 21
-83.32611721404225
 72
     2
 10
-15.41057809592212
 20
-83.32611721404225
 40
0.5
 50
360.0
 51
540.0
 73
     0
 72
     1
 10
-15.91057809592212
 20
-83.32611721404225
 11
-15.91057809592212
 21
-82.57611721404225
 72
     1
 10
-15.91057809592212
 20
-82.57611721404225
 11
-17.41057809592212
 21
-82.57611721404225
 72
     1
 10
-17.41057809592212
 20
-82.57611721404225
 11
-17.41057809592212
 21
-88.07611721404226
 72
     1
 10
-17.41057809592212
 20
-88.07611721404226
 11
-15.91057809592212
 21
-88.07611721404226
 72
     1
 10
-15.91057809592212
 20
-88.07611721404226
 11
-15.91057809592212
 21
-87.32611721404225
 72
     2
 10
-15.41057809592212
 20
-87.32611721404225
 40
0.5
 50
180.0
 51
360.0
 73
     0
 72
     1
 10
-14.91057809592212
 20
-87.32611721404225
 11
-14.91057809592212
 21
-88.87611721404232
 72
     2
 10
-15.41057809592212
 20
-88.87611721404232
 40
0.5
 50
360.0
 51
450.0
 73
     0
 72
     1
 10
-15.41057809592212
 20
-89.37611721404232
 11
-18.71057809592213
 21
-89.37611721404227
 72
     2
 10
-18.7105780959221
 20
-89.17611721404226
 40
0.200000000000017
 50
90.00000000000815
 51
179.9999999999918
 73
     0
 72
     1
 10
-18.91057809592212
 20
-89.17611721404227
 11
-18.91057809592212
 21
-70.62611721404232
 72
     2
 10
-18.66057809592212
 20
-70.62611721404232
 40
0.25
 50
180.0
 51
270.0
 73
     0
 72
     1
 10
-18.66057809592212
 20
-70.37611721404232
 11
-12.91057809592212
 21
-70.37611721404232
 72
     1
 10
-12.91057809592212
 20
-70.37611721404232
 11
-12.91057809592212
 21
-48.62611721404227
 72
     2
 10
-12.66057809592212
 20
-48.62611721404227
 40
0.25
 50
180.0
 51
270.0
 73
     0
 72
     1
 10
-12.66057809592212
 20
-48.37611721404226
 11
-10.41057809592212
 21
-48.37611721404226
 72
     1
 10
-10.41057809592212
 20
-48.37611721404226
 11
-10.41057809592212
 21
-46.57611721404225
 72
     2
 10
-10.2105780959221
 20
-46.57611721404228
 40
0.200000000000017
 50
180.0000000000081
 51
269.9999999999919
 73
     0
 72
     1
 10
-10.21057809592213
 20
-46.37611721404226
 11
-9.110578095922107
 21
-46.37611721404226
 72
     2
 10
-9.110578095922136
 20
-46.57611721404228
 40
0.200000000000017
 50
270.0000000000081
 51
359.9999999999919
 73
     0
 97
        1
330
4DD4
 92
       16
 93
        8
 72
     2
 10
-10.61057809592216
 20
-50.67611721404228
 40
0.5
 50
180.0
 51
270.0
 73
     0
 72
     1
 10
-10.61057809592216
 20
-50.17611721404228
 11
-3.310578095922096
 21
-50.17611721404228
 72
     2
 10
-3.310578095922096
 20
-50.67611721404228
 40
0.5
 50
270.0
 51
360.0
 73
     0
 72
     1
 10
-2.810578095922096
 20
-50.67611721404228
 11
-2.810578095922096
 21
-69.87611721404232
 72
     2
 10
-3.310578095922096
 20
-69.87611721404232
 40
0.5
 50
360.0
 51
450.0
 73
     0
 72
     1
 10
-3.310578095922096
 20
-70.37611721404232
 11
-10.61057809592216
 21
-70.37611721404232
 72
     2
 10
-10.61057809592216
 20
-69.87611721404232
 40
0.5
 50
90.0
 51
180.0
 73
     0
 72
     1
 10
-11.11057809592216
 20
-69.87611721404232
 11
-11.11057809592216
 21
-50.67611721404228
 97
        1
330
4DD5
 75
     0
 76
     1
 98
        1
 10
0.0
 20
0.0
  0
ENDBLK
  5
37D0
330
37CE
100
AcDbEntity
  8
0
100
AcDbBlockEnd
  0
BLOCK
  5
37D5
330
37D4
100
AcDbEntity
  8
0
100
AcDbBlockBegin
  2
08657
 70
     0
 10
202.1973787119766
 20
-88.89687813863815
 30
0.0
  3
08657
  1
08657.dwg
  0
LWPOLYLINE
  5
4DD8
102
{ACAD_REACTORS
330
4DDA
102
}
330
37D4
100
AcDbEntity
  8
APL Joinery
  6
Continuous
100
AcDbPolyline
 90
       50
 70
     1
 43
0.0
 10
185.6934625231091
 20
-71.12528722954703
 42
0.3178292494321109
 10
184.9923787119766
 20
-66.67695626476036
 42
0.9999999999999998
 10
183.7023787119764
 20
-67.93230482193455
 42
-2.368487253623488
 10
180.6923787119764
 20
-67.93230482193466
 42
1.0
 10
179.4023787119767
 20
-66.67695626476038
 42
0.3178292494321219
 10
178.701294900844
 20
-71.12528722954721
 42
-0.5560618822138327
 10
178.253079027622
 20
-71.84687813863821
 10
166.9973787119765
 20
-71.84687813863809
 10
166.9973787119765
 20
-71.07187813863808
 42
0.4142135623730617
 10
166.7973787119765
 20
-70.87187813863806
 10
166.1973787119765
 20
-70.87187813863806
 42
0.4142135623730951
 10
165.9973787119765
 20
-71.07187813863811
 10
165.9973787119765
 20
-71.89687813863816
 10
163.9973787119765
 20
-71.89687813863816
 10
163.9973787119765
 20
-66.79687813863814
 42
0.9999999999999998
 10
163.9973787119765
 20
-65.99687813863818
 10
163.9973787119765
 20
-60.89687813863815
 10
165.9973787119765
 20
-60.89687813863815
 10
165.9973787119765
 20
-61.67187813863815
 42
0.4142135623730617
 10
166.1973787119765
 20
-61.87187813863818
 10
166.7973787119765
 20
-61.87187813863815
 42
0.4142135623730617
 10
166.9973787119765
 20
-61.67187813863813
 10
166.9973787119765
 20
-60.89687813863815
 10
177.9973787119768
 20
-60.89687813863818
 42
0.4142135623731284
 10
178.1973787119768
 20
-60.69687813863811
 10
178.1973787119768
 20
-60.19687813863834
 10
182.3973787119766
 20
-60.19687813863837
 42
0.4142135623730951
 10
184.6973787119766
 20
-57.89687813863839
 10
184.6973787119766
 20
-56.39687813863815
 10
197.3973787119766
 20
-56.39687813863815
 10
197.3973787119766
 20
-57.19687813863814
 42
0.4142135623730617
 10
197.5973787119766
 20
-57.39687813863816
 10
198.1973787119765
 20
-57.39687813863813
 42
0.4142135623730617
 10
198.3973787119766
 20
-57.19687813863811
 10
198.3973787119766
 20
-56.39687813863815
 10
200.3973787119766
 20
-56.39687813863815
 10
200.3973787119766
 20
-61.49687813863818
 42
0.9999999999999998
 10
200.3973787119766
 20
-62.29687813863813
 10
200.3973787119766
 20
-67.39687813863816
 10
198.3973787119766
 20
-67.39687813863816
 10
198.3973787119766
 20
-66.59687813863818
 42
0.4142135623730617
 10
198.1973787119765
 20
-66.39687813863815
 10
197.5973787119766
 20
-66.39687813863819
 42
0.4142135623730617
 10
197.3973787119766
 20
-66.5968781386382
 10
197.3973787119766
 20
-67.39687813863816
 42
0.4142135623730951
 10
198.3973787119766
 20
-68.39687813863815
 10
200.3973787119766
 20
-68.39687813863815
 10
200.3973787119766
 20
-71.34687813863809
 42
-0.4142135623730951
 10
199.8973787119766
 20
-71.84687813863809
 10
186.1416783963312
 20
-71.84687813863821
 42
-0.5560618822138656
  0
LWPOLYLINE
  5
4DD9
102
{ACAD_REACTORS
330
4DDA
102
}
330
37D4
100
AcDbEntity
  8
APL Joinery
  6
Continuous
100
AcDbPolyline
 90
      119
 70
     1
 43
0.0
 10
163.9973787119765
 20
-78.74687813863807
 10
163.9973787119765
 20
-73.64687813863816
 10
165.9973787119765
 20
-73.64687813863816
 10
165.9973787119765
 20
-74.44687813863814
 42
0.4142135623730617
 10
166.1973787119765
 20
-74.64687813863815
 10
166.7973787119765
 20
-74.64687813863815
 42
0.4142135623730617
 10
166.9973787119765
 20
-74.44687813863811
 10
166.9973787119765
 20
-73.64687813863816
 10
173.0973787119764
 20
-73.64687813863816
 10
173.0973787119764
 20
-74.24687813863807
 42
0.4142135623730951
 10
173.2973787119765
 20
-74.44687813863811
 10
173.8973787119764
 20
-74.44687813863805
 42
0.4142135623731451
 10
174.0973787119764
 20
-74.24687813863807
 10
174.0973787119764
 20
-73.64687813863816
 10
181.7973787119765
 20
-73.64687813863816
 10
182.1973787119765
 20
-73.24687813863807
 10
182.5973787119766
 20
-73.64687813863816
 10
190.2973787119767
 20
-73.64687813863816
 10
190.2973787119767
 20
-74.24687813863807
 42
0.4142135623730951
 10
190.4973787119767
 20
-74.44687813863811
 10
191.0973787119768
 20
-74.44687813863811
 42
0.4142135623731284
 10
191.2973787119767
 20
-74.24687813863807
 10
191.2973787119767
 20
-73.64687813863816
 10
197.3973787119766
 20
-73.64687813863816
 10
197.3973787119766
 20
-74.44687813863814
 42
0.4142135623730617
 10
197.5973787119766
 20
-74.64687813863815
 10
198.1973787119767
 20
-74.64687813863815
 42
0.4142135623731284
 10
198.3973787119766
 20
-74.44687813863811
 10
198.3973787119766
 20
-73.64687813863816
 10
200.3973787119766
 20
-73.64687813863816
 10
200.3973787119766
 20
-78.74687813863815
 42
0.9999999999999998
 10
200.3973787119766
 20
-79.54687813863813
 10
200.3973787119766
 20
-84.64687813863816
 10
198.3973787119766
 20
-84.64687813863816
 10
198.3973787119765
 20
-83.84687813863818
 42
0.4142135623730617
 10
198.1973787119765
 20
-83.64687813863815
 10
197.5973787119766
 20
-83.64687813863815
 42
0.4142135623730617
 10
197.3973787119766
 20
-83.8468781386382
 10
197.3973787119766
 20
-84.64687813863816
 10
193.1973787119767
 20
-84.64687813863809
 42
0.4142135623731284
 10
191.8973787119766
 20
-85.94687813863812
 10
191.8973787119766
 20
-86.84687813863808
 42
-0.4142135623730951
 10
191.6473787119766
 20
-87.09687813863808
 10
190.7973787119767
 20
-87.09687813863808
 42
0.4142135623730951
 10
190.2973787119767
 20
-87.59687813863809
 10
190.2973787119767
 20
-88.39687813863816
 42
0.4142135623730951
 10
190.7973787119767
 20
-88.89687813863815
 10
194.1693787119765
 20
-88.89687813863815
 42
0.9999999999999998
 10
194.1693787119765
 20
-87.64687813863815
 10
193.1973787119765
 20
-87.64687813863815
 10
193.1973787119765
 20
-86.14687813863815
 10
200.8973787119766
 20
-86.14687813863815
 10
200.8973787119766
 20
-87.64687813863815
 10
199.9253787119766
 20
-87.64687813863815
 42
0.9999999999999998
 10
199.9253787119766
 20
-88.89687813863815
 10
201.9973787119765
 20
-88.89687813863815
 42
0.4142135623730617
 10
202.1973787119766
 20
-88.6968781386381
 10
202.1973787119765
 20
-33.09687813863818
 42
0.4142135623730617
 10
201.9973787119765
 20
-32.89687813863816
 10
200.0973787119765
 20
-32.89687813863816
 42
0.4142135623731451
 10
199.8973787119766
 20
-33.09687813863815
 10
199.8973787119766
 20
-34.89687813863816
 10
198.6973787119765
 20
-34.89687813863816
 42
0.4142135623730951
 10
198.1973787119765
 20
-35.39687813863816
 10
198.1973787119765
 20
-36.94687813863823
 42
0.9999999999999998
 10
199.1973787119766
 20
-36.94687813863823
 10
199.1973787119766
 20
-36.19687813863823
 10
200.6973787119766
 20
-36.19687813863823
 10
200.6973787119766
 20
-41.69687813863823
 10
199.1973787119766
 20
-41.69687813863823
 10
199.1973787119766
 20
-40.94687813863822
 42
0.9999999999999998
 10
198.1973787119765
 20
-40.94687813863822
 10
198.1973787119765
 20
-42.49687813863817
 42
0.4142135623730951
 10
198.6973787119765
 20
-42.99687813863818
 10
200.1973787119766
 20
-42.99687813863818
 10
200.1973787119766
 20
-53.89687813863815
 42
-0.4142135623730951
 10
199.1973787119766
 20
-54.89687813863816
 10
180.1973787119768
 20
-54.89687813863838
 42
0.9999999999999998
 10
180.1973787119768
 20
-55.89687813863839
 10
182.6973787119768
 20
-55.89687813863839
 42
-0.4142135623730951
 10
183.1973787119768
 20
-56.39687813863838
 10
183.1973787119768
 20
-58.19687813863834
 42
-0.4142135623730951
 10
182.6973787119768
 20
-58.69687813863833
 10
176.5973787119766
 20
-58.69687813863833
 42
0.4142135623730617
 10
176.3973787119766
 20
-58.89687813863838
 10
176.3973787119766
 20
-59.39687813863816
 10
163.6973787119766
 20
-59.39687813863816
 10
163.6973787119766
 20
-56.39687813863815
 10
164.4473787119765
 20
-56.39687813863814
 42
0.4744978678080916
 10
164.6923276862549
 20
-56.09687813863825
 42
0.356393958692619
 10
163.222633840585
 20
-54.89687813863816
 10
162.4473787119765
 20
-54.89687813863816
 42
0.4142135623730951
 10
162.1973787119765
 20
-55.14687813863815
 10
162.1973787119765
 20
-88.39687813863816
 42
0.4142135623730951
 10
162.6973787119766
 20
-88.89687813863815
 10
164.4693787119765
 20
-88.89687813863815
 42
0.9999999999999998
 10
164.4693787119765
 20
-87.64687813863815
 10
163.4973787119765
 20
-87.64687813863815
 10
163.4973787119765
 20
-86.14687813863815
 10
171.1973787119766
 20
-86.14687813863815
 10
171.1973787119766
 20
-87.64687813863815
 10
170.2253787119766
 20
-87.64687813863815
 42
0.9999999999999998
 10
170.2253787119766
 20
-88.89687813863815
 10
173.5973787119764
 20
-88.89687813863815
 42
0.4142135623730951
 10
174.0973787119764
 20
-88.39687813863816
 10
174.0973787119764
 20
-87.59687813863809
 42
0.4142135623730951
 10
173.5973787119764
 20
-87.09687813863808
 10
172.7473787119765
 20
-87.09687813863808
 42
-0.4142135623730951
 10
172.4973787119765
 20
-86.84687813863808
 10
172.4973787119765
 20
-85.94687813863812
 42
0.4142135623730951
 10
171.1973787119766
 20
-84.64687813863816
 10
166.9973787119765
 20
-84.64687813863816
 10
166.9973787119765
 20
-83.84687813863818
 42
0.4142135623730617
 10
166.7973787119765
 20
-83.64687813863815
 10
166.1973787119765
 20
-83.64687813863815
 42
0.4142135623730617
 10
165.9973787119765
 20
-83.8468781386382
 10
165.9973787119765
 20
-84.64687813863816
 10
163.9973787119765
 20
-84.64687813863816
 10
163.9973787119765
 20
-79.54687813863817
 42
0.9999999999999998
  0
HATCH
  5
4DDA
330
37D4
100
AcDbEntity
  8
APL Hatch
100
AcDbHatch
 10
0.0
 20
0.0
 30
0.0
210
0.0
220
0.0
230
1.0
  2
SOLID
 70
     1
 71
     1
 91
        2
 92
        1
 93
      119
 72
     1
 10
163.9973787119765
 20
-78.74687813863807
 11
163.9973787119765
 21
-73.64687813863816
 72
     1
 10
163.9973787119765
 20
-73.64687813863816
 11
165.9973787119765
 21
-73.64687813863816
 72
     1
 10
165.9973787119765
 20
-73.64687813863816
 11
165.9973787119765
 21
-74.44687813863814
 72
     2
 10
166.1973787119765
 20
-74.44687813863812
 40
0.200000000000017
 50
180.000000000004
 51
270.0
 73
     1
 72
     1
 10
166.1973787119765
 20
-74.64687813863815
 11
166.7973787119765
 21
-74.64687813863815
 72
     2
 10
166.7973787119765
 20
-74.4468781386381
 40
0.2000000000000597
 50
270.0
 51
359.9999999999959
 73
     1
 72
     1
 10
166.9973787119765
 20
-74.44687813863811
 11
166.9973787119765
 21
-73.64687813863816
 72
     1
 10
166.9973787119765
 20
-73.64687813863816
 11
173.0973787119764
 21
-73.64687813863816
 72
     1
 10
173.0973787119764
 20
-73.64687813863816
 11
173.0973787119764
 21
-74.24687813863807
 72
     2
 10
173.2973787119765
 20
-74.24687813863807
 40
0.2000000000000455
 50
180.0
 51
270.0
 73
     1
 72
     1
 10
173.2973787119765
 20
-74.44687813863811
 11
173.8973787119764
 21
-74.44687813863805
 72
     2
 10
173.8973787119764
 20
-74.24687813863805
 40
0.2000000000000028
 50
269.9999999999838
 51
359.9999999999959
 73
     1
 72
     1
 10
174.0973787119764
 20
-74.24687813863807
 11
174.0973787119764
 21
-73.64687813863816
 72
     1
 10
174.0973787119764
 20
-73.64687813863816
 11
181.7973787119765
 21
-73.64687813863816
 72
     1
 10
181.7973787119765
 20
-73.64687813863816
 11
182.1973787119765
 21
-73.24687813863807
 72
     1
 10
182.1973787119765
 20
-73.24687813863807
 11
182.5973787119766
 21
-73.64687813863816
 72
     1
 10
182.5973787119766
 20
-73.64687813863816
 11
190.2973787119767
 21
-73.64687813863816
 72
     1
 10
190.2973787119767
 20
-73.64687813863816
 11
190.2973787119767
 21
-74.24687813863807
 72
     2
 10
190.4973787119767
 20
-74.24687813863807
 40
0.2000000000000455
 50
180.0
 51
270.0
 73
     1
 72
     1
 10
190.4973787119767
 20
-74.44687813863811
 11
191.0973787119768
 21
-74.44687813863811
 72
     2
 10
191.0973787119767
 20
-74.24687813863814
 40
0.1999999999999744
 50
270.0000000000163
 51
360.0000000000203
 73
     1
 72
     1
 10
191.2973787119767
 20
-74.24687813863807
 11
191.2973787119767
 21
-73.64687813863816
 72
     1
 10
191.2973787119767
 20
-73.64687813863816
 11
197.3973787119766
 21
-73.64687813863816
 72
     1
 10
197.3973787119766
 20
-73.64687813863816
 11
197.3973787119766
 21
-74.44687813863814
 72
     2
 10
197.5973787119766
 20
-74.44687813863812
 40
0.200000000000017
 50
180.000000000004
 51
270.0
 73
     1
 72
     1
 10
197.5973787119766
 20
-74.64687813863815
 11
198.1973787119767
 21
-74.64687813863815
 72
     2
 10
198.1973787119766
 20
-74.44687813863819
 40
0.1999999999999744
 50
270.0000000000163
 51
360.0000000000203
 73
     1
 72
     1
 10
198.3973787119766
 20
-74.44687813863811
 11
198.3973787119766
 21
-73.64687813863816
 72
     1
 10
198.3973787119766
 20
-73.64687813863816
 11
200.3973787119766
 21
-73.64687813863816
 72
     1
 10
200.3973787119766
 20
-73.64687813863816
 11
200.3973787119766
 21
-78.74687813863815
 72
     2
 10
200.3973787119766
 20
-79.14687813863814
 40
0.3999999999999915
 50
90.0
 51
270.0
 73
     1
 72
     1
 10
200.3973787119766
 20
-79.54687813863813
 11
200.3973787119766
 21
-84.64687813863816
 72
     1
 10
200.3973787119766
 20
-84.64687813863816
 11
198.3973787119766
 21
-84.64687813863816
 72
     1
 10
198.3973787119766
 20
-84.64687813863816
 11
198.3973787119765
 21
-83.84687813863818
 72
     2
 10
198.1973787119765
 20
-83.84687813863818
 40
0.200000000000017
 50
0.0000000000040711
 51
90.0
 73
     1
 72
     1
 10
198.1973787119765
 20
-83.64687813863815
 11
197.5973787119766
 21
-83.64687813863815
 72
     2
 10
197.5973787119766
 20
-83.84687813863822
 40
0.2000000000000597
 50
90.0
 51
179.9999999999959
 73
     1
 72
     1
 10
197.3973787119766
 20
-83.8468781386382
 11
197.3973787119766
 21
-84.64687813863816
 72
     1
 10
197.3973787119766
 20
-84.64687813863816
 11
193.1973787119767
 21
-84.64687813863809
 72
     2
 10
193.1973787119766
 20
-85.94687813863812
 40
1.300000000000011
 50
89.99999999999374
 51
180.0
 73
     1
 72
     1
 10
191.8973787119766
 20
-85.94687813863812
 11
191.8973787119766
 21
-86.84687813863808
 72
     2
 10
191.6473787119766
 20
-86.84687813863808
 40
0.25
 50
360.0
 51
450.0
 73
     0
 72
     1
 10
191.6473787119766
 20
-87.09687813863808
 11
190.7973787119767
 21
-87.09687813863808
 72
     2
 10
190.7973787119767
 20
-87.59687813863809
 40
0.5
 50
90.0
 51
180.0
 73
     1
 72
     1
 10
190.2973787119767
 20
-87.59687813863809
 11
190.2973787119767
 21
-88.39687813863816
 72
     2
 10
190.7973787119767
 20
-88.39687813863816
 40
0.5
 50
180.0
 51
270.0
 73
     1
 72
     1
 10
190.7973787119767
 20
-88.89687813863815
 11
194.1693787119765
 21
-88.89687813863815
 72
     2
 10
194.1693787119765
 20
-88.27187813863815
 40
0.625
 50
270.0
 51
450.0
 73
     1
 72
     1
 10
194.1693787119765
 20
-87.64687813863815
 11
193.1973787119765
 21
-87.64687813863815
 72
     1
 10
193.1973787119765
 20
-87.64687813863815
 11
193.1973787119765
 21
-86.14687813863815
 72
     1
 10
193.1973787119765
 20
-86.14687813863815
 11
200.8973787119766
 21
-86.14687813863815
 72
     1
 10
200.8973787119766
 20
-86.14687813863815
 11
200.8973787119766
 21
-87.64687813863815
 72
     1
 10
200.8973787119766
 20
-87.64687813863815
 11
199.9253787119766
 21
-87.64687813863815
 72
     2
 10
199.9253787119766
 20
-88.27187813863815
 40
0.625
 50
90.0
 51
270.0
 73
     1
 72
     1
 10
199.9253787119766
 20
-88.89687813863815
 11
201.9973787119765
 21
-88.89687813863815
 72
     2
 10
201.9973787119765
 20
-88.6968781386381
 40
0.2000000000000597
 50
270.0
 51
359.9999999999959
 73
     1
 72
     1
 10
202.1973787119766
 20
-88.6968781386381
 11
202.1973787119765
 21
-33.09687813863818
 72
     2
 10
201.9973787119765
 20
-33.09687813863819
 40
0.200000000000017
 50
0.0000000000020356
 51
90.0
 73
     1
 72
     1
 10
201.9973787119765
 20
-32.89687813863816
 11
200.0973787119765
 21
-32.89687813863816
 72
     2
 10
200.0973787119765
 20
-33.0968781386381
 40
0.199999999999946
 50
90.0
 51
180.0000000000122
 73
     1
 72
     1
 10
199.8973787119766
 20
-33.09687813863815
 11
199.8973787119766
 21
-34.89687813863816
 72
     1
 10
199.8973787119766
 20
-34.89687813863816
 11
198.6973787119765
 21
-34.89687813863816
 72
     2
 10
198.6973787119765
 20
-35.39687813863816
 40
0.5
 50
90.0
 51
180.0
 73
     1
 72
     1
 10
198.1973787119765
 20
-35.39687813863816
 11
198.1973787119765
 21
-36.94687813863823
 72
     2
 10
198.6973787119765
 20
-36.94687813863823
 40
0.5
 50
180.0
 51
360.0
 73
     1
 72
     1
 10
199.1973787119766
 20
-36.94687813863823
 11
199.1973787119766
 21
-36.19687813863823
 72
     1
 10
199.1973787119766
 20
-36.19687813863823
 11
200.6973787119766
 21
-36.19687813863823
 72
     1
 10
200.6973787119766
 20
-36.19687813863823
 11
200.6973787119766
 21
-41.69687813863823
 72
     1
 10
200.6973787119766
 20
-41.69687813863823
 11
199.1973787119766
 21
-41.69687813863823
 72
     1
 10
199.1973787119766
 20
-41.69687813863823
 11
199.1973787119766
 21
-40.94687813863822
 72
     2
 10
198.6973787119765
 20
-40.94687813863822
 40
0.5
 50
0.0
 51
180.0
 73
     1
 72
     1
 10
198.1973787119765
 20
-40.94687813863822
 11
198.1973787119765
 21
-42.49687813863817
 72
     2
 10
198.6973787119765
 20
-42.49687813863817
 40
0.5
 50
180.0
 51
270.0
 73
     1
 72
     1
 10
198.6973787119765
 20
-42.99687813863818
 11
200.1973787119766
 21
-42.99687813863818
 72
     1
 10
200.1973787119766
 20
-42.99687813863818
 11
200.1973787119766
 21
-53.89687813863815
 72
     2
 10
199.1973787119766
 20
-53.89687813863815
 40
1.0
 50
360.0
 51
450.0
 73
     0
 72
     1
 10
199.1973787119766
 20
-54.89687813863816
 11
180.1973787119768
 21
-54.89687813863838
 72
     2
 10
180.1973787119768
 20
-55.39687813863839
 40
0.5
 50
90.0
 51
270.0
 73
     1
 72
     1
 10
180.1973787119768
 20
-55.89687813863839
 11
182.6973787119768
 21
-55.89687813863839
 72
     2
 10
182.6973787119768
 20
-56.39687813863838
 40
0.5
 50
270.0
 51
360.0
 73
     0
 72
     1
 10
183.1973787119768
 20
-56.39687813863838
 11
183.1973787119768
 21
-58.19687813863834
 72
     2
 10
182.6973787119768
 20
-58.19687813863834
 40
0.5
 50
360.0
 51
450.0
 73
     0
 72
     1
 10
182.6973787119768
 20
-58.69687813863833
 11
176.5973787119766
 21
-58.69687813863833
 72
     2
 10
176.5973787119766
 20
-58.8968781386384
 40
0.2000000000000597
 50
90.0
 51
179.9999999999959
 73
     1
 72
     1
 10
176.3973787119766
 20
-58.89687813863838
 11
176.3973787119766
 21
-59.39687813863816
 72
     1
 10
176.3973787119766
 20
-59.39687813863816
 11
163.6973787119766
 21
-59.39687813863816
 72
     1
 10
163.6973787119766
 20
-59.39687813863816
 11
163.6973787119766
 21
-56.39687813863815
 72
     1
 10
163.6973787119766
 20
-56.39687813863815
 11
164.4473787119765
 21
-56.39687813863814
 72
     2
 10
164.4473787119766
 20
-56.14687813863817
 40
0.2499999999999716
 50
269.9999999999804
 51
371.5369590327974
 73
     1
 72
     2
 10
163.222633840585
 20
-56.39687813863815
 40
1.500000000000024
 50
11.53695903281158
 51
89.99999999999891
 73
     1
 72
     1
 10
163.222633840585
 20
-54.89687813863816
 11
162.4473787119765
 21
-54.89687813863816
 72
     2
 10
162.4473787119765
 20
-55.14687813863815
 40
0.25
 50
90.0
 51
180.0
 73
     1
 72
     1
 10
162.1973787119765
 20
-55.14687813863815
 11
162.1973787119765
 21
-88.39687813863816
 72
     2
 10
162.6973787119766
 20
-88.39687813863816
 40
0.5
 50
180.0
 51
270.0
 73
     1
 72
     1
 10
162.6973787119766
 20
-88.89687813863815
 11
164.4693787119765
 21
-88.89687813863815
 72
     2
 10
164.4693787119765
 20
-88.27187813863815
 40
0.625
 50
270.0
 51
450.0
 73
     1
 72
     1
 10
164.4693787119765
 20
-87.64687813863815
 11
163.4973787119765
 21
-87.64687813863815
 72
     1
 10
163.4973787119765
 20
-87.64687813863815
 11
163.4973787119765
 21
-86.14687813863815
 72
     1
 10
163.4973787119765
 20
-86.14687813863815
 11
171.1973787119766
 21
-86.14687813863815
 72
     1
 10
171.1973787119766
 20
-86.14687813863815
 11
171.1973787119766
 21
-87.64687813863815
 72
     1
 10
171.1973787119766
 20
-87.64687813863815
 11
170.2253787119766
 21
-87.64687813863815
 72
     2
 10
170.2253787119766
 20
-88.27187813863815
 40
0.625
 50
90.0
 51
270.0
 73
     1
 72
     1
 10
170.2253787119766
 20
-88.89687813863815
 11
173.5973787119764
 21
-88.89687813863815
 72
     2
 10
173.5973787119764
 20
-88.39687813863816
 40
0.5
 50
270.0
 51
360.0
 73
     1
 72
     1
 10
174.0973787119764
 20
-88.39687813863816
 11
174.0973787119764
 21
-87.59687813863809
 72
     2
 10
173.5973787119764
 20
-87.59687813863809
 40
0.5
 50
0.0
 51
90.0
 73
     1
 72
     1
 10
173.5973787119764
 20
-87.09687813863808
 11
172.7473787119765
 21
-87.09687813863808
 72
     2
 10
172.7473787119765
 20
-86.84687813863808
 40
0.25
 50
90.0
 51
180.0
 73
     0
 72
     1
 10
172.4973787119765
 20
-86.84687813863808
 11
172.4973787119765
 21
-85.94687813863812
 72
     2
 10
171.1973787119766
 20
-85.94687813863812
 40
1.299999999999954
 50
0.0
 51
90.0
 73
     1
 72
     1
 10
171.1973787119766
 20
-84.64687813863816
 11
166.9973787119765
 21
-84.64687813863816
 72
     1
 10
166.9973787119765
 20
-84.64687813863816
 11
166.9973787119765
 21
-83.84687813863818
 72
     2
 10
166.7973787119765
 20
-83.84687813863818
 40
0.200000000000017
 50
0.0000000000040711
 51
90.0
 73
     1
 72
     1
 10
166.7973787119765
 20
-83.64687813863815
 11
166.1973787119765
 21
-83.64687813863815
 72
     2
 10
166.1973787119765
 20
-83.84687813863822
 40
0.2000000000000597
 50
90.0
 51
179.9999999999959
 73
     1
 72
     1
 10
165.9973787119765
 20
-83.8468781386382
 11
165.9973787119765
 21
-84.64687813863816
 72
     1
 10
165.9973787119765
 20
-84.64687813863816
 11
163.9973787119765
 21
-84.64687813863816
 72
     1
 10
163.9973787119765
 20
-84.64687813863816
 11
163.9973787119765
 21
-79.54687813863817
 72
     2
 10
163.9973787119765
 20
-79.14687813863811
 40
0.4000000000000484
 50
270.0
 51
450.0
 73
     1
 97
        1
330
4DD9
 92
       16
 93
       50
 72
     2
 10
182.1973787119766
 20
-69.39687813863819
 40
3.899999999999912
 50
333.6929294256011
 51
404.2200444276811
 73
     1
 72
     2
 10
184.3473787119765
 20
-67.30463054334745
 40
0.8999999999999934
 50
44.22004442767167
 51
224.220044427673
 73
     1
 72
     2
 10
182.1973787119765
 20
-69.39687813863803
 40
2.099999999999915
 50
315.7799555723166
 51
584.220044427679
 73
     0
 72
     2
 10
180.0473787119766
 20
-67.30463054334752
 40
0.8999999999998497
 50
315.7799555723144
 51
495.7799555723163
 73
     1
 72
     2
 10
182.1973787119766
 20
-69.39687813863837
 40
3.899999999999987
 50
135.7799555723165
 51
206.3070705743983
 73
     1
 72
     2
 10
178.253079027622
 20
-71.3468781386382
 40
0.4999999999999933
 50
333.6929294255867
 51
449.9999999999935
 73
     0
 72
     1
 10
178.253079027622
 20
-71.84687813863821
 11
166.9973787119765
 21
-71.84687813863809
 72
     1
 10
166.9973787119765
 20
-71.84687813863809
 11
166.9973787119765
 21
-71.07187813863808
 72
     2
 10
166.7973787119765
 20
-71.07187813863811
 40
0.2000000000000455
 50
0.0000000000081422
 51
90.0
 73
     1
 72
     1
 10
166.7973787119765
 20
-70.87187813863806
 11
166.1973787119765
 21
-70.87187813863806
 72
     2
 10
166.1973787119765
 20
-71.07187813863811
 40
0.2000000000000455
 50
90.0
 51
180.0
 73
     1
 72
     1
 10
165.9973787119765
 20
-71.07187813863811
 11
165.9973787119765
 21
-71.89687813863816
 72
     1
 10
165.9973787119765
 20
-71.89687813863816
 11
163.9973787119765
 21
-71.89687813863816
 72
     1
 10
163.9973787119765
 20
-71.89687813863816
 11
163.9973787119765
 21
-66.79687813863814
 72
     2
 10
163.9973787119765
 20
-66.39687813863815
 40
0.3999999999999772
 50
270.0
 51
450.0
 73
     1
 72
     1
 10
163.9973787119765
 20
-65.99687813863818
 11
163.9973787119765
 21
-60.89687813863815
 72
     1
 10
163.9973787119765
 20
-60.89687813863815
 11
165.9973787119765
 21
-60.89687813863815
 72
     1
 10
165.9973787119765
 20
-60.89687813863815
 11
165.9973787119765
 21
-61.67187813863815
 72
     2
 10
166.1973787119765
 20
-61.67187813863813
 40
0.2000000000000455
 50
180.0000000000061
 51
270.0
 73
     1
 72
     1
 10
166.1973787119765
 20
-61.87187813863818
 11
166.7973787119765
 21
-61.87187813863815
 72
     2
 10
166.7973787119765
 20
-61.67187813863811
 40
0.2000000000000455
 50
270.0
 51
359.9999999999919
 73
     1
 72
     1
 10
166.9973787119765
 20
-61.67187813863813
 11
166.9973787119765
 21
-60.89687813863815
 72
     1
 10
166.9973787119765
 20
-60.89687813863815
 11
177.9973787119768
 21
-60.89687813863818
 72
     2
 10
177.9973787119768
 20
-60.69687813863819
 40
0.1999999999999886
 50
270.0000000000163
 51
360.0000000000244
 73
     1
 72
     1
 10
178.1973787119768
 20
-60.69687813863811
 11
178.1973787119768
 21
-60.19687813863834
 72
     1
 10
178.1973787119768
 20
-60.19687813863834
 11
182.3973787119766
 21
-60.19687813863837
 72
     2
 10
182.3973787119766
 20
-57.8968781386384
 40
2.299999999999968
 50
270.0
 51
360.0000000000004
 73
     1
 72
     1
 10
184.6973787119766
 20
-57.89687813863839
 11
184.6973787119766
 21
-56.39687813863815
 72
     1
 10
184.6973787119766
 20
-56.39687813863815
 11
197.3973787119766
 21
-56.39687813863815
 72
     1
 10
197.3973787119766
 20
-56.39687813863815
 11
197.3973787119766
 21
-57.19687813863814
 72
     2
 10
197.5973787119766
 20
-57.19687813863811
 40
0.2000000000000455
 50
180.0000000000061
 51
270.0
 73
     1
 72
     1
 10
197.5973787119766
 20
-57.39687813863816
 11
198.1973787119765
 21
-57.39687813863813
 72
     2
 10
198.1973787119765
 20
-57.19687813863808
 40
0.2000000000000455
 50
270.0
 51
359.9999999999919
 73
     1
 72
     1
 10
198.3973787119766
 20
-57.19687813863811
 11
198.3973787119766
 21
-56.39687813863815
 72
     1
 10
198.3973787119766
 20
-56.39687813863815
 11
200.3973787119766
 21
-56.39687813863815
 72
     1
 10
200.3973787119766
 20
-56.39687813863815
 11
200.3973787119766
 21
-61.49687813863818
 72
     2
 10
200.3973787119766
 20
-61.89687813863816
 40
0.3999999999999772
 50
90.0
 51
270.0
 73
     1
 72
     1
 10
200.3973787119766
 20
-62.29687813863813
 11
200.3973787119766
 21
-67.39687813863816
 72
     1
 10
200.3973787119766
 20
-67.39687813863816
 11
198.3973787119766
 21
-67.39687813863816
 72
     1
 10
198.3973787119766
 20
-67.39687813863816
 11
198.3973787119766
 21
-66.59687813863818
 72
     2
 10
198.1973787119765
 20
-66.5968781386382
 40
0.2000000000000455
 50
0.0000000000081422
 51
90.0
 73
     1
 72
     1
 10
198.1973787119765
 20
-66.39687813863815
 11
197.5973787119766
 21
-66.39687813863819
 72
     2
 10
197.5973787119766
 20
-66.59687813863823
 40
0.2000000000000455
 50
90.0
 51
179.9999999999918
 73
     1
 72
     1
 10
197.3973787119766
 20
-66.5968781386382
 11
197.3973787119766
 21
-67.39687813863816
 72
     2
 10
198.3973787119766
 20
-67.39687813863816
 40
1.0
 50
180.0
 51
270.0
 73
     1
 72
     1
 10
198.3973787119766
 20
-68.39687813863815
 11
200.3973787119766
 21
-68.39687813863815
 72
     1
 10
200.3973787119766
 20
-68.39687813863815
 11
200.3973787119766
 21
-71.34687813863809
 72
     2
 10
199.8973787119766
 20
-71.34687813863809
 40
0.5
 50
360.0
 51
450.0
 73
     0
 72
     1
 10
199.8973787119766
 20
-71.84687813863809
 11
186.1416783963312
 21
-71.84687813863821
 72
     2
 10
186.1416783963313
 20
-71.34687813863812
 40
0.5000000000000853
 50
90.00000000000978
 51
206.3070705744207
 73
     0
 97
        1
330
4DD8
 75
     0
 76
     1
 98
        1
 10
0.0
 20
0.0
  0
ENDBLK
  5
37D6
330
37D4
100
AcDbEntity
  8
0
100
AcDbBlockEnd
  0
BLOCK
  5
37DB
330
37DA
100
AcDbEntity
  8
0
100
AcDbBlockBegin
  2
08630
 70
     0
 10
-17.4261114729422
 20
630.6343283014046
 30
0.0
  3
08630
  1
08630.dwg
  0
LWPOLYLINE
  5
4DDC
102
{ACAD_REACTORS
330
4DDD
102
}
330
37DA
100
AcDbEntity
  8
APL Joinery
  6
Continuous
100
AcDbPolyline
 90
       40
 70
     1
 43
0.0
 10
-1.526111472942091
 20
629.5343283014045
 42
0.4142135623730451
 10
0.0738885270575338
 20
627.9343283014043
 10
1.113938033221871
 20
627.9343283014038
 42
3.927182716064285
 10
1.113938033221643
 20
629.0343283014042
 10
0.0738885270577042
 20
629.0343283014045
 42
-0.4142135623731284
 10
-0.4261114729423526
 20
629.5343283014044
 10
-0.4261114729422389
 20
632.8036933827943
 10
4.073888527057647
 20
637.3036933827943
 10
4.073888527057647
 20
642.5343283014045
 10
6.073888527057874
 20
642.5343283014044
 42
0.4142135623730951
 10
6.573888527057874
 20
643.0343283014046
 10
6.573888527057647
 20
644.5843283014047
 42
0.9999999999999998
 10
5.573888527057874
 20
644.5843283014045
 10
5.573888527057647
 20
643.8343283014043
 10
4.073888527057647
 20
643.8343283014045
 10
4.073888527057874
 20
649.3343283014046
 10
5.573888527057647
 20
649.3343283014045
 10
5.573888527057874
 20
648.5843283014046
 42
0.9999999999999998
 10
6.573888527057647
 20
648.5843283014046
 10
6.573888527057874
 20
650.1343283014046
 42
0.4142135623730951
 10
6.073888527057647
 20
650.6343283014043
 10
4.873888527057829
 20
650.6343283014046
 10
4.873888527057829
 20
652.1343283014048
 42
0.6681786379192748
 10
4.020335136464495
 20
652.4878816919979
 10
-17.3417968978915
 20
631.1257496576417
 42
0.6681786379192588
 10
-17.13824350729814
 20
630.6343283014046
 10
-15.17611147294221
 20
630.6343283014046
 42
-0.4142135623730951
 10
-14.92611147294221
 20
630.3843283014046
 10
-14.92611147294221
 20
629.2807749108012
 10
-15.35288816823888
 20
628.8539982155047
 42
0.4142135623730715
 10
-15.35288816823728
 20
628.500444824913
 10
-14.25288816823885
 20
627.4004448249144
 42
0.6681786379193812
 10
-13.82611147294219
 20
627.5772215202111
 10
-13.82611147294219
 20
631.299703347391
 42
0.3113104180177044
 10
-14.14829401363691
 20
631.7670158243977
 42
-0.543903169065067
 10
-14.32402994492506
 20
632.5878816919979
 10
2.120335136464461
 20
649.0322467733872
 42
-0.6681786379192989
 10
2.973888527057738
 20
648.6786933827939
 10
2.973888527057738
 20
637.7593283014048
 10
-1.526111472942147
 20
633.2593283014047
  0
HATCH
  5
4DDD
330
37DA
100
AcDbEntity
  8
APL Hatch
100
AcDbHatch
 10
0.0
 20
0.0
 30
0.0
210
0.0
220
0.0
230
1.0
  2
SOLID
 70
     1
 71
     1
 91
        1
 92
        1
 93
       40
 72
     2
 10
0.0738885270579829
 20
629.5343283014044
 40
1.600000000000073
 50
179.9999999999959
 51
269.9999999999839
 73
     1
 72
     1
 10
0.0738885270575338
 20
627.9343283014043
 11
1.113938033221871
 21
627.9343283014038
 72
     2
 10
2.123888527057846
 20
628.4843283014042
 40
1.149999999999991
 50
208.5718781423323
 51
511.428121857693
 73
     1
 72
     1
 10
1.113938033221643
 20
629.0343283014042
 11
0.0738885270577043
 21
629.0343283014045
 72
     2
 10
0.0738885270576474
 20
629.5343283014044
 40
0.5
 50
89.99999999999349
 51
180.0
 73
     0
 72
     1
 10
-0.4261114729423526
 20
629.5343283014044
 11
-0.4261114729422389
 21
632.8036933827943
 72
     1
 10
-0.4261114729422389
 20
632.8036933827943
 11
4.073888527057647
 21
637.3036933827943
 72
     1
 10
4.073888527057647
 20
637.3036933827943
 11
4.073888527057647
 21
642.5343283014045
 72
     1
 10
4.073888527057647
 20
642.5343283014045
 11
6.073888527057874
 21
642.5343283014044
 72
     2
 10
6.073888527057761
 20
643.0343283014045
 40
0.5000000000001137
 50
270.000000000013
 51
360.000000000013
 73
     1
 72
     1
 10
6.573888527057874
 20
643.0343283014046
 11
6.573888527057647
 21
644.5843283014047
 72
     2
 10
6.073888527057761
 20
644.5843283014046
 40
0.4999999999998864
 50
0.0000000000130276
 51
180.000000000013
 73
     1
 72
     1
 10
5.573888527057874
 20
644.5843283014045
 11
5.573888527057647
 21
643.8343283014043
 72
     1
 10
5.573888527057647
 20
643.8343283014043
 11
4.073888527057647
 21
643.8343283014045
 72
     1
 10
4.073888527057647
 20
643.8343283014045
 11
4.073888527057874
 21
649.3343283014046
 72
     1
 10
4.073888527057874
 20
649.3343283014046
 11
5.573888527057647
 21
649.3343283014045
 72
     1
 10
5.573888527057647
 20
649.3343283014045
 11
5.573888527057874
 21
648.5843283014046
 72
     2
 10
6.073888527057761
 20
648.5843283014046
 40
0.4999999999998864
 50
180.0
 51
360.0
 73
     1
 72
     1
 10
6.573888527057647
 20
648.5843283014046
 11
6.573888527057874
 21
650.1343283014046
 72
     2
 10
6.073888527057874
 20
650.1343283014043
 40
0.5
 50
0.0000000000260551
 51
90.00000000002605
 73
     1
 72
     1
 10
6.073888527057647
 20
650.6343283014043
 11
4.873888527057829
 21
650.6343283014046
 72
     1
 10
4.873888527057829
 20
650.6343283014046
 11
4.873888527057829
 21
652.1343283014048
 72
     2
 10
4.373888527057827
 20
652.1343283014047
 40
0.5000000000000018
 50
0.0000000000130276
 51
135.000000000009
 73
     1
 72
     1
 10
4.020335136464495
 20
652.4878816919979
 11
-17.3417968978915
 21
631.1257496576417
 72
     2
 10
-17.13824350729821
 20
630.9221962670486
 40
0.2878679656439413
 50
135.000000000022
 51
270.0000000000141
 73
     1
 72
     1
 10
-17.13824350729814
 20
630.6343283014046
 11
-15.17611147294221
 21
630.6343283014046
 72
     2
 10
-15.17611147294221
 20
630.3843283014046
 40
0.25
 50
270.0
 51
360.0
 73
     0
 72
     1
 10
-14.92611147294221
 20
630.3843283014046
 11
-14.92611147294221
 21
629.2807749108012
 72
     1
 10
-14.92611147294221
 20
629.2807749108012
 11
-15.35288816823888
 21
628.8539982155047
 72
     2
 10
-15.17611147294225
 20
628.6772215202097
 40
0.2499999999988062
 50
135.0000000002694
 51
225.0000000002648
 73
     1
 72
     1
 10
-15.35288816823728
 20
628.500444824913
 11
-14.25288816823885
 21
627.4004448249144
 72
     2
 10
-14.07611147294219
 20
627.577221520211
 40
0.2499999999999555
 50
224.999999999983
 51
360.000000000026
 73
     1
 72
     1
 10
-13.82611147294219
 20
627.5772215202111
 11
-13.82611147294219
 21
631.299703347391
 72
     2
 10
-14.32611147294202
 20
631.299703347391
 40
0.4999999999998313
 50
0.0
 51
69.16763791366536
 73
     1
 72
     2
 10
-13.97047655433168
 20
632.2343283014046
 40
0.500000000000077
 50
110.8323620863383
 51
224.9999999999967
 73
     0
 72
     1
 10
-14.32402994492506
 20
632.5878816919979
 11
2.120335136464461
 21
649.0322467733872
 72
     2
 10
2.473888527057748
 20
648.6786933827939
 40
0.4999999999999708
 50
224.9999999999946
 51
360.0
 73
     0
 72
     1
 10
2.973888527057738
 20
648.6786933827939
 11
2.973888527057738
 21
637.7593283014048
 72
     1
 10
2.973888527057738
 20
637.7593283014048
 11
-1.526111472942147
 21
633.2593283014047
 72
     1
 10
-1.526111472942147
 20
633.2593283014047
 11
-1.526111472942091
 21
629.5343283014045
 97
        1
330
4DDC
 75
     0
 76
     1
 98
        1
 10
0.0
 20
0.0
  0
ENDBLK
  5
37DC
330
37DA
100
AcDbEntity
  8
0
100
AcDbBlockEnd
  0
BLOCK
  5
3824
330
3816
100
AcDbEntity
  8
0
100
AcDbBlockBegin
  2
9010331
 70
     0
 10
0.0
 20
0.0
 30
0.0
  3
9010331
  1

  0
LINE
  5
3817
330
3816
100
AcDbEntity
  8
APL Joinery
 62
     8
100
AcDbLine
 10
-6.5
 20
3.289265014993873
 30
0.0
 11
-0.75
 21
1.748557158514927
 31
0.0
  0
LINE
  5
3818
330
3816
100
AcDbEntity
  8
APL Joinery
 62
     8
100
AcDbLine
 10
-2.210884572679674
 20
2.139999999999531
 30
0.0
 11
-6.5
 21
2.139999999999531
 31
0.0
  0
LINE
  5
3819
330
3816
100
AcDbEntity
  8
APL Joinery
 62
     8
100
AcDbLine
 10
-0.75
 20
1.299999999999613
 30
0.0
 11
-6.5
 21
1.299999999999613
 31
0.0
  0
LINE
  5
381A
330
3816
100
AcDbEntity
  8
APL Joinery
 62
     8
100
AcDbLine
 10
-0.75
 20
0.4599999999999227
 30
0.0
 11
-6.5
 21
0.4599999999995817
 31
0.0
  0
LINE
  5
381B
330
3816
100
AcDbEntity
  8
APL Joinery
 62
     8
100
AcDbLine
 10
-0.75
 20
-0.4600000000001501
 30
0.0
 11
-6.5
 21
-0.4600000000004912
 31
0.0
  0
LINE
  5
381C
330
3816
100
AcDbEntity
  8
APL Joinery
 62
     8
100
AcDbLine
 10
-0.75
 20
-1.300000000000295
 30
0.0
 11
-6.5
 21
-1.300000000000295
 31
0.0
  0
LINE
  5
381D
330
3816
100
AcDbEntity
  8
APL Joinery
 62
     8
100
AcDbLine
 10
-2.210884572680811
 20
-2.140000000000213
 30
0.0
 11
-6.5
 21
-2.140000000000213
 31
0.0
  0
LINE
  5
381E
330
3816
100
AcDbEntity
  8
APL Joinery
 62
     8
100
AcDbLine
 10
-0.75
 20
-1.748557158515154
 30
0.0
 11
-6.5
 21
-3.289265014994725
 31
0.0
  0
LINE
  5
381F
330
3816
100
AcDbEntity
  8
APL Joinery
 62
     8
100
AcDbLine
 10
-0.75
 20
3.449999999999931
 30
0.0
 11
-0.75
 21
-3.449999999999931
 31
0.0
  0
LINE
  5
3820
330
3816
100
AcDbEntity
  8
APL Joinery
 62
     8
100
AcDbLine
 10
-0.5
 20
3.449999999999931
 30
0.0
 11
-0.5
 21
-3.449999999999931
 31
0.0
  0
LINE
  5
3821
330
3816
100
AcDbEntity
  8
APL Joinery
 62
     8
100
AcDbLine
 10
-0.25
 20
3.449999999999931
 30
0.0
 11
-0.25
 21
-3.449999999999931
 31
0.0
  0
LINE
  5
3822
330
3816
100
AcDbEntity
  8
APL Joinery
 62
     8
100
AcDbLine
 10
-0.25
 20
-3.449999999999931
 30
0.0
 11
-0.75
 21
-3.449999999999931
 31
0.0
  0
LINE
  5
3823
330
3816
100
AcDbEntity
  8
APL Joinery
 62
     8
100
AcDbLine
 10
-0.75
 20
3.449999999999931
 30
0.0
 11
-0.25
 21
3.449999999999931
 31
0.0
  0
ENDBLK
  5
3825
330
3816
100
AcDbEntity
  8
0
100
AcDbBlockEnd
  0
BLOCK
  5
382E
330
382D
100
AcDbEntity
  8
0
100
AcDbBlockBegin
  2
9010100
 70
     0
 10
-698.0412257018842
 20
103.9239421823788
 30
0.0
  3
9010100
  1
9010100.dwg
  0
LWPOLYLINE
  5
4DDF
330
382D
100
AcDbEntity
  8
APL Joinery
 62
   252
100
AcDbPolyline
 90
       16
 70
     1
 43
0.0
 10
-697.0412257018843
 20
102.9239421823788
 10
-695.7492784149856
 20
102.9239421823788
 10
-694.0229808775646
 20
98.81824357162003
 42
0.9293418001092543
 10
-693.550394430906
 20
98.97737999157357
 10
-694.5444653146969
 20
102.8447215218598
 10
-693.5412257018843
 20
103.4239421823788
 10
-693.5412257018843
 20
104.4239421823788
 10
-694.5663527677213
 20
105.0157995697934
 10
-693.5768325592873
 20
108.8654371152974
 42
0.9293418001092604
 10
-694.0494190059462
 20
109.024573535251
 10
-695.7735859449865
 20
104.9239421823788
 10
-697.0412257018843
 20
104.9239421823788
 10
-697.0412257018843
 20
106.1739421823788
 10
-698.0412257018842
 20
106.1739421823788
 10
-698.0412257018842
 20
101.6739421823788
 10
-697.0412257018843
 20
101.6739421823788
  0
ENDBLK
  5
382F
330
382D
100
AcDbEntity
  8
0
100
AcDbBlockEnd
  0
BLOCK
  5
3DF5
330
3DF4
100
AcDbEntity
  8
0
100
AcDbBlockBegin
  2
9010312r
 70
     0
 10
399.4634067278245
 20
339.4121540145172
 30
0.0
  3
9010312r
  1
9010312r.dwg
  0
LWPOLYLINE
  5
4DE2
330
3DF4
100
AcDbEntity
  8
APL Joinery
  6
Continuous
 62
   252
100
AcDbPolyline
 90
       28
 70
   128
 43
0.0
 10
395.7634067278242
 20
336.2999919725366
 10
395.7634067278242
 20
343.1621540145172
 42
-0.7673269879789622
 10
396.2299130787703
 20
343.2871540145172
 10
396.7850145808851
 20
342.3256900094965
 10
399.2931562636775
 20
341.6536354710895
 42
-0.3626955242591878
 10
399.4775957926651
 20
341.3914870691883
 10
399.3134067278246
 20
339.4121540145172
 10
397.7634067278242
 20
339.4121540145172
 10
397.7634067278242
 20
336.5121540145171
 10
399.0135696498364
 20
336.5121540145171
 10
399.2752560951169
 20
337.3376963843301
 42
-0.6640183420487276
 10
399.7341578851304
 20
337.3798010733406
 42
-0.250000000000001
 10
399.7341578851305
 20
333.1445069556935
 42
-0.6640183420487097
 10
399.2752560951171
 20
333.1866116447042
 10
399.0135696498364
 20
334.0121540145171
 10
397.4635696498362
 20
334.0121540145171
 10
397.1898787608678
 20
334.2858449034854
 42
0.6681785464135807
 10
396.7631020655712
 20
334.1090682714504
 10
396.7631016544432
 20
332.4843569389277
 10
396.2607415896308
 20
329.0715154000631
 42
-0.9294717386060577
 10
395.7634067278242
 20
329.1079223518048
 10
395.7634067278242
 20
334.5749919747145
 42
-0.3563939586926081
 10
396.5634067278242
 20
335.5547878718279
 42
0.3563939586925715
 10
396.7634067278242
 20
335.7997368461061
 10
396.7634067278242
 20
339.3871540145172
 42
0.9999999999999998
 10
396.7134067278242
 20
339.3871540145172
 10
396.7134067278242
 20
336.2999919725366
 42
-0.9999999999999998
 10
395.76340673218
 20
336.2999919725366
  0
ENDBLK
  5
3DF6
330
3DF4
100
AcDbEntity
  8
0
100
AcDbBlockEnd
  0
BLOCK
  5
3E0A
330
3E09
100
AcDbEntity
  8
0
100
AcDbBlockBegin
  2
08659
 70
     0
 10
119.7071025182605
 20
-90.59770857562417
 30
0.0
  3
08659
  1
08659.dwg
  0
LWPOLYLINE
  5
4DE5
102
{ACAD_REACTORS
330
4DE7
102
}
330
3E09
100
AcDbEntity
  8
APL Joinery
  6
Continuous
100
AcDbPolyline
 90
        8
 70
     1
 43
0.0
 10
83.30710251826042
 20
-86.79770857562198
 42
0.4142135623730951
 10
83.80710251826043
 20
-86.29770857562197
 10
83.80710251826043
 20
-67.09770857562194
 42
0.4142135623730951
 10
83.30710251826042
 20
-66.59770857562193
 10
76.00710251826047
 20
-66.59770857562193
 42
0.4142135623730951
 10
75.50710251826046
 20
-67.09770857562194
 10
75.50710251826046
 20
-86.29770857562197
 42
0.4142135623730951
 10
76.00710251826047
 20
-86.79770857562198
  0
LWPOLYLINE
  5
4DE6
102
{ACAD_REACTORS
330
4DE7
102
}
330
3E09
100
AcDbEntity
  8
APL Joinery
  6
Continuous
100
AcDbPolyline
 90
       59
 70
     1
 43
0.0
 10
85.60710251826037
 20
-88.397708575622
 10
85.60710251826037
 20
-82.34770857562194
 42
-0.4142135623730951
 10
86.10710251826038
 20
-81.84770857562194
 10
91.48872589985314
 20
-81.84770857562194
 10
93.56568116202316
 20
-83.92466383779199
 42
0.4142135623731303
 10
93.84852387449786
 20
-83.92466383779197
 10
95.92547913666782
 20
-81.84770857562194
 10
101.3071025182604
 20
-81.84770857562194
 42
-0.4142135623730951
 10
101.8071025182604
 20
-82.34770857562194
 10
101.8071025182604
 20
-88.39770857562198
 42
0.4142135623731284
 10
102.0071025182603
 20
-88.59770857562194
 10
103.4071025182604
 20
-88.597708575622
 42
0.4142135623730118
 10
103.6071025182603
 20
-88.397708575622
 10
103.6071025182603
 20
-67.09770857562194
 42
-0.4142135623730951
 10
104.1071025182604
 20
-66.59770857562193
 10
108.2071025182605
 20
-66.59770857562193
 10
108.2071025182605
 20
-70.39770857562189
 42
0.4142135623730118
 10
108.4071025182605
 20
-70.59770857562194
 10
109.5071025182605
 20
-70.59770857562188
 42
0.4142135623730118
 10
109.7071025182605
 20
-70.39770857562189
 10
109.7071025182605
 20
-66.59770857562193
 10
119.4571025182605
 20
-66.59770857562193
 42
0.4142135623730951
 10
119.7071025182605
 20
-66.34770857562194
 10
119.7071025182605
 20
-47.84770857562193
 42
0.4142135623730951
 10
119.4571025182605
 20
-47.59770857562194
 10
116.2071025182605
 20
-47.59770857562194
 42
0.4142135623730951
 10
115.7071025182605
 20
-48.09770857562194
 10
115.7071025182605
 20
-49.647708575622
 42
0.9999999999999998
 10
116.7071025182605
 20
-49.647708575622
 10
116.7071025182605
 20
-48.89770857562201
 10
118.2071025182605
 20
-48.89770857562201
 10
118.2071025182605
 20
-54.39770857562201
 10
116.7071025182605
 20
-54.39770857562201
 10
116.7071025182605
 20
-53.647708575622
 42
0.9999999999999998
 10
115.7071025182605
 20
-53.647708575622
 10
115.7071025182605
 20
-55.19770857562196
 42
0.4142135623730951
 10
116.2071025182605
 20
-55.69770857562196
 10
118.2071025182605
 20
-55.69770857562196
 10
118.2071025182605
 20
-64.79770857562198
 10
102.3071025182604
 20
-64.79770857562198
 42
0.4142135623730951
 10
101.8071025182604
 20
-65.29770857562198
 10
101.8071025182604
 20
-80.04770857562197
 10
94.10710251826037
 20
-80.04770857562197
 10
93.70710251826052
 20
-80.44770857562197
 10
93.30710251826037
 20
-80.04770857562197
 10
85.60710251826037
 20
-80.04770857562197
 10
85.60710251826037
 20
-65.29770857562198
 42
0.4142135623730951
 10
85.10710251826038
 20
-64.79770857562198
 10
73.95710251826051
 20
-64.79770857562198
 42
0.4142135623730951
 10
73.70710251826051
 20
-65.04770857562198
 10
73.70710251826051
 20
-88.34770857562194
 42
0.4142135623730951
 10
73.95710251826051
 20
-88.59770857562194
 10
76.20710251826051
 20
-88.59770857562194
 10
76.20710251826051
 20
-90.39770857562201
 42
0.4142135623730951
 10
76.4071025182605
 20
-90.59770857562194
 10
77.50710251826053
 20
-90.59770857562199
 42
0.4142135623730451
 10
77.70710251826051
 20
-90.39770857562201
 10
77.70710251826051
 20
-88.59770857562194
 10
85.40710251826039
 20
-88.597708575622
 42
0.4142135623730451
  0
HATCH
  5
4DE7
330
3E09
100
AcDbEntity
  8
APL Hatch
100
AcDbHatch
 10
0.0
 20
0.0
 30
0.0
210
0.0
220
0.0
230
1.0
  2
SOLID
 70
     1
 71
     1
 91
        2
 92
        1
 93
       59
 72
     1
 10
85.60710251826037
 20
-88.397708575622
 11
85.60710251826037
 21
-82.34770857562194
 72
     2
 10
86.10710251826038
 20
-82.34770857562194
 40
0.5
 50
180.0
 51
270.0
 73
     0
 72
     1
 10
86.10710251826038
 20
-81.84770857562194
 11
91.48872589985314
 21
-81.84770857562194
 72
     1
 10
91.48872589985314
 20
-81.84770857562194
 11
93.56568116202316
 21
-83.92466383779199
 72
     2
 10
93.7071025182605
 20
-83.78324248155465
 40
0.2000000000000398
 50
225.0000000000029
 51
315.0000000000086
 73
     1
 72
     1
 10
93.84852387449786
 20
-83.92466383779197
 11
95.92547913666782
 21
-81.84770857562194
 72
     1
 10
95.92547913666782
 20
-81.84770857562194
 11
101.3071025182604
 21
-81.84770857562194
 72
     2
 10
101.3071025182604
 20
-82.34770857562194
 40
0.5
 50
270.0
 51
360.0
 73
     0
 72
     1
 10
101.8071025182604
 20
-82.34770857562194
 11
101.8071025182604
 21
-88.39770857562198
 72
     2
 10
102.0071025182603
 20
-88.397708575622
 40
0.1999999999999318
 50
179.9999999999918
 51
270.0
 73
     1
 72
     1
 10
102.0071025182603
 20
-88.59770857562194
 11
103.4071025182604
 21
-88.597708575622
 72
     2
 10
103.4071025182603
 20
-88.39770857562198
 40
0.200000000000017
 50
270.0000000000081
 51
359.9999999999919
 73
     1
 72
     1
 10
103.6071025182603
 20
-88.397708575622
 11
103.6071025182603
 21
-67.09770857562194
 72
     2
 10
104.1071025182604
 20
-67.09770857562194
 40
0.5
 50
180.0
 51
270.0
 73
     0
 72
     1
 10
104.1071025182604
 20
-66.59770857562193
 11
108.2071025182605
 21
-66.59770857562193
 72
     1
 10
108.2071025182605
 20
-66.59770857562193
 11
108.2071025182605
 21
-70.39770857562189
 72
     2
 10
108.4071025182605
 20
-70.39770857562189
 40
0.2000000000000455
 50
180.0
 51
269.9999999999838
 73
     1
 72
     1
 10
108.4071025182605
 20
-70.59770857562194
 11
109.5071025182605
 21
-70.59770857562188
 72
     2
 10
109.5071025182605
 20
-70.39770857562186
 40
0.200000000000017
 50
270.0000000000081
 51
359.9999999999919
 73
     1
 72
     1
 10
109.7071025182605
 20
-70.39770857562189
 11
109.7071025182605
 21
-66.59770857562193
 72
     1
 10
109.7071025182605
 20
-66.59770857562193
 11
119.4571025182605
 21
-66.59770857562193
 72
     2
 10
119.4571025182605
 20
-66.34770857562194
 40
0.25
 50
270.0
 51
360.0
 73
     1
 72
     1
 10
119.7071025182605
 20
-66.34770857562194
 11
119.7071025182605
 21
-47.84770857562193
 72
     2
 10
119.4571025182605
 20
-47.84770857562193
 40
0.25
 50
0.0
 51
90.0
 73
     1
 72
     1
 10
119.4571025182605
 20
-47.59770857562194
 11
116.2071025182605
 21
-47.59770857562194
 72
     2
 10
116.2071025182605
 20
-48.09770857562194
 40
0.5
 50
90.0
 51
180.0
 73
     1
 72
     1
 10
115.7071025182605
 20
-48.09770857562194
 11
115.7071025182605
 21
-49.647708575622
 72
     2
 10
116.2071025182605
 20
-49.647708575622
 40
0.5
 50
180.0
 51
360.0
 73
     1
 72
     1
 10
116.7071025182605
 20
-49.647708575622
 11
116.7071025182605
 21
-48.89770857562201
 72
     1
 10
116.7071025182605
 20
-48.89770857562201
 11
118.2071025182605
 21
-48.89770857562201
 72
     1
 10
118.2071025182605
 20
-48.89770857562201
 11
118.2071025182605
 21
-54.39770857562201
 72
     1
 10
118.2071025182605
 20
-54.39770857562201
 11
116.7071025182605
 21
-54.39770857562201
 72
     1
 10
116.7071025182605
 20
-54.39770857562201
 11
116.7071025182605
 21
-53.647708575622
 72
     2
 10
116.2071025182605
 20
-53.647708575622
 40
0.5
 50
0.0
 51
180.0
 73
     1
 72
     1
 10
115.7071025182605
 20
-53.647708575622
 11
115.7071025182605
 21
-55.19770857562196
 72
     2
 10
116.2071025182605
 20
-55.19770857562196
 40
0.5
 50
180.0
 51
270.0
 73
     1
 72
     1
 10
116.2071025182605
 20
-55.69770857562196
 11
118.2071025182605
 21
-55.69770857562196
 72
     1
 10
118.2071025182605
 20
-55.69770857562196
 11
118.2071025182605
 21
-64.79770857562198
 72
     1
 10
118.2071025182605
 20
-64.79770857562198
 11
102.3071025182604
 21
-64.79770857562198
 72
     2
 10
102.3071025182604
 20
-65.29770857562198
 40
0.5
 50
90.0
 51
180.0
 73
     1
 72
     1
 10
101.8071025182604
 20
-65.29770857562198
 11
101.8071025182604
 21
-80.04770857562197
 72
     1
 10
101.8071025182604
 20
-80.04770857562197
 11
94.10710251826037
 21
-80.04770857562197
 72
     1
 10
94.10710251826037
 20
-80.04770857562197
 11
93.70710251826052
 21
-80.44770857562197
 72
     1
 10
93.70710251826052
 20
-80.44770857562197
 11
93.30710251826037
 21
-80.04770857562197
 72
     1
 10
93.30710251826037
 20
-80.04770857562197
 11
85.60710251826037
 21
-80.04770857562197
 72
     1
 10
85.60710251826037
 20
-80.04770857562197
 11
85.60710251826037
 21
-65.29770857562198
 72
     2
 10
85.10710251826038
 20
-65.29770857562198
 40
0.5
 50
0.0
 51
90.0
 73
     1
 72
     1
 10
85.10710251826038
 20
-64.79770857562198
 11
73.95710251826051
 21
-64.79770857562198
 72
     2
 10
73.95710251826051
 20
-65.04770857562198
 40
0.25
 50
90.0
 51
180.0
 73
     1
 72
     1
 10
73.70710251826051
 20
-65.04770857562198
 11
73.70710251826051
 21
-88.34770857562194
 72
     2
 10
73.95710251826051
 20
-88.34770857562194
 40
0.25
 50
180.0
 51
270.0
 73
     1
 72
     1
 10
73.95710251826051
 20
-88.59770857562194
 11
76.20710251826051
 21
-88.59770857562194
 72
     1
 10
76.20710251826051
 20
-88.59770857562194
 11
76.20710251826051
 21
-90.39770857562201
 72
     2
 10
76.40710251826047
 20
-90.39770857562198
 40
0.1999999999999602
 50
180.0000000000081
 51
270.0000000000081
 73
     1
 72
     1
 10
76.4071025182605
 20
-90.59770857562194
 11
77.50710251826053
 21
-90.59770857562199
 72
     2
 10
77.50710251826051
 20
-90.39770857562199
 40
0.2000000000000028
 50
270.0000000000041
 51
359.9999999999959
 73
     1
 72
     1
 10
77.70710251826051
 20
-90.39770857562201
 11
77.70710251826051
 21
-88.59770857562194
 72
     1
 10
77.70710251826051
 20
-88.59770857562194
 11
85.40710251826039
 21
-88.597708575622
 72
     2
 10
85.40710251826038
 20
-88.39770857562198
 40
0.2000000000000028
 50
270.0000000000041
 51
359.9999999999959
 73
     1
 97
        1
330
4DE6
 92
       16
 93
        8
 72
     2
 10
83.30710251826042
 20
-86.29770857562197
 40
0.5
 50
270.0
 51
360.0
 73
     1
 72
     1
 10
83.80710251826043
 20
-86.29770857562197
 11
83.80710251826043
 21
-67.09770857562194
 72
     2
 10
83.30710251826042
 20
-67.09770857562194
 40
0.5
 50
0.0
 51
90.0
 73
     1
 72
     1
 10
83.30710251826042
 20
-66.59770857562193
 11
76.00710251826047
 21
-66.59770857562193
 72
     2
 10
76.00710251826047
 20
-67.09770857562194
 40
0.5
 50
90.0
 51
180.0
 73
     1
 72
     1
 10
75.50710251826046
 20
-67.09770857562194
 11
75.50710251826046
 21
-86.29770857562197
 72
     2
 10
76.00710251826047
 20
-86.29770857562197
 40
0.5
 50
180.0
 51
270.0
 73
     1
 72
     1
 10
76.00710251826047
 20
-86.79770857562198
 11
83.30710251826042
 21
-86.79770857562198
 97
        1
330
4DE5
 75
     0
 76
     1
 98
        1
 10
0.0
 20
0.0
  0
ENDBLK
  5
3E0B
330
3E09
100
AcDbEntity
  8
0
100
AcDbBlockEnd
  0
BLOCK
  5
3E85
330
3E80
100
AcDbEntity
  8
0
100
AcDbBlockBegin
  2
a4 specifiers manual
 70
     0
 10
0.0
 20
0.0
 30
0.0
  3
a4 specifiers manual
  1

  0
LINE
  5
3E81
330
3E80
100
AcDbEntity
  8
0
100
AcDbLine
 10
-0.0000008078504834
 20
0.0000001108869583
 30
0.0
 11
353.9999991921495
 21
0.0000001108869583
 31
0.0
  0
LINE
  5
3E82
330
3E80
100
AcDbEntity
  8
0
100
AcDbLine
 10
353.9999991921495
 20
482.0000001108869
 30
0.0
 11
-0.0000008078504834
 21
482.0000001108869
 31
0.0
  0
LINE
  5
3E83
330
3E80
100
AcDbEntity
  8
0
100
AcDbLine
 10
-0.0000008078504834
 20
482.0000001108869
 30
0.0
 11
-0.0000008078504834
 21
0.0000001108869583
 31
0.0
  0
LINE
  5
3E84
330
3E80
100
AcDbEntity
  8
0
100
AcDbLine
 10
353.9999991921495
 20
0.0000001108869583
 30
0.0
 11
353.9999991921495
 21
482.0000001108869
 31
0.0
  0
ENDBLK
  5
3E86
330
3E80
100
AcDbEntity
  8
0
100
AcDbBlockEnd
  0
BLOCK
  5
3F73
330
3F72
100
AcDbEntity
  8
0
100
AcDbBlockBegin
  2
6Glass
 70
     0
 10
101.8368839708302
 20
399.4111348733001
 30
0.0
  3
6Glass
  1
6Glass.dwg
  0
LINE
  5
4204
330
3F72
100
AcDbEntity
  8
APL Joinery
 62
     7
100
AcDbLine
 10
95.33688397083029
 20
412.4111348732999
 30
0.0
 11
95.33688397083029
 21
392.4111348733
 31
0.0
  0
LINE
  5
4205
330
3F72
100
AcDbEntity
  8
APL Joinery
 62
     7
100
AcDbLine
 10
89.33688397083029
 20
412.4111348732999
 30
0.0
 11
95.33688397083029
 21
412.4111348732999
 31
0.0
  0
LINE
  5
4206
330
3F72
100
AcDbEntity
  8
APL Joinery
 62
     8
100
AcDbLine
 10
93.33688397083028
 20
412.4111348732999
 30
0.0
 11
93.33688397083028
 21
392.4111348733
 31
0.0
  0
LINE
  5
4207
330
3F72
100
AcDbEntity
  8
APL Joinery
 62
     7
100
AcDbLine
 10
89.33688397083029
 20
412.4111348732999
 30
0.0
 11
89.33688397083029
 21
392.4111348733
 31
0.0
  0
LINE
  5
4208
330
3F72
100
AcDbEntity
  8
APL Joinery
 62
     8
100
AcDbLine
 10
91.33688397083028
 20
412.4111348732999
 30
0.0
 11
91.33688397083028
 21
392.4111348733
 31
0.0
  0
ENDBLK
  5
3F74
330
3F72
100
AcDbEntity
  8
0
100
AcDbBlockEnd
  0
BLOCK
  5
3F8C
330
3F8B
100
AcDbEntity
  8
0
100
AcDbBlockBegin
  2
9010240l
 70
     0
 10
121.7743665915091
 20
318.4609762649906
 30
0.0
  3
9010240l
  1
9010240l.dwg
  0
LWPOLYLINE
  5
4DE9
330
3F8B
100
AcDbEntity
  8
APL Joinery
  6
Continuous
 62
   252
100
AcDbPolyline
 90
       30
 70
   129
 43
0.0
 10
125.4743665915089
 20
314.4561557475136
 42
-0.2835524870706119
 10
125.639679738777
 20
314.7242218805875
 42
0.0902645523985048
 10
127.3754845981152
 20
316.3445044937532
 42
0.161319204780224
 10
127.4743665871533
 20
316.6430079967175
 10
127.4743665871533
 20
317.3876867032266
 42
0.7182204474982408
 10
127.1151731138881
 20
317.5087546100796
 42
-0.1023621877757452
 10
125.7724514164482
 20
316.3391728353994
 42
-0.5736819561067553
 10
125.4743665915088
 20
316.5134696142469
 10
125.4743665915089
 20
317.4272819212232
 42
-0.2007459679516776
 10
125.6233155046325
 20
317.7833200293
 10
127.3629395678818
 20
319.4985772006699
 42
0.1718314268301038
 10
127.4743665871533
 20
319.8132373961948
 10
127.4743665871533
 20
321.0651669139914
 42
0.4607623830565128
 10
127.1854567012142
 20
321.3121203929631
 10
121.9854567055696
 20
320.4579297439622
 42
0.39414290722904
 10
121.7753179169858
 20
320.1891873293035
 10
121.9265167932934
 20
318.4609762649903
 10
123.4743665871533
 20
318.4609762649903
 10
123.4743665871533
 20
315.5609762649902
 10
122.9743665871533
 20
315.5609762649902
 42
0.5486826681767499
 10
122.7478103958356
 20
315.2052772007768
 10
124.4491917600105
 20
311.5585232326624
 42
0.5205046449868776
 10
125.12771125539
 20
311.4389506414458
 10
125.4743665915089
 20
311.7856059775647
 42
0.0847796409423414
 10
127.3739886902729
 20
313.5798636206071
 42
0.1626006128156405
 10
127.4743665871533
 20
313.880366823083
 10
127.4743665871533
 20
314.5348039882088
 42
0.6868018179313476
 10
127.1259119882316
 20
314.668823509395
 42
-0.0728137603887277
 10
125.7781723137974
 20
313.554024525722
 42
-0.5847457288354972
 10
125.4743665915089
 20
313.7249758989839
  0
ENDBLK
  5
3F8D
330
3F8B
100
AcDbEntity
  8
0
100
AcDbBlockEnd
  0
BLOCK
  5
3F96
330
3F91
100
AcDbEntity
  8
0
 48
3.0
100
AcDbBlockBegin
  2
08630Glaze
 70
     0
 10
0.0
 20
0.0
 30
0.0
  3
08630Glaze
  1

  0
INSERT
  5
3F92
330
3F91
100
AcDbEntity
  8
APL Joinery
100
AcDbBlockReference
  2
08630
 10
0.0
 20
0.0
 30
0.0
 43
2.0
  0
INSERT
  5
3F93
330
3F91
100
AcDbEntity
  8
APL Joinery
 48
3.0
100
AcDbBlockReference
  2
6Glass
 10
40.50000225423514
 20
18.99987984172827
 30
0.0
 41
-1.0
 50
180.0
  0
INSERT
  5
3F94
330
3F91
100
AcDbEntity
  8
APL Joinery
100
AcDbBlockReference
  2
9010312r
 10
37.70000000000027
 20
20.0
 30
0.0
 43
2.0
  0
INSERT
  5
3F95
330
3F91
100
AcDbEntity
  8
APL Joinery
 48
3.0
100
AcDbBlockReference
  2
9010240l
 10
22.30000000000015
 20
19.99999999999969
 30
0.0
  0
ENDBLK
  5
3F97
330
3F91
100
AcDbEntity
  8
0
 48
3.0
100
AcDbBlockEnd
  0
BLOCK
  5
3FED
330
3FEC
100
AcDbEntity
  8
0
100
AcDbBlockBegin
  2
19mmliner
 70
     0
 10
110.739951507863
 20
355.7623510830485
 30
0.0
  3
19mmliner
  1
G:\Blocks\19mmliner.dwg
  0
LINE
  5
420A
330
3FEC
100
AcDbEntity
  8
APL Joinery
 62
     3
100
AcDbLine
 10
110.739951507863
 20
336.7623510830484
 30
0.0
 11
160.7399515078631
 21
336.7623510830485
 31
0.0
  0
LINE
  5
420B
330
3FEC
100
AcDbEntity
  8
APL Joinery
 62
     3
100
AcDbLine
 10
110.739951507863
 20
355.7623510830485
 30
0.0
 11
177.7399515078631
 21
355.7623510830485
 31
0.0
  0
LINE
  5
420C
330
3FEC
100
AcDbEntity
  8
APL Joinery
 62
     8
100
AcDbLine
 10
136.9304814615635
 20
338.5194764502585
 30
0.0
 11
148.1588522325407
 21
350.7651184192899
 31
0.0
  0
SPLINE
  5
420D
330
3FEC
100
AcDbEntity
  8
APL Joinery
 62
     8
100
AcDbSpline
210
0.0
220
0.0
230
1.0
 70
     8
 71
     3
 72
    14
 73
    10
 74
     8
 42
0.0000000001
 43
0.0000000001
 44
0.0000000001
 40
0.0
 40
0.0
 40
0.0
 40
0.0
 40
8.267050822299994
 40
20.90203347130239
 40
31.18486054127779
 40
41.04700630219173
 40
47.37085711970707
 40
52.62972264650577
 40
55.04603969815228
 40
55.04603969815228
 40
55.04603969815228
 40
55.04603969815228
 10
112.962024863876
 20
352.4416363673449
 30
0.0
 10
115.710435231041
 20
352.6547702152513
 30
0.0
 10
122.6593903931888
 20
353.1936480954732
 30
0.0
 10
133.0603500725692
 20
353.1446097782715
 30
0.0
 10
143.9830780527489
 20
353.7000992866996
 30
0.0
 10
152.8130144084047
 20
352.2948735856875
 30
0.0
 10
159.402266048835
 20
349.3943549626646
 30
0.0
 10
163.2730412780899
 20
346.7537889098187
 30
0.0
 10
165.2352067994704
 20
345.1119730676722
 30
0.0
 10
165.8529398578057
 20
344.5950931661851
 30
0.0
 11
112.962024863876
 21
352.4416363673449
 31
0.0
 11
121.2107623821955
 21
352.9915987772956
 31
0.0
 11
133.8426794995448
 21
353.2699088220463
 31
0.0
 11
144.1252702312661
 21
353.3396253547937
 31
0.0
 11
153.8351469582417
 21
351.6132960245525
 31
0.0
 11
159.6232888309603
 21
349.0660420475272
 31
0.0
 11
163.9838780752223
 21
346.1264964922112
 31
0.0
 11
165.8529398578057
 21
344.5950931661851
 31
0.0
  0
SPLINE
  5
420E
330
3FEC
100
AcDbEntity
  8
APL Joinery
 62
     8
100
AcDbSpline
210
0.0
220
0.0
230
1.0
 70
     8
 71
     3
 72
    13
 73
     9
 74
     7
 42
0.0000000001
 43
0.0000000001
 44
0.0000000001
 40
0.0
 40
0.0
 40
0.0
 40
0.0
 40
7.873644080568313
 40
17.07129258656329
 40
24.77081643184663
 40
33.27528257512341
 40
39.90117587444498
 40
45.52268627951728
 40
45.52268627951728
 40
45.52268627951728
 40
45.52268627951728
 10
117.2336493875612
 20
346.4777841475926
 30
0.0
 10
119.8422678032878
 20
346.8000537066384
 30
0.0
 10
125.4981607755736
 20
347.4987845456142
 30
0.0
 10
133.7781962604838
 20
347.1223878341504
 30
0.0
 10
142.2036965073619
 20
346.5273623865884
 30
0.0
 10
149.7800610034507
 20
345.0750496880203
 30
0.0
 10
155.8214982068499
 20
341.4387446299347
 30
0.0
 10
158.650253791137
 20
338.4840976402127
 30
0.0
 10
159.9486415420667
 20
337.1279262265049
 30
0.0
 11
117.2336493875612
 21
346.4777841475926
 31
0.0
 11
125.0702377681257
 21
347.2407740958025
 31
0.0
 11
134.2660784444942
 21
347.0584219785152
 31
0.0
 11
141.9373280562645
 21
346.3991823877746
 31
0.0
 11
150.2087695760063
 21
344.4220128028292
 31
0.0
 11
155.8982514277181
 21
341.0260949190992
 31
0.0
 11
159.9486415420667
 21
337.1279262265049
 31
0.0
  0
LINE
  5
420F
330
3FEC
100
AcDbEntity
  8
APL Joinery
 62
     3
100
AcDbLine
 10
110.739951507863
 20
336.7623510830484
 30
0.0
 11
110.739951507863
 21
355.7623510830485
 31
0.0
  0
LINE
  5
4210
330
3FEC
100
AcDbEntity
  8
APL Joinery
 62
     8
100
AcDbLine
 10
130.1934589989773
 20
339.0760965397599
 30
0.0
 11
127.6670755755074
 21
350.2084983297885
 31
0.0
  0
SPLINE
  5
4211
330
3FEC
100
AcDbEntity
  8
APL Joinery
 62
     8
100
AcDbSpline
210
0.0
220
0.0
230
1.0
 70
     8
 71
     3
 72
    15
 73
    11
 74
     9
 42
0.0000000001
 43
0.0000000001
 44
0.0000000001
 40
0.0
 40
0.0
 40
0.0
 40
0.0
 40
4.844139449286539
 40
10.54193621031332
 40
16.07410556410715
 40
19.51351901015936
 40
22.27929741151003
 40
25.6710732269026
 40
27.95241956603697
 40
30.23778869522836
 40
30.23778869522836
 40
30.23778869522836
 40
30.23778869522836
 10
115.8770369925237
 20
337.0554560822224
 30
0.0
 10
117.1487211363271
 20
338.1096881093439
 30
0.0
 10
119.9161916569408
 20
340.4039339495252
 30
0.0
 10
125.4540610404964
 20
340.8199775377686
 30
0.0
 10
130.238054618822
 20
341.7249569545736
 30
0.0
 10
134.1816997355666
 20
341.426500736041
 30
0.0
 10
137.2886936906936
 20
340.6778211815542
 30
0.0
 10
140.1492368439622
 20
340.581128745862
 30
0.0
 10
142.5350224188241
 20
339.1458380938952
 30
0.0
 10
143.2897884662015
 20
337.8009584142327
 30
0.0
 10
143.6675039241498
 20
337.1279262265049
 30
0.0
 11
115.8770369925237
 21
337.0554560822224
 31
0.0
 11
119.8746185322385
 21
339.7913341565277
 31
0.0
 11
125.4579300570243
 21
340.9277849241204
 31
0.0
 11
130.9542151154868
 21
341.556870224519
 31
0.0
 11
134.3846942728782
 21
341.3091251870553
 31
0.0
 11
137.1049409005003
 21
340.8093367815391
 31
0.0
 11
140.4461645861669
 21
340.2259265791753
 31
0.0
 11
142.3805274829412
 21
339.0164716181847
 31
0.0
 11
143.6675039241498
 21
337.1279262265049
 31
0.0
  0
LINE
  5
4212
330
3FEC
100
AcDbEntity
  8
APL Joinery
 62
     8
100
AcDbLine
 10
122.8950179978421
 20
338.2411664055077
 30
0.0
 11
112.4454077587423
 21
345.190146322691
 31
0.0
  0
LINE
  5
4213
330
3FEC
100
AcDbEntity
  8
APL Joinery
 62
     3
100
AcDbLine
 10
177.7399515078631
 20
336.7623510830485
 30
0.0
 11
170.7399515078631
 21
336.7623510830485
 31
0.0
  0
SPLINE
  5
4214
330
3FEC
100
AcDbEntity
  8
APL Joinery
 62
     8
100
AcDbSpline
210
0.0
220
0.0
230
1.0
 70
     8
 71
     3
 72
    11
 73
     7
 74
     5
 42
0.0000000001
 43
0.0000000001
 44
0.0000000001
 40
0.0
 40
0.0
 40
0.0
 40
0.0
 40
4.077163776164723
 40
7.378903861023069
 40
10.95052549711435
 40
14.90356917242528
 40
14.90356917242528
 40
14.90356917242528
 40
14.90356917242528
 10
165.2821176582808
 20
355.2180791353014
 30
0.0
 10
166.5726858318287
 20
354.7818781738363
 30
0.0
 10
168.9083728440546
 20
353.9924360185927
 30
0.0
 10
172.0610412556228
 20
352.0900882102073
 30
0.0
 10
174.6875300120783
 20
349.5844033021437
 30
0.0
 10
176.2507024700006
 20
347.6216106372748
 30
0.0
 10
177.0719069678068
 20
346.5904677480291
 30
0.0
 11
165.2821176582808
 21
355.2180791353014
 31
0.0
 11
169.0893137398045
 21
353.7591334699317
 31
0.0
 11
171.9114927001994
 21
352.0454259384479
 31
0.0
 11
174.5358983769054
 21
349.6228289939545
 31
0.0
 11
177.0719069678068
 21
346.5904677480291
 31
0.0
  0
LINE
  5
4215
330
3FEC
100
AcDbEntity
  8
APL Joinery
 62
     3
100
AcDbLine
 10
160.7399515078631
 20
343.7623510830484
 30
0.0
 11
170.7399515078631
 21
343.7623510830484
 31
0.0
  0
LINE
  5
4216
330
3FEC
100
AcDbEntity
  8
APL Joinery
 62
     8
100
AcDbLine
 10
145.9131780783453
 20
339.6327166292613
 30
0.0
 11
175.1069420828859
 21
352.7132887325449
 31
0.0
  0
LINE
  5
4217
330
3FEC
100
AcDbEntity
  8
APL Joinery
 62
     3
100
AcDbLine
 10
160.7399515078631
 20
336.7623510830485
 30
0.0
 11
160.7399515078631
 21
343.7623510830484
 31
0.0
  0
LINE
  5
4218
330
3FEC
100
AcDbEntity
  8
APL Joinery
 62
     3
100
AcDbLine
 10
170.7399515078631
 20
336.7623510830485
 30
0.0
 11
170.7399515078631
 21
343.7623510830484
 31
0.0
  0
LINE
  5
4219
330
3FEC
100
AcDbEntity
  8
APL Joinery
 62
     3
100
AcDbLine
 10
177.7399515078631
 20
336.7623510830485
 30
0.0
 11
177.7399515078631
 21
355.7623510830485
 31
0.0
  0
ENDBLK
  5
3FEE
330
3FEC
100
AcDbEntity
  8
0
100
AcDbBlockEnd
  0
BLOCK
  5
4172
330
4171
100
AcDbEntity
  8
0
100
AcDbBlockBegin
  2
08615
 70
     0
 10
307.3631570047926
 20
561.3882860102213
 30
0.0
  3
08615
  1
08615.dwg
  0
LWPOLYLINE
  5
4DEC
102
{ACAD_REACTORS
330
4DEE
102
}
330
4171
100
AcDbEntity
  8
APL Joinery
  6
Continuous
100
AcDbPolyline
 90
       50
 70
     1
 43
0.0
 10
295.6631570055056
 20
544.1882860102212
 42
-0.4142135623731117
 10
297.9631570055053
 20
541.8882860102214
 10
297.9631570055053
 20
537.3882860102214
 10
298.4631570055051
 20
537.3882860102214
 42
-0.4142135623730951
 10
298.6631570055051
 20
537.1882860102214
 10
298.6631570055051
 20
534.3125693842909
 10
298.6631570055051
 20
526.4640026361515
 10
298.6631570055051
 20
524.8882860102213
 42
0.4142135623731117
 10
299.6631570055051
 20
523.8882860102213
 10
304.6847699497996
 20
523.8882860102213
 42
0.7703500938799187
 10
305.5622329638784
 20
527.2135147430499
 42
-0.4865297798066195
 10
304.708611550247
 20
532.8934583455612
 42
-0.9999999999999996
 10
306.017702459338
 20
531.6580308925167
 42
2.318729304408841
 10
308.708611550247
 20
531.6580308925169
 42
-0.9999999999999998
 10
310.017702459338
 20
532.893458345561
 42
-0.4865297798066322
 10
309.1640810457067
 20
527.2135147430499
 42
0.7703500938799187
 10
310.0415440597853
 20
523.8882860102212
 10
315.0631570040799
 20
523.8882860102213
 42
0.4142135623730951
 10
316.0631570040799
 20
524.8882860102213
 10
316.0631570040799
 20
526.4640026361515
 10
316.0631570040799
 20
534.3125693842909
 10
316.06315700408
 20
537.1882860102214
 42
-0.4142135623730284
 10
316.2631570040799
 20
537.3882860102214
 10
316.7631570040795
 20
537.3882860102214
 10
316.7631570040795
 20
541.8882860102214
 42
-0.4142135623730951
 10
319.0631570040795
 20
544.1882860102214
 10
319.5631570040797
 20
544.1882860102213
 42
0.4142135623730951
 10
320.5631570040797
 20
545.1882860102212
 10
320.5631570040797
 20
548.4640026361517
 42
0.5149445451951792
 10
319.9005064016702
 20
548.9368078619431
 42
-0.2788550286926612
 10
316.2079846687399
 20
549.7337405556757
 42
-1.00000000000008
 10
317.4434121217842
 20
551.0428314647668
 42
2.318729304409097
 10
317.4434121217842
 20
553.7337405556757
 42
-0.999999999999939
 10
316.2079846687399
 20
555.0428314647668
 42
-0.2788550286926724
 10
319.9005064016701
 20
555.8397641584995
 42
0.5149445451952152
 10
320.5631570040797
 20
556.312569384291
 10
320.5631570040797
 20
557.8882860102213
 42
0.4142135623730951
 10
319.5631570040797
 20
558.8882860102213
 10
295.1631570055052
 20
558.8882860102213
 42
0.4142135623730951
 10
294.1631570055053
 20
557.8882860102213
 10
294.1631570055053
 20
556.3125693842911
 42
0.5149445451952152
 10
294.825807607915
 20
555.8397641584996
 42
-0.2788550286926601
 10
298.5183293408452
 20
555.0428314647667
 42
-0.9999999999999802
 10
297.2829018878008
 20
553.733740555676
 42
2.318729304408709
 10
297.2829018878008
 20
551.0428314647667
 42
-1.00000000000008
 10
298.518329340845
 20
549.7337405556757
 42
-0.2788550286926272
 10
294.825807607915
 20
548.936807861943
 42
0.514944545195257
 10
294.1631570055053
 20
548.4640026361517
 10
294.1631570055053
 20
545.1882860102214
 42
0.4142135623731117
 10
295.1631570055052
 20
544.1882860102213
  0
LWPOLYLINE
  5
4DED
102
{ACAD_REACTORS
330
4DEE
102
}
330
4171
100
AcDbEntity
  8
APL Joinery
  6
Continuous
100
AcDbPolyline
 90
       98
 70
     1
 43
0.0
 10
318.3631570040796
 20
535.5882860102212
 42
0.4142135623732116
 10
318.5631570040798
 20
535.7882860102213
 10
318.5631570040797
 20
541.8882860102214
 42
-0.4142135623730951
 10
319.0631570040797
 20
542.3882860102215
 10
320.8631570040797
 20
542.3882860102215
 42
-0.4142135623730951
 10
321.3631570040797
 20
541.8882860102214
 10
321.3631570040797
 20
539.3882860102214
 42
0.9999999999999998
 10
322.3631570040799
 20
539.3882860102214
 10
322.3631570040799
 20
557.3882860102213
 10
323.66315700408
 20
557.3882860102213
 42
0.4142135623730617
 10
323.8631570040799
 20
557.5882860102212
 10
323.8631570040799
 20
559.5882860102213
 10
327.8631570040797
 20
559.5882860102213
 10
327.8631570040798
 20
557.8882860102213
 42
0.9999999999999998
 10
328.8631570040799
 20
557.8882860102213
 10
328.8631570040798
 20
559.5882860102213
 10
334.2631570040798
 20
559.5882860102213
 10
334.2631570040798
 20
557.8882860102213
 42
0.4142135623730951
 10
334.7631570040797
 20
557.3882860102213
 10
336.3131570040797
 20
557.3882860102213
 42
0.9999999999999998
 10
336.3131570040797
 20
558.3882860102213
 10
335.5631570040797
 20
558.3882860102213
 10
335.5631570040797
 20
559.8882860102214
 10
341.0631570040797
 20
559.8882860102214
 10
341.0631570040797
 20
558.3882860102213
 10
340.3131570040797
 20
558.3882860102213
 42
0.9999999999999998
 10
340.3131570040797
 20
557.3882860102213
 10
341.8631570040799
 20
557.3882860102213
 42
0.4142135623730951
 10
342.3631570040799
 20
557.8882860102213
 10
342.3631570040799
 20
559.0882860102213
 10
344.16315700408
 20
559.0882860102213
 42
0.4142135623730617
 10
344.3631570040799
 20
559.2882860102212
 10
344.3631570040799
 20
561.1882860102213
 42
0.4142135623730951
 10
344.16315700408
 20
561.3882860102213
 10
270.5631570055051
 20
561.3882860102213
 42
0.4142135623729452
 10
270.3631570055052
 20
561.1882860102213
 10
270.3631570055052
 20
559.2882860102212
 42
0.4142135623731617
 10
270.5631570055051
 20
559.0882860102213
 10
272.3631570055052
 20
559.0882860102213
 10
272.3631570055052
 20
557.8882860102213
 42
0.4142135623730951
 10
272.8631570055052
 20
557.3882860102213
 10
274.4131570055052
 20
557.3882860102213
 42
0.9999999999999998
 10
274.4131570055052
 20
558.3882860102213
 10
273.6631570055052
 20
558.3882860102213
 10
273.6631570055052
 20
559.8882860102214
 10
279.1631570055052
 20
559.8882860102214
 10
279.1631570055052
 20
558.3882860102213
 10
278.4131570055052
 20
558.3882860102213
 42
0.9999999999999998
 10
278.4131570055052
 20
557.3882860102213
 10
279.9631570055052
 20
557.3882860102213
 42
0.4142135623730951
 10
280.4631570055052
 20
557.8882860102213
 10
280.4631570055052
 20
559.5882860102213
 10
285.8631570055052
 20
559.5882860102213
 10
285.8631570055052
 20
557.8882860102213
 42
0.9999999999999998
 10
286.8631570055049
 20
557.8882860102213
 10
286.8631570055052
 20
559.5882860102213
 10
290.8631570055052
 20
559.5882860102213
 10
290.8631570055052
 20
557.5882860102212
 42
0.4142135623731617
 10
291.0631570055051
 20
557.3882860102213
 10
292.3631570055052
 20
557.3882860102213
 10
292.3631570055051
 20
539.3882860102214
 42
0.9999999999999714
 10
293.3631570055054
 20
539.3882860102214
 10
293.3631570055053
 20
541.8882860102216
 42
-0.4142135623730617
 10
293.8631570055054
 20
542.3882860102215
 10
295.6631570055053
 20
542.3882860102215
 42
-0.4142135623731451
 10
296.1631570055054
 20
541.8882860102214
 10
296.1631570055054
 20
535.7882860102213
 42
0.4142135623730951
 10
296.3631570055054
 20
535.5882860102212
 10
296.8631570055052
 20
535.5882860102213
 10
296.8631570055052
 20
522.8882860102213
 10
293.8631570055052
 20
522.8882860102213
 10
293.8631570055051
 20
523.6382860102213
 42
0.4744978678080938
 10
293.5631570055051
 20
523.8832349844996
 42
0.3563939586925875
 10
292.3631570055052
 20
522.4135411388297
 10
292.3631570055051
 20
521.6382860102213
 42
0.4142135623730951
 10
292.6131570055052
 20
521.3882860102213
 10
305.3631570047926
 20
521.3882860102213
 10
305.3631570047925
 20
476.8882860102213
 42
-0.4142135623731117
 10
304.8631570047926
 20
476.3882860102213
 10
303.8631570047925
 20
476.3882860102213
 42
0.4142135623730784
 10
303.3631570047926
 20
475.8882860102213
 10
303.3631570047925
 20
461.8882860102213
 42
0.4142135623730784
 10
303.8631570047926
 20
461.3882860102212
 10
310.8631570047925
 20
461.3882860102213
 42
0.4142135623730951
 10
311.3631570047925
 20
461.8882860102213
 10
311.3631570047925
 20
475.8882860102213
 42
0.4142135623730951
 10
310.8631570047925
 20
476.3882860102213
 10
309.8631570047924
 20
476.3882860102213
 42
-0.4142135623730951
 10
309.3631570047925
 20
476.8882860102213
 10
309.3631570047925
 20
521.3882860102213
 10
322.1131570040799
 20
521.3882860102213
 42
0.4142135623730951
 10
322.3631570040799
 20
521.6382860102213
 10
322.3631570040799
 20
522.4135411388297
 42
0.3563939586925876
 10
321.1631570040798
 20
523.8832349844995
 42
0.4744978678081307
 10
320.8631570040798
 20
523.6382860102213
 10
320.8631570040799
 20
522.8882860102213
 10
317.8631570040799
 20
522.8882860102213
 10
317.8631570040799
 20
535.5882860102213
  0
HATCH
  5
4DEE
330
4171
100
AcDbEntity
  8
APL Hatch
100
AcDbHatch
 10
0.0
 20
0.0
 30
0.0
210
0.0
220
0.0
230
1.0
  2
SOLID
 70
     1
 71
     1
 91
        2
 92
        1
 93
       98
 72
     2
 10
318.3631570040798
 20
535.7882860102213
 40
0.2000000000000455
 50
269.9999999999674
 51
360.0
 73
     1
 72
     1
 10
318.5631570040798
 20
535.7882860102213
 11
318.5631570040797
 21
541.8882860102214
 72
     2
 10
319.0631570040797
 20
541.8882860102214
 40
0.5
 50
180.0
 51
270.0
 73
     0
 72
     1
 10
319.0631570040797
 20
542.3882860102215
 11
320.8631570040797
 21
542.3882860102215
 72
     2
 10
320.8631570040797
 20
541.8882860102214
 40
0.5
 50
270.0
 51
360.0
 73
     0
 72
     1
 10
321.3631570040797
 20
541.8882860102214
 11
321.3631570040797
 21
539.3882860102214
 72
     2
 10
321.8631570040798
 20
539.3882860102214
 40
0.5000000000001137
 50
180.0
 51
360.0
 73
     1
 72
     1
 10
322.3631570040799
 20
539.3882860102214
 11
322.3631570040799
 21
557.3882860102213
 72
     1
 10
322.3631570040799
 20
557.3882860102213
 11
323.66315700408
 21
557.3882860102213
 72
     2
 10
323.66315700408
 20
557.5882860102212
 40
0.1999999999999318
 50
270.0
 51
360.0
 73
     1
 72
     1
 10
323.8631570040799
 20
557.5882860102212
 11
323.8631570040799
 21
559.5882860102213
 72
     1
 10
323.8631570040799
 20
559.5882860102213
 11
327.8631570040797
 21
559.5882860102213
 72
     1
 10
327.8631570040797
 20
559.5882860102213
 11
327.8631570040798
 21
557.8882860102213
 72
     2
 10
328.3631570040799
 20
557.8882860102213
 40
0.5000000000000569
 50
180.0
 51
360.0
 73
     1
 72
     1
 10
328.8631570040799
 20
557.8882860102213
 11
328.8631570040798
 21
559.5882860102213
 72
     1
 10
328.8631570040798
 20
559.5882860102213
 11
334.2631570040798
 21
559.5882860102213
 72
     1
 10
334.2631570040798
 20
559.5882860102213
 11
334.2631570040798
 21
557.8882860102213
 72
     2
 10
334.7631570040797
 20
557.8882860102213
 40
0.5
 50
180.0
 51
270.0
 73
     1
 72
     1
 10
334.7631570040797
 20
557.3882860102213
 11
336.3131570040797
 21
557.3882860102213
 72
     2
 10
336.3131570040797
 20
557.8882860102213
 40
0.5
 50
270.0
 51
450.0
 73
     1
 72
     1
 10
336.3131570040797
 20
558.3882860102213
 11
335.5631570040797
 21
558.3882860102213
 72
     1
 10
335.5631570040797
 20
558.3882860102213
 11
335.5631570040797
 21
559.8882860102214
 72
     1
 10
335.5631570040797
 20
559.8882860102214
 11
341.0631570040797
 21
559.8882860102214
 72
     1
 10
341.0631570040797
 20
559.8882860102214
 11
341.0631570040797
 21
558.3882860102213
 72
     1
 10
341.0631570040797
 20
558.3882860102213
 11
340.3131570040797
 21
558.3882860102213
 72
     2
 10
340.3131570040797
 20
557.8882860102213
 40
0.5
 50
90.0
 51
270.0
 73
     1
 72
     1
 10
340.3131570040797
 20
557.3882860102213
 11
341.8631570040799
 21
557.3882860102213
 72
     2
 10
341.8631570040799
 20
557.8882860102213
 40
0.5
 50
270.0
 51
360.0
 73
     1
 72
     1
 10
342.3631570040799
 20
557.8882860102213
 11
342.3631570040799
 21
559.0882860102213
 72
     1
 10
342.3631570040799
 20
559.0882860102213
 11
344.16315700408
 21
559.0882860102213
 72
     2
 10
344.16315700408
 20
559.2882860102212
 40
0.1999999999999318
 50
270.0
 51
360.0
 73
     1
 72
     1
 10
344.3631570040799
 20
559.2882860102212
 11
344.3631570040799
 21
561.1882860102213
 72
     2
 10
344.16315700408
 20
561.1882860102213
 40
0.1999999999999318
 50
0.0
 51
90.00000000001628
 73
     1
 72
     1
 10
344.16315700408
 20
561.3882860102213
 11
270.5631570055051
 21
561.3882860102213
 72
     2
 10
270.5631570055052
 20
561.1882860102213
 40
0.1999999999999318
 50
90.00000000001628
 51
180.0
 73
     1
 72
     1
 10
270.3631570055052
 20
561.1882860102213
 11
270.3631570055052
 21
559.2882860102212
 72
     2
 10
270.5631570055051
 20
559.2882860102212
 40
0.1999999999999318
 50
180.0
 51
270.0
 73
     1
 72
     1
 10
270.5631570055051
 20
559.0882860102213
 11
272.3631570055052
 21
559.0882860102213
 72
     1
 10
272.3631570055052
 20
559.0882860102213
 11
272.3631570055052
 21
557.8882860102213
 72
     2
 10
272.8631570055052
 20
557.8882860102213
 40
0.5
 50
180.0
 51
270.0
 73
     1
 72
     1
 10
272.8631570055052
 20
557.3882860102213
 11
274.4131570055052
 21
557.3882860102213
 72
     2
 10
274.4131570055052
 20
557.8882860102213
 40
0.5
 50
270.0
 51
450.0
 73
     1
 72
     1
 10
274.4131570055052
 20
558.3882860102213
 11
273.6631570055052
 21
558.3882860102213
 72
     1
 10
273.6631570055052
 20
558.3882860102213
 11
273.6631570055052
 21
559.8882860102214
 72
     1
 10
273.6631570055052
 20
559.8882860102214
 11
279.1631570055052
 21
559.8882860102214
 72
     1
 10
279.1631570055052
 20
559.8882860102214
 11
279.1631570055052
 21
558.3882860102213
 72
     1
 10
279.1631570055052
 20
558.3882860102213
 11
278.4131570055052
 21
558.3882860102213
 72
     2
 10
278.4131570055052
 20
557.8882860102213
 40
0.5
 50
90.0
 51
270.0
 73
     1
 72
     1
 10
278.4131570055052
 20
557.3882860102213
 11
279.9631570055052
 21
557.3882860102213
 72
     2
 10
279.9631570055052
 20
557.8882860102213
 40
0.5
 50
270.0
 51
360.0
 73
     1
 72
     1
 10
280.4631570055052
 20
557.8882860102213
 11
280.4631570055052
 21
559.5882860102213
 72
     1
 10
280.4631570055052
 20
559.5882860102213
 11
285.8631570055052
 21
559.5882860102213
 72
     1
 10
285.8631570055052
 20
559.5882860102213
 11
285.8631570055052
 21
557.8882860102213
 72
     2
 10
286.363157005505
 20
557.8882860102213
 40
0.4999999999998864
 50
180.0
 51
360.0
 73
     1
 72
     1
 10
286.8631570055049
 20
557.8882860102213
 11
286.8631570055052
 21
559.5882860102213
 72
     1
 10
286.8631570055052
 20
559.5882860102213
 11
290.8631570055052
 21
559.5882860102213
 72
     1
 10
290.8631570055052
 20
559.5882860102213
 11
290.8631570055052
 21
557.5882860102212
 72
     2
 10
291.0631570055051
 20
557.5882860102212
 40
0.1999999999999318
 50
180.0
 51
270.0
 73
     1
 72
     1
 10
291.0631570055051
 20
557.3882860102213
 11
292.3631570055052
 21
557.3882860102213
 72
     1
 10
292.3631570055052
 20
557.3882860102213
 11
292.3631570055051
 21
539.3882860102214
 72
     2
 10
292.8631570055053
 20
539.3882860102214
 40
0.5000000000001706
 50
180.0
 51
360.0
 73
     1
 72
     1
 10
293.3631570055054
 20
539.3882860102214
 11
293.3631570055053
 21
541.8882860102216
 72
     2
 10
293.8631570055054
 20
541.8882860102214
 40
0.5000000000000569
 50
180.000000000013
 51
270.0
 73
     0
 72
     1
 10
293.8631570055054
 20
542.3882860102215
 11
295.6631570055053
 21
542.3882860102215
 72
     2
 10
295.6631570055054
 20
541.8882860102214
 40
0.5
 50
269.999999999987
 51
360.0
 73
     0
 72
     1
 10
296.1631570055054
 20
541.8882860102214
 11
296.1631570055054
 21
535.7882860102213
 72
     2
 10
296.3631570055054
 20
535.7882860102213
 40
0.2000000000000455
 50
180.0
 51
270.0
 73
     1
 72
     1
 10
296.3631570055054
 20
535.5882860102212
 11
296.8631570055052
 21
535.5882860102213
 72
     1
 10
296.8631570055052
 20
535.5882860102213
 11
296.8631570055052
 21
522.8882860102213
 72
     1
 10
296.8631570055052
 20
522.8882860102213
 11
293.8631570055052
 21
522.8882860102213
 72
     1
 10
293.8631570055052
 20
522.8882860102213
 11
293.8631570055051
 21
523.6382860102213
 72
     2
 10
293.6131570055051
 20
523.6382860102213
 40
0.25
 50
0.0
 51
101.5369590328207
 73
     1
 72
     2
 10
293.8631570055052
 20
522.4135411388297
 40
1.500000000000001
 50
101.5369590328181
 51
180.0
 73
     1
 72
     1
 10
292.3631570055052
 20
522.4135411388297
 11
292.3631570055051
 21
521.6382860102213
 72
     2
 10
292.6131570055052
 20
521.6382860102214
 40
0.2500000000000568
 50
180.000000000026
 51
270.0
 73
     1
 72
     1
 10
292.6131570055052
 20
521.3882860102213
 11
305.3631570047926
 21
521.3882860102213
 72
     1
 10
305.3631570047926
 20
521.3882860102213
 11
305.3631570047925
 21
476.8882860102213
 72
     2
 10
304.8631570047926
 20
476.8882860102212
 40
0.4999999999998864
 50
359.9999999999935
 51
450.0000000000065
 73
     0
 72
     1
 10
304.8631570047926
 20
476.3882860102213
 11
303.8631570047925
 21
476.3882860102213
 72
     2
 10
303.8631570047926
 20
475.8882860102213
 40
0.5
 50
90.00000000000651
 51
180.0
 73
     1
 72
     1
 10
303.3631570047926
 20
475.8882860102213
 11
303.3631570047925
 21
461.8882860102213
 72
     2
 10
303.8631570047926
 20
461.8882860102213
 40
0.5000000000001137
 50
180.0
 51
269.9999999999935
 73
     1
 72
     1
 10
303.8631570047926
 20
461.3882860102212
 11
310.8631570047925
 21
461.3882860102213
 72
     2
 10
310.8631570047925
 20
461.8882860102213
 40
0.5
 50
270.0
 51
360.0
 73
     1
 72
     1
 10
311.3631570047925
 20
461.8882860102213
 11
311.3631570047925
 21
475.8882860102213
 72
     2
 10
310.8631570047925
 20
475.8882860102213
 40
0.5
 50
0.0
 51
90.0
 73
     1
 72
     1
 10
310.8631570047925
 20
476.3882860102213
 11
309.8631570047924
 21
476.3882860102213
 72
     2
 10
309.8631570047924
 20
476.8882860102213
 40
0.5
 50
90.0
 51
180.0
 73
     0
 72
     1
 10
309.3631570047925
 20
476.8882860102213
 11
309.3631570047925
 21
521.3882860102213
 72
     1
 10
309.3631570047925
 20
521.3882860102213
 11
322.1131570040799
 21
521.3882860102213
 72
     2
 10
322.1131570040799
 20
521.6382860102213
 40
0.25
 50
270.0
 51
360.0
 73
     1
 72
     1
 10
322.3631570040799
 20
521.6382860102213
 11
322.3631570040799
 21
522.4135411388297
 72
     2
 10
320.8631570040799
 20
522.4135411388296
 40
1.5
 50
0.0000000000043425
 51
78.46304096718611
 73
     1
 72
     2
 10
321.1131570040797
 20
523.6382860102212
 40
0.2499999999999673
 50
78.46304096715373
 51
179.9999999999739
 73
     1
 72
     1
 10
320.8631570040798
 20
523.6382860102213
 11
320.8631570040799
 21
522.8882860102213
 72
     1
 10
320.8631570040799
 20
522.8882860102213
 11
317.8631570040799
 21
522.8882860102213
 72
     1
 10
317.8631570040799
 20
522.8882860102213
 11
317.8631570040799
 21
535.5882860102213
 72
     1
 10
317.8631570040799
 20
535.5882860102213
 11
318.3631570040796
 21
535.5882860102212
 97
        1
330
4DED
 92
       16
 93
       50
 72
     2
 10
295.6631570055056
 20
541.8882860102214
 40
2.299999999999727
 50
269.9999999999986
 51
360.0
 73
     0
 72
     1
 10
297.9631570055053
 20
541.8882860102214
 11
297.9631570055053
 21
537.3882860102214
 72
     1
 10
297.9631570055053
 20
537.3882860102214
 11
298.4631570055051
 21
537.3882860102214
 72
     2
 10
298.4631570055051
 20
537.1882860102214
 40
0.2000000000000455
 50
270.0
 51
360.0
 73
     0
 72
     1
 10
298.6631570055051
 20
537.1882860102214
 11
298.6631570055051
 21
534.3125693842909
 72
     1
 10
298.6631570055051
 20
534.3125693842909
 11
298.6631570055051
 21
526.4640026361515
 72
     1
 10
298.6631570055051
 20
526.4640026361515
 11
298.6631570055051
 21
524.8882860102213
 72
     2
 10
299.6631570055051
 20
524.8882860102212
 40
1.0
 50
179.9999999999935
 51
270.0
 73
     1
 72
     1
 10
299.6631570055051
 20
523.8882860102213
 11
304.6847699497996
 21
523.8882860102213
 72
     2
 10
304.6847699497996
 20
525.6666730652141
 40
1.778387054992776
 50
269.9999999999982
 51
420.435446839741
 73
     1
 72
     2
 10
307.3631570047926
 20
530.3882860102214
 40
3.650000000000093
 50
119.5645531602561
 51
223.3417582272192
 73
     0
 72
     2
 10
305.3631570047925
 20
532.2757446190389
 40
0.9000000000000527
 50
223.3417582272231
 51
403.3417582272232
 73
     0
 72
     2
 10
307.3631570047925
 20
530.3882860102212
 40
1.850000000000013
 50
136.6582417727783
 51
403.3417582272265
 73
     1
 72
     2
 10
309.3631570047925
 20
532.2757446190389
 40
0.8999999999999745
 50
136.6582417727821
 51
316.6582417727846
 73
     0
 72
     2
 10
307.3631570047926
 20
530.3882860102212
 40
3.649999999999958
 50
316.6582417727777
 51
420.4354468397429
 73
     0
 72
     2
 10
310.0415440597854
 20
525.6666730652141
 40
1.778387054992782
 50
119.5645531602574
 51
269.9999999999982
 73
     1
 72
     1
 10
310.0415440597853
 20
523.8882860102212
 11
315.0631570040799
 21
523.8882860102213
 72
     2
 10
315.0631570040799
 20
524.8882860102213
 40
1.0
 50
270.0
 51
360.0
 73
     1
 72
     1
 10
316.0631570040799
 20
524.8882860102213
 11
316.0631570040799
 21
526.4640026361515
 72
     1
 10
316.0631570040799
 20
526.4640026361515
 11
316.0631570040799
 21
534.3125693842909
 72
     1
 10
316.0631570040799
 20
534.3125693842909
 11
316.06315700408
 21
537.1882860102214
 72
     2
 10
316.26315700408
 20
537.1882860102215
 40
0.1999999999999318
 50
179.9999999999674
 51
269.9999999999674
 73
     0
 72
     1
 10
316.2631570040799
 20
537.3882860102214
 11
316.7631570040795
 21
537.3882860102214
 72
     1
 10
316.7631570040795
 20
537.3882860102214
 11
316.7631570040795
 21
541.8882860102214
 72
     2
 10
319.0631570040795
 20
541.8882860102214
 40
2.300000000000011
 50
180.0
 51
270.0
 73
     0
 72
     1
 10
319.0631570040795
 20
544.1882860102214
 11
319.5631570040797
 21
544.1882860102213
 72
     2
 10
319.5631570040797
 20
545.1882860102212
 40
1.0
 50
270.0
 51
360.0
 73
     1
 72
     1
 10
320.5631570040797
 20
545.1882860102212
 11
320.5631570040797
 21
548.4640026361517
 72
     2
 10
320.0631570040797
 20
548.4640026361517
 40
0.4999999999999432
 50
0.0
 51
108.9838243850313
 73
     1
 72
     2
 10
318.7131570040797
 20
552.3882860102214
 40
3.650000000000132
 50
71.01617561495848
 51
133.3417582272198
 73
     0
 72
     2
 10
316.825698395262
 20
550.3882860102213
 40
0.9000000000000159
 50
133.3417582272154
 51
313.3417582272256
 73
     0
 72
     2
 10
318.7131570040798
 20
552.3882860102212
 40
1.850000000000008
 50
226.6582417727734
 51
493.3417582272253
 73
     1
 72
     2
 10
316.8256983952621
 20
554.3882860102212
 40
0.9000000000000159
 50
46.6582417727846
 51
226.6582417727767
 73
     0
 72
     2
 10
318.7131570040797
 20
552.3882860102214
 40
3.649999999999875
 50
226.6582417727764
 51
288.9838243850418
 73
     0
 72
     2
 10
320.0631570040797
 20
556.312569384291
 40
0.4999999999999469
 50
251.0161756149625
 51
360.0
 73
     1
 72
     1
 10
320.5631570040797
 20
556.312569384291
 11
320.5631570040797
 21
557.8882860102213
 72
     2
 10
319.5631570040797
 20
557.8882860102213
 40
1.0
 50
0.0
 51
90.0
 73
     1
 72
     1
 10
319.5631570040797
 20
558.8882860102213
 11
295.1631570055052
 21
558.8882860102213
 72
     2
 10
295.1631570055052
 20
557.8882860102213
 40
1.0
 50
90.0
 51
180.0
 73
     1
 72
     1
 10
294.1631570055053
 20
557.8882860102213
 11
294.1631570055053
 21
556.3125693842911
 72
     2
 10
294.6631570055053
 20
556.3125693842912
 40
0.5000000000000569
 50
180.000000000013
 51
288.9838243850456
 73
     1
 72
     2
 10
296.0131570055052
 20
552.3882860102213
 40
3.65000000000004
 50
251.0161756149627
 51
313.3417582272254
 73
     0
 72
     2
 10
297.900615614323
 20
554.3882860102213
 40
0.8999999999999285
 50
313.3417582272306
 51
493.3417582272307
 73
     0
 72
     2
 10
296.0131570055052
 20
552.3882860102213
 40
1.850000000000135
 50
46.65824177277952
 51
313.3417582272205
 73
     1
 72
     2
 10
297.9006156143229
 20
550.3882860102212
 40
0.8999999999999722
 50
226.658241772777
 51
406.6582417727795
 73
     0
 72
     2
 10
296.0131570055052
 20
552.3882860102214
 40
3.650000000000162
 50
46.65824177277951
 51
108.9838243850358
 73
     0
 72
     2
 10
294.6631570055052
 20
548.4640026361516
 40
0.5000000000000023
 50
71.016175614944
 51
179.999999999987
 73
     1
 72
     1
 10
294.1631570055053
 20
548.4640026361517
 11
294.1631570055053
 21
545.1882860102214
 72
     2
 10
295.1631570055052
 20
545.1882860102212
 40
1.0
 50
179.9999999999935
 51
270.0
 73
     1
 72
     1
 10
295.1631570055052
 20
544.1882860102213
 11
295.6631570055056
 21
544.1882860102212
 97
        1
330
4DEC
 75
     0
 76
     1
 98
        1
 10
0.0
 20
0.0
  0
ENDBLK
  5
4173
330
4171
100
AcDbEntity
  8
0
100
AcDbBlockEnd
  0
BLOCK
  5
41CD
330
41CC
100
AcDbEntity
  8
0
100
AcDbBlockBegin
  2
vantage a4 SM border
 70
     0
 10
0.0
 20
0.0
 30
0.0
  3
vantage a4 SM border
  1
vantage a4 SM border.dwg
  0
TEXT
  5
4DF0
330
41CC
100
AcDbEntity
  8
APL Border
100
AcDbText
 10
11.59500000000003
 20
3.979818213543524
 30
0.0
 40
1.5
  1
VANTAGE SPECIFIER'S GUIDE 2011:1     ARCHITECTURAL PROFILES LTD. NB. TECHNICAL SPECIFICATIONS SUBJECT TO CHANGE WITHOUT NOTICE.
 41
1.175568529931163
  7
Arial-Regular
 72
     5
 11
189.595
 21
3.979818213543524
 31
0.0
100
AcDbText
  0
LINE
  5
4DF1
330
41CC
100
AcDbEntity
  8
APL Border
100
AcDbLine
 10
11.59500000000003
 20
6.189999999999997
 30
0.0
 11
189.595
 21
6.189999999999997
 31
0.0
  0
MTEXT
  5
4DF2
330
41CC
100
AcDbEntity
  8
APL Border
100
AcDbMText
 10
57.55102029361978
 20
3.879818213543526
 30
0.0
 40
1.5
 41
0.0
 71
     8
 72
     5
  1
{\fCommercialPi BT|b0|i0|c2|p18;a}
  7
Arial-Regular
 73
     1
 44
1.0
1001
ACAD
1000
MTEXTBEGIN
1070
    73
1070
     1
1070
    44
1040
1.0
1070
    74
1070
     0
1000
MTEXTEND
  0
LINE
  5
4DF3
330
41CC
100
AcDbEntity
  8
APL Border
100
AcDbLine
 10
189.595
 20
268.19
 30
0.0
 11
142.595
 21
268.19
 31
0.0
  0
LINE
  5
4DF4
330
41CC
100
AcDbEntity
  8
APL Border
100
AcDbLine
 10
189.595
 20
282.19
 30
0.0
 11
189.595
 21
254.19
 31
0.0
  0
LINE
  5
4DF5
330
41CC
100
AcDbEntity
  8
APL Border
100
AcDbLine
 10
166.095
 20
268.19
 30
0.0
 11
166.095
 21
254.19
 31
0.0
  0
LINE
  5
4DF6
330
41CC
100
AcDbEntity
  8
APL Border
100
AcDbLine
 10
189.595
 20
254.19
 30
0.0
 11
24.99473224900737
 21
254.19
 31
0.0
  0
LINE
  5
4DF7
330
41CC
100
AcDbEntity
  8
APL Border
100
AcDbLine
 10
189.595
 20
282.19
 30
0.0
 11
24.99473224900737
 21
282.19
 31
0.0
  0
LINE
  5
4DF8
330
41CC
100
AcDbEntity
  8
APL Border
100
AcDbLine
 10
142.595
 20
282.19
 30
0.0
 11
142.595
 21
254.19
 31
0.0
  0
TEXT
  5
4DF9
330
41CC
100
AcDbEntity
  8
APL Border
100
AcDbText
 10
147.845
 20
273.69
 30
0.0
 40
2.5
  1
CAD REF.
  7
Arial-Regular
100
AcDbText
  0
TEXT
  5
4DFA
330
41CC
100
AcDbEntity
  8
APL Border
100
AcDbText
 10
149.6877694406548
 20
262.19
 30
0.0
 40
2.5
  1
DATE
  7
Arial-Regular
 72
     1
 11
154.345
 21
262.19
 31
0.0
100
AcDbText
  0
TEXT
  5
4DFB
330
41CC
100
AcDbEntity
  8
APL Border
100
AcDbText
 10
172.1185334242838
 20
262.19
 30
0.0
 40
2.5
  1
SCALE
  7
Arial-Regular
 72
     1
 11
177.845
 21
262.19
 31
0.0
100
AcDbText
  0
INSERT
  5
4DFC
102
{ACAD_XDICTIONARY
360
4DFD
102
}
330
41CC
100
AcDbEntity
  8
APL Border
100
AcDbBlockReference
  2
vantage black & white logo
 10
24.99473224900737
 20
256.19
 30
0.0
 41
0.5
 42
0.5
 43
0.5
  0
LINE
  5
4E41
330
41CC
100
AcDbEntity
  8
APL Border
100
AcDbLine
 10
24.99473224900737
 20
256.19
 30
0.0
 11
24.99473224900737
 21
254.19
 31
0.0
  0
LINE
  5
4E42
330
41CC
100
AcDbEntity
  8
APL Border
100
AcDbLine
 10
24.99473224900716
 20
279.6304177948761
 30
0.0
 11
24.99473224900737
 21
282.19
 31
0.0
  0
ENDBLK
  5
41CE
330
41CC
100
AcDbEntity
  8
0
100
AcDbBlockEnd
  0
BLOCK
  5
4803
330
47CA
100
AcDbEntity
  8
0
100
AcDbBlockBegin
  2
Spectrum Security Handle 1
 70
     0
 10
0.0
 20
0.0
 30
0.0
  3
Spectrum Security Handle 1
  1

  0
ARC
  5
47CB
330
47CA
100
AcDbEntity
  8
APL Joinery
 62
     8
100
AcDbCircle
 10
26.65031132113518
 20
9.871413236911877
 30
0.0
 40
7.154682661205946
100
AcDbArc
 50
76.24949973108887
 51
146.3065063254399
  0
ARC
  5
47CC
330
47CA
100
AcDbEntity
  8
APL Joinery
 62
     8
100
AcDbCircle
 10
26.94687453906954
 20
9.940182401924573
 30
0.0
 40
14.0
100
AcDbArc
 50
73.86379042171933
 51
119.8903482930903
  0
LINE
  5
47CD
330
47CA
100
AcDbEntity
  8
APL Joinery
 62
     8
100
AcDbLine
 10
4.993963100021233
 20
-11.82157926696632
 30
0.0
 11
28.58900258005019
 21
-3.298990758221862
 31
0.0
  0
CIRCLE
  5
47CE
330
47CA
100
AcDbEntity
  8
APL Joinery
 62
     8
100
AcDbCircle
 10
26.55068574637608
 20
9.992048699843508
 30
0.0
 40
2.500676593021808
  0
LINE
  5
47CF
330
47CA
100
AcDbEntity
  8
APL Joinery
 62
     8
100
AcDbLine
 10
26.55068574637608
 20
16.01232655781848
 30
0.0
 11
22.978980831017
 21
16.01232655781848
 31
0.0
  0
CIRCLE
  5
47D0
330
47CA
100
AcDbEntity
  8
APL Joinery
 62
     8
100
AcDbCircle
 10
26.54841332548722
 20
9.992932839817285
 30
0.0
 40
2.5
  0
CIRCLE
  5
47D1
330
47CA
100
AcDbEntity
  8
APL Joinery
 62
     8
100
AcDbCircle
 10
26.55078393384861
 20
10.01791181452179
 30
0.0
 40
2.5
  0
ARC
  5
47D2
330
47CA
100
AcDbEntity
  8
APL Joinery
 62
     8
100
AcDbCircle
 10
26.55078393384861
 20
10.01791181452179
 30
0.0
 40
6.0
100
AcDbArc
 50
5.903125936907225
 51
253.84924009365
  0
ARC
  5
47D3
330
47CA
100
AcDbEntity
  8
APL Joinery
 62
     8
100
AcDbCircle
 10
15.00827371475498
 20
6.027018911639743
 30
0.0
 40
3.0
100
AcDbArc
 50
285.4980715191774
 51
0.0
  0
ARC
  5
47D4
330
47CA
100
AcDbEntity
  8
APL Joinery
 62
     8
100
AcDbCircle
 10
15.00827371475498
 20
7.008790690681479
 30
0.0
 40
3.0
100
AcDbArc
 50
270.0
 51
0.0
  0
ARC
  5
47D5
330
47CA
100
AcDbEntity
  8
APL Joinery
 62
     8
100
AcDbCircle
 10
11.0129923638865
 20
10.00879069068145
 30
0.0
 40
6.0
100
AcDbArc
 50
128.8943904217186
 51
308.8943904217186
  0
LINE
  5
47D6
330
47CA
100
AcDbEntity
  8
APL Joinery
 62
     8
100
AcDbLine
 10
-1.778862357834555
 20
-5.0
 30
0.0
 11
7.13078338717662
 21
-5.0
 31
0.0
  0
LINE
  5
47D7
330
47CA
100
AcDbEntity
  8
APL Joinery
 62
     8
100
AcDbLine
 10
5.5
 20
0.0
 30
0.0
 11
0.0
 21
0.0
 31
0.0
  0
LINE
  5
47D8
330
47CA
100
AcDbEntity
  8
APL Joinery
 62
     8
100
AcDbLine
 10
3.974801464054849
 20
-11.99999999999997
 30
0.0
 11
0.0
 21
-12.0
 31
0.0
  0
LINE
  5
47D9
330
47CA
100
AcDbEntity
  8
APL Joinery
 62
     8
100
AcDbLine
 10
0.0
 20
-12.0
 30
0.0
 11
0.0
 21
0.0
 31
0.0
  0
LINE
  5
47DA
330
47CA
100
AcDbEntity
  8
APL Joinery
 62
     8
100
AcDbLine
 10
4.893387166430898
 20
0.1090816576113696
 30
0.0
 11
15.80989153993164
 21
3.136100569251112
 31
0.0
  0
LINE
  5
47DB
330
47CA
100
AcDbEntity
  8
APL Joinery
 62
     8
100
AcDbLine
 10
6.0
 20
-8.999999999999971
 30
0.0
 11
6.0
 21
-0.5
 31
0.0
  0
ARC
  5
47DC
330
47CA
100
AcDbEntity
  8
APL Joinery
 62
     8
100
AcDbCircle
 10
3.974801464054849
 20
-8.999999999999971
 30
0.0
 40
3.0
100
AcDbArc
 50
270.0
 51
289.8598491011307
  0
ARC
  5
47DD
330
47CA
100
AcDbEntity
  8
APL Joinery
 62
     8
100
AcDbCircle
 10
3.0
 20
-9.0
 30
0.0
 40
3.0
100
AcDbArc
 50
270.0
 51
0.0
  0
ARC
  5
47DE
330
47CA
100
AcDbEntity
  8
APL Joinery
 62
     8
100
AcDbCircle
 10
5.5
 20
-0.5
 30
0.0
 40
0.5
100
AcDbArc
 50
0.0
 51
90.0
  0
ARC
  5
47DF
330
47CA
100
AcDbEntity
  8
APL Joinery
 62
     8
100
AcDbCircle
 10
4.091769341254348
 20
3.0
 30
0.0
 40
3.0
100
AcDbArc
 50
270.0
 51
285.4980715191774
  0
LINE
  5
47E0
330
47CA
100
AcDbEntity
  8
APL Joinery
 62
     8
100
AcDbLine
 10
-2.987107636115183
 20
16.01232655781854
 30
0.0
 11
9.417600653265367
 21
16.01232655781854
 31
0.0
  0
LINE
  5
47E1
330
47CA
100
AcDbEntity
  8
APL Joinery
 62
     8
100
AcDbLine
 10
15.00827371475498
 20
4.008790690681479
 30
0.0
 11
-5.987103552742837
 21
4.008790690681564
 31
0.0
  0
LINE
  5
47E2
330
47CA
100
AcDbEntity
  8
APL Joinery
 62
     8
100
AcDbLine
 10
0.0128923638848164
 20
4.508790690681536
 30
0.0
 11
0.0128923638848164
 21
13.01232655781854
 31
0.0
  0
LINE
  5
47E3
330
47CA
100
AcDbEntity
  8
APL Joinery
 62
     8
100
AcDbLine
 10
-5.987107636115183
 20
4.008790690681564
 30
0.0
 11
-5.987107636115183
 21
15.96232655781858
 31
0.0
  0
LINE
  5
47E4
330
47CA
100
AcDbEntity
  8
APL Joinery
 62
     8
100
AcDbLine
 10
-5.987011217851545
 20
16.01232655781854
 30
0.0
 11
-5.987103552742837
 21
4.008790690681564
 31
0.0
  0
LINE
  5
47E5
330
47CA
100
AcDbEntity
  8
APL Joinery
 62
     8
100
AcDbLine
 10
-7.765969993949624
 20
9.007952277375181
 30
0.0
 11
1.14367575106155
 21
9.007952277375181
 31
0.0
  0
ARC
  5
47E6
330
47CA
100
AcDbEntity
  8
APL Joinery
 62
     8
100
AcDbCircle
 10
-0.4871076361151836
 20
4.508790690681536
 30
0.0
 40
0.5
100
AcDbArc
 50
270.0
 51
0.0
  0
LINE
  5
47E7
330
47CA
100
AcDbEntity
  8
APL Joinery
 62
     8
100
AcDbLine
 10
-2.987107636115183
 20
16.01232655781854
 30
0.0
 11
-5.987011217851545
 21
16.01232655781854
 31
0.0
  0
ARC
  5
47E8
330
47CA
100
AcDbEntity
  8
APL Joinery
 62
     8
100
AcDbCircle
 10
-2.987107636115183
 20
13.01232655781854
 30
0.0
 40
3.0
100
AcDbArc
 50
0.0
 51
90.0
  0
LINE
  5
47E9
330
47CA
100
AcDbEntity
  8
APL Joinery
 62
     8
100
AcDbLine
 10
19.97009073345066
 20
22.07791232681797
 30
0.0
 11
8.02294216147834
 21
15.21067494420725
 31
0.0
  0
ARC
  5
47EA
330
47CA
100
AcDbEntity
  8
APL Joinery
 62
     8
100
AcDbCircle
 10
11.0129923638865
 20
10.00879069068151
 30
0.0
 40
6.0
100
AcDbArc
 50
119.8903482930903
 51
308.8943904217186
  0
CIRCLE
  5
47EB
330
47CA
100
AcDbEntity
  8
APL Joinery
 62
     8
100
AcDbCircle
 10
11.0129923638865
 20
10.00879069068145
 30
0.0
 40
2.5
  0
LINE
  5
47EC
330
47CA
100
AcDbEntity
  8
APL Joinery
 62
     8
100
AcDbLine
 10
15.85487455697375
 20
6.465305664853673
 30
0.0
 11
20.69749283648935
 21
13.84047308420821
 31
0.0
  0
LINE
  5
47ED
330
47CA
100
AcDbEntity
  8
APL Joinery
 62
     8
100
AcDbLine
 10
18.00827371475498
 20
9.744870229443364
 30
0.0
 11
18.00827371475498
 21
6.027018911639743
 31
0.0
  0
LINE
  5
47EE
330
47CA
100
AcDbEntity
  8
APL Joinery
 62
     8
100
AcDbLine
 10
15.85487455697375
 20
6.465305664853644
 30
0.0
 11
14.78023245631857
 21
5.33893098229916
 31
0.0
  0
LINE
  5
47EF
330
47CA
100
AcDbEntity
  8
APL Joinery
 62
     8
100
AcDbLine
 10
15.85487455697375
 20
6.465305664853673
 30
0.0
 11
14.78023245631857
 21
5.33893098229916
 31
0.0
  0
ARC
  5
47F0
330
47CA
100
AcDbEntity
  8
APL Joinery
 62
     8
100
AcDbCircle
 10
70.91458746472176
 20
19.08069952912672
 30
0.0
 40
14.0
100
AcDbArc
 50
1.192440836991219
 51
149.3862782357896
  0
CIRCLE
  5
47F1
330
47CA
100
AcDbEntity
  8
APL Joinery
 62
     8
100
AcDbCircle
 10
70.91458746472176
 20
19.08069952912672
 30
0.0
 40
10.25
  0
LINE
  5
47F2
330
47CA
100
AcDbEntity
  8
APL Joinery
 62
     8
100
AcDbLine
 10
28.35093913341438
 20
16.82104265341061
 30
0.0
 11
75.2907917937041
 21
3.240408225877871
 31
0.0
  0
LINE
  5
47F3
330
47CA
100
AcDbEntity
  8
APL Joinery
 62
     8
100
AcDbLine
 10
33.95302156207845
 20
8.919333233049712
 30
0.0
 11
72.63040042823559
 21
-2.259818395681264
 31
0.0
  0
LINE
  5
47F4
330
47CA
100
AcDbEntity
  8
APL Joinery
 62
     8
100
AcDbLine
 10
24.88178958365939
 20
4.254713235691099
 30
0.0
 11
77.81200305652896
 21
-11.0440194990667
 31
0.0
  0
ARC
  5
47F5
330
47CA
100
AcDbEntity
  8
APL Joinery
 62
     8
100
AcDbCircle
 10
26.5506793081172
 20
2.344167775710843
 30
0.0
 40
6.0
100
AcDbArc
 50
289.8598491011307
 51
0.0
  0
ARC
  5
47F6
330
47CA
100
AcDbEntity
  8
APL Joinery
 62
     8
100
AcDbCircle
 10
46.81722488843274
 20
33.33963065550737
 30
0.0
 40
14.0
100
AcDbArc
 50
253.8637904217193
 51
329.3862782357896
  0
LINE
  5
47F7
330
47CA
100
AcDbEntity
  8
APL Joinery
 62
     8
100
AcDbLine
 10
30.83777956543236
 20
23.3886342859083
 30
0.0
 11
42.92631986206993
 21
19.89117877152361
 31
0.0
  0
ARC
  5
47F8
330
47CA
100
AcDbEntity
  8
APL Joinery
 62
     8
100
AcDbCircle
 10
26.54833156153063
 20
10.01232701966739
 30
0.0
 40
6.0
100
AcDbArc
 50
0.2043672543222705
 51
90.20436725432391
  0
ARC
  5
47F9
330
47CA
100
AcDbEntity
  8
APL Joinery
 62
     8
100
AcDbCircle
 10
34.5083615937906
 20
10.84068625870063
 30
0.0
 40
2.0
100
AcDbArc
 50
185.9031259369072
 51
253.8788069278502
  0
LINE
  5
47FA
330
47CA
100
AcDbEntity
  8
APL Joinery
 62
     8
100
AcDbLine
 10
84.91155559329127
 20
19.37204675806467
 30
0.0
 11
85.47053034413602
 21
-5.176759156169367
 31
0.0
  0
ARC
  5
47FB
330
47CA
100
AcDbEntity
  8
APL Joinery
 62
     8
100
AcDbCircle
 10
79.47208514959129
 20
-5.31334337211004
 30
0.0
 40
6.0
100
AcDbArc
 50
253.8637904217193
 51
8.444069295010532
  0
ARC
  5
47FC
330
47CA
100
AcDbEntity
  8
APL Joinery
 62
     8
100
AcDbCircle
 10
79.47208514959129
 20
-5.31334337211004
 30
0.0
 40
6.006699
100
AcDbArc
 50
126.8567242433777
 51
9.299015421719989
  0
ARC
  5
47FD
330
47CA
100
AcDbEntity
  8
APL Joinery
 62
     8
100
AcDbCircle
 10
79.47854139061655
 20
-5.278167430577269
 30
0.0
 40
6.0
100
AcDbArc
 50
253.8788069278502
 51
141.8689125965396
  0
CIRCLE
  5
47FE
330
47CA
100
AcDbEntity
  8
APL Joinery
 62
     8
100
AcDbCircle
 10
79.47854139061655
 20
-5.278167430577269
 30
0.0
 40
2.765323607223812
  0
LINE
  5
47FF
330
47CA
100
AcDbEntity
  8
APL Joinery
 62
     8
100
AcDbLine
 10
71.48917654583328
 20
-1.929963705479707
 30
0.0
 11
73.33657628954734
 21
-9.750460424019138
 31
0.0
  0
ARC
  5
4800
330
47CA
100
AcDbEntity
  8
APL Joinery
 62
     8
100
AcDbCircle
 10
79.47208514959129
 20
-5.31334337211004
 30
0.0
 40
6.0
100
AcDbArc
 50
126.8567242433777
 51
141.853896090406
  0
ARC
  5
4801
330
47CA
100
AcDbEntity
  8
APL Joinery
 62
     8
100
AcDbCircle
 10
74.52377363843652
 20
1.203616867893032
 30
0.0
 40
2.17642732166082
100
AcDbArc
 50
308.1824526435718
 51
69.36454915376843
  0
ARC
  5
4802
330
47CA
100
AcDbEntity
  8
APL Joinery
 62
     8
100
AcDbCircle
 10
73.18574045994842
 20
-0.3384653700305193
 30
0.0
 40
2.0
100
AcDbArc
 50
253.8788069278502
 51
321.8689125965383
  0
ENDBLK
  5
4804
330
47CA
100
AcDbEntity
  8
0
100
AcDbBlockEnd
  0
BLOCK
  5
4CA9
330
4CA0
100
AcDbEntity
  8
0
100
AcDbBlockBegin
  2
vantage a4 SM attributes (3)
 70
     2
 10
0.0
 20
0.0
 30
0.0
  3
vantage a4 SM attributes (3)
  1

  0
ATTDEF
  5
4CA1
330
4CA0
100
AcDbEntity
  8
APL Border
100
AcDbText
 10
41.78979785863008
 20
272.19
 30
0.0
 40
3.5
  1
DRAWING TITLE LINE 1
  7
Arial-Bold
100
AcDbAttributeDefinition
  3
Drawing Title Line 1
  2
DRAWINGTITLE_1
 70
     0
  0
ATTDEF
  5
4CA2
330
4CA0
100
AcDbEntity
  8
APL Border
100
AcDbText
 10
41.78979785863008
 20
266.19
 30
0.0
 40
3.5
  1
DRAWING TITLE LINE 2
  7
Arial-Bold
100
AcDbAttributeDefinition
  3
Drawing Title Line 2
  2
DRAWINGTITLE_2
 70
     0
  0
ATTDEF
  5
4CA3
330
4CA0
100
AcDbEntity
  8
APL Border
100
AcDbText
 10
41.78979785863008
 20
260.19
 30
0.0
 40
3.0
  1
DRAWING TITLE LINE 3
  7
Arial-Regular
100
AcDbAttributeDefinition
  3
Drawing Title Line 3
  2
DRAWINGTITLE_3
 70
     0
  0
ATTDEF
  5
4CA4
330
4CA0
100
AcDbEntity
  8
APL Border
100
AcDbText
 10
165.845
 20
273.69
 30
0.0
 40
2.5
  1
AW123-456
  7
Arial-Regular
100
AcDbAttributeDefinition
  3
CAD Reference
  2
AW123-456
 70
     0
  0
ATTDEF
  5
4CA5
330
4CA0
100
AcDbEntity
  8
APL Border
100
AcDbText
 10
147.5475920873124
 20
257.1899999999999
 30
0.0
 40
2.5
  1
24.05.02
  7
Arial-Regular
 72
     1
 11
154.345
 21
257.1899999999999
 31
0.0
100
AcDbAttributeDefinition
  3
Date
  2
24.05.02
 70
     0
  0
ATTDEF
  5
4CA6
330
4CA0
100
AcDbEntity
  8
APL Border
100
AcDbText
 10
175.4174761255116
 20
257.1899999999999
 30
0.0
 40
2.5
  1
1:2
  7
Arial-Regular
 72
     1
 11
177.845
 21
257.1899999999999
 31
0.0
100
AcDbAttributeDefinition
  3
Scale
  2
1:2
 70
     0
  0
ATTDEF
  5
4CA7
330
4CA0
100
AcDbEntity
  8
APL Border
100
AcDbText
 10
11.59500000000001
 20
1.189999999999997
 30
0.0
 40
3.75
  1
1.2.34
  7
Arial-Bold
100
AcDbAttributeDefinition
  3
Page Number (Left)
  2
1.2.34
 70
     0
  0
ATTDEF
  5
4CA8
330
4CA0
100
AcDbEntity
  8
APL Border
100
AcDbText
 10
175.0298567530696
 20
1.189999999999997
 30
0.0
 40
3.75
  1
1.2.34
  7
Arial-Bold
 72
     2
 11
189.595
 21
1.189999999999997
 31
0.0
100
AcDbAttributeDefinition
  3
Page Number (Right)
  2
1.2.34
 70
     0
  0
ENDBLK
  5
4CAA
330
4CA0
100
AcDbEntity
  8
0
100
AcDbBlockEnd
  0
BLOCK
  5
4E01
330
4DFE
100
AcDbEntity
  8
0
 62
     9
100
AcDbBlockBegin
  2
vantage black & white logo
 70
     0
 10
0.0
 20
0.0
 30
0.0
  3
vantage black & white logo
  1

  0
SPLINE
  5
4E02
102
{ACAD_REACTORS
330
4E32
102
}
330
4DFE
100
AcDbEntity
  8
APL Border
 62
     8
100
AcDbSpline
210
0.0
220
0.0
230
1.0
 70
     8
 71
     3
 72
    16
 73
    12
 74
    10
 42
0.0000000001
 43
0.0000000001
 44
0.0000000001
 40
0.0
 40
0.0
 40
0.0
 40
0.0
 40
0.1978277931646383
 40
0.361463118001824
 40
0.5540499897785108
 40
0.7796220130725381
 40
0.979106605438038
 40
1.222151590302332
 40
1.40748727220097
 40
1.607226525619232
 40
1.815049166761618
 40
1.815049166761618
 40
1.815049166761618
 40
1.815049166761618
 10
-6.679452083611295
 20
24.89125032803118
 30
0.0
 10
-6.685371732996674
 20
24.82559351525051
 30
0.0
 10
-6.696187882184245
 20
24.70562798418881
 30
0.0
 10
-6.721757155054659
 20
24.52229576436942
 30
0.0
 10
-6.768469983285688
 20
24.33480615160983
 30
0.0
 10
-6.86071972339088
 20
24.14153771241002
 30
0.0
 10
-7.051789745146238
 20
24.01851519430105
 30
0.0
 10
-7.233921808197289
 20
23.91285203345822
 30
0.0
 10
-7.443451931375125
 20
23.87675735439051
 30
0.0
 10
-7.641222718647389
 20
23.88093312949101
 30
0.0
 10
-7.776581895343343
 20
23.89281010788354
 30
0.0
 10
-7.845603808282817
 20
23.89886637823479
 30
0.0
 11
-6.679452083611295
 21
24.89125032803118
 31
0.0
 11
-6.698967886443824
 21
24.69438750983487
 31
0.0
 11
-6.7229873764864
 21
24.53252465544059
 31
0.0
 11
-6.771947617386814
 21
24.34626516442952
 31
0.0
 11
-6.880972027936735
 21
24.14879006322128
 31
0.0
 11
-7.039699899396197
 21
24.02796140183178
 31
0.0
 11
-7.25666078222261
 21
23.91842218515177
 31
0.0
 11
-7.438645676318543
 21
23.88333923622035
 31
0.0
 11
-7.638384704687155
 21
23.88303939885124
 31
0.0
 11
-7.845603808282817
 21
23.89886637823479
 31
0.0
1001
AcDbBlockRepETag
1070
     1
1071
      590
1005
4E02
  0
SPLINE
  5
4E03
102
{ACAD_REACTORS
330
4E32
102
}
330
4DFE
100
AcDbEntity
  8
APL Border
 62
     8
100
AcDbSpline
210
0.0
220
0.0
230
1.0
 70
     8
 71
     3
 72
    11
 73
     7
 74
     5
 42
0.0000000001
 43
0.0000000001
 44
0.0000000001
 40
0.0
 40
0.0
 40
0.0
 40
0.0
 40
0.0680840587483313
 40
0.1752723045973904
 40
0.2784233367375334
 40
0.4826852714337078
 40
0.4826852714337078
 40
0.4826852714337078
 40
0.4826852714337078
 10
-7.465264214605014
 20
24.80065518845331
 30
0.0
 10
-7.468646137215252
 20
24.77808681972154
 30
0.0
 10
-7.47735239504952
 20
24.719987903891
 30
0.0
 10
-7.524447891091254
 20
24.63752792323728
 30
0.0
 10
-7.635129760920157
 20
24.54333837224584
 30
0.0
 10
-7.743266182308203
 20
24.55714977626708
 30
0.0
 10
-7.815117916056323
 20
24.56632682606847
 30
0.0
 11
-7.465264214605014
 21
24.80065518845331
 31
0.0
 11
-7.478569823577657
 21
24.73388393846117
 31
0.0
 11
-7.530473398252325
 21
24.64010046985295
 31
0.0
 11
-7.611072397370236
 21
24.57572705319073
 31
0.0
 11
-7.815117916056323
 21
24.56632682606847
 31
0.0
1001
AcDbBlockRepETag
1070
     1
1071
      593
1005
4E03
  0
SPLINE
  5
4E04
102
{ACAD_REACTORS
330
4E32
102
}
330
4DFE
100
AcDbEntity
  8
APL Border
 62
     8
100
AcDbSpline
210
0.0
220
0.0
230
1.0
 70
     8
 71
     3
 72
    20
 73
    16
 74
     0
 42
0.0000000001
 43
0.0000000001
 40
0.0
 40
0.0
 40
0.0
 40
0.0
 40
0.1774120264923274
 40
0.3258093286713144
 40
0.4834060703451958
 40
0.6311237014699663
 40
0.811161917566129
 40
0.9605198197290178
 40
1.289502400757101
 40
1.459697744220917
 40
1.604754171475458
 40
1.794797311213428
 40
2.030760379210173
 40
2.301729078160567
 40
2.393267743077617
 40
2.393267743077617
 40
2.393267743077617
 40
2.393267743077617
 10
5.780015564168593
 20
26.87985997284487
 30
0.0
 10
5.839056126904296
 20
26.87337384475878
 30
0.0
 10
5.947481505327601
 20
26.86146235781404
 30
0.0
 10
6.098807931884806
 20
26.80185114122353
 30
0.0
 10
6.227972759762906
 20
26.72168911843352
 30
0.0
 10
6.347510602881385
 20
26.61140356622764
 30
0.0
 10
6.442310149474394
 20
26.48207375794227
 30
0.0
 10
6.536759215535255
 20
26.28338234239492
 30
0.0
 10
6.578465181725675
 20
26.06469589684353
 30
0.0
 10
6.553150099427256
 20
25.85079503063701
 30
0.0
 10
6.524121382020268
 20
25.68499989147718
 30
0.0
 10
6.464236525716046
 20
25.50199988960434
 30
0.0
 10
6.327150620479812
 20
25.31187331731421
 30
0.0
 10
6.179477266233362
 20
25.17172660684537
 30
0.0
 10
6.072729148555964
 20
25.11631253421805
 30
0.0
 10
6.045077525535504
 20
25.10350570839811
 30
0.0
1001
AcDbBlockRepETag
1070
     1
1071
      594
1005
4E04
  0
SPLINE
  5
4E05
102
{ACAD_REACTORS
330
4E32
102
}
330
4DFE
100
AcDbEntity
  8
APL Border
 62
     8
100
AcDbSpline
210
0.0
220
0.0
230
1.0
 70
     8
 71
     3
 72
    17
 73
    13
 74
    11
 42
0.0000000001
 43
0.0000000001
 44
0.0000000001
 40
0.0
 40
0.0
 40
0.0
 40
0.0
 40
0.0975027714782739
 40
0.2117924486065133
 40
0.317678689712162
 40
0.4843960423119905
 40
0.5983164751676271
 40
0.7475672999664091
 40
0.8854036234346642
 40
1.040732215041493
 40
1.197661337444246
 40
1.243973057737614
 40
1.243973057737614
 40
1.243973057737614
 40
1.243973057737614
 10
5.580769717272147
 20
26.18861664944085
 30
0.0
 10
5.613502616848285
 20
26.1875961553427
 30
0.0
 10
5.684603990133519
 20
26.18537947021098
 30
0.0
 10
5.781919321100519
 20
26.1258482190374
 30
0.0
 10
5.832561030472812
 20
26.0011917111029
 30
0.0
 10
5.820388894698232
 20
25.86817511516085
 30
0.0
 10
5.765298612935113
 20
25.7349784962169
 30
0.0
 10
5.67725421213275
 20
25.62965962372396
 30
0.0
 10
5.546675458142082
 20
25.55725132865025
 30
0.0
 10
5.401760839408257
 20
25.51345804330555
 30
0.0
 10
5.281860155064943
 20
25.50729075876586
 30
0.0
 10
5.21427201805345
 20
25.50302975767877
 30
0.0
 10
5.198870965514487
 20
25.50205881951548
 30
0.0
 11
5.580769717272147
 21
26.18861664944085
 31
0.0
 11
5.67764963039707
 21
26.17761333726443
 31
0.0
 11
5.774085473546278
 21
26.11627608549865
 31
0.0
 11
5.81791994770495
 21
26.01988918322082
 31
0.0
 11
5.809153052873227
 21
25.85340249542595
 31
0.0
 11
5.765318578714499
 21
25.74825305939683
 31
0.0
 11
5.668882735565347
 21
25.63434108961652
 31
0.0
 11
5.55010046754208
 21
25.56441523695462
 31
0.0
 11
5.401316428353624
 21
25.51980267086244
 31
0.0
 11
5.245093480229996
 21
25.50493189624708
 31
0.0
 11
5.198870965514487
 21
25.50205881951548
 31
0.0
1001
AcDbBlockRepETag
1070
     1
1071
      595
1005
4E05
  0
SPLINE
  5
4E06
102
{ACAD_REACTORS
330
4E3C
330
4E3D
102
}
330
4DFE
100
AcDbEntity
  8
APL Border
 62
     8
100
AcDbSpline
210
0.0
220
0.0
230
1.0
 70
     8
 71
     3
 72
    25
 73
    21
 74
     0
 42
0.0000000001
 43
0.0000000001
 40
0.0289432764998855
 40
0.0289432764998855
 40
0.0289432764998855
 40
0.0289432764998855
 40
0.7134165119202287
 40
1.411731005087882
 40
2.041147618059464
 40
3.036171077105474
 40
3.957911241576911
 40
4.83592253147705
 40
5.676684481733094
 40
6.271141751551381
 40
6.974058201941041
 40
7.825808739104269
 40
8.5265481701528
 40
9.125733480364379
 40
9.891766509798275
 40
10.6767880070383
 40
11.66821110410527
 40
12.42950909475574
 40
13.09855121203093
 40
13.70132750762923
 40
13.70132750762923
 40
13.70132750762923
 40
13.70132750762923
 10
13.141643811855
 20
43.40554077871886
 30
0.0
 10
12.91988216430481
 20
43.459256627421
 30
0.0
 10
12.47168844867874
 20
43.5669624691983
 30
0.0
 10
11.80600758681791
 20
43.66484839798013
 30
0.0
 10
11.02988777388427
 20
43.6649333207477
 30
0.0
 10
10.1361516270939
 20
43.55263717791944
 30
0.0
 10
9.306733533720876
 20
43.19741938393827
 30
0.0
 10
8.599762003673276
 20
42.45478219212527
 30
0.0
 10
8.236440109363229
 20
41.77191325718488
 30
0.0
 10
8.073464067873601
 20
41.07996170309042
 30
0.0
 10
8.007035995439764
 20
40.3638923215899
 30
0.0
 10
7.98103501985804
 20
39.60493317412716
 30
0.0
 10
8.107710769833204
 20
38.92055182387923
 30
0.0
 10
8.442098079777224
 20
38.21445924826959
 30
0.0
 10
9.036296716232907
 20
37.66873436641545
 30
0.0
 10
9.909689132144507
 20
37.42421376773082
 30
0.0
 10
10.75775873959412
 20
37.35554609345542
 30
0.0
 10
11.56487972715851
 20
37.38454149767491
 30
0.0
 10
12.23983007222788
 20
37.44815687239099
 30
0.0
 10
12.66077873273661
 20
37.49837935861893
 30
0.0
 10
12.86026661033734
 20
37.52234731786496
 30
0.0
1001
AcDbBlockRepETag
1070
     1
1071
      596
1005
4E06
  0
SPLINE
  5
4E07
102
{ACAD_REACTORS
330
4E3C
330
4E3D
102
}
330
4DFE
100
AcDbEntity
  8
APL Border
 62
     8
100
AcDbSpline
210
0.0
220
0.0
230
1.0
 70
     8
 71
     3
 72
    19
 73
    15
 74
     0
 42
0.0000000001
 43
0.0000000001
 40
1.529304964685563
 40
1.529304964685563
 40
1.529304964685563
 40
1.529304965389289
 40
2.032016958536417
 40
2.556791262130423
 40
2.964493033520332
 40
3.465275586793771
 40
4.160836826595903
 40
4.71800698457321
 40
5.304510401169525
 40
5.733359288828643
 40
6.099728421126306
 40
6.422629926283571
 40
6.722447272622213
 40
6.957123473755099
 40
6.957123473755099
 40
6.957123473755099
 40
6.957123473755099
 10
11.64369617822672
 20
42.03297741382947
 30
0.0
 10
11.47589856643677
 20
42.04574754506741
 30
0.0
 10
11.13485165915975
 20
42.01473204050012
 30
0.0
 10
10.65553906793815
 20
41.91613810684326
 30
0.0
 10
10.23036575101369
 20
41.67654609785123
 30
0.0
 10
9.854221329784113
 20
41.27113304911427
 30
0.0
 10
9.717431528044755
 20
40.66388266631498
 30
0.0
 10
9.641062203095145
 20
40.05806431643046
 30
0.0
 10
9.716968816830743
 20
39.48770259248511
 30
0.0
 10
10.00680770225198
 20
39.09661486818469
 30
0.0
 10
10.3797311442331
 20
38.98358798973799
 30
0.0
 10
10.70216182646531
 20
38.92661434152812
 30
0.0
 10
10.99026249243499
 20
38.92783484269152
 30
0.0
 10
11.24302802126629
 20
38.95177692242413
 30
0.0
 10
11.33360452536307
 20
38.96406177273881
 30
0.0
1001
AcDbBlockRepETag
1070
     1
1071
      597
1005
4E07
  0
LWPOLYLINE
  5
4E08
102
{ACAD_REACTORS
330
4E39
102
}
330
4DFE
100
AcDbEntity
  8
APL Border
 62
     8
100
AcDbPolyline
 90
       12
 70
     1
 43
0.0
 10
14.13627631352983
 20
43.61979184908029
 10
18.38986203356285
 20
43.61979184908029
 10
18.21321428445671
 20
41.9726305274507
 10
15.84058876400877
 20
41.9726305274507
 10
15.75340373709809
 20
41.15966911198297
 10
17.71732334684157
 20
41.15966911198297
 10
17.56969663746741
 20
39.57967635988449
 10
15.58395939694927
 20
39.57967635988449
 10
15.5052467299167
 20
38.84571591422678
 10
17.87787225036464
 20
38.84571591422678
 10
17.72077299807506
 20
37.38083558975206
 10
13.46718727804204
 20
37.38083558975206
1001
AcDbBlockRepETag
1070
     1
1071
      599
1005
4E08
  0
LWPOLYLINE
  5
4E09
102
{ACAD_REACTORS
330
4E3C
330
4E3D
102
}
330
4DFE
100
AcDbEntity
  8
APL Border
 62
     8
100
AcDbPolyline
 90
        2
 70
     0
 43
0.0
 10
13.141643811855
 20
43.40554077871887
 10
13.141643811855
 20
41.76981947766621
1001
AcDbBlockRepETag
1070
     1
1071
      600
1005
4E09
  0
LWPOLYLINE
  5
4E0A
102
{ACAD_REACTORS
330
4E3C
330
4E3D
102
}
330
4DFE
100
AcDbEntity
  8
APL Border
 62
     8
100
AcDbPolyline
 90
        6
 70
     0
 43
0.0
 10
11.33358781659778
 20
38.96390597096916
 10
11.39962533929804
 20
39.57967635988449
 10
10.96889270630695
 20
39.57967635988449
 10
11.12639005748273
 20
41.04826877857415
 10
13.23839963312048
 20
41.04826877857415
 10
12.86026661033734
 20
37.52234731786496
1001
AcDbBlockRepETag
1070
     1
1071
      601
1005
4E0A
  0
LWPOLYLINE
  5
4E0B
102
{ACAD_REACTORS
330
4E36
102
}
330
4DFE
100
AcDbEntity
  8
APL Border
 62
     8
100
AcDbPolyline
 90
        8
 70
     1
 43
0.0
 10
3.105743226874893
 20
43.61998313276061
 10
2.929095477768755
 20
41.97282181113101
 10
1.466301152475638
 20
41.97282181113101
 10
0.9741138955425029
 20
37.38339558452146
 10
-0.867968570535281
 20
37.38102687343238
 10
-0.3755272841536326
 20
41.97282181113101
 10
-1.891167362926863
 20
41.97282181113101
 10
-1.725754035154749
 20
43.61998313276061
1001
AcDbBlockRepETag
1070
     1
1071
      604
1005
4E0B
  0
LWPOLYLINE
  5
4E0C
102
{ACAD_REACTORS
330
4E35
102
}
330
4DFE
100
AcDbEntity
  8
APL Border
 62
     8
100
AcDbPolyline
 90
       10
 70
     1
 43
0.0
 10
-4.228474015381578
 20
40.14164596649268
 10
-3.855464624526035
 20
43.61979184908029
 10
-2.181839912298443
 20
43.61979184908029
 10
-2.850928947786229
 20
37.38083558975206
 10
-5.032306754624556
 20
37.38083558975206
 10
-6.131920885667284
 20
40.6246666384634
 10
-6.479801476178323
 20
37.38083558975206
 10
-8.135186891292875
 20
37.38083558975206
 10
-7.466097855805088
 20
43.61979184908029
 10
-5.40751765387219
 20
43.61979184908029
1001
AcDbBlockRepETag
1070
     1
1071
      605
1005
4E0C
  0
LWPOLYLINE
  5
4E0D
102
{ACAD_REACTORS
330
4E3C
102
}
330
4DFE
100
AcDbEntity
  8
APL Border
  6
Continuous
 62
     8
100
AcDbPolyline
 90
        8
 70
     1
 43
0.0
 10
-8.449177928734428
 20
37.38083558975206
 10
-9.847253547555595
 20
43.61979184908029
 10
-12.02298966350147
 20
43.61979184908029
 10
-14.82679588919473
 20
37.38083558975206
 10
-12.95240022532295
 20
37.38083558975206
 10
-12.35252874042399
 20
38.71565392391761
 10
-10.64639685172309
 20
38.71565392391761
 10
-10.34727999772013
 20
37.38083558975206
1001
AcDbBlockRepETag
1070
     1
1071
      606
1005
4E0D
  0
LWPOLYLINE
  5
4E0E
330
4DFE
100
AcDbEntity
  8
APL Border
  6
Continuous
 62
     8
100
AcDbPolyline
 90
        7
 70
     1
 43
0.0
 10
-18.99614352503855
 20
43.61979184908029
 10
-17.7875751270476
 20
37.38083558975206
 10
-15.77022638070494
 20
37.38083558975206
 10
-12.96642015501169
 20
43.61979184908029
 10
-14.7664201550117
 20
43.61979184908029
 10
-16.54136876356097
 20
39.42215966960597
 10
-17.19614352503853
 20
43.61979184908029
1001
AcDbBlockRepETag
1070
     1
1071
      608
1005
4E0E
  0
LWPOLYLINE
  5
4E0F
102
{ACAD_REACTORS
330
4E3F
102
}
330
4DFE
100
AcDbEntity
  8
APL Border
  6
Continuous
 62
     8
100
AcDbPolyline
 90
        4
 70
     1
 43
0.0
 10
16.33779773177886
 20
35.29789574745093
 10
-16.33747952551644
 20
35.29789574745093
 10
-12.98884796421711
 20
29.49789574745094
 10
12.98916617047902
 20
29.49789574745094
1001
AcDbBlockRepETag
1070
     1
1071
      609
1005
4E0F
  0
LWPOLYLINE
  5
4E10
102
{ACAD_REACTORS
330
4E32
102
}
330
4DFE
100
AcDbEntity
  8
APL Border
 62
     8
100
AcDbPolyline
 90
        9
 70
     1
 43
0.0
 10
7.455500104221528
 20
25.00957443408062
 10
6.800478684667126
 20
26.87985997284487
 10
7.607536311785906
 20
26.87985997284487
 10
7.963471882016364
 20
25.86355557445326
 10
8.538893993587493
 20
26.87985997284487
 10
9.414203966725494
 20
26.87985997284487
 10
8.232331174709315
 20
25.00957443408062
 10
8.120338037129926
 20
23.87985997284487
 10
7.343506966642138
 20
23.87985997284487
1001
AcDbBlockRepETag
1070
     1
1071
      611
1005
4E10
  0
LWPOLYLINE
  5
4E11
102
{ACAD_REACTORS
330
4E32
102
}
330
4DFE
100
AcDbEntity
  8
APL Border
 62
     8
100
AcDbPolyline
 90
        4
 70
     1
 43
0.0
 10
12.20974330707307
 20
28.14789574745094
 10
8.850698786449385
 20
22.32985997284487
 10
-8.850380580188158
 20
22.32985997284487
 10
-12.20942510081127
 20
28.14789574745094
1001
AcDbBlockRepETag
1070
     1
1071
      613
1005
4E11
  0
LWPOLYLINE
  5
4E12
102
{ACAD_REACTORS
330
4E32
102
}
330
4DFE
100
AcDbEntity
  8
APL Border
 62
     8
100
AcDbPolyline
 90
        6
 70
     0
 43
0.0
 10
5.580769717272147
 20
26.18861664944085
 10
5.137953374950967
 20
26.18861664944085
 10
4.909077041159065
 20
23.87985997284487
 10
4.132245970671277
 20
23.87985997284487
 10
4.429648034880159
 20
26.87985997284487
 10
5.793677369303878
 20
26.87985997284487
1001
AcDbBlockRepETag
1070
     1
1071
      614
1005
4E12
  0
LWPOLYLINE
  5
4E13
102
{ACAD_REACTORS
330
4E3F
102
}
330
4DFE
100
AcDbEntity
  8
APL Border
  6
Continuous
 62
     8
100
AcDbPolyline
 90
        4
 70
     1
 43
0.0
 10
1.119422795136273
 20
34.02289574745092
 10
0.3425917246484857
 20
34.02289574745092
 10
0.0451896604396041
 20
31.02289574745093
 10
0.8220207309273916
 20
31.02289574745093
1001
AcDbBlockRepETag
1070
     1
1071
      620
1005
4E13
  0
LWPOLYLINE
  5
4E14
102
{ACAD_REACTORS
330
4E32
102
}
330
4DFE
100
AcDbEntity
  8
APL Border
 62
     8
100
AcDbPolyline
 90
        4
 70
     0
 43
0.0
 10
6.045077525535504
 20
25.1035057083981
 10
6.339444173005233
 20
23.87985997284487
 10
5.532386545886623
 20
23.87985997284487
 10
5.142141867913778
 20
25.50205881951548
1001
AcDbBlockRepETag
1070
     1
1071
      621
1005
4E14
  0
LWPOLYLINE
  5
4E15
102
{ACAD_REACTORS
330
4E33
102
}
330
4DFE
100
AcDbEntity
  8
APL Border
 62
     8
100
AcDbPolyline
 90
        4
 70
     1
 43
0.0
 10
0.0001591031300165
 20
7.000275566930961
 10
3.563095122801513
 20
13.17146177711931
 10
-0.9450856774407441
 20
20.97985997284487
 10
-8.070957716782203
 20
20.97985997284487
1001
AcDbBlockRepETag
1070
     1
1071
      622
1005
4E15
  0
LWPOLYLINE
  5
4E16
102
{ACAD_REACTORS
330
4E37
102
}
330
4DFE
100
AcDbEntity
  8
APL Border
 62
     8
100
AcDbPolyline
 90
        3
 70
     1
 43
0.0
 10
0.8484489512626112
 20
20.97985997284487
 10
4.459862437153191
 20
14.72470832814346
 10
8.071275923043373
 20
20.97985997284487
1001
AcDbBlockRepETag
1070
     1
1071
      623
1005
4E16
  0
LWPOLYLINE
  5
4E17
102
{ACAD_REACTORS
330
4E32
102
}
330
4DFE
100
AcDbEntity
  8
APL Border
 62
     8
100
AcDbPolyline
 90
        4
 70
     0
 43
0.0
 10
-7.465264214605014
 20
24.80065518845331
 10
-7.259144283007998
 20
26.87985997284487
 10
-6.48231321252021
 20
26.87985997284487
 10
-6.679452083611295
 20
24.89125032803118
1001
AcDbBlockRepETag
1070
     1
1071
      626
1005
4E17
  0
LWPOLYLINE
  5
4E18
102
{ACAD_REACTORS
330
4E32
102
}
330
4DFE
100
AcDbEntity
  8
APL Border
 62
     8
100
AcDbPolyline
 90
        4
 70
     0
 43
0.0
 10
-7.845603808282817
 20
23.89886637823479
 10
-8.399876560405061
 20
23.98304774476413
 10
-8.399876560405061
 20
24.64579492155148
 10
-7.81511791605564
 20
24.56632682606838
1001
AcDbBlockRepETag
1070
     1
1071
      627
1005
4E18
  0
LWPOLYLINE
  5
4E19
102
{ACAD_REACTORS
330
4E3F
102
}
330
4DFE
100
AcDbEntity
  8
APL Border
  6
Continuous
 62
     8
100
AcDbPolyline
 90
        6
 70
     1
 43
0.0
 10
-7.549934049473819
 20
34.02289574745092
 10
-8.326765119961606
 20
34.02289574745092
 10
-8.624167184170488
 20
31.02289574745093
 10
-6.770246795158442
 20
31.02289574745093
 10
-6.700109532938455
 20
31.73039516316516
 10
-7.777198851462713
 20
31.73039516316516
1001
AcDbBlockRepETag
1070
     1
1071
      628
1005
4E19
  0
LWPOLYLINE
  5
4E1A
102
{ACAD_REACTORS
330
4E3F
102
}
330
4DFE
100
AcDbEntity
  8
APL Border
  6
Continuous
 62
     8
100
AcDbPolyline
 90
        3
 70
     1
 43
0.0
 10
-10.14693849009504
 20
33.12550842600547
 10
-10.00044093617224
 20
32.51653621849665
 10
-10.45444607654239
 20
32.51653621849665
1001
AcDbBlockRepETag
1070
     1
1071
      629
1005
4E1A
  0
LWPOLYLINE
  5
4E1B
102
{ACAD_REACTORS
330
4E3F
102
}
330
4DFE
100
AcDbEntity
  8
APL Border
  6
Continuous
 62
     8
100
AcDbPolyline
 90
        8
 70
     1
 43
0.0
 10
-8.834065309397374
 20
31.02289574745093
 10
-9.555761072109191
 20
34.02289574745092
 10
-10.50084997043805
 20
34.02289574745092
 10
-12.01573480092304
 20
31.02289574745093
 10
-11.20867717380426
 20
31.02289574745093
 10
-10.74455961985978
 20
31.94201027933759
 10
-9.862229957552528
 20
31.94201027933759
 10
-9.641122936515984
 20
31.02289574745093
1001
AcDbBlockRepETag
1070
     1
1071
      630
1005
4E1B
  0
LWPOLYLINE
  5
4E1C
102
{ACAD_REACTORS
330
4E38
102
}
330
4DFE
100
AcDbEntity
  8
APL Border
 62
     8
100
AcDbPolyline
 90
        3
 70
     1
 43
0.0
 10
0.0000000003145431
 20
4.000000000000009
 10
23.60256143704041
 20
44.88083558975217
 10
-23.60256142783933
 20
44.88083558975206
1001
AcDbBlockRepETag
1070
     1
1071
      631
1005
4E1C
  0
LWPOLYLINE
  5
4E1D
102
{ACAD_REACTORS
330
4E38
102
}
330
4DFE
100
AcDbEntity
  8
APL Border
 62
     8
100
AcDbPolyline
 90
        3
 70
     1
 43
0.0
 10
27.06666305249243
 20
46.88083558975206
 10
-27.06666304266244
 20
46.88083558975206
 10
-0.0000000000000284
 20
0.0000000000000238
1001
AcDbBlockRepETag
1070
     1
1071
      703
1005
4E1D
  0
LWPOLYLINE
  5
4E1E
102
{ACAD_REACTORS
330
4E3C
330
4E3E
102
}
330
4DFE
100
AcDbEntity
  8
APL Border
  6
Continuous
 62
     8
100
AcDbPolyline
 90
        8
 70
     1
 43
0.0
 10
7.980630193374565
 20
37.38083558975206
 10
6.582554574553398
 20
43.61979184908029
 10
4.406818458607517
 20
43.61979184908029
 10
1.603012232914267
 20
37.38083558975206
 10
3.477407896786047
 20
37.38083558975206
 10
4.077279381685002
 20
38.71565392391761
 10
5.783411270385897
 20
38.71565392391761
 10
6.082528124388858
 20
37.38083558975206
1001
AcDbBlockRepETag
1070
     1
1071
      760
1005
4E1E
  0
LWPOLYLINE
  5
4E1F
102
{ACAD_REACTORS
330
4E3C
330
4E3E
102
}
330
4DFE
100
AcDbEntity
  8
APL Border
  6
Continuous
 62
     8
100
AcDbPolyline
 90
        3
 70
     1
 43
0.0
 10
5.206046831612667
 20
41.69367581194667
 10
5.552066120962537
 20
40.14955389030274
 10
4.512113667606024
 20
40.14955389030274
1001
AcDbBlockRepETag
1070
     1
1071
      761
1005
4E1F
  0
LWPOLYLINE
  5
4E20
102
{ACAD_REACTORS
330
4E3F
102
}
330
4DFE
100
AcDbEntity
  8
APL Border
  6
Continuous
 62
     8
100
AcDbPolyline
 90
        4
 70
     1
 43
0.0
 10
5.615530392135354
 20
34.02289574745092
 10
4.838699321647567
 20
34.02289574745092
 10
4.541297257438685
 20
31.02289574745093
 10
5.318128327926473
 20
31.02289574745093
1001
AcDbBlockRepETag
1070
     1
1071
      785
1005
4E20
  0
LWPOLYLINE
  5
4E21
102
{ACAD_REACTORS
330
4E3F
102
}
330
4DFE
100
AcDbEntity
  8
APL Border
 62
     8
100
AcDbPolyline
 90
       13
 70
     0
 43
0.0
 10
-5.535628094882099
 20
32.1870929174454
 10
-5.353790768486447
 20
34.02289574745092
 10
-6.130425112774389
 20
34.0248801943346
 10
-6.333826921263238
 20
31.9730940808461
 42
0.1695250701542156
 10
-6.106840682758871
 20
31.39301551086222
 42
0.0826087127293405
 10
-5.813961912619959
 20
31.13108995311734
 42
0.1017056431856583
 10
-5.510404689928634
 20
31.02488019433462
 10
-4.760057203160528
 20
31.0248801943346
 42
0.1918846087154957
 10
-4.136172756560569
 20
31.41919793838074
 42
0.1021851328841131
 10
-3.889225876952792
 20
31.97309408084612
 10
-3.685824068463887
 20
34.0248801943346
 10
-4.462655138951674
 20
34.0248801943346
 10
-4.65073703420694
 20
32.12763147393075
1001
AcDbBlockRepETag
1070
     1
1071
      866
1005
4E21
  0
SPLINE
  5
4E22
102
{ACAD_REACTORS
330
4E3F
102
}
330
4DFE
100
AcDbEntity
  8
APL Border
 62
     8
100
AcDbSpline
210
0.0
220
0.0
230
1.0
 70
     8
 71
     3
 72
    24
 73
    20
 74
    18
 42
0.0000000001
 43
0.0000000001
 44
0.0000000001
 40
0.0
 40
0.0
 40
0.0
 40
0.0
 40
0.1612668085855933
 40
0.2532303870616441
 40
0.3214574742553387
 40
0.4101806452459026
 40
0.5031588697521256
 40
0.5664511009171887
 40
0.624871878778038
 40
0.6731644290699905
 40
0.7797386132933425
 40
0.9206747739903356
 40
1.025058962643435
 40
1.116412352300609
 40
1.212929457806147
 40
1.276240530363035
 40
1.339961572016457
 40
1.386280507025952
 40
1.435584820291647
 40
1.435584820291647
 40
1.435584820291647
 40
1.435584820291647
 10
-5.535628094882099
 20
32.1870929174454
 30
0.0
 10
-5.53213414748617
 20
32.13312332644234
 30
0.0
 10
-5.526647751003197
 20
32.04837718097616
 30
0.0
 10
-5.488860432547518
 20
31.94683424540268
 30
0.0
 10
-5.447171648840961
 20
31.8753242559261
 30
0.0
 10
-5.395818187958767
 20
31.80737001333622
 30
0.0
 10
-5.320761662408248
 20
31.77062767698265
 30
0.0
 10
-5.254477128417399
 20
31.74466351916423
 30
0.0
 10
-5.200112096792143
 20
31.72723210184819
 30
0.0
 10
-5.128888988289486
 20
31.72198763189771
 30
0.0
 10
-5.030042811850907
 20
31.72786870372271
 30
0.0
 10
-4.915707066470194
 20
31.75812586881066
 30
0.0
 10
-4.815771266393483
 20
31.81405298527761
 30
0.0
 10
-4.754740567305573
 20
31.89193427605802
 30
0.0
 10
-4.714673995441981
 20
31.96546823314959
 30
0.0
 10
-4.683526695854578
 20
32.03313813212702
 30
0.0
 10
-4.662006183068958
 20
32.08703079743258
 30
0.0
 10
-4.651792807669443
 20
32.13930455656534
 30
0.0
 10
-4.647206914869654
 20
32.17083533130903
 30
0.0
 10
-4.644842382192905
 20
32.1870929174454
 30
0.0
 11
-5.535628094882099
 21
32.1870929174454
 31
0.0
 11
-5.515298846223288
 21
32.02711258990369
 31
0.0
 11
-5.483433995220536
 21
31.94084596230824
 31
0.0
 11
-5.44947766231354
 21
31.88166908437061
 31
0.0
 11
-5.392321718875223
 21
31.8138089399536
 31
0.0
 11
-5.311535231450477
 21
31.76778184269665
 31
0.0
 11
-5.252609732475718
 21
31.74468006578604
 31
0.0
 11
-5.196420818688864
 21
31.72868652792477
 31
0.0
 11
-5.148347479287053
 21
31.72409039341204
 31
0.0
 11
-5.041949649235618
 21
31.73021889267523
 31
0.0
 11
-4.906104524581394
 21
31.76775692005663
 31
0.0
 11
-4.816802280674096
 21
31.82180475140893
 31
0.0
 11
-4.758009512288197
 21
31.89172507883507
 31
0.0
 11
-4.710553499371997
 21
31.97576958188711
 31
0.0
 11
-4.684063009443377
 21
32.03327215445256
 31
0.0
 11
-4.662061522518769
 21
32.09307437617135
 31
0.0
 11
-4.652346246099511
 21
32.13836297456555
 31
0.0
 11
-4.644842382192905
 21
32.1870929174454
 31
0.0
1001
AcDbBlockRepETag
1070
     1
1071
      827
1005
4E22
  0
LWPOLYLINE
  5
4E23
102
{ACAD_REACTORS
330
4E3F
102
}
330
4DFE
100
AcDbEntity
  8
APL Border
 62
     8
100
AcDbPolyline
 90
       13
 70
     0
 43
0.0
 10
6.787553510813182
 20
32.18510847056172
 10
6.969390837208834
 20
34.02091130056725
 10
6.192756492920892
 20
34.02289574745092
 10
5.989354684432043
 20
31.97110963396243
 42
0.1695250701542156
 10
6.21634092293641
 20
31.39103106397854
 42
0.0826087127293405
 10
6.509219693075323
 20
31.12910550623367
 42
0.1017056431856583
 10
6.812776915766647
 20
31.02289574745094
 10
7.563124402534754
 20
31.02289574745093
 42
0.1918846087154957
 10
8.187008849134713
 20
31.41721349149707
 42
0.1021851328841131
 10
8.433955728742489
 20
31.97110963396244
 10
8.637357537231395
 20
34.02289574745092
 10
7.860526466743607
 20
34.02289574745092
 10
7.672444571488341
 20
32.12564702704707
1001
AcDbBlockRepETag
1070
     1
1071
      837
1005
4E23
  0
LWPOLYLINE
  5
4E24
102
{ACAD_REACTORS
330
4E3F
102
}
330
4DFE
100
AcDbEntity
  8
APL Border
  6
Continuous
 62
     8
100
AcDbPolyline
 90
       13
 70
     1
 43
0.0
 10
-1.295012624591635
 20
34.02807364104484
 10
-0.1975458970834154
 20
34.0280551402308
 10
-0.4949479612922972
 20
31.0280551402308
 10
-1.115886909891884
 20
31.0280551402308
 10
-0.9222174129992311
 20
32.98166797820307
 10
-1.611942464131544
 20
31.0280551402308
 10
-2.344230471214956
 20
31.0280551402308
 10
-2.63016252924163
 20
32.98166797820306
 10
-2.823832026134283
 20
31.0280551402308
 10
-3.44477097473387
 20
31.0280551402308
 10
-3.147349004861581
 20
34.02825593571061
 10
-2.047349004861558
 20
34.02825593571061
 10
-1.8272453185659
 20
32.52441131541936
1001
AcDbBlockRepETag
1070
     1
1071
      867
1005
4E24
  0
LWPOLYLINE
  5
4E25
102
{ACAD_REACTORS
330
4E3F
102
}
330
4DFE
100
AcDbEntity
  8
APL Border
  6
Continuous
 62
     8
100
AcDbPolyline
 90
       10
 70
     1
 43
0.0
 10
1.724974710806094
 20
34.02289574745092
 10
1.427552740933805
 20
31.02269495197112
 10
2.048491689533392
 20
31.02269495197112
 10
2.231899581960561
 20
32.87279534971117
 10
3.051434648859952
 20
31.02269495197112
 10
3.902826396438257
 20
31.02269495197112
 10
4.200228460647139
 20
34.02269495197112
 10
3.580266230192904
 20
34.02269495197112
 10
3.395920304875374
 20
32.17298478610545
 10
2.576558098165463
 20
34.02269495197112
1001
AcDbBlockRepETag
1070
     1
1071
      616
1005
4E25
  0
LWPOLYLINE
  5
4E26
102
{ACAD_REACTORS
330
4E3F
102
}
330
4DFE
100
AcDbEntity
  8
APL Border
  6
Continuous
 62
     8
100
AcDbPolyline
 90
       13
 70
     1
 43
0.0
 10
11.01183437133605
 20
34.02271345278515
 10
12.10930109884427
 20
34.02269495197111
 10
11.81189903463539
 20
31.02269495197111
 10
11.1909600860358
 20
31.02269495197111
 10
11.38462958292845
 20
32.97630778994339
 10
10.69490453179614
 20
31.02269495197111
 10
9.962616524712728
 20
31.02269495197111
 10
9.676684466686054
 20
32.97630778994338
 10
9.483014969793401
 20
31.02269495197111
 10
8.862076021193814
 20
31.02269495197111
 10
9.159497991066103
 20
34.02289574745092
 10
10.25949799106612
 20
34.02289574745092
 10
10.47960167736178
 20
32.51905112715967
1001
AcDbBlockRepETag
1070
     1
1071
      847
1005
4E26
  0
SPLINE
  5
4E27
102
{ACAD_REACTORS
330
4E3F
102
}
330
4DFE
100
AcDbEntity
  8
APL Border
 62
     8
100
AcDbSpline
210
0.0
220
0.0
230
1.0
 70
     8
 71
     3
 72
    24
 73
    20
 74
    18
 42
0.0000000001
 43
0.0000000001
 44
0.0000000001
 40
0.0
 40
0.0
 40
0.0
 40
0.0
 40
0.1612668085856004
 40
0.2532303870616512
 40
0.3214574742553458
 40
0.4101806452458731
 40
0.5031588697521455
 40
0.5664511009172086
 40
0.6248718787780579
 40
0.6731644290699537
 40
0.7797386132933625
 40
0.9206747739903555
 40
1.025058962643406
 40
1.116412352300617
 40
1.212929457806155
 40
1.276240530363043
 40
1.339961572016455
 40
1.386280507025956
 40
1.435584820291643
 40
1.435584820291643
 40
1.435584820291643
 40
1.435584820291643
 10
6.787553510813182
 20
32.18510847056172
 30
0.0
 10
6.791047458209138
 20
32.13113887955867
 30
0.0
 10
6.796533854692151
 20
32.04639273409249
 30
0.0
 10
6.834321173147815
 20
31.94484979851901
 30
0.0
 10
6.876009956854381
 20
31.87333980904243
 30
0.0
 10
6.927363417736518
 20
31.80538556645249
 30
0.0
 10
7.002419943287081
 20
31.76864323009899
 30
0.0
 10
7.068704477277941
 20
31.74267907228054
 30
0.0
 10
7.123069508903178
 20
31.72524765496453
 30
0.0
 10
7.194292617405833
 20
31.72000318501402
 30
0.0
 10
7.293138793844411
 20
31.72588425683905
 30
0.0
 10
7.407474539225143
 20
31.75614142192696
 30
0.0
 10
7.507410339301799
 20
31.81206853839397
 30
0.0
 10
7.568441038389779
 20
31.88994982917432
 30
0.0
 10
7.608507610253345
 20
31.96348378626594
 30
0.0
 10
7.639654909840773
 20
32.03115368524333
 30
0.0
 10
7.661175422626328
 20
32.08504635054892
 30
0.0
 10
7.671388798025919
 20
32.13732010968165
 30
0.0
 10
7.675974690825655
 20
32.16885088442535
 30
0.0
 10
7.678339223502376
 20
32.18510847056172
 30
0.0
 11
6.787553510813182
 21
32.18510847056172
 31
0.0
 11
6.80788275947205
 21
32.02512814302002
 31
0.0
 11
6.839747610474802
 21
31.93886151542456
 31
0.0
 11
6.873703943381798
 21
31.87968463748693
 31
0.0
 11
6.930859886820059
 21
31.81182449306993
 31
0.0
 11
7.011646374244861
 21
31.76579739581298
 31
0.0
 11
7.07057187321962
 21
31.74269561890237
 31
0.0
 11
7.126760787006475
 21
31.72670208104109
 31
0.0
 11
7.174834126408228
 21
31.72210594652836
 31
0.0
 11
7.28123195645972
 21
31.72823444579155
 31
0.0
 11
7.417077081113944
 21
31.76577247317295
 31
0.0
 11
7.506379325021185
 21
31.81982030452526
 31
0.0
 11
7.565172093407142
 21
31.88974063195139
 31
0.0
 11
7.612628106323342
 21
31.97378513500343
 31
0.0
 11
7.639118596251961
 21
32.03128770756889
 31
0.0
 11
7.661120083176541
 21
32.09108992928768
 31
0.0
 11
7.670835359595827
 21
32.13637852768188
 31
0.0
 11
7.678339223502376
 21
32.18510847056172
 31
0.0
1001
AcDbBlockRepETag
1070
     1
1071
      848
1005
4E27
  0
LWPOLYLINE
  5
4E28
102
{ACAD_REACTORS
330
4E32
102
}
330
4DFE
100
AcDbEntity
  8
APL Border
  6
Continuous
 62
     8
100
AcDbPolyline
 90
        4
 70
     1
 43
0.0
 10
-1.87552020613694
 20
26.87985997284487
 10
-2.652351276624727
 20
26.87985997284487
 10
-2.949753340833609
 20
23.87985997284487
 10
-2.172922270345821
 20
23.87985997284487
1001
AcDbBlockRepETag
1070
     1
1071
      851
1005
4E28
  0
LWPOLYLINE
  5
4E29
102
{ACAD_REACTORS
330
4E32
102
}
330
4DFE
100
AcDbEntity
  8
APL Border
  6
Continuous
 62
     8
100
AcDbPolyline
 90
       10
 70
     1
 43
0.0
 10
-1.269968290467119
 20
26.87985997284487
 10
-1.567390260339408
 20
23.87965917736506
 10
-0.9464513117398212
 20
23.87965917736506
 10
-0.7630434193126519
 20
25.72975957510511
 10
0.0564916475867392
 20
23.87965917736506
 10
0.9078833951650437
 20
23.87965917736506
 10
1.205285459373925
 20
26.87965917736506
 10
0.5853232289196911
 20
26.87965917736506
 10
0.4009773036021614
 20
25.0299490114994
 10
-0.41838490310775
 20
26.87965917736506
1001
AcDbBlockRepETag
1070
     1
1071
      852
1005
4E29
  0
LWPOLYLINE
  5
4E2A
102
{ACAD_REACTORS
330
4E32
102
}
330
4DFE
100
AcDbEntity
  8
APL Border
 62
     8
100
AcDbPolyline
 90
       13
 70
     0
 43
0.0
 10
1.882971499788112
 20
26.87985997284487
 10
3.847979515363789
 20
26.87985997284487
 10
3.788499102522024
 20
26.27985997284487
 10
2.600322157434135
 20
26.27985997284487
 10
2.540562294183217
 20
25.67704105755032
 10
3.542578834455781
 20
25.67704105755032
 10
3.476410183919
 20
25.07985997284487
 10
2.474393643646379
 20
25.07985997284487
 10
2.421932428393546
 20
24.48037956726917
 10
3.610109373481435
 20
24.48037956726917
 10
3.550577451154907
 20
23.87985997284487
 10
1.58556943557923
 20
23.87985997284487
 10
1.882971499788112
 20
26.87985997284487
1001
AcDbBlockRepETag
1070
     1
1071
      864
1005
4E2A
  0
LINE
  5
4E2B
102
{ACAD_REACTORS
330
4E32
102
}
330
4DFE
100
AcDbEntity
  8
APL Border
 62
     8
100
AcDbLine
 10
5.198870965514487
 20
25.50205881951548
 30
0.0
 11
5.142141867913778
 21
25.50205881951548
 31
0.0
1001
AcDbBlockRepETag
1070
     1
1071
      865
1005
4E2B
  0
SPLINE
  5
4E2C
102
{ACAD_REACTORS
330
4E32
102
}
330
4DFE
100
AcDbEntity
  8
APL Border
 62
     8
100
AcDbSpline
210
0.0
220
0.0
230
1.0
 70
     8
 71
     3
 72
    25
 73
    21
 74
     0
 42
0.0000000001
 43
0.0000000001
 40
0.0
 40
0.0
 40
0.0
 40
0.0
 40
0.3463130802699203
 40
0.6043703055549736
 40
0.8524756959462802
 40
1.099102870182333
 40
1.318598063912852
 40
1.521064627602771
 40
1.694788988362445
 40
1.912615757663666
 40
2.142780600046976
 40
2.483378398179008
 40
2.873129106540456
 40
3.09179617846886
 40
3.322387155839943
 40
3.509181810940893
 40
3.69147909649244
 40
3.927844502409028
 40
4.143063657146388
 40
4.406491840702669
 40
4.406491840702669
 40
4.406491840702669
 40
4.406491840702669
 10
-5.114032196843737
 20
23.8798599728377
 30
0.0
 10
-5.228982970363915
 20
23.89503832123493
 30
0.0
 10
-5.429589987754155
 20
23.92152690506636
 30
0.0
 10
-5.693675021857103
 20
24.03567408988205
 30
0.0
 10
-5.892941488864977
 20
24.19306688135278
 30
0.0
 10
-6.036314150572081
 20
24.38541826526996
 30
0.0
 10
-6.137502326421099
 20
24.58575647986304
 30
0.0
 10
-6.184089306330008
 20
24.77995730666768
 30
0.0
 10
-6.209030826709039
 20
24.97670983726675
 30
0.0
 10
-6.206060891535827
 20
25.18442176502657
 30
0.0
 10
-6.186178297010457
 20
25.44676950423098
 30
0.0
 10
-6.128537036390639
 20
25.76177491648128
 30
0.0
 10
-6.024273636684796
 20
26.06592307272473
 30
0.0
 10
-5.858617591962229
 20
26.29271170654482
 30
0.0
 10
-5.725334295882049
 20
26.45803039682342
 30
0.0
 10
-5.575727893531166
 20
26.59168695454355
 30
0.0
 10
-5.409633372236157
 20
26.70740493083671
 30
0.0
 10
-5.217340570729675
 20
26.79721770551459
 30
0.0
 10
-4.988026372094168
 20
26.86731869684436
 30
0.0
 10
-4.849424991220388
 20
26.87777876054341
 30
0.0
 10
-4.7645039250757
 20
26.87985997283595
 30
0.0
1001
AcDbBlockRepETag
1070
     1
1071
      875
1005
4E2C
  0
ELLIPSE
  5
4E2D
102
{ACAD_REACTORS
330
4E31
330
4E32
102
}
330
4DFE
100
AcDbEntity
  8
APL Border
 62
     8
100
AcDbEllipse
 10
-4.728528852722632
 20
25.3825150979867
 30
0.0
 11
-0.2732326585474372
 21
-0.8283682112856686
 31
0.0
210
0.0
220
0.0
230
-1.0
 40
0.767138872147242
 41
0.0
 42
6.283185307179586
1001
AcDbBlockRepETag
1070
     1
1071
      876
1005
4E2D
  0
SPLINE
  5
4E2E
102
{ACAD_REACTORS
330
4E32
102
}
330
4DFE
100
AcDbEntity
  8
APL Border
 62
     8
100
AcDbSpline
210
0.0
220
0.0
230
1.0
 70
     8
 71
     3
 72
    26
 73
    22
 74
     0
 42
0.0000000001
 43
0.0000000001
 40
4.60284491300692
 40
4.60284491300692
 40
4.60284491300692
 40
4.60284491300692
 40
4.695921259854779
 40
4.963507654731998
 40
5.182979392648435
 40
5.397234555269768
 40
5.619529682274728
 40
5.869260387557257
 40
6.093250787730498
 40
6.263427758207029
 40
6.582064557968705
 40
6.800458868269094
 40
7.179401531729983
 40
7.575889850719137
 40
7.787844664578662
 40
8.01909420716162
 40
8.205730502580088
 40
8.387453763945252
 40
8.621856230932909
 40
8.833419194479944
 40
8.988019761194074
 40
8.988019761194074
 40
8.988019761194074
 40
8.988019761194074
 10
-4.486699891621668
 20
26.8798599728377
 30
0.0
 10
-4.440001835107608
 20
26.87954742494388
 30
0.0
 10
-4.335540249228728
 20
26.87475925711838
 30
0.0
 10
-4.164200665084621
 20
26.85307202884131
 30
0.0
 10
-3.96932086400659
 20
26.77880589501945
 30
0.0
 10
-3.766465201232762
 20
26.6658847706859
 30
0.0
 10
-3.60114437794968
 20
26.50570040783856
 30
0.0
 10
-3.471205788265336
 20
26.31143584383913
 30
0.0
 10
-3.381388817883674
 20
26.11392472080339
 30
0.0
 10
-3.317144182132551
 20
25.88552622199355
 30
0.0
 10
-3.281793375658168
 20
25.65006475492956
 30
0.0
 10
-3.30137826591374
 20
25.34538614523087
 30
0.0
 10
-3.327064239225308
 20
25.0112478652753
 30
0.0
 10
-3.471288581215731
 20
24.71021445059323
 30
0.0
 10
-3.60460091530777
 20
24.4641890220082
 30
0.0
 10
-3.737092402415015
 20
24.29954990084814
 30
0.0
 10
-3.882945983371143
 20
24.16225529150343
 30
0.0
 10
-4.046861838463826
 20
24.04508050911121
 30
0.0
 10
-4.233796525969012
 20
23.94884265716423
 30
0.0
 10
-4.427631511903911
 20
23.89220734010023
 30
0.0
 10
-4.549580407823555
 20
23.882511578974
 30
0.0
 10
-4.601116794093542
 20
23.87985997285202
 30
0.0
1001
AcDbBlockRepETag
1070
     1
1071
      877
1005
4E2E
  0
LWPOLYLINE
  5
4E2F
102
{ACAD_REACTORS
330
4E32
102
}
330
4DFE
100
AcDbEntity
  8
APL Border
 62
     8
100
AcDbPolyline
 90
        2
 70
     0
 43
0.0
 10
-4.764503925211641
 20
26.8798599728377
 10
-4.486699891621924
 20
26.8798599728377
1001
AcDbBlockRepETag
1070
     1
1071
      878
1005
4E2F
  0
LWPOLYLINE
  5
4E30
102
{ACAD_REACTORS
330
4E32
102
}
330
4DFE
100
AcDbEntity
  8
APL Border
 62
     8
100
AcDbPolyline
 90
        2
 70
     0
 43
0.0
 10
-5.114032196843737
 20
23.8798599728377
 10
-4.601116794093513
 20
23.87985997285202
1001
AcDbBlockRepETag
1070
     1
1071
      879
1005
4E30
  0
HATCH
  5
4E31
330
4DFE
100
AcDbEntity
  8
APL Border
 62
     8
100
AcDbHatch
 10
0.0
 20
0.0
 30
0.0
210
0.0
220
0.0
230
1.0
  2
SOLID
 70
     1
 71
     1
 91
        1
 92
        5
 93
        1
 72
     3
 10
-4.728528852722632
 20
25.3825150979867
 11
-0.2732326585474372
 21
-0.8283682112856686
 40
0.767138872147242
 50
0.0
 51
360.0
 73
     0
 97
        1
330
4E2D
 75
     0
 76
     1
 47
0.0172809346375552
 98
        1
 10
-4.520972790815363
 20
25.15086651129009
1001
ACAD
1010
0.0
1020
0.0
1030
0.0
1001
AcDbBlockRepETag
1070
     1
1071
      880
1005
4E31
  0
HATCH
  5
4E32
330
4DFE
100
AcDbEntity
  8
APL Border
 62
     8
100
AcDbHatch
 10
0.0
 20
0.0
 30
0.0
210
0.0
220
0.0
230
1.0
  2
SOLID
 70
     1
 71
     1
 91
        9
 92
        7
 72
     0
 73
     1
 93
        4
 10
-12.20942510081127
 20
28.14789574745095
 10
-8.85038058018816
 20
22.32985997284487
 10
8.850698786449385
 20
22.32985997284487
 10
12.20974330707306
 20
28.14789574745094
 97
        1
330
4E11
 92
       20
 93
        4
 72
     4
 94
        3
 73
     0
 74
     0
 95
       25
 96
       21
 40
0.0
 40
0.0
 40
0.0
 40
0.0
 40
0.3463130802699203
 40
0.6043703055549736
 40
0.8524756959462802
 40
1.099102870182333
 40
1.318598063912852
 40
1.521064627602771
 40
1.694788988362445
 40
1.912615757663666
 40
2.142780600046976
 40
2.483378398179008
 40
2.873129106540456
 40
3.09179617846886
 40
3.322387155839943
 40
3.509181810940893
 40
3.69147909649244
 40
3.927844502409028
 40
4.143063657146388
 40
4.406491840702669
 40
4.406491840702669
 40
4.406491840702669
 40
4.406491840702669
 10
-5.114032196843737
 20
23.8798599728377
 10
-5.228982970363915
 20
23.89503832123493
 10
-5.429589987754155
 20
23.92152690506636
 10
-5.693675021857103
 20
24.03567408988205
 10
-5.892941488864977
 20
24.19306688135278
 10
-6.036314150572081
 20
24.38541826526996
 10
-6.137502326421099
 20
24.58575647986304
 10
-6.184089306330008
 20
24.77995730666768
 10
-6.209030826709039
 20
24.97670983726675
 10
-6.206060891535827
 20
25.18442176502657
 10
-6.186178297010457
 20
25.44676950423098
 10
-6.128537036390639
 20
25.76177491648128
 10
-6.024273636684796
 20
26.06592307272473
 10
-5.858617591962229
 20
26.29271170654482
 10
-5.725334295882049
 20
26.45803039682342
 10
-5.575727893531166
 20
26.59168695454355
 10
-5.409633372236157
 20
26.70740493083671
 10
-5.217340570729675
 20
26.79721770551459
 10
-4.988026372094168
 20
26.86731869684436
 10
-4.849424991220388
 20
26.87777876054341
 10
-4.7645039250757
 20
26.87985997283595
 72
     1
 10
-4.764503925020689
 20
26.87985997283771
 11
-4.486699891621347
 21
26.8798599728377
 72
     4
 94
        3
 73
     0
 74
     0
 95
       26
 96
       22
 40
4.60284491300692
 40
4.60284491300692
 40
4.60284491300692
 40
4.60284491300692
 40
4.695921259854779
 40
4.963507654731998
 40
5.182979392648435
 40
5.397234555269768
 40
5.619529682274728
 40
5.869260387557257
 40
6.093250787730498
 40
6.263427758207029
 40
6.582064557968705
 40
6.800458868269094
 40
7.179401531729983
 40
7.575889850719137
 40
7.787844664578662
 40
8.01909420716162
 40
8.205730502580088
 40
8.387453763945252
 40
8.621856230932909
 40
8.833419194479944
 40
8.988019761194074
 40
8.988019761194074
 40
8.988019761194074
 40
8.988019761194074
 10
-4.486699891621668
 20
26.8798599728377
 10
-4.440001835107608
 20
26.87954742494388
 10
-4.335540249228728
 20
26.87475925711838
 10
-4.164200665084621
 20
26.85307202884131
 10
-3.96932086400659
 20
26.77880589501945
 10
-3.766465201232762
 20
26.6658847706859
 10
-3.60114437794968
 20
26.50570040783856
 10
-3.471205788265336
 20
26.31143584383913
 10
-3.381388817883674
 20
26.11392472080339
 10
-3.317144182132551
 20
25.88552622199355
 10
-3.281793375658168
 20
25.65006475492956
 10
-3.30137826591374
 20
25.34538614523087
 10
-3.327064239225308
 20
25.0112478652753
 10
-3.471288581215731
 20
24.71021445059323
 10
-3.60460091530777
 20
24.4641890220082
 10
-3.737092402415015
 20
24.29954990084814
 10
-3.882945983371143
 20
24.16225529150343
 10
-4.046861838463826
 20
24.04508050911121
 10
-4.233796525969012
 20
23.94884265716423
 10
-4.427631511903911
 20
23.89220734010023
 10
-4.549580407823555
 20
23.882511578974
 10
-4.601116794093542
 20
23.87985997285202
 72
     1
 10
-4.601116794093525
 20
23.87985997285202
 11
-5.114032196843729
 21
23.8798599728377
 97
        4
330
4E2C
330
4E2F
330
4E2E
330
4E30
 92
        4
 93
        1
 72
     3
 10
-4.728528852722632
 20
25.3825150979867
 11
-0.2732326585474372
 21
-0.8283682112856686
 40
0.767138872147242
 50
0.0
 51
360.0
 73
     0
 97
        1
330
4E2D
 92
       20
 93
        8
 72
     1
 10
-6.482313212520211
 20
26.87985997284487
 11
-6.679452083611267
 21
24.89125032803125
 72
     4
 94
        3
 73
     0
 74
     0
 95
       16
 96
       12
 40
0.0
 40
0.0
 40
0.0
 40
0.0
 40
0.1978277931646383
 40
0.361463118001824
 40
0.5540499897785108
 40
0.7796220130725381
 40
0.979106605438038
 40
1.222151590302332
 40
1.40748727220097
 40
1.607226525619232
 40
1.815049166761618
 40
1.815049166761618
 40
1.815049166761618
 40
1.815049166761618
 10
-6.679452083611295
 20
24.89125032803118
 10
-6.685371732996685
 20
24.82559351525052
 10
-6.696187882184318
 20
24.70562798418881
 10
-6.721757155054632
 20
24.52229576436942
 10
-6.768469983285655
 20
24.33480615160982
 10
-6.860719723390843
 20
24.14153771241002
 10
-7.051789745146265
 20
24.01851519430106
 10
-7.233921808197266
 20
23.91285203345821
 10
-7.443451931375136
 20
23.87675735439051
 10
-7.641222718647384
 20
23.88093312949101
 10
-7.776581895343355
 20
23.89281010788354
 10
-7.845603808282817
 20
23.89886637823479
 72
     1
 10
-7.845603808282787
 20
23.89886637823479
 11
-8.399876560405061
 21
23.98304774476413
 72
     1
 10
-8.399876560405061
 20
23.98304774476413
 11
-8.399876560405061
 21
24.64579492155148
 72
     1
 10
-8.399876560405061
 20
24.64579492155148
 11
-7.815117916056302
 21
24.56632682606845
 72
     4
 94
        3
 73
     0
 74
     0
 95
       11
 96
        7
 40
0.0
 40
0.0
 40
0.0
 40
0.0
 40
0.2042619346961744
 40
0.3074129668363174
 40
0.4146012126853764
 40
0.4826852714337078
 40
0.4826852714337078
 40
0.4826852714337078
 40
0.4826852714337078
 10
-7.815117916056323
 20
24.56632682606847
 10
-7.743266182308218
 20
24.55714977626708
 10
-7.635129760920136
 20
24.54333837224583
 10
-7.524447891091284
 20
24.63752792323729
 10
-7.477352395049535
 20
24.71998790389099
 10
-7.468646137215245
 20
24.77808681972154
 10
-7.465264214605014
 20
24.80065518845331
 72
     1
 10
-7.465264214605014
 20
24.80065518845333
 11
-7.259144283007996
 21
26.87985997284487
 72
     1
 10
-7.259144283007996
 20
26.87985997284487
 11
-6.482313212520211
 21
26.87985997284487
 97
        4
330
4E17
330
4E02
330
4E18
330
4E03
 92
       22
 72
     0
 73
     1
 93
        4
 10
-2.652351276624725
 20
26.87985997284486
 10
-1.87552020613694
 20
26.87985997284486
 10
-2.172922270345821
 20
23.87985997284487
 10
-2.949753340833609
 20
23.87985997284487
 97
        1
330
4E28
 92
       22
 72
     0
 73
     1
 93
       10
 10
-1.269968290467114
 20
26.87985997284487
 10
-0.4183849031077484
 20
26.87965917736506
 10
0.4009773036021615
 20
25.0299490114994
 10
0.5853232289196909
 20
26.87965917736506
 10
1.205285459373925
 20
26.87965917736506
 10
0.9078833951650439
 20
23.87965917736506
 10
0.056491647586738
 20
23.87965917736506
 10
-0.7630434193126518
 20
25.72975957510511
 10
-0.946451311739821
 20
23.87965917736506
 10
-1.567390260339408
 20
23.87965917736506
 97
        1
330
4E29
 92
       22
 72
     0
 73
     1
 93
       12
 10
1.882971499788112
 20
26.87985997284486
 10
3.847979515363789
 20
26.87985997284486
 10
3.788499102522024
 20
26.27985997284486
 10
2.600322157434135
 20
26.27985997284487
 10
2.540562294183218
 20
25.67704105755032
 10
3.542578834455781
 20
25.67704105755032
 10
3.476410183919
 20
25.07985997284487
 10
2.47439364364638
 20
25.07985997284487
 10
2.421932428393546
 20
24.48037956726917
 10
3.610109373481436
 20
24.48037956726917
 10
3.550577451154907
 20
23.87985997284487
 10
1.585569435579231
 20
23.87985997284487
 97
        1
330
4E2A
 92
       20
 93
       11
 72
     1
 10
4.429648034880159
 20
26.87985997284486
 11
5.780015564168562
 21
26.87985997284487
 72
     4
 94
        3
 73
     0
 74
     0
 95
       20
 96
       16
 40
0.0
 40
0.0
 40
0.0
 40
0.0
 40
0.1774120264923274
 40
0.3258093286713144
 40
0.4834060703451958
 40
0.6311237014699663
 40
0.811161917566129
 40
0.9605198197290178
 40
1.289502400757101
 40
1.459697744220917
 40
1.604754171475458
 40
1.794797311213428
 40
2.030760379210173
 40
2.301729078160567
 40
2.393267743077617
 40
2.393267743077617
 40
2.393267743077617
 40
2.393267743077617
 10
5.780015564168593
 20
26.87985997284487
 10
5.839056126904296
 20
26.87337384475878
 10
5.947481505327601
 20
26.86146235781404
 10
6.098807931884806
 20
26.80185114122353
 10
6.227972759762906
 20
26.72168911843352
 10
6.347510602881385
 20
26.61140356622764
 10
6.442310149474394
 20
26.48207375794227
 10
6.536759215535255
 20
26.28338234239492
 10
6.578465181725675
 20
26.06469589684353
 10
6.553150099427256
 20
25.85079503063701
 10
6.524121382020268
 20
25.68499989147718
 10
6.464236525716046
 20
25.50199988960434
 10
6.327150620479812
 20
25.31187331731421
 10
6.179477266233362
 20
25.17172660684537
 10
6.072729148555964
 20
25.11631253421805
 10
6.045077525535504
 20
25.10350570839811
 72
     1
 10
6.045077525535502
 20
25.1035057083981
 11
6.339444173005232
 21
23.87985997284487
 72
     1
 10
6.339444173005232
 20
23.87985997284487
 11
5.532386545886621
 21
23.87985997284487
 72
     1
 10
5.532386545886621
 20
23.87985997284487
 11
5.142141867913776
 21
25.50205881951548
 72
     1
 10
5.142141867913776
 20
25.50205881951548
 11
5.19887096551445
 21
25.50205881951548
 72
     4
 94
        3
 73
     0
 74
     0
 95
       17
 96
       13
 40
0.0
 40
0.0
 40
0.0
 40
0.0
 40
0.0463117202933683
 40
0.2032408426961212
 40
0.3585694343029505
 40
0.4964057577712057
 40
0.6456565825699876
 40
0.7595770154256244
 40
0.9262943680254526
 40
1.032180609131101
 40
1.14647028625934
 40
1.243973057737614
 40
1.243973057737614
 40
1.243973057737614
 40
1.243973057737614
 10
5.198870965514487
 20
25.50205881951548
 10
5.214272018053407
 20
25.50302975767877
 10
5.28186015506489
 20
25.50729075876586
 10
5.40176083940824
 20
25.51345804330556
 10
5.546675458142118
 20
25.55725132865025
 10
5.67725421213268
 20
25.62965962372397
 10
5.765298612935083
 20
25.7349784962169
 10
5.820388894698254
 20
25.86817511516085
 10
5.832561030472788
 20
26.0011917111029
 10
5.781919321100474
 20
26.1258482190374
 10
5.684603990133524
 20
26.18537947021099
 10
5.613502616848251
 20
26.1875961553427
 10
5.580769717272147
 20
26.18861664944085
 72
     1
 10
5.580769717272125
 20
26.18861664944085
 11
5.137953374950967
 21
26.18861664944085
 72
     1
 10
5.137953374950967
 20
26.18861664944085
 11
4.909077041159065
 21
23.87985997284487
 72
     1
 10
4.909077041159065
 20
23.87985997284487
 11
4.132245970671278
 21
23.87985997284487
 72
     1
 10
4.132245970671278
 20
23.87985997284487
 11
4.429648034880159
 21
26.87985997284486
 97
        5
330
4E12
330
4E04
330
4E14
330
4E2B
330
4E05
 92
       22
 72
     0
 73
     1
 93
        9
 10
6.800478684667179
 20
26.87985997284487
 10
7.607536311785904
 20
26.87985997284487
 10
7.963471882016363
 20
25.86355557445326
 10
8.538893993587493
 20
26.87985997284487
 10
9.414203966725493
 20
26.87985997284487
 10
8.232331174709315
 20
25.00957443408062
 10
8.120338037129924
 20
23.87985997284486
 10
7.343506966642139
 20
23.87985997284486
 10
7.455500104221528
 20
25.00957443408062
 97
        1
330
4E10
 75
     0
 76
     1
 47
0.0276408434878157
 98
        9
 10
-5.110068937762804
 20
27.30829258594788
 10
-5.110068937762804
 20
27.30829258594788
 10
-5.110068937762804
 20
27.30829258594788
 10
-5.110068937762804
 20
27.30829258594788
 10
-5.110068937762804
 20
27.30829258594788
 10
-5.110068937762804
 20
27.30829258594788
 10
-5.110068937762804
 20
27.30829258594788
 10
-5.110068937762804
 20
27.30829258594788
 10
-5.110068937762804
 20
27.30829258594788
1001
ACAD
1010
0.0
1020
0.0
1030
0.0
1001
AcDbBlockRepETag
1070
     1
1071
      881
1005
4E32
  0
HATCH
  5
4E33
330
4DFE
100
AcDbEntity
  8
APL Border
 62
     8
100
AcDbHatch
 10
0.0
 20
0.0
 30
0.0
210
0.0
220
0.0
230
1.0
  2
SOLID
 70
     1
 71
     1
 91
        1
 92
        7
 72
     0
 73
     1
 93
        4
 10
0.0001591031300169
 20
7.000275566930961
 10
3.563095122801513
 20
13.17146177711931
 10
-0.9450856774407473
 20
20.97985997284487
 10
-8.070957716782199
 20
20.97985997284487
 97
        1
330
4E15
 75
     0
 76
     1
 47
0.0707162833847576
 98
        3
 10
-2.675438732228172
 20
16.47794635472378
 10
6.312751868664321
 20
42.28939048605213
 10
-9.894301834166896
 20
39.60217176706084
1001
ACAD
1010
0.0
1020
0.0
1030
0.0
1001
AcDbBlockRepETag
1070
     1
1071
      883
1005
4E33
  0
HATCH
  5
4E34
330
4DFE
100
AcDbEntity
  8
APL Border
 62
     8
100
AcDbHatch
 10
0.0
 20
0.0
 30
0.0
210
0.0
220
0.0
230
1.0
  2
SOLID
 70
     1
 71
     0
 91
        1
 92
        7
 72
     0
 73
     1
 93
        7
 10
-12.96642015501169
 20
43.61979184908029
 10
-14.7664201550117
 20
43.61979184908029
 10
-16.54136876356097
 20
39.42215966960598
 10
-17.19614352503853
 20
43.61979184908029
 10
-18.99614352503854
 20
43.61979184908029
 10
-17.7875751270476
 20
37.38083558975206
 10
-15.77022638070493
 20
37.38083558975206
 97
        0
 75
     0
 76
     1
 47
0.0707162833847576
 98
        3
 10
6.249678794057444
 20
42.28939048605213
 10
-9.957374908773772
 20
39.60217176706084
 10
-16.39773218462096
 20
38.68285940442952
1001
ACAD
1010
0.0
1020
0.0
1030
0.0
1001
AcDbBlockRepETag
1070
     1
1071
      884
1005
4E34
  0
HATCH
  5
4E35
330
4DFE
100
AcDbEntity
  8
APL Border
 62
     8
100
AcDbHatch
 10
0.0
 20
0.0
 30
0.0
210
0.0
220
0.0
230
1.0
  2
SOLID
 70
     1
 71
     1
 91
        1
 92
        7
 72
     0
 73
     1
 93
       10
 10
-2.850928947786229
 20
37.38083558975206
 10
-2.181839912298442
 20
43.6197918490803
 10
-3.855464624526036
 20
43.61979184908029
 10
-4.228474015381578
 20
40.14164596649268
 10
-5.40751765387219
 20
43.61979184908029
 10
-7.466097855805088
 20
43.61979184908029
 10
-8.135186891292875
 20
37.38083558975206
 10
-6.479801476178323
 20
37.38083558975206
 10
-6.131920885667285
 20
40.6246666384634
 10
-5.032306754624555
 20
37.38083558975206
 97
        1
330
4E0C
 75
     0
 76
     1
 47
0.0707162833847576
 98
        3
 10
6.312751868664321
 20
42.28939048605213
 10
-5.364819983741796
 20
40.80434854252457
 10
-9.894301834166896
 20
39.60217176706084
1001
ACAD
1010
0.0
1020
0.0
1030
0.0
1001
AcDbBlockRepETag
1070
     1
1071
      886
1005
4E35
  0
HATCH
  5
4E36
330
4DFE
100
AcDbEntity
  8
APL Border
 62
     8
100
AcDbHatch
 10
0.0
 20
0.0
 30
0.0
210
0.0
220
0.0
230
1.0
  2
SOLID
 70
     1
 71
     1
 91
        1
 92
        7
 72
     0
 73
     1
 93
        8
 10
2.929095477768755
 20
41.97282181113101
 10
3.105743226874893
 20
43.6199831327606
 10
-1.725754035154748
 20
43.61998313276061
 10
-1.891167362926863
 20
41.97282181113101
 10
-0.3755272841536335
 20
41.97282181113101
 10
-0.8679685705352806
 20
37.38102687343239
 10
0.9741138955425025
 20
37.38339558452146
 10
1.466301152475638
 20
41.97282181113101
 97
        1
330
4E0B
 75
     0
 76
     1
 47
0.0707162833847576
 98
        3
 10
6.461508006627583
 20
42.28958176973246
 10
0.3042431306128051
 20
42.36029787294049
 10
-9.745545696203633
 20
39.60236305074117
1001
ACAD
1010
0.0
1020
0.0
1030
0.0
1001
AcDbBlockRepETag
1070
     1
1071
      887
1005
4E36
  0
HATCH
  5
4E37
330
4DFE
100
AcDbEntity
  8
APL Border
 62
     8
100
AcDbHatch
 10
0.0
 20
0.0
 30
0.0
210
0.0
220
0.0
230
1.0
  2
SOLID
 70
     1
 71
     1
 91
        1
 92
        7
 72
     0
 73
     1
 93
        3
 10
8.071275923043375
 20
20.97985997284487
 10
0.8484489512626126
 20
20.97985997284487
 10
4.459862437153192
 20
14.72470832814346
 97
        1
330
4E16
 75
     0
 76
     1
 47
0.0707162833847576
 98
        3
 10
4.897289869501349
 20
18.17513736310713
 10
6.312751868664321
 20
42.28939048605213
 10
-9.894301834166896
 20
39.60217176706084
1001
ACAD
1010
0.0
1020
0.0
1030
0.0
1001
AcDbBlockRepETag
1070
     1
1071
      891
1005
4E37
  0
HATCH
  5
4E38
330
4DFE
100
AcDbEntity
  8
APL Border
 62
     8
100
AcDbHatch
 10
0.0
 20
0.0
 30
0.0
210
0.0
220
0.0
230
1.0
  2
SOLID
 70
     1
 71
     1
 91
        2
 92
       16
 93
        3
 72
     1
 10
0.0000000003145431
 20
4.000000000000009
 11
23.60256143704041
 21
44.88083558975217
 72
     1
 10
23.60256143704041
 20
44.88083558975217
 11
-23.60256142783933
 21
44.88083558975206
 72
     1
 10
-23.60256142783933
 20
44.88083558975206
 11
0.0000000003145431
 21
4.000000000000007
 97
        1
330
4E1C
 92
        1
 93
        3
 72
     1
 10
27.06666305249243
 20
46.88083558975206
 11
-27.06666304266244
 21
46.88083558975206
 72
     1
 10
-27.06666304266244
 20
46.88083558975206
 11
-0.0000000000000284
 21
0.0000000000000213
 72
     1
 10
-0.0000000000000284
 20
0.0000000000000238
 11
27.06666305249243
 21
46.88083558975206
 97
        1
330
4E1D
 75
     0
 76
     1
 98
        1
 10
-236.5641112216887
 20
1.231020082252661
1001
ACAD
1010
0.0
1020
0.0
1030
0.0
1001
AcDbBlockRepETag
1070
     1
1071
      892
1005
4E38
  0
HATCH
  5
4E39
330
4DFE
100
AcDbEntity
  8
APL Border
 62
     8
100
AcDbHatch
 10
0.0
 20
0.0
 30
0.0
210
0.0
220
0.0
230
1.0
  2
SOLID
 70
     1
 71
     1
 91
        1
 92
        7
 72
     0
 73
     1
 93
       12
 10
15.84058876400877
 20
41.9726305274507
 10
18.21321428445671
 20
41.9726305274507
 10
18.38986203356285
 20
43.61979184908029
 10
14.13627631352983
 20
43.61979184908029
 10
13.46718727804204
 20
37.38083558975206
 10
17.72077299807506
 20
37.38083558975207
 10
17.87787225036464
 20
38.84571591422678
 10
15.50524672991671
 20
38.84571591422678
 10
15.58395939694927
 20
39.5796763598845
 10
17.56969663746741
 20
39.57967635988449
 10
17.71732334684157
 20
41.15966911198297
 10
15.75340373709809
 20
41.15966911198297
 97
        1
330
4E08
 75
     0
 76
     1
 47
0.0265225354961204
 98
        1
 10
15.74642260871314
 20
42.54140343148856
1001
ACAD
1010
0.0
1020
0.0
1030
0.0
1001
AcDbBlockRepETag
1070
     1
1071
      895
1005
4E39
  0
SPLINE
  5
4E3A
102
{ACAD_REACTORS
330
4E3C
330
4E3D
102
}
330
4DFE
100
AcDbEntity
  8
APL Border
 62
     8
100
AcDbSpline
210
0.0
220
0.0
230
1.0
 70
     8
 71
     3
 72
    12
 73
     8
 74
     0
 42
0.0000000001
 43
0.0000000001
 40
0.0
 40
0.0
 40
0.0
 40
0.0
 40
0.6153828260925694
 40
0.6153828260925694
 40
1.184895113366773
 40
1.184895113366773
 40
1.406874102447421
 40
1.406874102447421
 40
1.406874102447421
 40
1.406874102447421
 10
13.141643811855
 20
41.76981947766621
 30
0.0
 10
12.65093549588437
 20
41.90084145687704
 30
0.0
 10
12.40139116615246
 20
41.94113120867605
 30
0.0
 10
12.08548087756223
 20
41.99544455363318
 30
0.0
 10
11.92864742837253
 20
42.01465504085827
 30
0.0
 10
11.75444086026641
 20
42.02973960983341
 30
0.0
 10
11.75444086026641
 20
42.02973960983341
 30
0.0
 10
11.64369617822672
 20
42.03297741382947
 30
0.0
1001
AcDbBlockRepETag
1070
     1
1071
      898
1005
4E3A
  0
LWPOLYLINE
  5
4E3B
102
{ACAD_REACTORS
330
4E3C
102
}
330
4DFE
100
AcDbEntity
  8
APL Border
  6
Continuous
 62
     8
100
AcDbPolyline
 90
        3
 70
     1
 43
0.0
 10
-11.22376129049633
 20
41.69367581194667
 10
-10.87774200114645
 20
40.14955389030274
 10
-11.91769445450297
 20
40.14955389030274
1001
AcDbBlockRepETag
1070
     1
1071
      902
1005
4E3B
  0
HATCH
  5
4E3C
330
4DFE
100
AcDbEntity
  8
APL Border
 62
     8
100
AcDbHatch
 10
0.0
 20
0.0
 30
0.0
210
0.0
220
0.0
230
1.0
  2
SOLID
 70
     1
 71
     1
 91
        2
 92
        7
 72
     0
 73
     1
 93
        8
 10
-9.847253547555595
 20
43.61979184908029
 10
-12.02298966350147
 20
43.61979184908029
 10
-14.82679588919472
 20
37.38083558975206
 10
-12.95240022532295
 20
37.38083558975206
 10
-12.352528740424
 20
38.71565392391761
 10
-10.64639685172309
 20
38.71565392391761
 10
-10.34727999772013
 20
37.38083558975206
 10
-8.449177928734428
 20
37.38083558975207
 97
        1
330
4E0D
 92
       22
 72
     0
 73
     1
 93
        3
 10
-11.22376129049633
 20
41.69367581194668
 10
-10.87774200114645
 20
40.14955389030274
 10
-11.91769445450297
 20
40.14955389030274
 97
        1
330
4E3B
 75
     0
 76
     1
 47
0.0464409783890934
 98
        3
 10
-10.7866676671747
 20
42.18285929720354
 10
-10.7866676671747
 20
42.18285929720354
 10
4.318789658947025
 20
41.34692151769582
1001
ACAD
1010
0.0
1020
0.0
1030
0.0
1001
AcDbBlockRepETag
1070
     1
1071
      903
1005
4E3C
  0
HATCH
  5
4E3D
330
4DFE
100
AcDbEntity
  8
APL Border
 62
     8
100
AcDbHatch
 10
0.0
 20
0.0
 30
0.0
210
0.0
220
0.0
230
1.0
  2
SOLID
 70
     1
 71
     1
 91
        1
 92
        5
 93
        9
 72
     4
 94
        3
 73
     0
 74
     0
 95
       25
 96
       21
 40
0.0289432764998855
 40
0.0289432764998855
 40
0.0289432764998855
 40
0.0289432764998855
 40
0.7134165119202287
 40
1.411731005087882
 40
2.041147618059464
 40
3.036171077105474
 40
3.957911241576911
 40
4.83592253147705
 40
5.676684481733094
 40
6.271141751551381
 40
6.974058201941041
 40
7.825808739104269
 40
8.5265481701528
 40
9.125733480364379
 40
9.891766509798275
 40
10.6767880070383
 40
11.66821110410527
 40
12.42950909475574
 40
13.09855121203093
 40
13.70132750762923
 40
13.70132750762923
 40
13.70132750762923
 40
13.70132750762923
 10
13.141643811855
 20
43.40554077871886
 10
12.91988216430481
 20
43.459256627421
 10
12.47168844867874
 20
43.5669624691983
 10
11.80600758681791
 20
43.66484839798013
 10
11.02988777388427
 20
43.6649333207477
 10
10.1361516270939
 20
43.55263717791944
 10
9.306733533720876
 20
43.19741938393827
 10
8.599762003673276
 20
42.45478219212527
 10
8.236440109363229
 20
41.77191325718488
 10
8.073464067873601
 20
41.07996170309042
 10
8.007035995439764
 20
40.3638923215899
 10
7.98103501985804
 20
39.60493317412716
 10
8.107710769833204
 20
38.92055182387923
 10
8.442098079777224
 20
38.21445924826959
 10
9.036296716232907
 20
37.66873436641545
 10
9.909689132144507
 20
37.42421376773082
 10
10.75775873959412
 20
37.35554609345542
 10
11.56487972715851
 20
37.38454149767491
 10
12.23983007222788
 20
37.44815687239099
 10
12.66077873273661
 20
37.49837935861893
 10
12.86026661033734
 20
37.52234731786496
 72
     1
 10
12.86026661033734
 20
37.52234731786496
 11
13.23839963312048
 21
41.04826877857415
 72
     1
 10
13.23839963312048
 20
41.04826877857415
 11
11.12639005748273
 21
41.04826877857415
 72
     1
 10
11.12639005748273
 20
41.04826877857415
 11
10.96889270630695
 21
39.57967635988449
 72
     1
 10
10.96889270630695
 20
39.57967635988449
 11
11.39962533929804
 21
39.57967635988449
 72
     1
 10
11.39962533929804
 20
39.57967635988449
 11
11.33360452536307
 21
38.96406177273883
 72
     4
 94
        3
 73
     0
 74
     0
 95
       19
 96
       15
 40
1.529304964685562
 40
1.529304964685562
 40
1.529304964685562
 40
1.529304964685562
 40
1.763981165818448
 40
2.06379851215709
 40
2.386700017314354
 40
2.753069149612017
 40
3.181918037271135
 40
3.768421453867451
 40
4.325591611844758
 40
5.021152851646889
 40
5.521935404920329
 40
5.929637176310238
 40
6.454411479904243
 40
6.957123473051371
 40
6.957123473755098
 40
6.957123473755098
 40
6.957123473755098
 10
11.33360452536307
 20
38.96406177273881
 10
11.24302802126629
 20
38.95177692242413
 10
10.99026249243499
 20
38.92783484269152
 10
10.70216182646531
 20
38.92661434152812
 10
10.3797311442331
 20
38.98358798973799
 10
10.00680770225198
 20
39.09661486818469
 10
9.716968816830743
 20
39.48770259248511
 10
9.641062203095145
 20
40.05806431643046
 10
9.717431528044755
 20
40.66388266631498
 10
9.854221329784113
 20
41.27113304911427
 10
10.23036575101369
 20
41.67654609785123
 10
10.65553906793815
 20
41.91613810684326
 10
11.13485165915975
 20
42.01473204050012
 10
11.47589856643677
 20
42.04574754506741
 10
11.64369617822672
 20
42.03297741382947
 72
     4
 94
        3
 73
     0
 74
     0
 95
       12
 96
        8
 40
0.0
 40
0.0
 40
0.0
 40
0.0
 40
0.2219789890806476
 40
0.2219789890806476
 40
0.7914912763548521
 40
0.7914912763548521
 40
1.406874102447421
 40
1.406874102447421
 40
1.406874102447421
 40
1.406874102447421
 10
11.64369617822672
 20
42.03297741382947
 10
11.75444086026641
 20
42.02973960983341
 10
11.75444086026641
 20
42.02973960983341
 10
11.92864742837253
 20
42.01465504085827
 10
12.08548087756223
 20
41.99544455363318
 10
12.40139116615246
 20
41.94113120867605
 10
12.65093549588437
 20
41.90084145687704
 10
13.141643811855
 20
41.76981947766621
 72
     1
 10
13.14164381185501
 20
41.76981947766621
 11
13.141643811855
 21
43.40554077871886
 97
        5
330
4E06
330
4E0A
330
4E07
330
4E3A
330
4E09
 75
     0
 76
     1
 47
0.0464409783890934
 98
        3
 10
-10.7866676671747
 20
42.18285929720354
 10
4.318789658947025
 20
41.34692151769582
 10
10.26801654887663
 20
42.50794595375691
1001
ACAD
1010
0.0
1020
0.0
1030
0.0
1001
AcDbBlockRepETag
1070
     1
1071
      904
1005
4E3D
  0
HATCH
  5
4E3E
330
4DFE
100
AcDbEntity
  8
APL Border
 62
     8
100
AcDbHatch
 10
0.0
 20
0.0
 30
0.0
210
0.0
220
0.0
230
1.0
  2
SOLID
 70
     1
 71
     1
 91
        2
 92
        7
 72
     0
 73
     1
 93
        8
 10
6.582554574553399
 20
43.61979184908029
 10
4.406818458607519
 20
43.6197918490803
 10
1.603012232914266
 20
37.38083558975206
 10
3.477407896786048
 20
37.38083558975206
 10
4.077279381684999
 20
38.71565392391761
 10
5.783411270385895
 20
38.71565392391761
 10
6.082528124388858
 20
37.38083558975206
 10
7.980630193374566
 20
37.38083558975207
 97
        1
330
4E1E
 92
       22
 72
     0
 73
     1
 93
        3
 10
5.206046831612668
 20
41.69367581194667
 10
5.552066120962536
 20
40.14955389030274
 10
4.512113667606024
 20
40.14955389030274
 97
        1
330
4E1F
 75
     0
 76
     1
 47
0.0464409783890934
 98
        3
 10
-10.7866676671747
 20
42.18285929720354
 10
4.318789658947025
 20
41.34692151769582
 10
4.318789658947025
 20
41.34692151769582
1001
ACAD
1010
0.0
1020
0.0
1030
0.0
1001
AcDbBlockRepETag
1070
     1
1071
      905
1005
4E3E
  0
HATCH
  5
4E3F
330
4DFE
100
AcDbEntity
  8
APL Border
 62
     8
100
AcDbHatch
 10
0.0
 20
0.0
 30
0.0
210
0.0
220
0.0
230
1.0
  2
SOLID
 70
     1
 71
     1
 91
       11
 92
        7
 72
     0
 73
     1
 93
        4
 10
-16.33747952551644
 20
35.29789574745092
 10
-12.98884796421712
 20
29.49789574745095
 10
12.98916617047902
 20
29.49789574745094
 10
16.33779773177886
 20
35.29789574745093
 97
        1
330
4E0F
 92
       22
 72
     0
 73
     1
 93
        8
 10
-10.50084997043805
 20
34.02289574745092
 10
-9.555761072109191
 20
34.02289574745092
 10
-8.834065309397374
 20
31.02289574745093
 10
-9.641122936515984
 20
31.02289574745093
 10
-9.86222995755253
 20
31.94201027933759
 10
-10.74455961985978
 20
31.94201027933758
 10
-11.20867717380426
 20
31.02289574745093
 10
-12.01573480092304
 20
31.02289574745093
 97
        1
330
4E1B
 92
        6
 72
     0
 73
     1
 93
        3
 10
-10.14693849009504
 20
33.12550842600547
 10
-10.00044093617224
 20
32.51653621849666
 10
-10.45444607654239
 20
32.51653621849665
 97
        1
330
4E1A
 92
       22
 72
     0
 73
     1
 93
        6
 10
-8.326765119961606
 20
34.02289574745092
 10
-7.549934049473819
 20
34.02289574745092
 10
-7.777198851462713
 20
31.73039516316516
 10
-6.700109532938454
 20
31.73039516316516
 10
-6.770246795158442
 20
31.02289574745093
 10
-8.624167184170486
 20
31.02289574745092
 97
        1
330
4E19
 92
       20
 93
       13
 72
     1
 10
-6.13042511277439
 20
34.02488019433461
 11
-5.353790768486449
 21
34.02289574745093
 72
     1
 10
-5.353790768486449
 20
34.02289574745093
 11
-5.5356280948821
 21
32.18709291744541
 72
     4
 94
        3
 73
     0
 74
     0
 95
       24
 96
       20
 40
0.0
 40
0.0
 40
0.0
 40
0.0
 40
0.1612668085855933
 40
0.2532303870616441
 40
0.3214574742553387
 40
0.4101806452459026
 40
0.5031588697521256
 40
0.5664511009171887
 40
0.624871878778038
 40
0.6731644290699905
 40
0.7797386132933425
 40
0.9206747739903356
 40
1.025058962643435
 40
1.116412352300609
 40
1.212929457806147
 40
1.276240530363035
 40
1.339961572016457
 40
1.386280507025952
 40
1.435584820291647
 40
1.435584820291647
 40
1.435584820291647
 40
1.435584820291647
 10
-5.535628094882099
 20
32.1870929174454
 10
-5.53213414748617
 20
32.13312332644234
 10
-5.526647751003197
 20
32.04837718097616
 10
-5.488860432547518
 20
31.94683424540268
 10
-5.447171648840961
 20
31.8753242559261
 10
-5.395818187958767
 20
31.80737001333622
 10
-5.320761662408248
 20
31.77062767698265
 10
-5.254477128417399
 20
31.74466351916423
 10
-5.200112096792143
 20
31.72723210184819
 10
-5.128888988289486
 20
31.72198763189771
 10
-5.030042811850907
 20
31.72786870372271
 10
-4.915707066470194
 20
31.75812586881066
 10
-4.815771266393483
 20
31.81405298527762
 10
-4.754740567305573
 20
31.89193427605802
 10
-4.71467399544198
 20
31.96546823314959
 10
-4.683526695854578
 20
32.03313813212702
 10
-4.662006183068958
 20
32.08703079743258
 10
-4.651792807669443
 20
32.13930455656534
 10
-4.647206914869654
 20
32.17083533130903
 10
-4.644842382192905
 20
32.1870929174454
 72
     1
 10
-4.644842382192908
 20
32.18709291744538
 11
-4.462655138951674
 21
34.0248801943346
 72
     1
 10
-4.462655138951674
 20
34.0248801943346
 11
-3.685824068463886
 21
34.0248801943346
 72
     1
 10
-3.685824068463886
 20
34.0248801943346
 11
-3.889225876952792
 21
31.97309408084612
 72
     2
 10
-5.35367831607159
 20
32.29400281725688
 40
1.499200908332752
 50
12.35998596222624
 51
34.57361697223234
 73
     0
 72
     2
 10
-4.942942423735221
 20
32.00494866311196
 40
0.9969860617863467
 50
34.29038331790704
 51
79.42991665428312
 73
     0
 72
     1
 10
-4.760057203160528
 20
31.0248801943346
 11
-5.510404689928634
 21
31.02488019433462
 72
     2
 10
-5.403812384664131
 20
31.8164328281441
 40
0.7986973717449786
 50
97.66944495435136
 51
120.898786067779
 73
     0
 72
     2
 10
-5.173141343771899
 20
32.14234761068797
 40
1.197202176515717
 50
122.3618931068037
 51
141.2515245137382
 73
     0
 72
     2
 10
-5.389471681131198
 20
32.00817328375058
 40
0.9450065449727091
 50
139.3862736078239
 51
177.8726579657922
 73
     0
 72
     1
 10
-6.333826921263238
 20
31.9730940808461
 11
-6.13042511277439
 21
34.02488019433461
 97
        2
330
4E21
330
4E22
 92
       22
 72
     0
 73
     1
 93
       13
 10
-3.14734900486158
 20
34.02825593571061
 10
-2.047349004861559
 20
34.02825593571061
 10
-1.827245318565901
 20
32.52441131541936
 10
-1.295012624591634
 20
34.02807364104484
 10
-0.1975458970834157
 20
34.0280551402308
 10
-0.4949479612922965
 20
31.0280551402308
 10
-1.115886909891883
 20
31.02805514023081
 10
-0.9222174129992312
 20
32.98166797820307
 10
-1.611942464131546
 20
31.02805514023081
 10
-2.344230471214956
 20
31.0280551402308
 10
-2.630162529241629
 20
32.98166797820306
 10
-2.823832026134283
 20
31.02805514023081
 10
-3.444770974733871
 20
31.0280551402308
 97
        1
330
4E24
 92
       22
 72
     0
 73
     1
 93
        4
 10
0.342591724648486
 20
34.02289574745092
 10
1.119422795136273
 20
34.02289574745092
 10
0.822020730927392
 20
31.02289574745093
 10
0.045189660439604
 20
31.02289574745093
 97
        1
330
4E13
 92
       22
 72
     0
 73
     1
 93
       10
 10
1.724974710806094
 20
34.02289574745093
 10
2.57655809816546
 20
34.02269495197112
 10
3.395920304875375
 20
32.17298478610545
 10
3.580266230192904
 20
34.02269495197112
 10
4.200228460647139
 20
34.02269495197112
 10
3.902826396438257
 20
31.02269495197112
 10
3.051434648859951
 20
31.02269495197112
 10
2.231899581960561
 20
32.87279534971117
 10
2.048491689533392
 20
31.02269495197111
 10
1.427552740933804
 20
31.02269495197111
 97
        1
330
4E25
 92
       22
 72
     0
 73
     1
 93
        4
 10
4.838699321647566
 20
34.02289574745092
 10
5.615530392135354
 20
34.02289574745092
 10
5.318128327926473
 20
31.02289574745093
 10
4.541297257438685
 20
31.02289574745093
 97
        1
330
4E20
 92
       20
 93
       13
 72
     1
 10
6.192756492920892
 20
34.02289574745092
 11
6.969390837208833
 21
34.02091130056725
 72
     1
 10
6.969390837208833
 20
34.02091130056725
 11
6.787553510813181
 21
32.18510847056173
 72
     4
 94
        3
 73
     0
 74
     0
 95
       24
 96
       20
 40
0.0
 40
0.0
 40
0.0
 40
0.0
 40
0.1612668085856004
 40
0.2532303870616512
 40
0.3214574742553458
 40
0.4101806452458731
 40
0.5031588697521455
 40
0.5664511009172086
 40
0.6248718787780579
 40
0.6731644290699537
 40
0.7797386132933625
 40
0.9206747739903555
 40
1.025058962643406
 40
1.116412352300617
 40
1.212929457806155
 40
1.276240530363043
 40
1.339961572016455
 40
1.386280507025956
 40
1.435584820291643
 40
1.435584820291643
 40
1.435584820291643
 40
1.435584820291643
 10
6.787553510813182
 20
32.18510847056172
 10
6.791047458209138
 20
32.13113887955868
 10
6.796533854692151
 20
32.04639273409249
 10
6.834321173147815
 20
31.944849798519
 10
6.876009956854381
 20
31.87333980904244
 10
6.927363417736517
 20
31.80538556645249
 10
7.002419943287081
 20
31.76864323009899
 10
7.068704477277941
 20
31.74267907228055
 10
7.123069508903178
 20
31.72524765496452
 10
7.194292617405833
 20
31.72000318501404
 10
7.293138793844411
 20
31.72588425683904
 10
7.407474539225143
 20
31.75614142192696
 10
7.507410339301799
 20
31.81206853839398
 10
7.568441038389779
 20
31.88994982917431
 10
7.608507610253345
 20
31.96348378626593
 10
7.639654909840775
 20
32.03115368524333
 10
7.661175422626328
 20
32.08504635054892
 10
7.671388798025919
 20
32.13732010968165
 10
7.675974690825655
 20
32.16885088442535
 10
7.678339223502376
 20
32.18510847056172
 72
     1
 10
7.678339223502373
 20
32.1851084705617
 11
7.860526466743608
 21
34.02289574745092
 72
     1
 10
7.860526466743608
 20
34.02289574745092
 11
8.637357537231395
 21
34.02289574745092
 72
     1
 10
8.637357537231395
 20
34.02289574745092
 11
8.433955728742489
 21
31.97110963396244
 72
     2
 10
6.969503289623695
 20
32.29201837037321
 40
1.499200908332751
 50
12.35998596222655
 51
34.57361697220028
 73
     0
 72
     2
 10
7.38023918196006
 20
32.00296421622829
 40
0.9969860617863467
 50
34.2903833178587
 51
79.42991665428322
 73
     0
 72
     1
 10
7.563124402534754
 20
31.02289574745093
 11
6.812776915766647
 21
31.02289574745094
 72
     2
 10
6.919369221031151
 20
31.81444838126043
 40
0.7986973717449786
 50
97.66944495435136
 51
120.898786067779
 73
     0
 72
     2
 10
7.150040261923383
 20
32.14036316380429
 40
1.197202176515717
 50
122.3618931068037
 51
141.2515245137382
 73
     0
 72
     2
 10
6.933709924564084
 20
32.0061888368669
 40
0.9450065449727091
 50
139.3862736078239
 51
177.8726579657922
 73
     0
 72
     1
 10
5.989354684432043
 20
31.97110963396243
 11
6.192756492920892
 21
34.02289574745092
 97
        2
330
4E23
330
4E27
 92
       22
 72
     0
 73
     1
 93
       13
 10
9.159497991066102
 20
34.02289574745092
 10
10.25949799106612
 20
34.02289574745092
 10
10.47960167736178
 20
32.51905112715967
 10
11.01183437133604
 20
34.02271345278515
 10
12.10930109884427
 20
34.02269495197111
 10
11.81189903463539
 20
31.02269495197112
 10
11.1909600860358
 20
31.02269495197111
 10
11.38462958292845
 20
32.97630778994339
 10
10.69490453179614
 20
31.02269495197111
 10
9.962616524712728
 20
31.02269495197112
 10
9.676684466686056
 20
32.97630778994339
 10
9.4830149697934
 20
31.02269495197111
 10
8.862076021193814
 20
31.02269495197111
 97
        1
330
4E26
 75
     0
 76
     1
 47
0.0356978143457059
 98
       11
 10
-12.74387987022192
 20
34.13164800304253
 10
-12.74387987022192
 20
34.13164800304253
 10
-12.74387987022192
 20
34.13164800304253
 10
-12.74387987022192
 20
34.13164800304253
 10
-12.74387987022192
 20
34.13164800304253
 10
-12.74387987022192
 20
34.13164800304253
 10
-12.74387987022192
 20
34.13164800304253
 10
-12.74387987022192
 20
34.13164800304253
 10
-12.74387987022192
 20
34.13164800304253
 10
-12.74387987022192
 20
34.13164800304253
 10
-12.74387987022192
 20
34.13164800304253
1001
ACAD
1010
0.0
1020
0.0
1030
0.0
1001
AcDbBlockRepETag
1070
     1
1071
      906
1005
4E3F
  0
ENDBLK
  5
4E40
330
4DFE
100
AcDbEntity
  8
0
 62
     9
100
AcDbBlockEnd
  0
ENDSEC
  0
SECTION
  2
ENTITIES
  0
INSERT
  5
37CD
330
1F
100
AcDbEntity
  8
APL Joinery
100
AcDbBlockReference
  2
08600
 10
29.92198684505524
 20
70.83114838716233
 30
0.0
 41
-1.0
 43
2.0
 50
270.0
  0
INSERT
  5
3E62
330
1F
100
AcDbEntity
  8
APL Joinery
100
AcDbBlockReference
  2
08600
 10
69.37783748939455
 20
230.8600723862971
 30
0.0
 43
2.0
  0
INSERT
  5
3E64
330
1F
100
AcDbEntity
  8
APL Joinery
100
AcDbBlockReference
  2
08600
 10
69.37783748939455
 20
456.0931672631261
 30
0.0
 41
-1.0
 43
2.0
 50
180.0
  0
INSERT
  5
3E87
330
1F
100
AcDbEntity
  8
0
100
AcDbBlockReference
  2
a4 specifiers manual
 10
0.0
 20
0.0
 30
0.0
  0
LEADER
  5
3F34
330
1F
100
AcDbEntity
  8
APL Notes
 62
     8
100
AcDbLeader
  3
ISO-25
 76
     2
 10
185.8226487681257
 20
370.0601770125152
 30
0.0
 10
185.8226487681257
 20
393.5801770125148
 30
0.0
1001
ACAD
1000
DSTYLE
1002
{
1070
   147
1040
0.625
1070
    77
1070
     0
1002
}
  0
LEADER
  5
3F36
330
1F
100
AcDbEntity
  8
APL Notes
 62
     8
100
AcDbLeader
  3
ISO-25
 76
     2
 10
207.3499223749419
 20
422.8710725354714
 30
0.0
 10
230.869922374942
 20
422.8710725354714
 30
0.0
211
-0.0000000000000002
221
-1.0
231
0.0
1001
ACAD
1000
DSTYLE
1002
{
1070
   147
1040
0.625
1070
    77
1070
     0
1002
}
  0
LEADER
  5
3F38
330
1F
100
AcDbEntity
  8
APL Notes
 62
     8
100
AcDbLeader
  3
ISO-25
 76
     2
 10
207.3345358990986
 20
332.1449162316346
 30
0.0
 10
230.8545358990987
 20
332.1449162316346
 30
0.0
211
-0.0000000000000002
221
1.0
231
0.0
210
0.0
220
0.0
230
-1.0
1001
ACAD
1000
DSTYLE
1002
{
1070
   147
1040
0.625
1070
    77
1070
     0
1002
}
  0
HATCH
  5
3F4D
330
1F
100
AcDbEntity
  8
APL Notes
 62
     8
100
AcDbHatch
 10
0.0
 20
0.0
 30
0.0
210
0.0
220
0.0
230
1.0
  2
SOLID
 70
     1
 71
     0
 91
        1
 92
        1
 93
        3
 72
     1
 10
229.9071512218767
 20
390.3873387365161
 11
225.2319856183517
 21
389.9783147461014
 72
     1
 10
225.2319856183517
 20
389.9783147461014
 11
226.5886821437386
 21
387.0688696583779
 72
     1
 10
226.5886821437386
 20
387.0688696583779
 11
229.9071512218767
 21
390.3873387365161
 97
        0
 75
     0
 76
     1
 98
        1
 10
179.0668564686644
 20
189.1316193017509
  0
INSERT
  5
3FF0
330
1F
100
AcDbEntity
  8
APL Joinery
100
AcDbBlockReference
  2
19mmliner
 10
119.3778374893945
 20
430.0931672631261
 30
0.0
 41
-1.0
 50
180.0
  0
INSERT
  5
3FF2
330
1F
100
AcDbEntity
  8
APL Joinery
100
AcDbBlockReference
  2
19mmliner
 10
119.3778374893945
 20
256.8600723862971
 30
0.0
  0
INSERT
  5
3FF3
330
1F
100
AcDbEntity
  8
APL Joinery
100
AcDbBlockReference
  2
19mmliner
 10
55.92198684505522
 20
120.8311483871623
 30
0.0
 41
-1.0
 50
270.0
  0
LEADER
  5
4004
330
1F
100
AcDbEntity
  8
APL Notes
 62
     8
100
AcDbLeader
  3
ISO-25
 76
     2
 10
283.9319666995058
 20
370.0601770125152
 30
0.0
 10
283.9319666995058
 20
393.5801770125148
 30
0.0
211
-1.0
221
0.0
231
0.0
210
0.0
220
0.0
230
-1.0
1001
ACAD
1000
DSTYLE
1002
{
1070
   147
1040
0.625
1070
    77
1070
     0
1002
}
  0
TEXT
  5
4005
330
1F
100
AcDbEntity
  8
APL Notes
100
AcDbText
 10
282.2383105054698
 20
364.1569936923537
 30
0.0
 40
5.0
  1
B
  7
Arial-Bold
100
AcDbText
  0
TEXT
  5
4008
330
1F
100
AcDbEntity
  8
APL Notes
100
AcDbText
 10
202.2360703572463
 20
420.378455827197
 30
0.0
 40
5.0
  1
A
  7
Arial-Bold
100
AcDbText
  0
INSERT
  5
4176
330
1F
100
AcDbEntity
  8
APL Joinery
100
AcDbBlockReference
  2
08615
 10
243.33639621013
 20
106.3311483871623
 30
0.0
  0
HATCH
  5
421F
330
1F
100
AcDbEntity
  8
APL Notes
 62
     8
100
AcDbHatch
 10
0.0
 20
0.0
 30
0.0
210
0.0
220
0.0
230
1.0
  2
SOLID
 70
     1
 71
     0
 91
        1
 92
        1
 93
        3
 72
     1
 10
299.0125376977201
 20
390.3873387365161
 11
294.3373720941951
 21
389.9783147461014
 72
     1
 10
294.3373720941951
 20
389.9783147461014
 11
295.6940686195819
 21
387.0688696583779
 72
     1
 10
295.6940686195819
 20
387.0688696583779
 11
299.0125376977201
 21
390.3873387365161
 97
        0
 75
     0
 76
     1
 98
        1
 10
248.1722429445078
 20
189.1316193017509
  0
TEXT
  5
4223
330
1F
100
AcDbEntity
  8
APL Notes
100
AcDbText
 10
202.2206838814029
 20
329.6522995233603
 30
0.0
 40
5.0
  1
A
  7
Arial-Bold
100
AcDbText
  0
TEXT
  5
4224
330
1F
100
AcDbEntity
  8
APL Notes
100
AcDbText
 10
184.1289925740897
 20
364.1569936923537
 30
0.0
 40
5.0
  1
B
  7
Arial-Bold
100
AcDbText
  0
LWPOLYLINE
  5
4238
330
1F
100
AcDbEntity
  8
APL Notes
100
AcDbPolyline
 90
        4
 70
     1
 43
0.3
 10
171.8778374893945
 20
337.7931672631261
 10
171.8778374893945
 20
348.7931672631261
 10
120.8778374893945
 20
348.7931672631261
 10
120.8778374893945
 20
337.7931672631261
  0
TEXT
  5
4239
330
1F
100
AcDbEntity
  8
APL Notes
100
AcDbText
 10
123.8778374893945
 20
340.7931672631261
 30
0.0
 40
5.0
  1
SECTION A-A
  7
Arial-Bold
100
AcDbText
  0
LWPOLYLINE
  5
423A
330
1F
100
AcDbEntity
  8
APL Notes
100
AcDbPolyline
 90
        4
 70
     1
 43
0.3
 10
202.4999991921495
 20
141.3311483871623
 10
202.4999991921495
 20
152.3311483871623
 10
151.4999991921495
 20
152.3311483871623
 10
151.4999991921495
 20
141.3311483871623
  0
TEXT
  5
423B
330
1F
100
AcDbEntity
  8
APL Notes
100
AcDbText
 10
154.4999991921495
 20
144.3311483871623
 30
0.0
 40
5.0
  1
SECTION B-B
  7
Arial-Bold
100
AcDbText
  0
TEXT
  5
423C
330
1F
100
AcDbEntity
  8
APL Notes
100
AcDbText
 10
249.7179903085803
 20
6.331148387162329
 30
0.0
 40
5.0
  1
span requirements
  7
Arial-Regular
100
AcDbText
  0
TEXT
  5
423D
330
1F
100
AcDbEntity
  8
APL Notes
100
AcDbText
 10
249.7179903085803
 20
13.33114838716232
 30
0.0
 40
5.0
  1
Refer to tables for
  7
Arial-Regular
100
AcDbText
  0
TEXT
  5
423F
330
1F
100
AcDbEntity
  8
APL Notes
100
AcDbText
 10
249.7179903085803
 20
20.33114838716233
 30
0.0
 40
5.0
  1
08615 External Fin Mullion
  7
Arial-Bold
100
AcDbText
  0
TEXT
  5
42CF
330
1F
100
AcDbEntity
  8
APL Notes
100
AcDbText
 10
71.37783748939455
 20
467.0712804542806
 30
0.0
 40
5.0
  1
08600
  7
Arial-Bold
100
AcDbText
  0
TEXT
  5
42D0
330
1F
100
AcDbEntity
  8
APL Notes
100
AcDbText
 10
71.37783748939455
 20
220.8600723862971
 30
0.0
 40
5.0
  1
08600
  7
Arial-Bold
 11
71.37783748939455
 21
225.8600723862971
 31
0.0
100
AcDbText
 73
     3
  0
TEXT
  5
42D1
330
1F
100
AcDbEntity
  8
APL Notes
100
AcDbText
 10
41.45423585228679
 20
430.9681672631261
 30
0.0
 40
5.0
  1
08658
  7
Arial-Bold
 72
     2
 11
60.87783748939457
 21
430.9681672631261
 31
0.0
100
AcDbText
  0
TEXT
  5
42D2
330
1F
100
AcDbEntity
  8
APL Notes
100
AcDbText
 10
26.71003394232773
 20
423.9681672631261
 30
0.0
 40
5.0
  1
Pivot Head
  7
Arial-Regular
 72
     2
 11
60.87783748939457
 21
423.9681672631261
 31
0.0
100
AcDbText
  0
TEXT
  5
42D5
330
1F
100
AcDbEntity
  8
APL Notes
100
AcDbText
 10
36.31781020426497
 20
416.9681672631261
 30
0.0
 40
5.0
  1
Adaptor
  7
Arial-Regular
 72
     2
 11
60.87783748939457
 21
416.9681672631261
 31
0.0
100
AcDbText
  0
TEXT
  5
42D6
330
1F
100
AcDbEntity
  8
APL Notes
100
AcDbText
 10
36.31781020426494
 20
254.7600723855841
 30
0.0
 40
5.0
  1
Adaptor
  7
Arial-Regular
 72
     2
 11
60.87783748939455
 21
254.7600723855841
 31
0.0
100
AcDbText
  0
TEXT
  5
42D7
330
1F
100
AcDbEntity
  8
APL Notes
100
AcDbText
 10
34.09407214150915
 20
261.7600723855841
 30
0.0
 40
5.0
  1
Pivot Sill
  7
Arial-Regular
 72
     2
 11
60.87783748939455
 21
261.7600723855841
 31
0.0
100
AcDbText
  0
TEXT
  5
42D8
330
1F
100
AcDbEntity
  8
APL Notes
100
AcDbText
 10
41.45423585228677
 20
268.7600723855841
 30
0.0
 40
5.0
  1
08659
  7
Arial-Bold
 72
     2
 11
60.87783748939455
 21
268.7600723855841
 31
0.0
100
AcDbText
  0
TEXT
  5
42DA
330
1F
100
AcDbEntity
  8
APL Notes
100
AcDbText
 10
60.96961644451527
 20
329.332559758999
 30
0.0
 40
5.0
  1
08630
  7
Arial-Bold
 72
     2
 11
80.39321808162304
 21
329.332559758999
 31
0.0
100
AcDbText
  0
TEXT
  5
42DC
330
1F
100
AcDbEntity
  8
APL Notes
100
AcDbText
 10
60.96961644451527
 20
352.6888927137222
 30
0.0
 40
5.0
  1
08630
  7
Arial-Bold
 72
     2
 11
80.39321808162304
 21
352.6888927137222
 31
0.0
100
AcDbText
  0
TEXT
  5
42DE
330
1F
100
AcDbEntity
  8
APL Notes
100
AcDbText
 10
43.45423585228657
 20
295.2850723855841
 30
0.0
 40
5.0
  1
08657
  7
Arial-Bold
 72
     2
 11
62.87783748939435
 21
295.2850723855841
 31
0.0
100
AcDbText
  0
TEXT
  5
42DF
330
1F
100
AcDbEntity
  8
APL Notes
100
AcDbText
 10
106.8778374893943
 20
380.7931672631261
 30
0.0
 40
5.0
  1
08657
  7
Arial-Bold
100
AcDbText
  0
TEXT
  5
42E0
330
1F
100
AcDbEntity
  8
APL Notes
100
AcDbText
 10
29.48766013605192
 20
288.2850723855841
 30
0.0
 40
5.0
  1
Pivot Sash
  7
Arial-Regular
 72
     2
 11
62.87783748939435
 21
288.2850723855841
 31
0.0
100
AcDbText
  0
TEXT
  5
42E6
330
1F
100
AcDbEntity
  8
APL Notes
100
AcDbText
 10
10.49838520794747
 20
75.83114838716233
 30
0.0
 40
5.0
  1
08600
  7
Arial-Bold
 72
     2
 11
29.92198684505524
 21
75.83114838716233
 31
0.0
100
AcDbText
  0
TEXT
  5
42E7
330
1F
100
AcDbEntity
  8
APL Notes
100
AcDbText
 10
95.51018602650136
 20
108.331148387162
 30
0.0
 40
5.0
  1
08657
  7
Arial-Bold
 72
     1
 11
105.2219868450552
 21
108.331148387162
 31
0.0
100
AcDbText
  0
TEXT
  5
42E8
330
1F
100
AcDbEntity
  8
APL Notes
100
AcDbText
 10
164.3245953915761
 20
108.331148387162
 30
0.0
 40
5.0
  1
08657
  7
Arial-Bold
 72
     1
 11
174.03639621013
 21
108.331148387162
 31
0.0
100
AcDbText
  0
TEXT
  5
42E9
330
1F
100
AcDbEntity
  8
APL Notes
100
AcDbText
 10
302.9245953915761
 20
108.331148387162
 30
0.0
 40
5.0
  1
08657
  7
Arial-Bold
 72
     1
 11
312.63639621013
 21
108.331148387162
 31
0.0
100
AcDbText
  0
TEXT
  5
42EB
330
1F
100
AcDbEntity
  8
APL Notes
100
AcDbText
 10
72.73518602650139
 20
53.33114838716233
 30
0.0
 40
5.0
  1
08658
  7
Arial-Bold
 72
     1
 11
82.44698684505527
 21
58.33114838716233
 31
0.0
100
AcDbText
 73
     3
  0
TEXT
  5
42EC
330
1F
100
AcDbEntity
  8
APL Notes
100
AcDbText
 10
187.0995953915761
 20
53.33114838716233
 30
0.0
 40
5.0
  1
08658
  7
Arial-Bold
 72
     1
 11
196.81139621013
 21
58.33114838716233
 31
0.0
100
AcDbText
 73
     3
  0
TEXT
  5
42ED
330
1F
100
AcDbEntity
  8
APL Notes
100
AcDbText
 10
280.1495953915761
 20
53.33114838716233
 30
0.0
 40
5.0
  1
08658
  7
Arial-Bold
 72
     1
 11
289.86139621013
 21
58.33114838716233
 31
0.0
100
AcDbText
 73
     3
  0
TEXT
  5
42F1
330
1F
100
AcDbEntity
  8
APL Notes
100
AcDbText
 10
117.3944742184701
 20
66.09652897939078
 30
0.0
 40
5.0
  1
08630
  7
Arial-Bold
 11
117.3944742184701
 21
71.09652897939078
 31
0.0
100
AcDbText
 73
     3
  0
TEXT
  5
42F2
330
1F
100
AcDbEntity
  8
APL Notes
100
AcDbText
 10
324.8088835835449
 20
66.09652897939078
 30
0.0
 40
5.0
  1
08630
  7
Arial-Bold
 11
324.8088835835449
 21
71.09652897939078
 31
0.0
100
AcDbText
 73
     3
  0
TEXT
  5
42F4
330
1F
100
AcDbEntity
  8
APL Notes
100
AcDbText
 10
143.0780971041094
 20
66.09652897939078
 30
0.0
 40
5.0
  1
08630
  7
Arial-Bold
 11
143.0780971041094
 21
71.09652897939078
 31
0.0
100
AcDbText
 73
     3
  0
LWPOLYLINE
  5
453D
330
1F
100
AcDbEntity
  8
APL Joinery
  6
DASHED
 62
     7
 48
4.0
100
AcDbPolyline
 90
        4
 70
     0
 43
0.0
 10
58.87783748939458
 20
393.7802462537563
 10
58.87783748939458
 20
343.2931672631261
 10
110.8778374893946
 20
343.2931672631261
 10
110.8778374893945
 20
293.3110692029588
  0
INSERT
  5
4690
330
1F
100
AcDbEntity
  8
APL Joinery
100
AcDbBlockReference
  2
08659
 10
110.8778374893945
 20
249.8600723855819
 30
0.0
 43
2.0
  0
INSERT
  5
4691
330
1F
100
AcDbEntity
  8
APL Joinery
100
AcDbBlockReference
  2
9010331
 10
-70.02783748939433
 20
280.910072385584
 30
0.0
 43
-2.0
 50
90.0
210
0.0
220
0.0
230
-1.0
  0
INSERT
  5
4692
330
1F
100
AcDbEntity
  8
APL Joinery
100
AcDbBlockReference
  2
9010331
 10
-99.72783748939438
 20
280.9100723855841
 30
0.0
 43
-2.0
 50
90.0
210
0.0
220
0.0
230
-1.0
  0
INSERT
  5
4693
330
1F
100
AcDbEntity
  8
APL Joinery
100
AcDbBlockReference
  2
08657
 10
104.8778374893943
 20
278.1600723855841
 30
0.0
 43
2.0
  0
INSERT
  5
4694
330
1F
100
AcDbEntity
  8
APL Joinery
100
AcDbBlockReference
  2
9010100
 10
109.3778374893945
 20
288.810072385584
 30
0.0
 43
2.0
 50
180.0
  0
INSERT
  5
4695
330
1F
100
AcDbEntity
  8
APL Joinery
100
AcDbBlockReference
  2
08630Glaze
 10
64.87783748939434
 20
312.1600723855838
 30
0.0
  0
INSERT
  5
4805
330
1F
100
AcDbEntity
  8
APL Joinery
100
AcDbBlockReference
  2
Spectrum Security Handle 1
 10
110.8778374893945
 20
292.8600723855841
 30
0.0
  0
INSERT
  5
4A34
330
1F
100
AcDbEntity
  8
APL Joinery
100
AcDbBlockReference
  2
08657
 10
104.8778374893943
 20
408.7931672631261
 30
0.0
 41
-1.0
 43
2.0
 50
180.0
  0
INSERT
  5
4A35
330
1F
100
AcDbEntity
  8
APL Notes
100
AcDbBlockReference
  2
08630Glaze
 10
64.87783748939431
 20
374.7931672631264
 30
0.0
 41
-1.0
 50
180.0
  0
INSERT
  5
4A36
330
1F
100
AcDbEntity
  8
APL Joinery
100
AcDbBlockReference
  2
9010331
 10
99.72783748939438
 20
406.0431672631261
 30
0.0
 43
2.0
 50
270.0
  0
INSERT
  5
4A37
330
1F
100
AcDbEntity
  8
APL Joinery
100
AcDbBlockReference
  2
08658
 10
58.87783748939458
 20
437.0931672631261
 30
0.0
 43
2.0
  0
INSERT
  5
4A38
330
1F
100
AcDbEntity
  8
APL Joinery
100
AcDbBlockReference
  2
9010331
 10
70.02783748939433
 20
406.0431672631262
 30
0.0
 43
2.0
 50
270.0
  0
INSERT
  5
4A39
330
1F
100
AcDbEntity
  8
APL Joinery
100
AcDbBlockReference
  2
9010100
 10
60.37783748939457
 20
398.1431672631261
 30
0.0
 43
2.0
  0
INSERT
  5
4A3A
330
1F
100
AcDbEntity
  8
APL Joinery
100
AcDbBlockReference
  2
08657
 10
77.22198684505525
 20
106.3311483871621
 30
0.0
 41
-1.0
 43
2.0
 50
270.0
  0
INSERT
  5
4A3B
330
1F
100
AcDbEntity
  8
APL Notes
100
AcDbBlockReference
  2
08630Glaze
 10
111.221986845055
 20
66.33114838716207
 30
0.0
 41
-1.0
 50
270.0
  0
INSERT
  5
4A3C
330
1F
100
AcDbEntity
  8
APL Joinery
100
AcDbBlockReference
  2
9010331
 10
79.97198684505526
 20
101.1811483871621
 30
0.0
 43
2.0
  0
INSERT
  5
4A3D
330
1F
100
AcDbEntity
  8
APL Joinery
100
AcDbBlockReference
  2
08658
 10
48.92198684505524
 20
60.33114838716233
 30
0.0
 43
2.0
 50
90.0
  0
INSERT
  5
4A3E
330
1F
100
AcDbEntity
  8
APL Joinery
100
AcDbBlockReference
  2
9010331
 10
79.97198684505519
 20
71.48114838716208
 30
0.0
 43
2.0
  0
INSERT
  5
4A3F
330
1F
100
AcDbEntity
  8
APL Joinery
100
AcDbBlockReference
  2
9010100
 10
87.87198684505524
 20
61.83114838716233
 30
0.0
 43
2.0
 50
90.0
  0
INSERT
  5
4A40
330
1F
100
AcDbEntity
  8
APL Joinery
100
AcDbBlockReference
  2
08657
 10
202.03639621013
 20
106.3311483871621
 30
0.0
 43
2.0
 50
90.0
  0
INSERT
  5
4A41
330
1F
100
AcDbEntity
  8
APL Notes
100
AcDbBlockReference
  2
08630Glaze
 10
168.0363962101303
 20
66.33114838716207
 30
0.0
 50
90.0
  0
INSERT
  5
4A42
330
1F
100
AcDbEntity
  8
APL Joinery
100
AcDbBlockReference
  2
9010331
 10
-199.28639621013
 20
101.1811483871621
 30
0.0
 43
-2.0
210
0.0
220
0.0
230
-1.0
  0
INSERT
  5
4A43
330
1F
100
AcDbEntity
  8
APL Joinery
100
AcDbBlockReference
  2
08658
 10
-230.33639621013
 20
60.33114838716233
 30
0.0
 43
-2.0
 50
90.0
210
0.0
220
0.0
230
-1.0
  0
INSERT
  5
4A44
330
1F
100
AcDbEntity
  8
APL Joinery
100
AcDbBlockReference
  2
9010331
 10
-199.2863962101301
 20
71.48114838716208
 30
0.0
 43
-2.0
210
0.0
220
0.0
230
-1.0
  0
INSERT
  5
4A45
330
1F
100
AcDbEntity
  8
APL Joinery
100
AcDbBlockReference
  2
9010100
 10
-191.38639621013
 20
61.83114838716233
 30
0.0
 43
-2.0
 50
90.0
210
0.0
220
0.0
230
-1.0
  0
INSERT
  5
4A46
330
1F
100
AcDbEntity
  8
APL Joinery
100
AcDbBlockReference
  2
08657
 10
284.6363962101301
 20
106.3311483871621
 30
0.0
 41
-1.0
 43
2.0
 50
270.0
  0
INSERT
  5
4A47
330
1F
100
AcDbEntity
  8
APL Notes
100
AcDbBlockReference
  2
08630Glaze
 10
318.6363962101298
 20
66.33114838716207
 30
0.0
 41
-1.0
 50
270.0
  0
INSERT
  5
4A48
330
1F
100
AcDbEntity
  8
APL Joinery
100
AcDbBlockReference
  2
9010331
 10
287.38639621013
 20
101.1811483871621
 30
0.0
 43
2.0
  0
INSERT
  5
4A49
330
1F
100
AcDbEntity
  8
APL Joinery
100
AcDbBlockReference
  2
08658
 10
256.33639621013
 20
60.33114838716233
 30
0.0
 43
2.0
 50
90.0
  0
INSERT
  5
4A4A
330
1F
100
AcDbEntity
  8
APL Joinery
100
AcDbBlockReference
  2
9010331
 10
287.38639621013
 20
71.48114838716208
 30
0.0
 43
2.0
  0
INSERT
  5
4A4B
330
1F
100
AcDbEntity
  8
APL Joinery
100
AcDbBlockReference
  2
9010100
 10
295.28639621013
 20
61.83114838716233
 30
0.0
 43
2.0
 50
90.0
  0
LWPOLYLINE
  5
4A54
330
1F
100
AcDbEntity
  8
APL Notes
 62
     2
100
AcDbPolyline
 90
       10
 70
     1
 43
0.0
 10
335.974922374942
 20
341.4929943835525
 10
330.094922374942
 20
347.372994383553
 10
269.824922374942
 20
347.372994383553
 10
266.884922374942
 20
344.4329943835529
 10
266.884922374942
 20
410.5829943835527
 10
269.824922374942
 20
407.6429943835528
 10
330.094922374942
 20
407.6429943835533
 10
335.9749223749425
 20
413.5229943835526
 10
194.854922374942
 20
413.5229943835528
 10
194.854922374942
 20
341.4929943835527
  0
LWPOLYLINE
  5
4A56
330
1F
100
AcDbEntity
  8
APL Notes
  6
DASHED
 62
     7
 48
2.0
100
AcDbPolyline
 90
        3
 70
     1
 43
0.0
 10
261.0049223749419
 20
378.9633584675068
 10
200.734922374942
 20
378.9633584675068
 10
230.869922374942
 20
407.6283584675068
  0
LWPOLYLINE
  5
4A58
330
1F
100
AcDbEntity
  8
APL Notes
  6
DASHED
 62
     7
 48
2.0
100
AcDbPolyline
 90
        3
 70
     1
 43
0.0
 10
261.0049223749419
 20
376.0233584675067
 10
230.869922374942
 20
347.3583584675067
 10
200.734922374942
 20
376.0233584675067
  0
LWPOLYLINE
  5
4A5A
330
1F
100
AcDbEntity
  8
APL Notes
  6
DASHED
 62
     7
 48
2.0
100
AcDbPolyline
 90
        3
 70
     1
 43
0.0
 10
330.1103088507854
 20
378.9633584675068
 10
299.9753088507855
 20
407.6283584675068
 10
269.8403088507854
 20
378.9633584675068
  0
LWPOLYLINE
  5
4A5C
330
1F
100
AcDbEntity
  8
APL Notes
  6
DASHED
 62
     7
 48
2.0
100
AcDbPolyline
 90
        3
 70
     1
 43
0.0
 10
330.1103088507854
 20
376.0233584675067
 10
299.9753088507855
 20
347.3583584675067
 10
269.8403088507854
 20
376.0233584675067
  0
LWPOLYLINE
  5
4A5E
330
1F
100
AcDbEntity
  8
APL Notes
 62
     8
100
AcDbPolyline
 90
        3
 70
     1
 43
0.0
 10
295.6940686195819
 20
387.0688696583779
 10
294.3373720941951
 20
389.9783147461014
 10
299.0125376977201
 20
390.3873387365161
  0
LWPOLYLINE
  5
4A61
330
1F
100
AcDbEntity
  8
APL Notes
 62
     8
100
AcDbPolyline
 90
        2
 70
     0
 43
0.0
 10
294.990454560361
 20
388.5777748777452
 42
1.218111457988135
 10
308.0758358832111
 20
369.0074928193458
  0
LWPOLYLINE
  5
4A62
330
1F
100
AcDbEntity
  8
APL Notes
 62
     8
100
AcDbPolyline
 90
        2
 70
     0
 43
0.0
 10
259.057593467507
 20
393.5801770125149
 10
283.9319666995058
 20
393.5801770125149
  0
LWPOLYLINE
  5
4A65
330
1F
100
AcDbEntity
  8
APL Notes
 62
     8
100
AcDbPolyline
 90
        3
 70
     1
 43
0.0
 10
225.2319856183517
 20
389.9783147461014
 10
229.9071512218767
 20
390.3873387365161
 10
226.5886821437386
 20
387.0688696583779
  0
LWPOLYLINE
  5
4A68
330
1F
100
AcDbEntity
  8
APL Notes
 62
     8
100
AcDbPolyline
 90
        2
 70
     0
 43
0.0
 10
225.8850680845176
 20
388.5777748777452
 42
1.218111457988135
 10
238.9704494073678
 20
369.0074928193458
  0
LWPOLYLINE
  5
4A6C
330
1F
100
AcDbEntity
  8
APL Notes
 62
     8
100
AcDbPolyline
 90
        2
 70
     0
 43
0.0
 10
230.8545358990986
 20
356.9822239352547
 10
230.8545358990986
 20
332.1449162316346
  0
LWPOLYLINE
  5
4A6D
330
1F
100
AcDbEntity
  8
APL Notes
 62
     8
100
AcDbPolyline
 90
        2
 70
     0
 43
0.0
 10
230.869922374942
 20
398.048505162582
 10
230.869922374942
 20
422.8710725354714
  0
LWPOLYLINE
  5
4A6E
330
1F
100
AcDbEntity
  8
APL Notes
 62
     8
100
AcDbPolyline
 90
        2
 70
     0
 43
0.0
 10
210.6970220001245
 20
393.5801770125149
 10
185.8226487681256
 20
393.5801770125149
  0
LWPOLYLINE
  5
4A70
330
1F
100
AcDbEntity
  8
APL Notes
 62
     2
100
AcDbPolyline
 90
        2
 70
     0
 43
0.0
 10
335.974922374942
 20
413.5229943835526
 10
335.974922374942
 20
341.4929943835525
  0
LWPOLYLINE
  5
4A76
330
1F
100
AcDbEntity
  8
APL Notes
 62
     2
100
AcDbPolyline
 90
        2
 70
     0
 43
0.0
 10
330.094922374942
 20
407.6429943835528
 10
330.094922374942
 20
347.372994383553
  0
LWPOLYLINE
  5
4A77
330
1F
100
AcDbEntity
  8
APL Notes
 62
     2
100
AcDbPolyline
 90
        2
 70
     0
 43
0.0
 10
269.824922374942
 20
407.6429943835528
 10
269.824922374942
 20
347.372994383553
  0
LWPOLYLINE
  5
4A78
330
1F
100
AcDbEntity
  8
APL Notes
 62
     2
100
AcDbPolyline
 90
        5
 70
     1
 43
0.0
 10
333.0349223749421
 20
410.5829943835529
 10
333.0349223749421
 20
344.4329943835525
 10
197.794922374942
 20
344.4329943835529
 10
197.794922374942
 20
344.4329943835529
 10
197.794922374942
 20
410.5829943835527
  0
LWPOLYLINE
  5
4A7A
330
1F
100
AcDbEntity
  8
APL Notes
 62
     9
100
AcDbPolyline
 90
        2
 70
     0
 43
0.0
 10
230.869922374942
 20
347.372994383553
 10
230.869922374942
 20
347.372994383553
  0
LWPOLYLINE
  5
4A7B
330
1F
100
AcDbEntity
  8
APL Notes
 62
     2
100
AcDbPolyline
 90
        7
 70
     0
 43
0.0
 10
194.854922374942
 20
413.5229943835528
 10
200.734922374942
 20
407.6429943835528
 10
261.0049223749419
 20
407.6429943835533
 10
263.9449223749421
 20
410.5829943835527
 10
263.9449223749421
 20
344.4329943835529
 10
261.0049223749419
 20
347.372994383553
 10
261.0049223749419
 20
407.6429943835528
  0
LWPOLYLINE
  5
4A7F
330
1F
100
AcDbEntity
  8
APL Notes
 62
     2
100
AcDbPolyline
 90
        3
 70
     0
 43
0.0
 10
200.734922374942
 20
407.6429943835528
 10
200.734922374942
 20
347.372994383553
 10
194.854922374942
 20
341.4929943835527
  0
LWPOLYLINE
  5
4A81
330
1F
100
AcDbEntity
  8
APL Notes
 62
     2
100
AcDbPolyline
 90
        2
 70
     0
 43
0.0
 10
200.734922374942
 20
347.372994383553
 10
261.0049223749419
 20
347.372994383553
  0
LWPOLYLINE
  5
4A85
330
1F
100
AcDbEntity
  8
APL Notes
 62
     2
100
AcDbPolyline
 90
        2
 70
     0
 43
0.0
 10
266.884922374942
 20
410.5829943835527
 10
266.884922374942
 20
344.4329943835529
  0
VIEWPORT
  5
41C9
102
{ACAD_XDICTIONARY
360
4D72
102
}
330
41C1
100
AcDbEntity
 67
     1
  8
0
100
AcDbViewport
 10
99.11291500000002
 20
142.5680785
 30
0.0
 40
430.0738128450824
 41
299.3377511090425
 68
     1
 69
     1
 12
99.11291500000002
 22
142.5680785
 13
0.0
 23
0.0
 14
10.0
 24
10.0
 15
10.0
 25
10.0
 16
0.0
 26
0.0
 36
1.0
 17
0.0
 27
0.0
 37
0.0
 42
50.0
 43
0.0
 44
0.0
 45
299.3377511090425
 50
0.0
 51
0.0
 72
 20000
 90
    32800
  1

281
     0
 71
     1
 74
     0
110
0.0
120
0.0
130
0.0
111
1.0
121
0.0
131
0.0
112
0.0
122
1.0
132
0.0
 79
     0
146
0.0
  0
VIEWPORT
  5
41CB
102
{ACAD_XDICTIONARY
360
4D74
102
}
330
41C1
100
AcDbEntity
 67
     1
  8
0
100
AcDbViewport
 10
100.595
 20
131.1899999999999
 30
0.0
 40
178.0
 41
241.9999999999999
 68
     2
 69
     2
 12
177.0000016649617
 22
241.0000034223802
 13
0.0
 23
0.0
 14
10.0
 24
10.0
 15
2.0
 25
2.0
 16
0.0
 26
0.0
 36
1.0
 17
0.0
 27
0.0
 37
0.0
 42
50.0
 43
0.0
 44
0.0
 45
483.9999999999998
 50
0.0
 51
0.0
 72
   100
 90
    32864
  1

281
     0
 71
     1
 74
     0
110
0.0
120
0.0
130
0.0
111
1.0
121
0.0
131
0.0
112
0.0
122
1.0
132
0.0
 79
     0
146
0.0
  0
INSERT
  5
41D0
330
41C1
100
AcDbEntity
 67
     1
  8
APL Border
100
AcDbBlockReference
  2
vantage a4 SM border
 10
0.0
 20
0.0
 30
0.0
  0
INSERT
  5
41F0
330
41C1
100
AcDbEntity
 67
     1
  8
APL Border
100
AcDbBlockReference
  2
_Dot
 10
0.0
 20
0.0
 30
0.0
  0
INSERT
  5
4CAB
330
41C1
100
AcDbEntity
 67
     1
  8
APL Border
100
AcDbBlockReference
 66
     1
  2
vantage a4 SM attributes (3)
 10
0.0
 20
0.0
 30
0.0
  0
ATTRIB
  5
4CAD
330
4CAB
100
AcDbEntity
 67
     1
  8
APL Border
100
AcDbText
 10
41.78979785863008
 20
272.19
 30
0.0
 40
3.5
  1
40MM WINDOW SERIES
  7
Arial-Bold
100
AcDbAttribute
  2
DRAWINGTITLE_1
 70
     0
  0
ATTRIB
  5
4CAE
330
4CAB
100
AcDbEntity
 67
     1
  8
APL Border
100
AcDbText
 10
41.78979785863008
 20
266.19
 30
0.0
 40
3.5
  1
PIVOT WINDOW
  7
Arial-Bold
100
AcDbAttribute
  2
DRAWINGTITLE_2
 70
     0
  0
ATTRIB
  5
4CAF
330
4CAB
100
AcDbEntity
 67
     1
  8
APL Border
100
AcDbText
 10
41.78979785863008
 20
260.19
 30
0.0
 40
3.0
  1
CROSS SECTION
  7
Arial-Regular
100
AcDbAttribute
  2
DRAWINGTITLE_3
 70
     0
  0
ATTRIB
  5
4CB0
330
4CAB
100
AcDbEntity
 67
     1
  8
APL Border
100
AcDbText
 10
165.845
 20
273.69
 30
0.0
 40
2.5
  1
VC4008-0
  7
Arial-Regular
100
AcDbAttribute
  2
AW123-456
 70
     0
  0
ATTRIB
  5
4CB1
330
4CAB
100
AcDbEntity
 67
     1
  8
APL Border
100
AcDbText
 10
147.5475920873124
 20
257.1899999999999
 30
0.0
 40
2.5
  1
01.06.11
  7
Arial-Regular
 72
     1
 11
154.345
 21
257.1899999999999
 31
0.0
100
AcDbAttribute
  2
24.05.02
 70
     0
  0
ATTRIB
  5
4CB2
330
4CAB
100
AcDbEntity
 67
     1
  8
APL Border
100
AcDbText
 10
175.4174761255116
 20
257.1899999999999
 30
0.0
 40
2.5
  1
1:2
  7
Arial-Regular
 72
     1
 11
177.845
 21
257.1899999999999
 31
0.0
100
AcDbAttribute
  2
1:2
 70
     0
  0
ATTRIB
  5
4CB3
330
4CAB
100
AcDbEntity
 67
     1
  8
APL Border
100
AcDbText
 10
11.59500000000001
 20
1.189999999999997
 30
0.0
 40
3.75
  1

  7
Arial-Bold
100
AcDbAttribute
  2
1.2.34
 70
     0
  0
ATTRIB
  5
4CB4
330
4CAB
100
AcDbEntity
 67
     1
  8
APL Border
100
AcDbText
 10
189.595
 20
1.189999999999997
 30
0.0
 40
3.75
  1

  7
Arial-Bold
 72
     2
 11
189.595
 21
1.189999999999997
 31
0.0
100
AcDbAttribute
  2
1.2.34
 70
     0
  0
SEQEND
  5
4CAC
330
4CAB
100
AcDbEntity
 67
     1
  8
APL Border
  0
ENDSEC
  0
SECTION
  2
OBJECTS
  0
DICTIONARY
  5
C
330
0
100
AcDbDictionary
281
     1
  3
ACAD_COLOR
350
460A
  3
ACAD_GROUP
350
D
  3
ACAD_LAYOUT
350
1A
  3
ACAD_MATERIAL
350
45E0
  3
ACAD_MLEADERSTYLE
350
462F
  3
ACAD_MLINESTYLE
350
17
  3
ACAD_PLOTSETTINGS
350
19
  3
ACAD_PLOTSTYLENAME
350
E
  3
ACAD_SCALELIST
350
460D
  3
ACAD_TABLESTYLE
350
460B
  3
ACAD_VISUALSTYLE
350
45F9
  3
AcadDim
350
86
  3
ACDB_RECOMPOSE_DATA
350
48B0
  3
ACDBHEADERROUNDTRIPXREC
350
5204
  3
AcDbVariableDictionary
350
3B
  3
AEC_PROPERTY_SET_DEFS
350
4AF8
  3
DWGPROPS
350
5203
  0
DICTIONARY
  5
48B2
330
8
100
AcDbDictionary
280
     1
281
     1
  3
ACAD_XREC_ROUNDTRIP
360
4D64
  0
DICTIONARY
  5
4654
330
2
100
AcDbDictionary
280
     1
281
     1
  3
ACAD_LAYERFILTERS
360
48F5
  3
ACAD_LAYERSTATES
360
4655
  3
ACLYDICTIONARY
360
48F4
  0
DICTIONARY
  5
4806
330
10
100
AcDbDictionary
280
     1
281
     1
  3
ACAD_XREC_ROUNDTRIP
360
4D65
  3
ADSK_XREC_LAYER_RECONCILED
360
4807
  0
DICTIONARY
  5
4808
330
2B
100
AcDbDictionary
280
     1
281
     1
  3
ACAD_XREC_ROUNDTRIP
360
4D68
  3
ADSK_XREC_LAYER_RECONCILED
360
4809
  0
DICTIONARY
  5
480A
330
75
100
AcDbDictionary
280
     1
281
     1
  3
ACAD_XREC_ROUNDTRIP
360
4D69
  3
ADSK_XREC_LAYER_RECONCILED
360
480B
  0
DICTIONARY
  5
480C
330
4016
100
AcDbDictionary
280
     1
281
     1
  3
ACAD_XREC_ROUNDTRIP
360
4D6A
  3
ADSK_XREC_LAYER_RECONCILED
360
480D
  0
DICTIONARY
  5
4810
330
4639
100
AcDbDictionary
280
     1
281
     1
  3
ACAD_XREC_ROUNDTRIP
360
4D83
  3
ADSK_XREC_LAYER_RECONCILED
360
4811
  0
DICTIONARY
  5
4697
330
1F
100
AcDbDictionary
280
     1
281
     1
  3
ACAD_SORTENTS
360
4698
  0
DICTIONARY
  5
4DFF
330
4DFE
100
AcDbDictionary
280
     1
281
     1
  3
ACAD_SORTENTS
360
4E00
  0
DICTIONARY
  5
4DFD
330
4DFC
100
AcDbDictionary
280
     1
281
     1
  0
DICTIONARY
  5
4D72
330
41C9
100
AcDbDictionary
280
     1
281
     1
  3
ACAD_XREC_ROUNDTRIP
360
4D73
  0
DICTIONARY
  5
4D74
330
41CB
100
AcDbDictionary
280
     1
281
     1
  3
ACAD_XREC_ROUNDTRIP
360
4D75
  0
DICTIONARY
  5
460A
102
{ACAD_REACTORS
330
C
102
}
330
C
100
AcDbDictionary
281
     1
  0
DICTIONARY
  5
D
102
{ACAD_REACTORS
330
C
102
}
330
C
100
AcDbDictionary
281
     1
  0
DICTIONARY
  5
1A
102
{ACAD_REACTORS
330
C
102
}
330
C
100
AcDbDictionary
281
     1
  3
Model
350
22
  3
Vantage A4
350
41C2
  0
DICTIONARY
  5
45E0
102
{ACAD_REACTORS
330
C
102
}
330
C
100
AcDbDictionary
281
     1
  3
ByBlock
350
45E9
  3
ByLayer
350
45E1
  3
Global
350
45F1
  0
DICTIONARY
  5
462F
102
{ACAD_REACTORS
330
C
102
}
330
C
100
AcDbDictionary
281
     1
  3
Standard
350
4D4D
  0
DICTIONARY
  5
17
102
{ACAD_REACTORS
330
C
102
}
330
C
100
AcDbDictionary
281
     1
  3
Standard
350
18
  0
DICTIONARY
  5
19
102
{ACAD_REACTORS
330
C
102
}
330
C
100
AcDbDictionary
281
     1
  3
A4 Specifier Manual Hardcopy
350
4167
  3
A4 Specifier Manual PDF
350
4168
  0
ACDBDICTIONARYWDFLT
  5
E
102
{ACAD_REACTORS
330
C
102
}
330
C
100
AcDbDictionary
281
     1
  3
Normal
350
F
100
AcDbDictionaryWithDefault
340
F
  0
DICTIONARY
  5
460D
102
{ACAD_REACTORS
330
C
102
}
330
C
100
AcDbDictionary
281
     1
  3
A0
350
460E
  3
A1
350
460F
  3
A2
350
4610
  3
A3
350
4611
  3
A4
350
4612
  3
A5
350
4613
  3
A6
350
4614
  3
A7
350
4615
  3
A8
350
4616
  3
A9
350
4617
  3
B0
350
4618
  3
B1
350
4619
  3
B2
350
461A
  3
B3
350
461B
  3
B4
350
461C
  3
B5
350
461D
  3
B6
350
461E
  3
B7
350
461F
  3
B8
350
4620
  3
B9
350
4621
  3
C0
350
4622
  3
C1
350
4623
  3
C2
350
4624
  3
C3
350
4625
  3
C4
350
4626
  3
C5
350
4627
  3
C6
350
4628
  3
C7
350
4629
  3
C8
350
462A
  3
C9
350
462B
  3
D0
350
462C
  3
D1
350
462D
  3
D2
350
462E
  0
DICTIONARY
  5
460B
102
{ACAD_REACTORS
330
C
102
}
330
C
100
AcDbDictionary
281
     1
  3
Standard
350
460C
  0
DICTIONARY
  5
45F9
102
{ACAD_REACTORS
330
C
102
}
330
C
100
AcDbDictionary
281
     1
  3
2dWireframe
350
45FF
  3
3D Hidden
350
4601
  3
3dWireframe
350
4600
  3
Basic
350
45FE
  3
Brighten
350
4605
  3
ColorChange
350
4609
  3
Conceptual
350
4602
  3
Dim
350
4604
  3
Facepattern
350
4608
  3
Flat
350
45FA
  3
FlatWithEdges
350
45FB
  3
Gouraud
350
45FC
  3
GouraudWithEdges
350
45FD
  3
Linepattern
350
4607
  3
Realistic
350
4603
  3
Thicken
350
4606
  0
XRECORD
  5
86
102
{ACAD_REACTORS
330
C
102
}
330
C
100
AcDbXrecord
280
     1
 90
   990106
  3

 60
     0
 61
     0
 62
     1
 63
     3
 64
     0
 65
     0
 66
     0
 67
     3
 68
     1
 69
     0
 70
     0
 71
     0
 72
     0
 40
8.188652110585962
170
     0
  0
XRECORD
  5
48B0
102
{ACAD_REACTORS
330
C
102
}
330
C
100
AcDbXrecord
280
     1
 90
        1
330
460C
  0
DICTIONARY
  5
5204
102
{ACAD_REACTORS
330
C
102
}
330
C
100
AcDbDictionary
281
     1
  0
DICTIONARY
  5
3B
102
{ACAD_REACTORS
330
C
102
}
330
C
100
AcDbDictionary
281
     1
  3
CANNOSCALE
350
48E6
  3
CMLEADERSTYLE
350
4971
  3
CTABLESTYLE
350
48E5
  3
DIMASSOC
350
3D
  3
HIDETEXT
350
3C
  3
INDEXCTL
350
48E7
  3
PROJECTNAME
350
4DC7
  3
SORTENTS
350
4544
  0
DICTIONARY
  5
4AF8
102
{ACAD_REACTORS
330
C
102
}
330
C
100
AcDbDictionary
281
     1
  0
XRECORD
  5
5203
102
{ACAD_REACTORS
330
C
102
}
330
C
100
AcDbXrecord
280
     1
  1
DWGPROPS COOKIE
  2

  3

  4

  6

  7

  8
homer
  9

300
=
301
=
302
=
303
=
304
=
305
=
306
=
307
=
308
=
309
=
 40
0.9895540046296297
 41
2452286.590325035
 42
2455660.553460127
  1

 90
        0
  0
XRECORD
  5
4D64
102
{ACAD_REACTORS
330
48B2
102
}
330
48B2
100
AcDbXrecord
280
     1
102
VTR_0.000_0.000_1.000_1.000_VISUALSTYLE
340
45FF
102
VTR_0.000_0.000_1.000_1.000_GRIDDISPLAY
 70
     3
102
VTR_0.000_0.000_1.000_1.000_GRIDMAJOR
 70
     5
102
VTR_0.000_0.000_1.000_1.000_DEFAULTLIGHTING
280
     1
102
VTR_0.000_0.000_1.000_1.000_DEFAULTLIGHTINGTYPE
 70
     1
102
VTR_0.000_0.000_1.000_1.000_BRIGHTNESS
141
0.0
102
VTR_0.000_0.000_1.000_1.000_CONTRAST
142
0.0
  0
DICTIONARY
  5
48F5
102
{ACAD_REACTORS
330
4654
102
}
330
4654
100
AcDbDictionary
281
     1
  0
DICTIONARY
  5
4655
102
{ACAD_REACTORS
330
4654
102
}
330
4654
100
AcDbDictionary
281
     1
  0
DICTIONARY
  5
48F4
102
{ACAD_REACTORS
330
4654
102
}
330
4654
100
AcDbDictionary
281
     1
1001
ACAD
1000
<All
  0
XRECORD
  5
4D65
102
{ACAD_REACTORS
330
4806
102
}
330
4806
100
AcDbXrecord
280
     1
102
MATERIAL
340
45F1
  0
XRECORD
  5
4807
102
{ACAD_REACTORS
330
4806
102
}
330
4806
100
AcDbXrecord
280
     1
290
     1
  0
XRECORD
  5
4D68
102
{ACAD_REACTORS
330
4808
102
}
330
4808
100
AcDbXrecord
280
     1
102
MATERIAL
340
45F1
  0
XRECORD
  5
4809
102
{ACAD_REACTORS
330
4808
102
}
330
4808
100
AcDbXrecord
280
     1
290
     1
  0
XRECORD
  5
4D69
102
{ACAD_REACTORS
330
480A
102
}
330
480A
100
AcDbXrecord
280
     1
102
MATERIAL
340
45F1
  0
XRECORD
  5
480B
102
{ACAD_REACTORS
330
480A
102
}
330
480A
100
AcDbXrecord
280
     1
290
     1
  0
XRECORD
  5
4D6A
102
{ACAD_REACTORS
330
480C
102
}
330
480C
100
AcDbXrecord
280
     1
102
MATERIAL
340
45F1
  0
XRECORD
  5
480D
102
{ACAD_REACTORS
330
480C
102
}
330
480C
100
AcDbXrecord
280
     1
290
     1
  0
XRECORD
  5
4D83
102
{ACAD_REACTORS
330
4810
102
}
330
4810
100
AcDbXrecord
280
     1
102
MATERIAL
340
45F1
  0
XRECORD
  5
4811
102
{ACAD_REACTORS
330
4810
102
}
330
4810
100
AcDbXrecord
280
     1
290
     1
  0
SORTENTSTABLE
  5
4698
102
{ACAD_REACTORS
330
4697
102
}
330
4697
100
AcDbSortentsTable
330
1F
331
4224
  5
4A68
331
4008
  5
4A60
331
4A85
  5
3F50
331
423F
  5
4A6F
331
42EC
  5
4A82
331
4A35
  5
4A4A
331
4A5A
  5
4A38
331
3FF2
  5
4A5B
331
4A77
  5
42D5
331
4805
  5
4A88
331
4693
  5
4A57
331
42DE
  5
4A7A
331
4005
  5
4A5F
331
423C
  5
4A6D
331
42E9
  5
4A80
331
4690
  5
4A56
331
4239
  5
4A6A
331
42E6
  5
4A7D
331
4A54
  5
3F44
331
42D8
  5
4A77
331
4A46
  5
4A44
331
4A6E
  5
42E7
331
42D5
  5
4A74
331
3F36
  5
42E8
331
4A43
  5
4A42
331
453D
  5
4A87
331
3E64
  5
3F03
331
42E0
  5
4A7C
331
42D2
  5
4A73
331
4A40
  5
4A3F
331
4A4B
  5
4A48
331
4A68
  5
4690
331
42CF
  5
4A70
331
42F4
  5
4A86
331
4A7F
  5
423B
331
4A48
  5
4A46
331
4A65
  5
4A34
331
42F1
  5
4A84
331
3F38
  5
42EB
331
4A62
  5
4A5D
331
4A5C
  5
4A39
331
4A37
  5
4A54
331
4695
  5
4A59
331
4223
  5
4A67
331
42EB
  5
4A81
331
4A34
  5
4A49
331
4A76
  5
42D6
331
4692
  5
3EFF
331
4004
  5
4A5E
331
4A81
  5
4223
331
42E8
  5
4A7F
331
423B
  5
4A6C
331
4A56
  5
446E
331
42DA
  5
4A78
331
4238
  5
4A69
331
4A70
  5
42DF
331
42D7
  5
4A76
331
4A45
  5
4A43
331
4A6D
  5
42E9
331
4A42
  5
4A41
331
42D1
  5
4A72
331
4A3F
  5
4A3E
331
4A4A
  5
37CD
331
3E87
  5
3F04
331
4A39
  5
4A55
331
4A5E
  5
4A66
331
4A7B
  5
42CF
331
4A61
  5
4A62
331
42ED
  5
4A83
331
4A36
  5
4A4B
331
3FF3
  5
4A5C
331
4A78
  5
42D2
331
4694
  5
4A58
331
42DF
  5
4A7B
331
423D
  5
4A6E
331
3FF0
  5
4A5A
331
4A58
  5
453D
331
4691
  5
3E87
331
42DC
  5
4A79
331
421F
  5
4A63
331
42E7
  5
4A7E
331
423A
  5
4A6B
331
4A47
  5
4A45
331
3F4D
  5
4A35
331
42D6
  5
4A75
331
4A44
  5
3E62
331
4A6C
  5
42EC
331
3F34
  5
42E6
331
4A41
  5
4A40
331
4176
  5
4A61
331
3E62
  5
3F02
331
42D0
  5
4A71
331
4A3E
  5
3E64
331
37CD
  5
3F01
331
4A49
  5
4A47
331
42F2
  5
4A85
331
4A38
  5
3F00
331
4A7A
  5
42D0
  0
SORTENTSTABLE
  5
4E00
102
{ACAD_REACTORS
330
4DFF
102
}
330
4DFF
100
AcDbSortentsTable
330
4DFE
  0
XRECORD
  5
4D73
102
{ACAD_REACTORS
330
4D72
102
}
330
4D72
100
AcDbXrecord
280
     1
102
VISUALSTYLE
340
45FF
102
GRIDDISPLAY
 70
     0
102
GRIDMAJOR
 70
     5
102
DEFAULTLIGHTING
280
     1
102
DEFAULTLIGHTINGTYPE
 70
     1
102
BRIGHTNESS
141
0.0
102
CONTRAST
142
0.0
102
SHADEPLOT
 70
     0
  0
XRECORD
  5
4D75
102
{ACAD_REACTORS
330
4D74
102
}
330
4D74
100
AcDbXrecord
280
     1
102
VISUALSTYLE
340
45FF
102
GRIDDISPLAY
 70
     0
102
GRIDMAJOR
 70
     5
102
DEFAULTLIGHTING
280
     1
102
DEFAULTLIGHTINGTYPE
 70
     1
102
BRIGHTNESS
141
0.0
102
CONTRAST
142
0.0
102
SHADEPLOT
 70
     0
  0
LAYOUT
  5
22
102
{ACAD_XDICTIONARY
360
5205
102
}
102
{ACAD_REACTORS
330
1A
102
}
330
1A
100
AcDbPlotSettings
  1

  2
\\apl01\HP LaserJet 4MV
  4
A4
  6

 40
6.043083190917968
 41
6.762742042541503
 42
7.736419677734375
 43
5.027069091796875
 44
209.9733276367187
 45
296.9683227539062
 46
1.0
 47
10.5
 48
22.26641494143587
 49
348.6226051004481
140
169.4756680669422
141
453.1774643415046
142
1.0
143
0.5329161576041325
 70
 11952
 72
     1
 73
     1
 74
     4
  7
A4 Specifier Manual.ctb
 75
     0
147
1.876467781528276
148
-22.26641494143587
149
-348.6226051004481
100
AcDbLayout
  1
Model
 70
     1
 71
     0
 10
0.0
 20
0.0
 11
12.0
 21
9.0
 12
0.0
 22
0.0
 32
0.0
 14
0.0
 24
0.0
 34
0.0
 15
0.0
 25
0.0
 35
0.0
146
0.0
 13
0.0
 23
0.0
 33
0.0
 16
1.0
 26
0.0
 36
0.0
 17
0.0
 27
1.0
 37
0.0
 76
     0
330
1F
331
4560
  0
LAYOUT
  5
41C2
102
{ACAD_XDICTIONARY
360
4659
102
}
102
{ACAD_REACTORS
330
1A
102
}
330
1A
100
AcDbPlotSettings
  1

  2
\\apl01\HP LaserJet 4MV
  4
A4
  6

 40
5.916083
 41
6.212417
 42
5.873749
 43
5.873749
 44
296.968323
 45
209.973328
 46
0.0
 47
0.0
 48
0.0
 49
0.0
140
0.0
141
0.0
142
1.0
143
1.0
 70
   688
 72
     1
 73
     1
 74
     5
  7
A4 Specifier Manual.ctb
 75
    16
147
1.0
148
0.0
149
0.0
100
AcDbLayout
  1
Vantage A4
 70
     1
 71
     1
 10
-5.873749
 20
-5.916083
 11
204.099579
 21
291.05224
 12
0.0
 22
0.0
 32
0.0
 14
-1.010169527428502
 24
-0.5101495425839176
 34
-0.0015258207003583
 15
189.6081646382717
 25
282.2024614022765
 35
0.0000000349246037
146
0.0
 13
0.0
 23
0.0
 33
0.0
 16
1.0
 26
0.0
 36
0.0
 17
0.0
 27
1.0
 37
0.0
 76
     0
330
41C1
331
41C9
  0
MATERIAL
  5
45E9
102
{ACAD_XDICTIONARY
360
45EA
102
}
102
{ACAD_REACTORS
330
45E0
102
}
330
45E0
100
AcDbMaterial
  1
ByBlock
 72
     0
 73
     2
 43
0.0008202099737533
 43
0.0
 43
0.0
 43
0.0
 43
0.0
 43
0.0008202099737533
 43
0.0
 43
0.0
 43
0.0
 43
0.0
 43
1.0
 43
0.0
 43
0.0
 43
0.0
 43
0.0
 43
1.0
 77
     0
 78
     2
 47
0.0008202099737533
 47
0.0
 47
0.0
 47
0.0
 47
0.0
 47
0.0008202099737533
 47
0.0
 47
0.0
 47
0.0
 47
0.0
 47
1.0
 47
0.0
 47
0.0
 47
0.0
 47
0.0
 47
1.0
171
     0
172
     2
 49
0.0008202099737533
 49
0.0
 49
0.0
 49
0.0
 49
0.0
 49
0.0008202099737533
 49
0.0
 49
0.0
 49
0.0
 49
0.0
 49
1.0
 49
0.0
 49
0.0
 49
0.0
 49
0.0
 49
1.0
175
     0
176
     2
142
0.0008202099737533
142
0.0
142
0.0
142
0.0
142
0.0
142
0.0008202099737533
142
0.0
142
0.0
142
0.0
142
0.0
142
1.0
142
0.0
142
0.0
142
0.0
142
0.0
142
1.0
179
     0
270
     2
144
0.0008202099737533
144
0.0
144
0.0
144
0.0
144
0.0
144
0.0008202099737533
144
0.0
144
0.0
144
0.0
144
0.0
144
1.0
144
0.0
144
0.0
144
0.0
144
0.0
144
1.0
274
     2
147
0.0008202099737533
147
0.0
147
0.0
147
0.0
147
0.0
147
0.0008202099737533
147
0.0
147
0.0
147
0.0
147
0.0
147
1.0
147
0.0
147
0.0
147
0.0
147
0.0
147
1.0
  0
MATERIAL
  5
45E1
102
{ACAD_XDICTIONARY
360
45E2
102
}
102
{ACAD_REACTORS
330
45E0
102
}
330
45E0
100
AcDbMaterial
  1
ByLayer
 72
     0
 73
     2
 43
0.0008202099737533
 43
0.0
 43
0.0
 43
0.0
 43
0.0
 43
0.0008202099737533
 43
0.0
 43
0.0
 43
0.0
 43
0.0
 43
1.0
 43
0.0
 43
0.0
 43
0.0
 43
0.0
 43
1.0
 77
     0
 78
     2
 47
0.0008202099737533
 47
0.0
 47
0.0
 47
0.0
 47
0.0
 47
0.0008202099737533
 47
0.0
 47
0.0
 47
0.0
 47
0.0
 47
1.0
 47
0.0
 47
0.0
 47
0.0
 47
0.0
 47
1.0
171
     0
172
     2
 49
0.0008202099737533
 49
0.0
 49
0.0
 49
0.0
 49
0.0
 49
0.0008202099737533
 49
0.0
 49
0.0
 49
0.0
 49
0.0
 49
1.0
 49
0.0
 49
0.0
 49
0.0
 49
0.0
 49
1.0
175
     0
176
     2
142
0.0008202099737533
142
0.0
142
0.0
142
0.0
142
0.0
142
0.0008202099737533
142
0.0
142
0.0
142
0.0
142
0.0
142
1.0
142
0.0
142
0.0
142
0.0
142
0.0
142
1.0
179
     0
270
     2
144
0.0008202099737533
144
0.0
144
0.0
144
0.0
144
0.0
144
0.0008202099737533
144
0.0
144
0.0
144
0.0
144
0.0
144
1.0
144
0.0
144
0.0
144
0.0
144
0.0
144
1.0
274
     2
147
0.0008202099737533
147
0.0
147
0.0
147
0.0
147
0.0
147
0.0008202099737533
147
0.0
147
0.0
147
0.0
147
0.0
147
1.0
147
0.0
147
0.0
147
0.0
147
0.0
147
1.0
  0
MATERIAL
  5
45F1
102
{ACAD_XDICTIONARY
360
45F2
102
}
102
{ACAD_REACTORS
330
45E0
102
}
330
45E0
100
AcDbMaterial
  1
Global
 72
     0
 73
     2
 43
0.0008202099737533
 43
0.0
 43
0.0
 43
0.0
 43
0.0
 43
0.0008202099737533
 43
0.0
 43
0.0
 43
0.0
 43
0.0
 43
1.0
 43
0.0
 43
0.0
 43
0.0
 43
0.0
 43
1.0
 77
     0
 78
     2
 47
0.0008202099737533
 47
0.0
 47
0.0
 47
0.0
 47
0.0
 47
0.0008202099737533
 47
0.0
 47
0.0
 47
0.0
 47
0.0
 47
1.0
 47
0.0
 47
0.0
 47
0.0
 47
0.0
 47
1.0
171
     0
172
     2
 49
0.0008202099737533
 49
0.0
 49
0.0
 49
0.0
 49
0.0
 49
0.0008202099737533
 49
0.0
 49
0.0
 49
0.0
 49
0.0
 49
1.0
 49
0.0
 49
0.0
 49
0.0
 49
0.0
 49
1.0
175
     0
176
     2
142
0.0008202099737533
142
0.0
142
0.0
142
0.0
142
0.0
142
0.0008202099737533
142
0.0
142
0.0
142
0.0
142
0.0
142
1.0
142
0.0
142
0.0
142
0.0
142
0.0
142
1.0
179
     0
270
     2
144
0.0008202099737533
144
0.0
144
0.0
144
0.0
144
0.0
144
0.0008202099737533
144
0.0
144
0.0
144
0.0
144
0.0
144
1.0
144
0.0
144
0.0
144
0.0
144
0.0
144
1.0
274
     2
147
0.0008202099737533
147
0.0
147
0.0
147
0.0
147
0.0
147
0.0008202099737533
147
0.0
147
0.0
147
0.0
147
0.0
147
1.0
147
0.0
147
0.0
147
0.0
147
0.0
147
1.0
  0
ACAD_PROXY_OBJECT
  5
4D4D
102
{ACAD_REACTORS
330
462F
102
}
330
462F
100
AcDbProxyObject
 90
      499
 91
      510
 95
   983063
 70
     0
 93
      618
310
40901902A4063FBFFFFFE000000000000002040AD7A3703D0AD73F4254DD185B99185C99000000000000000104090141901A00000000000004100000000000000041025764000000000000300FC0
340
14
340
0
340
11
340
0
 94
        0
1001
ACAD_MLEADERVER
1070
     2
1001
ACAD
1000
AcRTDxfName
1000
MLEADERSTYLE
1000
AcRTDxfName
1000
MLEADERSTYLE
1000
AcRTDxfName
1000
MLEADERSTYLE
  0
MLINESTYLE
  5
18
102
{ACAD_REACTORS
330
17
102
}
330
17
100
AcDbMlineStyle
  2
STANDARD
 70
     0
  3

 62
   256
 51
90.0
 52
90.0
 71
     2
 49
0.5
 62
   256
  6
BYLAYER
 49
-0.5
 62
   256
  6
BYLAYER
  0
PLOTSETTINGS
  5
4167
102
{ACAD_XDICTIONARY
360
5207
102
}
102
{ACAD_REACTORS
330
19
102
}
330
19
100
AcDbPlotSettings
  1
A4 Specifier Manual Hardcopy
  2
A4 Specifier Manual.pc3
  4
A4
  6

 40
6.0
 41
5.0
 42
6.97332763671875
 43
5.96832275390625
 44
209.9733276367187
 45
296.9683227539062
 46
10.5
 47
-1.0
 48
55.19893561856474
 49
77.41415496436935
140
329.6878846931311
141
251.7976535946928
142
1.0
143
2.0
 70
  1712
 72
     1
 73
     0
 74
     1
  7
A4 specifier manual.ctb
 75
    17
147
0.5
148
2.225667800726114
149
26.13925412475783
  0
PLOTSETTINGS
  5
4168
102
{ACAD_XDICTIONARY
360
5209
102
}
102
{ACAD_REACTORS
330
19
102
}
330
19
100
AcDbPlotSettings
  1
A4 Specifier Manual PDF
  2
Acrobat Distiller.pc3
  4
A4
  6

 40
3.174999952316284
 41
3.174999952316284
 42
3.175003051757812
 43
3.17498779296875
 44
209.9098358154297
 45
297.0318298339844
 46
12.0
 47
3.0
 48
55.19893561856474
 49
77.41415496436935
140
329.6878846931311
141
251.7976535946928
142
1.0
143
2.0
 70
  1712
 72
     1
 73
     0
 74
     1
  7
A4 Specifier Manual.ctb
 75
    17
147
0.5
148
2.231438335389952
149
26.15846035871732
  0
ACDBPLACEHOLDER
  5
F
102
{ACAD_REACTORS
330
E
102
}
330
E
  0
ACAD_PROXY_OBJECT
  5
460E
102
{ACAD_REACTORS
330
460D
102
}
330
460D
100
AcDbProxyObject
 90
      499
 91
      509
 95
   983063
 70
     0
 93
       49
310
904313A3100580
 94
        0
1001
ACAD
1000
AcRTDxfName
1000
SCALE
1000
AcRTDxfName
1000
SCALE
1000
AcRTDxfName
1000
SCALE
  0
ACAD_PROXY_OBJECT
  5
460F
102
{ACAD_REACTORS
330
460D
102
}
330
460D
100
AcDbProxyObject
 90
      499
 91
      509
 95
   983063
 70
     0
 93
      113
310
904313A32004000000000000004040
 94
        0
1001
ACAD
1000
AcRTDxfName
1000
SCALE
1000
AcRTDxfName
1000
SCALE
1000
AcRTDxfName
1000
SCALE
  0
ACAD_PROXY_OBJECT
  5
4610
102
{ACAD_REACTORS
330
460D
102
}
330
460D
100
AcDbProxyObject
 90
      499
 91
      509
 95
   983063
 70
     0
 93
      113
310
904313A34004000000000000104040
 94
        0
1001
ACAD
1000
AcRTDxfName
1000
SCALE
1000
AcRTDxfName
1000
SCALE
1000
AcRTDxfName
1000
SCALE
  0
ACAD_PROXY_OBJECT
  5
4611
102
{ACAD_REACTORS
330
460D
102
}
330
460D
100
AcDbProxyObject
 90
      499
 91
      509
 95
   983063
 70
     0
 93
      113
310
904313A35004000000000000144040
 94
        0
1001
ACAD
1000
AcRTDxfName
1000
SCALE
1000
AcRTDxfName
1000
SCALE
1000
AcRTDxfName
1000
SCALE
  0
ACAD_PROXY_OBJECT
  5
4612
102
{ACAD_REACTORS
330
460D
102
}
330
460D
100
AcDbProxyObject
 90
      499
 91
      509
 95
   983063
 70
     0
 93
      113
310
904313A38004000000000000204040
 94
        0
1001
ACAD
1000
AcRTDxfName
1000
SCALE
1000
AcRTDxfName
1000
SCALE
1000
AcRTDxfName
1000
SCALE
  0
ACAD_PROXY_OBJECT
  5
4613
102
{ACAD_REACTORS
330
460D
102
}
330
460D
100
AcDbProxyObject
 90
      499
 91
      509
 95
   983063
 70
     0
 93
      121
310
905313A3130004000000000000244000
 94
        0
1001
ACAD
1000
AcRTDxfName
1000
SCALE
1000
AcRTDxfName
1000
SCALE
1000
AcRTDxfName
1000
SCALE
  0
ACAD_PROXY_OBJECT
  5
4614
102
{ACAD_REACTORS
330
460D
102
}
330
460D
100
AcDbProxyObject
 90
      499
 91
      509
 95
   983063
 70
     0
 93
      121
310
905313A3136004000000000000304040
 94
        0
1001
ACAD
1000
AcRTDxfName
1000
SCALE
1000
AcRTDxfName
1000
SCALE
1000
AcRTDxfName
1000
SCALE
  0
ACAD_PROXY_OBJECT
  5
4615
102
{ACAD_REACTORS
330
460D
102
}
330
460D
100
AcDbProxyObject
 90
      499
 91
      509
 95
   983063
 70
     0
 93
      121
310
905313A3230004000000000000344000
 94
        0
1001
ACAD
1000
AcRTDxfName
1000
SCALE
1000
AcRTDxfName
1000
SCALE
1000
AcRTDxfName
1000
SCALE
  0
ACAD_PROXY_OBJECT
  5
4616
102
{ACAD_REACTORS
330
460D
102
}
330
460D
100
AcDbProxyObject
 90
      499
 91
      509
 95
   983063
 70
     0
 93
      121
310
905313A33300040000000000003E4001
 94
        0
1001
ACAD
1000
AcRTDxfName
1000
SCALE
1000
AcRTDxfName
1000
SCALE
1000
AcRTDxfName
1000
SCALE
  0
ACAD_PROXY_OBJECT
  5
4617
102
{ACAD_REACTORS
330
460D
102
}
330
460D
100
AcDbProxyObject
 90
      499
 91
      509
 95
   983063
 70
     0
 93
      121
310
905313A3430004000000000000444040
 94
        0
1001
ACAD
1000
AcRTDxfName
1000
SCALE
1000
AcRTDxfName
1000
SCALE
1000
AcRTDxfName
1000
SCALE
  0
ACAD_PROXY_OBJECT
  5
4618
102
{ACAD_REACTORS
330
460D
102
}
330
460D
100
AcDbProxyObject
 90
      499
 91
      509
 95
   983063
 70
     0
 93
      121
310
905313A3530004000000000000494001
 94
        0
1001
ACAD
1000
AcRTDxfName
1000
SCALE
1000
AcRTDxfName
1000
SCALE
1000
AcRTDxfName
1000
SCALE
  0
ACAD_PROXY_OBJECT
  5
4619
102
{ACAD_REACTORS
330
460D
102
}
330
460D
100
AcDbProxyObject
 90
      499
 91
      509
 95
   983063
 70
     0
 93
      129
310
906313A313030004000000000000594000
 94
        0
1001
ACAD
1000
AcRTDxfName
1000
SCALE
1000
AcRTDxfName
1000
SCALE
1000
AcRTDxfName
1000
SCALE
  0
ACAD_PROXY_OBJECT
  5
461A
102
{ACAD_REACTORS
330
460D
102
}
330
460D
100
AcDbProxyObject
 90
      499
 91
      509
 95
   983063
 70
     0
 93
      113
310
904323A31000000000000000010165
 94
        0
1001
ACAD
1000
AcRTDxfName
1000
SCALE
1000
AcRTDxfName
1000
SCALE
1000
AcRTDxfName
1000
SCALE
  0
ACAD_PROXY_OBJECT
  5
461B
102
{ACAD_REACTORS
330
460D
102
}
330
460D
100
AcDbProxyObject
 90
      499
 91
      509
 95
   983063
 70
     0
 93
      113
310
904343A31000000000000000410101
 94
        0
1001
ACAD
1000
AcRTDxfName
1000
SCALE
1000
AcRTDxfName
1000
SCALE
1000
AcRTDxfName
1000
SCALE
  0
ACAD_PROXY_OBJECT
  5
461C
102
{ACAD_REACTORS
330
460D
102
}
330
460D
100
AcDbProxyObject
 90
      499
 91
      509
 95
   983063
 70
     0
 93
      113
310
904383A31000000000000000810165
 94
        0
1001
ACAD
1000
AcRTDxfName
1000
SCALE
1000
AcRTDxfName
1000
SCALE
1000
AcRTDxfName
1000
SCALE
  0
ACAD_PROXY_OBJECT
  5
461D
102
{ACAD_REACTORS
330
460D
102
}
330
460D
100
AcDbProxyObject
 90
      499
 91
      509
 95
   983063
 70
     0
 93
      121
310
90531303A31000000000000000910120
 94
        0
1001
ACAD
1000
AcRTDxfName
1000
SCALE
1000
AcRTDxfName
1000
SCALE
1000
AcRTDxfName
1000
SCALE
  0
ACAD_PROXY_OBJECT
  5
461E
102
{ACAD_REACTORS
330
460D
102
}
330
460D
100
AcDbProxyObject
 90
      499
 91
      509
 95
   983063
 70
     0
 93
      129
310
9063130303A31000000000000001650100
 94
        0
1001
ACAD
1000
AcRTDxfName
1000
SCALE
1000
AcRTDxfName
1000
SCALE
1000
AcRTDxfName
1000
SCALE
  0
ACAD_PROXY_OBJECT
  5
461F
102
{ACAD_REACTORS
330
460D
102
}
330
460D
100
AcDbProxyObject
 90
      499
 91
      509
 95
   983063
 70
     0
 93
      265
310
90F312F31323822203D2031272D302200000000000000200FC000000000000284018
 94
        0
1001
ACAD
1000
AcRTDxfName
1000
SCALE
1000
AcRTDxfName
1000
SCALE
1000
AcRTDxfName
1000
SCALE
  0
ACAD_PROXY_OBJECT
  5
4620
102
{ACAD_REACTORS
330
460D
102
}
330
460D
100
AcDbProxyObject
 90
      499
 91
      509
 95
   983063
 70
     0
 93
      257
310
90E312F363422203D2031272D302200000000000000240FC000000000000284000
 94
        0
1001
ACAD
1000
AcRTDxfName
1000
SCALE
1000
AcRTDxfName
1000
SCALE
1000
AcRTDxfName
1000
SCALE
  0
ACAD_PROXY_OBJECT
  5
4621
102
{ACAD_REACTORS
330
460D
102
}
330
460D
100
AcDbProxyObject
 90
      499
 91
      509
 95
   983063
 70
     0
 93
      257
310
90E312F333222203D2031272D302200000000000000280FC000000000000284040
 94
        0
1001
ACAD
1000
AcRTDxfName
1000
SCALE
1000
AcRTDxfName
1000
SCALE
1000
AcRTDxfName
1000
SCALE
  0
ACAD_PROXY_OBJECT
  5
4622
102
{ACAD_REACTORS
330
460D
102
}
330
460D
100
AcDbProxyObject
 90
      499
 91
      509
 95
   983063
 70
     0
 93
      257
310
90E312F313622203D2031272D3022000000000000002C0FC000000000000284000
 94
        0
1001
ACAD
1000
AcRTDxfName
1000
SCALE
1000
AcRTDxfName
1000
SCALE
1000
AcRTDxfName
1000
SCALE
  0
ACAD_PROXY_OBJECT
  5
4623
102
{ACAD_REACTORS
330
460D
102
}
330
460D
100
AcDbProxyObject
 90
      499
 91
      509
 95
   983063
 70
     0
 93
      257
310
90E332F333222203D2031272D3022000000000000002E0FC000000000000284040
 94
        0
1001
ACAD
1000
AcRTDxfName
1000
SCALE
1000
AcRTDxfName
1000
SCALE
1000
AcRTDxfName
1000
SCALE
  0
ACAD_PROXY_OBJECT
  5
4624
102
{ACAD_REACTORS
330
460D
102
}
330
460D
100
AcDbProxyObject
 90
      499
 91
      509
 95
   983063
 70
     0
 93
      249
310
90D312F3822203D2031272D302200000000000000300FC000000000000284040
 94
        0
1001
ACAD
1000
AcRTDxfName
1000
SCALE
1000
AcRTDxfName
1000
SCALE
1000
AcRTDxfName
1000
SCALE
  0
ACAD_PROXY_OBJECT
  5
4625
102
{ACAD_REACTORS
330
460D
102
}
330
460D
100
AcDbProxyObject
 90
      499
 91
      509
 95
   983063
 70
     0
 93
      257
310
90E332F313622203D2031272D302200000000000000320FC000000000000284040
 94
        0
1001
ACAD
1000
AcRTDxfName
1000
SCALE
1000
AcRTDxfName
1000
SCALE
1000
AcRTDxfName
1000
SCALE
  0
ACAD_PROXY_OBJECT
  5
4626
102
{ACAD_REACTORS
330
460D
102
}
330
460D
100
AcDbProxyObject
 90
      499
 91
      509
 95
   983063
 70
     0
 93
      249
310
90D312F3422203D2031272D302200000000000000340FC000000000000284040
 94
        0
1001
ACAD
1000
AcRTDxfName
1000
SCALE
1000
AcRTDxfName
1000
SCALE
1000
AcRTDxfName
1000
SCALE
  0
ACAD_PROXY_OBJECT
  5
4627
102
{ACAD_REACTORS
330
460D
102
}
330
460D
100
AcDbProxyObject
 90
      499
 91
      509
 95
   983063
 70
     0
 93
      249
310
90D332F3822203D2031272D302200000000000000360FC000000000000284028
 94
        0
1001
ACAD
1000
AcRTDxfName
1000
SCALE
1000
AcRTDxfName
1000
SCALE
1000
AcRTDxfName
1000
SCALE
  0
ACAD_PROXY_OBJECT
  5
4628
102
{ACAD_REACTORS
330
460D
102
}
330
460D
100
AcDbProxyObject
 90
      499
 91
      509
 95
   983063
 70
     0
 93
      249
310
90D312F3222203D2031272D302200000000000000380FC000000000000284040
 94
        0
1001
ACAD
1000
AcRTDxfName
1000
SCALE
1000
AcRTDxfName
1000
SCALE
1000
AcRTDxfName
1000
SCALE
  0
ACAD_PROXY_OBJECT
  5
4629
102
{ACAD_REACTORS
330
460D
102
}
330
460D
100
AcDbProxyObject
 90
      499
 91
      509
 95
   983063
 70
     0
 93
      249
310
90D332F3422203D2031272D3022000000000000003A0FC000000000000284028
 94
        0
1001
ACAD
1000
AcRTDxfName
1000
SCALE
1000
AcRTDxfName
1000
SCALE
1000
AcRTDxfName
1000
SCALE
  0
ACAD_PROXY_OBJECT
  5
462A
102
{ACAD_REACTORS
330
460D
102
}
330
460D
100
AcDbProxyObject
 90
      499
 91
      509
 95
   983063
 70
     0
 93
      169
310
90B3122203D2031272D3022004000000000000284000
 94
        0
1001
ACAD
1000
AcRTDxfName
1000
SCALE
1000
AcRTDxfName
1000
SCALE
1000
AcRTDxfName
1000
SCALE
  0
ACAD_PROXY_OBJECT
  5
462B
102
{ACAD_REACTORS
330
460D
102
}
330
460D
100
AcDbProxyObject
 90
      499
 91
      509
 95
   983063
 70
     0
 93
      265
310
90F312D312F3222203D2031272D3022000000000000003E0FC000000000000284018
 94
        0
1001
ACAD
1000
AcRTDxfName
1000
SCALE
1000
AcRTDxfName
1000
SCALE
1000
AcRTDxfName
1000
SCALE
  0
ACAD_PROXY_OBJECT
  5
462C
102
{ACAD_REACTORS
330
460D
102
}
330
460D
100
AcDbProxyObject
 90
      499
 91
      509
 95
   983063
 70
     0
 93
      233
310
90B3322203D2031272D30220000000000000002100000000000000284000
 94
        0
1001
ACAD
1000
AcRTDxfName
1000
SCALE
1000
AcRTDxfName
1000
SCALE
1000
AcRTDxfName
1000
SCALE
  0
ACAD_PROXY_OBJECT
  5
462D
102
{ACAD_REACTORS
330
460D
102
}
330
460D
100
AcDbProxyObject
 90
      499
 91
      509
 95
   983063
 70
     0
 93
      233
310
90B3622203D2031272D3022000000000000000610000000000000028405D
 94
        0
1001
ACAD
1000
AcRTDxfName
1000
SCALE
1000
AcRTDxfName
1000
SCALE
1000
AcRTDxfName
1000
SCALE
  0
ACAD_PROXY_OBJECT
  5
462E
102
{ACAD_REACTORS
330
460D
102
}
330
460D
100
AcDbProxyObject
 90
      499
 91
      509
 95
   983063
 70
     0
 93
      257
310
90E31272D3022203D2031272D3022000000000000000A100000000000000284000
 94
        0
1001
ACAD
1000
AcRTDxfName
1000
SCALE
1000
AcRTDxfName
1000
SCALE
1000
AcRTDxfName
1000
SCALE
  0
TABLESTYLE
  5
460C
102
{ACAD_XDICTIONARY
360
48AE
102
}
102
{ACAD_REACTORS
330
460B
102
}
330
460B
100
AcDbTableStyle
  3
Standard
 70
     0
 71
     0
 40
1.5
 41
1.5
280
     0
281
     0
  7
Standard
140
4.5
170
     2
 62
     0
 63
     7
283
     0
274
    -2
284
     1
 64
     0
275
    -2
285
     1
 65
     0
276
    -2
286
     1
 66
     0
277
    -2
287
     1
 67
     0
278
    -2
288
     1
 68
     0
279
    -2
289
     1
 69
     0
  7
Standard
140
6.0
170
     5
 62
     0
 63
     7
283
     0
274
    -2
284
     1
 64
     0
275
    -2
285
     1
 65
     0
276
    -2
286
     1
 66
     0
277
    -2
287
     1
 67
     0
278
    -2
288
     1
 68
     0
279
    -2
289
     1
 69
     0
  7
Standard
140
4.5
170
     5
 62
     0
 63
     7
283
     0
274
    -2
284
     1
 64
     0
275
    -2
285
     1
 65
     0
276
    -2
286
     1
 66
     0
277
    -2
287
     1
 67
     0
278
    -2
288
     1
 68
     0
279
    -2
289
     1
 69
     0
  0
ACAD_PROXY_OBJECT
  5
45FF
102
{ACAD_REACTORS
330
45F9
102
}
330
45F9
100
AcDbProxyObject
 90
      499
 91
      507
 95
   983063
 70
     0
 93
      444
310
430C9915DA5C99599C985B59401049028333333333333E3BF0000000000000FB0107901411070040501600405405064090741402480A0340
 94
        0
1001
ACAD
1000
AcDbSavedByObjectVersion
1070
     0
1000
AcRTDxfName
1000
VISUALSTYLE
1000
AcRTDxfName
1000
VISUALSTYLE
1000
AcRTDxfName
1000
VISUALSTYLE
  0
ACAD_PROXY_OBJECT
  5
4601
102
{ACAD_REACTORS
330
45F9
102
}
330
45F9
100
AcDbProxyObject
 90
      499
 91
      507
 95
   983063
 70
     0
 93
      508
310
428CD108121A5919195B8010640502408333333333333E3BF0000000000000FB01079024090700405020000000000001110200405405064090740C02480A0340
 94
        0
1001
ACAD
1000
AcDbSavedByObjectVersion
1070
     0
1000
AcRTDxfName
1000
VISUALSTYLE
1000
AcRTDxfName
1000
VISUALSTYLE
1000
AcRTDxfName
1000
VISUALSTYLE
  0
ACAD_PROXY_OBJECT
  5
4600
102
{ACAD_REACTORS
330
45F9
102
}
330
45F9
100
AcDbProxyObject
 90
      499
 91
      507
 95
   983063
 70
     0
 93
      444
310
430CD915DA5C99599C985B59401059028333333333333E3BF0000000000000FB0107901411070040501600405405064090741402480A0340
 94
        0
1001
ACAD
1000
AcDbSavedByObjectVersion
1070
     0
1000
AcRTDxfName
1000
VISUALSTYLE
1000
AcRTDxfName
1000
VISUALSTYLE
1000
AcRTDxfName
1000
VISUALSTYLE
  0
ACAD_PROXY_OBJECT
  5
45FE
102
{ACAD_REACTORS
330
45F9
102
}
330
45F9
100
AcDbProxyObject
 90
      499
 91
      507
 95
   983063
 70
     0
 93
      396
310
4190985CDA58C0107406404333333333333E3BF0000000000000FB0107A41107004050150841D405064090741402480A0354
 94
        0
1001
ACAD
1000
AcDbSavedByObjectVersion
1070
     0
1000
AcRTDxfName
1000
VISUALSTYLE
1000
AcRTDxfName
1000
VISUALSTYLE
1000
AcRTDxfName
1000
VISUALSTYLE
  0
ACAD_PROXY_OBJECT
  5
4605
102
{ACAD_REACTORS
330
45F9
102
}
330
45F9
100
AcDbProxyObject
 90
      499
 91
      507
 95
   983063
 70
     0
 93
      436
310
42509C9A59DA1D195B8010C409028333333333333E3BF0000000000000FB010790141107004050150841D405064090741402480A02995A
 94
        0
1001
ACAD
1000
AcDbSavedByObjectVersion
1070
     0
1000
AcRTDxfName
1000
VISUALSTYLE
1000
AcRTDxfName
1000
VISUALSTYLE
1000
AcRTDxfName
1000
VISUALSTYLE
  0
ACAD_PROXY_OBJECT
  5
4609
102
{ACAD_REACTORS
330
45F9
102
}
330
45F9
100
AcDbProxyObject
 90
      499
 91
      507
 95
   983063
 70
     0
 93
      460
310
4310DBDB1BDC90DA185B99D9401104090240C333333333333E3BF0000000000000FB0108901411070040501508421405064090741402480A035E
 94
        0
1001
ACAD
1000
AcDbSavedByObjectVersion
1070
     0
1000
AcRTDxfName
1000
VISUALSTYLE
1000
AcRTDxfName
1000
VISUALSTYLE
1000
AcRTDxfName
1000
VISUALSTYLE
  0
ACAD_PROXY_OBJECT
  5
4602
102
{ACAD_REACTORS
330
45F9
102
}
330
45F9
100
AcDbProxyObject
 90
      499
 91
      507
 95
   983063
 70
     0
 93
      508
310
42D0DBDB98D95C1D1D585B0010940D028333333333333E3BF0000000000000FB0107902409070040501000000000000111010841D405064090740C02480A0340
 94
        0
1001
ACAD
1000
AcDbSavedByObjectVersion
1070
     0
1000
AcRTDxfName
1000
VISUALSTYLE
1000
AcRTDxfName
1000
VISUALSTYLE
1000
AcRTDxfName
1000
VISUALSTYLE
  0
ACAD_PROXY_OBJECT
  5
4604
102
{ACAD_REACTORS
330
45F9
102
}
330
45F9
100
AcDbProxyObject
 90
      499
 91
      507
 95
   983063
 70
     0
 93
      420
310
41111A5B4010B409028333333333333E3BF0000000000000FB010790141107004050150841D405064090741402480A02677FFFFFD2
 94
        0
1001
ACAD
1000
AcDbSavedByObjectVersion
1070
     0
1000
AcRTDxfName
1000
VISUALSTYLE
1000
AcRTDxfName
1000
VISUALSTYLE
1000
AcRTDxfName
1000
VISUALSTYLE
  0
ACAD_PROXY_OBJECT
  5
4608
102
{ACAD_REACTORS
330
45F9
102
}
330
45F9
100
AcDbProxyObject
 90
      499
 91
      507
 95
   983063
 70
     0
 93
      452
310
43119858D95C185D1D195C9B8010F409028333333333333E3BF0000000000000FB010790141107004050150841D405064090741402480A0354
 94
        0
1001
ACAD
1000
AcDbSavedByObjectVersion
1070
     0
1000
AcRTDxfName
1000
VISUALSTYLE
1000
AcRTDxfName
1000
VISUALSTYLE
1000
AcRTDxfName
1000
VISUALSTYLE
  0
ACAD_PROXY_OBJECT
  5
45FA
102
{ACAD_REACTORS
330
45F9
102
}
330
45F9
100
AcDbProxyObject
 90
      499
 91
      507
 95
   983063
 70
     0
 93
      396
310
41519B185D00240901404333333333333E3BF0000000000000F9010740A41107004050150841D405064090741402480A1B58
 94
        0
1001
ACAD
1000
AcDbSavedByObjectVersion
1070
     0
1000
AcRTDxfName
1000
VISUALSTYLE
1000
AcRTDxfName
1000
VISUALSTYLE
1000
AcRTDxfName
1000
VISUALSTYLE
  0
ACAD_PROXY_OBJECT
  5
45FB
102
{ACAD_REACTORS
330
45F9
102
}
330
45F9
100
AcDbProxyObject
 90
      499
 91
      507
 95
   983063
 70
     0
 93
      484
310
43919B185D15DA5D1A115919D95CC010140901404333333333333E3BF0000000000000F9010740901411070040501600405405064090741402480A1B58
 94
        0
1001
ACAD
1000
AcDbSavedByObjectVersion
1070
     0
1000
AcRTDxfName
1000
VISUALSTYLE
1000
AcRTDxfName
1000
VISUALSTYLE
1000
AcRTDxfName
1000
VISUALSTYLE
  0
ACAD_PROXY_OBJECT
  5
45FC
102
{ACAD_REACTORS
330
45F9
102
}
330
45F9
100
AcDbProxyObject
 90
      499
 91
      507
 95
   983063
 70
     0
 93
      420
310
4211DBDD5C985D590010240902404333333333333E3BF0000000000000F9010740A411070040501641D405064090741402480A1B58
 94
        0
1001
ACAD
1000
AcDbSavedByObjectVersion
1070
     0
1000
AcRTDxfName
1000
VISUALSTYLE
1000
AcRTDxfName
1000
VISUALSTYLE
1000
AcRTDxfName
1000
VISUALSTYLE
  0
ACAD_PROXY_OBJECT
  5
45FD
102
{ACAD_REACTORS
330
45F9
102
}
330
45F9
100
AcDbProxyObject
 90
      499
 91
      507
 95
   983063
 70
     0
 93
      508
310
4451DBDD5C985D5915DA5D1A115919D95CC010340902404333333333333E3BF0000000000000F9010740901411070040501600405405064090741402480A1B50
 94
        0
1001
ACAD
1000
AcDbSavedByObjectVersion
1070
     0
1000
AcRTDxfName
1000
VISUALSTYLE
1000
AcRTDxfName
1000
VISUALSTYLE
1000
AcRTDxfName
1000
VISUALSTYLE
  0
ACAD_PROXY_OBJECT
  5
4607
102
{ACAD_REACTORS
330
45F9
102
}
330
45F9
100
AcDbProxyObject
 90
      499
 91
      507
 95
   983063
 70
     0
 93
      452
310
43131A5B995C185D1D195C9B8010E409028333333333333E3BF0000000000000FB010790141107004050750841D405064090741402483A0353
 94
        0
1001
ACAD
1000
AcDbSavedByObjectVersion
1070
     0
1000
AcRTDxfName
1000
VISUALSTYLE
1000
AcRTDxfName
1000
VISUALSTYLE
1000
AcRTDxfName
1000
VISUALSTYLE
  0
ACAD_PROXY_OBJECT
  5
4603
102
{ACAD_REACTORS
330
45F9
102
}
330
45F9
100
AcDbProxyObject
 90
      499
 91
      507
 95
   983063
 70
     0
 93
      428
310
429499585B1A5CDD1A58C0108409028333333333333E3BF0000000000000FB01079019070040501508421405064090741402480A1B49
 94
        0
1001
ACAD
1000
AcDbSavedByObjectVersion
1070
     0
1000
AcRTDxfName
1000
VISUALSTYLE
1000
AcRTDxfName
1000
VISUALSTYLE
1000
AcRTDxfName
1000
VISUALSTYLE
  0
ACAD_PROXY_OBJECT
  5
4606
102
{ACAD_REACTORS
330
45F9
102
}
330
45F9
100
AcDbProxyObject
 90
      499
 91
      507
 95
   983063
 70
     0
 93
      420
310
42151A1A58DAD95B8010D409028333333333333E3BF0000000000000FB010790141107004050150C41D405064090741402480A0352
 94
        0
1001
ACAD
1000
AcDbSavedByObjectVersion
1070
     0
1000
AcRTDxfName
1000
VISUALSTYLE
1000
AcRTDxfName
1000
VISUALSTYLE
1000
AcRTDxfName
1000
VISUALSTYLE
  0
DICTIONARYVAR
  5
48E6
102
{ACAD_REACTORS
330
3B
102
}
330
3B
100
DictionaryVariables
280
     0
  1
1:1
  0
DICTIONARYVAR
  5
4971
102
{ACAD_REACTORS
330
3B
102
}
330
3B
100
DictionaryVariables
280
     0
  1
STANDARD
  0
DICTIONARYVAR
  5
48E5
102
{ACAD_REACTORS
330
3B
102
}
330
3B
100
DictionaryVariables
280
     0
  1
STANDARD
  0
DICTIONARYVAR
  5
3D
102
{ACAD_REACTORS
330
3B
102
}
330
3B
100
DictionaryVariables
280
     0
  1
2
  0
DICTIONARYVAR
  5
3C
102
{ACAD_REACTORS
330
3B
102
}
330
3B
100
DictionaryVariables
280
     0
  1
1
  0
DICTIONARYVAR
  5
48E7
102
{ACAD_REACTORS
330
3B
102
}
330
3B
100
DictionaryVariables
280
     0
  1
0
  0
DICTIONARYVAR
  5
4DC7
102
{ACAD_REACTORS
330
3B
102
}
330
3B
100
DictionaryVariables
280
     0
  1

  0
DICTIONARYVAR
  5
4544
102
{ACAD_REACTORS
330
3B
102
}
330
3B
100
DictionaryVariables
280
     0
  1
127
  0
DICTIONARY
  5
5205
330
22
100
AcDbDictionary
280
     1
281
     1
  3
ACAD_XREC_ROUNDTRIP
360
5206
  0
DICTIONARY
  5
4659
330
41C2
100
AcDbDictionary
280
     1
281
     1
  3
ACAD_XREC_ROUNDTRIP
360
520B
  3
ADSK_XREC_LAYOUTTHUMBNAIL
360
465A
  0
DICTIONARY
  5
45EA
330
45E9
100
AcDbDictionary
280
     1
281
     1
  3
ACAD_XREC_ROUNDTRIP
360
4D7F
  3
BUMPTILE
360
45EC
  3
DIFFUSETILE
360
45EB
  3
OPACITYTILE
360
45EF
  3
REFLECTIONTILE
360
45EE
  3
REFRACTIONTILE
360
45F0
  3
SPECULARTILE
360
45ED
  0
DICTIONARY
  5
45E2
330
45E1
100
AcDbDictionary
280
     1
281
     1
  3
ACAD_XREC_ROUNDTRIP
360
4D7E
  3
BUMPTILE
360
45E4
  3
DIFFUSETILE
360
45E3
  3
OPACITYTILE
360
45E7
  3
REFLECTIONTILE
360
45E6
  3
REFRACTIONTILE
360
45E8
  3
SPECULARTILE
360
45E5
  0
DICTIONARY
  5
45F2
330
45F1
100
AcDbDictionary
280
     1
281
     1
  3
ACAD_XREC_ROUNDTRIP
360
4D80
  3
BUMPTILE
360
45F4
  3
DIFFUSETILE
360
45F3
  3
OPACITYTILE
360
45F7
  3
REFLECTIONTILE
360
45F6
  3
REFRACTIONTILE
360
45F8
  3
SPECULARTILE
360
45F5
  0
DICTIONARY
  5
5207
330
4167
100
AcDbDictionary
280
     1
281
     1
  3
ACAD_XREC_ROUNDTRIP
360
5208
  0
DICTIONARY
  5
5209
330
4168
100
AcDbDictionary
280
     1
281
     1
  3
ACAD_XREC_ROUNDTRIP
360
520A
  0
DICTIONARY
  5
48AE
330
460C
100
AcDbDictionary
280
     1
281
     1
  3
ACAD_ROUNDTRIP_2008_TABLESTYLE_CELLSTYLEMAP
360
4D62
  3
ACAD_XREC_ROUNDTRIP
360
4D81
  0
XRECORD
  5
5206
102
{ACAD_REACTORS
330
5205
102
}
330
5205
100
AcDbXrecord
280
     1
102
SHADEPLOT
 70
     0
102
SHADEPLOTRESLEVEL
 70
     2
102
SHADEPLOTCUSTOMDPI
 70
   300
  0
XRECORD
  5
520B
102
{ACAD_REACTORS
330
4659
102
}
330
4659
100
AcDbXrecord
280
     1
102
SHADEPLOT
 70
     0
102
SHADEPLOTRESLEVEL
 70
     2
102
SHADEPLOTCUSTOMDPI
 70
   300
  0
XRECORD
  5
465A
102
{ACAD_REACTORS
330
4659
102
}
330
4659
100
AcDbXrecord
280
     1
310
28000000630000008C0000000100080000000000B0360000000000000000000000010000000000000000000000000000FFFFFF000000000000000000000000000000000000000000000000000000000000000000330000006600000099000000CC000000FF00000000330000333300006633000099330000CC330000FF3300
310
0000660000336600006666000099660000CC660000FF66000000990000339900006699000099990000CC990000FF99000000CC000033CC000066CC000099CC0000CCCC0000FFCC000000FF000033FF000066FF000099FF0000CCFF0000FFFF000000003300330033006600330099003300CC003300FF003300003333003333
310
33006633330099333300CC333300FF33330000663300336633006666330099663300CC663300FF66330000993300339933006699330099993300CC993300FF99330000CC330033CC330066CC330099CC3300CCCC3300FFCC330000FF330033FF330066FF330099FF3300CCFF3300FFFF330000006600330066006600660099
310
006600CC006600FF00660000336600333366006633660099336600CC336600FF33660000666600336666006666660099666600CC666600FF66660000996600339966006699660099996600CC996600FF99660000CC660033CC660066CC660099CC6600CCCC6600FFCC660000FF660033FF660066FF660099FF6600CCFF6600
310
FFFF660000009900330099006600990099009900CC009900FF00990000339900333399006633990099339900CC339900FF33990000669900336699006666990099669900CC669900FF66990000999900339999006699990099999900CC999900FF99990000CC990033CC990066CC990099CC9900CCCC9900FFCC990000FF99
310
0033FF990066FF990099FF9900CCFF9900FFFF99000000CC003300CC006600CC009900CC00CC00CC00FF00CC000033CC003333CC006633CC009933CC00CC33CC00FF33CC000066CC003366CC006666CC009966CC00CC66CC00FF66CC000099CC003399CC006699CC009999CC00CC99CC00FF99CC0000CCCC0033CCCC0066CC
310
CC0099CCCC00CCCCCC00FFCCCC0000FFCC0033FFCC0066FFCC0099FFCC00CCFFCC00FFFFCC000000FF003300FF006600FF009900FF00CC00FF00FF00FF000033FF003333FF006633FF009933FF00CC33FF00FF33FF000066FF003366FF006666FF009966FF00CC66FF00FF66FF000099FF003399FF006699FF009999FF00CC
310
99FF00FF99FF0000CCFF0033CCFF0066CCFF0099CCFF00CCCCFF00FFCCFF0000FFFF0033FFFF0066FFFF0099FFFF00CCFFFF00FFFFFF00000000000D0D0D001A1A1A00282828003535350043434300505050005D5D5D006B6B6B00787878008686860093939300A1A1A100AEAEAE00BBBBBB00C9C9C900D6D6D600E4E4E400
310
F1F1F100FFFFFF0000000000000000000000000000000000000000000000000000000000000000000000000000000000F5F5F5F5F5F5F5F5F5F5F5F5F5F5F5F5F5F5F5F5F5F5F5F5F5F5F5F5F5F5F5F5F5F5F5F5F5F5F5F5F5F5F5F5F5F5F5F5F5F5F5F5F5F5F5F5F5F5F5F5F5F5F5F5F5F5F5F5F5F5F5F5F5F5F5F5F5F5F5
310
F5F5F5F5F5F5F5F5F5F5F5F5F5F5F5F5F5F5F5EF00E2E2E2E2E2E2E2E2E2E2E2E2E2E2E2E2E2E2E2E2E2E2E2E2E2E2E2E2E2E2E2E2E2E2E2E2E2E2E2E2E2E2E2E2E2E2E2E2E2E2E2E2E2E2E2E2E2E2E2E2E2E2E2E2E2E2E2E2E2E2E2E2E2E2E2E2E2E2E2E2E2E2E2E2E2E2E2E2E2E2E2E2E2E2E2E2E2F5EF00E2E2E2E2E2E2
310
E2E2E2E2E2E2E2E2E2E2E2E2E2E2E2E2E2E2E2E2E2E2E2E2E2E2E2E2E2E2E2E2E2E2E2E2E2E2E2E2E2E2E2E2E2E2E2E2E2E2E2E2E2E2E2E2E2E2E2E2E2E2E2E2E2E2E2E2E2E2E2E2E2E2E2E2E2E2E2E2E2E2E2E2E2E2E2E2E2E2E2F5EF00E2F5F5F5F5F5F5F5F5F5E2E2E2E2E2E2E2E2F5F5F5F5F5F5F5F5F5F5F5F5F5F5F5
310
E2E2E2E2E2E2E2E2F5F5F5F5F5F5F5F5F5F5F5F5F5F5F5E2E2E2E2E2E2E2E2F5F5F5F5F5F5F5F5F5F5F5F5F5F5F5E2E2E2E2E2E2E2E2F5F5F5F5F5F5F5F5E2E2F5EF00E2E2F5E2E2E2E2E2E2E2E2E2E2E2E2E2E2E2E2E2E2E2E2E2E2E2E2E2F5F5E2E2E2E2E2E2E2E2E2E2E2E2E2E2E2E2E2E2E2E2E2E2E2E2E2E2E2E2E2E2
310
E2E2E2E2E2E2E2E2E2E2E2E2E2E2E2E2E2E2E2E2E2E2E2E2E2E2E2E2E2E2E2E2E2E2F5E2E2F5EF00E2E2F5E2E2E2E2F5F5F5F5F5F5F5F5F5F5F5F5F5F5F5F5F5F5F5F5F5F5F5F5F5F5F5F5F5F5F5F5F5F5F5F5F5F5F5F5F5F5F5F5F5F5F5F5F5F5F5F5F5F5F5F5F5F5F5F5F5F5F5F5F5F5F5F5F5F5F5F5F5F5F5F5F5F5F5F5
310
F5F5F5E2E2E2E2F5E2E2F5EF00E2E2F5E2E2E2E2F5F5F5F5F5F5F5F5F5F5F5F5F5F5F5F5F5F5F5F5F5F5F5F5F5F5F5F5F5F5F5F5F5F5F5F5F5F5F5F5F5F5F5F5F5F5F5F5F5F5F5F5F5F5F5F5F5F5F5F5F5F5F5F5F5F5F5F5F5F5F5F5F5F5F5F5F5F5F5F5F5F5F5F5E2E2E2F5E2E2F5EF00E2E2F5E2E2E2E2E2E2E2E2E2E2E2
310
E2E2E2E2E2E2E2E2E2E2E2E2E2E2E2E2E2E2E2E2E2E2E2E2E2E2E2E2E2E2E2E2E2E2E2E2E2E2E2E2E2E2E2E2E2E2E2E2E2E2E2E2E2E2E2E2E2E2E2E2E2E2E2E2E2E2E2E2E2E2E2E2E2E2E2E2E2E2E2E2F5E2E2F5EF00E2E2F5E2E2E2E2EAEAEAEAEAEAEAEAEAEAEAEAEAEAEAEAEAEAEAEAEAEAEAEAEAEAEAEAEAEAEAEAEAEA
310
EAEAEAEAEAEAEAEAEAEAEAEAEAEAEAEAEAEAEAEAEAEAEAEAEAEAEAEAEAEAEAEAEAEAEAEAEAEAEAEAEAEAEAEAEAEAEAEAEAEAE2E2E2F5E2E2F5EF00E2E2F5E2E2E2E2EAE2E2E2E2E2E2E2E2E2E2E2E2E2E2E2E2E2E2E2E2E2E2E2E2E2E2E2E2E2E2E2E2E2E2E2E2E2E2E2E2E2E2E2E2E2E2E2E2E2E2E2E2E2E2E2E2E2E2F5F5
310
F5F5F5F5F5F5F5F5F5F5F5E2E2E2E2E2E2E2E2E2E2E2EAE2E2E2F5E2E2F5EF00E2E2F5E2E2E2E2EAE2E2E2E2E2E2E2E2E2E2E2E2E2E2E2E2E2E2E2E2E2E2E2E2E2E2E2E2E2E2E2E2E2E2E2E2E2E2E2E2E2E2E2E2E2E2E2E2E2E2E2E2E2E2E2EFEFEFF5F5F5F5F5F5F5F5F5F5F5F5F5E2E2E2E2E2E2E2E2E2E2E2EAE2E2E2F5
310
E2E2F5EF00E2E2F5E2E2E2E2EAE2E2E2E2E2E2E2E2E2E2E2E2E2E2E2E2E2E2E2E2E2E2E2E2E2E2E2E2E2E2E2E2E2E2E2E2E2E2E2E2E2E2E2E2E2E2E2E2E2E2E2E2E2E2E2EFEFEFF5F5F5F5F5F5F5F5F5F5F5F5F5E2E2E2E2E2E2E2E2E2E2E2EAE2E2E2F5E2E2F5EF00E2E2E2E2E2E2E2EAE2E2E2E2E2E2E2E2E2E2E2E2E2E2
310
E2E2E2E2E2E2E2E2E2E2E2E2E2E2E2E2E2E2E2E2E2E2E2E2E2E2E2E2E2E2E2E2E2E2E2E2E2E2E2E2E2EFEFEFF5F5F5F5F5F5F5F5F5F5F5F5F5F5F5F5F5F5F5F5E2E2E2E2EAE2E2E2E2E2E2F5EF00E2E2E2E2E2E2E2EAE2E2E2E2E2E2E2E2E2E2E2E2E2E2E2E2E2E2E2E2E2E2E2E2E2E2E2E2E2E2E2E2E2E2E2E2E2E2E2E2E2
310
E2E2E2E2E2E2E2E2E2E2E2E2E2E2EFEFEFF5F5F5F5F5F5F5F5F5F5F5F5F5F5F5F5F5F5F5F5E2E2E2E2EAE2E2E2E2E2E2F5EF00E2E2E2E2E2E2E2EAE2E2E2E2E2E2E2E2E2E2E2E2E2E2E2E2E2E2E2E2E2E2E2E2E2E2E2E2E2E2E2E2E2E2E2E2E2E2E2E2E2E2E2E2E2E2E2E2E2E2E2E2E2E2E2E2EFEFE2E2E2E2E2E2E2E2E2E2
310
E2E2E2E2E2E2E2E2E2E2E2E2E2E2EAE2E2E2E2E2E2F5EF00E2E2E2E2E2E2E2EAE2E2E2E2E2E2E2E2E2E2E2E2E2E2E2E2E2E2E2E2E2E2E2E2E2E2E2E2E2E2E2E2E2E2E2E2E2E2E2E2E2E2E2E2E2E2E2E2E2E2E2E2E2E2E2E2EFEFE2E2E2E2E2E2E2E2E2E2E2E2E2E2E2E2E2E2E2E2E2E2E2E2EAE2E2E2E2E2E2F5EF00E2E2E2
310
E2E2E2E2EAE2E2E2E2E2E2E2E2E2E2E2E2E2E2E2E2E2E2E2E2E2E2E2E2E2E2E2E2E2E2E2E2E2E2E2E2E2E2E2E2E2E2E2E2E2E2E2E2E2E2E2E2E2E2E2E2EFEFE2E2E2E2E2E2E2E2E2E2E2E2E2E2E2E2E2E2E2E2E2E2E2E2EAE2E2E2E2E2E2F5EF00E2E2E2E2E2E2E2EAE2E2E2E2E2E2E2E2E2E2E2E2E2E2E2E2E2E2E2E2E2E2
310
E2E2E2E2E2E2E2E2E2E2E2E2E2E2E2E2E2E2E2E2E2E2E2E2E2E2E2E2E2E2E2E2E2E2EFEFE2E2E2E2E2E2E2E2E2E2E2E2E2E2E2E2E2E2E2E2E2E2E2E2EAE2E2E2E2E2E2F5EF00E2E2E2E2E2E2E2EAE2E2E2E2E2E2E2E2E2E2E2E2E2E2E2E2E2E2E2E2E2E2E2E2E2E2E2E2E2E2E2E2E2E2E2E2E2E2E2E2E2E2E2E2E2E2E2E2E2
310
E2E2E2E2E2E2E2EFEFE2E2E2E2E2E2E2E2E2E2E2E2E2E2E2E2E2E2E2E2E2E2E2E2EAE2E2E2E2E2E2F5EF00E2E2E2E2E2E2E2EAE2E2E2E2E2E2E2E2E2E2E2E2E2E2E2E2E2E2E2E2E2E2E2E2E2E2E2E2E2E2E2E2E2E2E2E2E2E2E2E2E2E2E2E2E2E2E2E2E2E2E2E2E2E2E2E2EFEFE2E2E2E2E2E2E2E2E2E2E2E2E2E2E2E2E2E2
310
E2E2E2E2E2E2EAE2E2E2E2E2E2F5EF00E2E2E2E2E2E2E2EAE2E2E2E2E2E2E2E2E2E2E2E2E2E2E2E2F5F5F5F5F5E2E2E2E2E2E2E2E2E2E2E2E2E2E2E2E2E2E2E2E2E2E2F5F5F5F5E2E2E2E2E2E2E2E2E2EFEFE2E2E2E2E2E2E2F5F5F5F5E2E2E2E2E2E2E2E2E2E2E2E2E2EAE2E2E2E2E2E2F5EF00E2E2E2E2E2E2E2EAE2E2E2
310
E2E2E2E2E2E2E2E2E2E2E2E2E2F5F5F5F5F5E2E2E2E2E2E2E2E2E2E2E2E2E2E2E2E2E2E2E2E2E2E2F5F5F5F5E2E2E2E2E2E2E2E2E2EFEFE2E2E2E2E2E2E2F5F5F5F5E2E2E2E2E2E2E2E2E2E2E2E2E2EAE2E2E2E2E2E2F5EF00E2E2F5E2E2E2E2EAE2E2E2E2E2E2E2E2E2E2E2E2E2E2E2E2EFEFEFECECEFE2E2E2E2E2E2E2E2
310
E2E2E2E2E2E2E2E2E2E2E2E2E2ECECEFEFEFE2E2E2E2E2E2E2E2EFEFE2E2E2E2E2E2E2EFEFEFECECE2E2E2E2E2E2E2E2E2E2E2E2EAE2E2E2F5E2E2F5EF00E2E2F5E2E2E2E2EAE2E2EFEFEFEFEFEFEFEFEFEFEFEFEFEFEFEFECECECECEFEFEFEFE2F5F5F5F5E2E2F5F5F5F5E2EFEFEFEFEFECECECEFEFEFEFEFEFEFEFEFEFEF
310
EFEFEFEFEFEFEFEFEFEFECECECEFEFEFEFEFF5F5F5F5F5E2E2EAE2E2E2F5E2E2F5EF00E2E2F5E2E2E2E2EAE2EFEFEFEFEFEFEFEFEFEFEFEFEFEFEFEFEFEFEFEFEFEFEFEFEFEFF5F5F5F5E2E2F5F5F5F5DCEFEFEFEFEFEFEFEFEFEFEFEFEFEFEFEFEFEFEFEFEFEFEFEFEFEFEFEFEFEFEFEFEFEFEFEFEFF5F5F5F5F5E2E2EAE2
310
E2E2F5E2E2F5EF00E2E2F5E2E2E2E2EAE2F5F5F5F5F5E2E2E2EFE2EFE2E2E2E2EFEFEFE2EFEFE2EFEFE2E2EFE2E2E2E2E2E2E2E2DCEFE2EFEFE2EFEFE2EFEFEFE2E2E2E2EFEFEFEFEFEFEFEFEFE2E2E2E2EFEFEFE2EFEFE2EFEFE2EFDCE2E2E2E2E2EAE2E2E2F5E2E2F5EF00E2E2F5E2E2E2E2EAE2F5F5F5F5F5E2E2E2EFE2
310
EFEFEFEFEFEFEFEFE2E2EFE2E2EFE2E2E2EFE2E2E2E2E2E2EFEFE2E2EFEFE2EFEFE2EFEFEFEFEFEFEFEFEFEFEFEFEFEFEFEFEFEFEFEFEFEFEFE2EFEFE2EFEFE2E2EFEFE2E2E2E2EAE2E2E2F5E2E2F5EF00E2E2F5E2E2E2E2EAE2E2E2E2E2E2E2E2EFEFEFEFE2EFE2E2E2E2E2E2E2EFEFE2EFEFEFE2EFEFE2E2E2E2EFEFE2E2
310
EFEFEFEFEFEFE2E2E2E2E2E2E2EFE2EFEFE2E2E2EFEFE2EFEFE2E2E2E2E2E2EFEFEFEFEFEFE2E2EFEFE2E2E2EAE2E2E2F5E2E2F5EF00E2E2F5E2E2E2E2EAE2E2E2E2E2E2E2E2EFEFEFEFEFEFE2E2E2E2E2E2E2EFEFE2EFEFE2EFEFEFEFE2E2EFEFEFEFEFEFEFEFEFEFEFE2E2E2E2E2E2E2EFE2EFEFE2E2E2EFEFEFEFEFE2E2
310
E2E2E2E2EFEFEFEFEFEFEFEFEFEFEFE2E2EAE2E2E2F5E2E2F5EF00E2E2F5E2E2E2E2EAE2E2E2E2E2E2E2EFEFEFEFEFE2EFE2E2E2E2E2E2E2EFEFE2EFEFE2E2ECECECE2E2ECECECEFE2EFEFE2EFEFEFE2E2E2E2E2E2E2EFE2EFEFE2E2E2EFEFEFEFEFE2E2E2E2E2E2EFEFEFE2EFEFE2EFECECECE2E2EAE2E2E2F5E2E2F5EF00
310
E2E2F5E2E2E2E2EAE2E2E2E2E2E2E2E2E2E2EFEFEFEFEFEFEFEFEFE2E2EFE2E2E2EFECECECECECECECECECECECECEFEFE2E2EFEFE2EFEFEFEFEFEFEFEFEFEFE2E2E2EFEFEFEFEFEFEFEFEFEFE2EFEFE2E2EFEFECECECECECECE2EAE2E2E2F5E2E2F5EF00E2E2F5E2E2E2E2EAE2E2E2E2E2E2E2E2E2E2EFEFE2E2E2EFEFEFEC
310
E2E2EFE2E2E2EFECECECECECECECECECECECECEFEFE2E2EFEFE2EFECEFEFE2E2E2E2EFEFE2E2E2EFEFEFE2E2E2EFEFECEFE2EFEFE2E2EFEFECECECECECECE2EAE2E2E2F5E2E2F5EF00E2E2F5E2E2E2E2EAE2E2E2E2E2E2E2E2E2E2EFEFEFEFEFEFEFEFECEFEFEFEFEFEFEFEFEFECECECE2E2ECECECEFEFEFEFEFEFEFEFEFEF
310
ECEFEFEFEFEFEFEFEFEFEFEFEFEFEFEFEFEFEFEFECEFEFEFEFEFEFEFEFEFEFECECECE2E2EAE2E2E2F5E2E2F5EF00E2E2F5E2E2E2E2EAE2E2E2E2E2E2E2E2E2E2E2EFEFEFEFEFEFEFEFEFEFF5F5F5F5F5EFEFEFEFEFE2E2EFEFEFEFEFF5F5F5F5EFEFEFEFEFEFEFEFEFEFEFEFEFEFEFEFEFEFEFEFEFEFEFEFEFEFEFEFF5F5F5
310
F5F5EFEFEFEFEFE2E2EAE2E2E2F5E2E2F5EF00E2E2F5E2E2E2E2EAE2E2E2E2E2E2E2E2E2EFEFEFE2E2E2E2E2E2E2E2E2F5F5F5F5F5E2E2E2E2E2E2E2E2E2E2E2E2F5F5F5F5E2E2E2E2E2E2E2E2E2E2E2E2E2E2E2E2E2E2E2E2E2E2E2E2E2E2E2E2F5F5F5F5F5E2E2E2E2E2E2E2EAE2E2E2F5E2E2F5EF00E2E2F5E2E2E2E2EA
310
E2E2E2E2E2E2E2E2E2EFEFEFE2E2E2E2E2E2E2E2E2E2E2E2E2E2E2E2E2E2E2E2E2E2E2E2E2E2E2E2E2E2E2E2E2E2E2E2E2E2E2E2E2E2E2E2E2E2E2E2E2E2E2E2E2E2E2E2E2E2E2E2E2E2E2E2E2E2E2E2E2E2EAE2E2E2F5E2E2F5EF00E2E2F5E2E2E2E2EAE2E2E2E2E2E2E2EF2828EC2828E2E2E2E2E2E2E2E2E2E2E2E2E2E2
310
E2E2E2E2E2E2E2E2E2E2E2E2E2E2E2E2E2E2E2E2E2E2E2E2E2E2E2E2E2E2E2E2E2E2E2E2E2E2E2E2E2E2E2E2E2E2E2E2E2E2E2E2E2E2E2EAE2E2E2F5E2E2F5EF00E2E2F5E2E2E2E2EAE2E2E2E2E2E2E2EFECECE2EC28E2E2E2E2E2E2E2E2E2E2E2E2E2E2E2E2E2E2E2E2E2E2E2E2E2E2E2E2E2E2E2E2E2E2E2E2E2E2E2E2E2
310
E2E2E2E2E2E2E2E2E2E2E2E2E2E2E2E2E2E2E2E2E2E2E2E2E2E2E2E2EAE2E2E2F5E2E2F5EF00E2E2F5E2E2E2E2EAE2E2E2E2E2E2E2EFECECECEC28E2E2E2E2E2E2E2E2E2E2E2E2E2E2E2E2E2E2E2E2E2E2E2E2E2E2E2E2E2E2E2E2E2E2E2E2E2E2E2E2E2E2E2E2E2E2E2E2E2E2E2E2E2E2E2E2E2E2E2E2E2E2E2E2E2E2E2E2
310
E2EAE2E2E2F5E2E2F5EF00E2E2E2E2E2E2E2EAE2E2E2E2E2E2E2EFECECECEC28E2E2E2E2E2E2E2E2E2E2E2E2E2E2E2E2E2E2E2E2E2E2E2E2E2E2E2E2E2E2E2E2E2E2E2E2E2E2E2E2E2E2E2E2E2E2E2E2E2E2E2E2E2E2E2E2E2E2E2E2E2E2E2E2E2E2E2E2E2EAE2E2E2E2E2E2F5EF00E2E2E2E2E2E2E2EAE2E2E2E2E2E2E2EF
310
28ECECEC28E2E2E2E2E2E2E2E2E2E2E2E2E2E2E2E2E2E2E2E2E2E2E2E2E2E2E2E2E2E2E2E2E2E2E2E2E2E2E2E2E2E2E2E2E2E2E2E2E2E2E2E2E2E2E2E2E2E2E2E2E2E2E2E2E2E2E2E2E2EAE2E2E2E2E2E2F5EF00E2E2E2E2E2E2E2EAE2E2E2E2E2E2E2E2ECECECE2ECE2E2E2E2E2E2E2E2E2E2E2E2E2E2E2E2E2E2E2E2E2F5
310
F5F5F5F5F5F5F5F5F5F5F5F5F5E2E2E2E2E2E2E2E2E2E2E2E2E2E2E2E2E2E2E2E2E2E2E2E2E2E2E2E2E2E2E2E2E2E2EAE2E2E2E2E2E2F5EF00E2E2E2E2E2E2E2EAE2E2E2E2E2E2E2E2ECECECE2ECE2E2E2E2E2E2E2E2E2E2E2E2E2E2E2E2E2E2E2E2E2F5F5F5F5F5F5F5F5F5F5F5F5F5F5E2E2E2E2E2E2E2E2E2E2E2E2E2E2
310
E2E2E2E2E2E2E2E2E2E2E2E2E2E2E2E2E2E2E2E2EAE2E2E2E2E2E2F5EF00E2E2E2E2E2E2E2EAE2E2E2E2E2E2E2E2ECECECE2ECE2E2E2E2E2E2E2E2E2E2E2E2E2E2E2E2E2E2E2E2E2F5F5F5F5F5F5F5F5F5F5F5F5F5F5E2E2E2E2E2E2E2E2E2E2E2E2E2E2E2E2E2E2E2E2E2E2E2E2E2E2E2E2E2E2E2E2E2E2EAE2E2E2E2E2E2
310
F5EF00E2E2E2E2E2E2E2EAE2E2E2E2E2E2E2E2ECE2ECE2ECE2E2E2E2E2E2E2E2E2E2E2E2E2E2E2E2E2E2E2E2E2E2E2E2E2E2E2E2E2E2E2E2E2E2E2E2E2E2E2E2E2E2E2E2E2E2E2E2E2E2E2E2E2E2E2E2E2E2E2E2E2E2E2E2E2E2E2E2E2EAE2E2E2E2E2E2F5EF00E2E2E2E2E2E2E2EAE2E2E2E2E2E2E2E2ECECE2EC28E2E2E2
310
E2E2E2E2E2E2E2E2E2E2E2E2E2E2E2E2E2E2E2E2E2E2E2E2E2E2E2E2E2E2E2E2E2E2E2E2E2E2E2E2E2E2E2E2E2E2E2E2E2E2E2E2E2E2E2E2E2E2E2E2E2E2E2E2E2E2EAE2E2E2E2E2E2F5EF00E2E2E2E2E2E2E2EAE2E2E2E2E2E2E2E228ECE2EC28E2E2E2E2E2E2E2E2E2E2E2E2E2E2E2E2E2E2E2E2E2E2E2E2E2E2E2E2E2E2
310
E2E2E2E2E2E2E2E2E2E2E2E2E2E2E2E2E2E2E2E2E2E2E2E2E2E2E2E2E2E2E2E2E2E2E2E2E2E2E2EAE2E2E2E2E2E2F5EF00E2E2E2E2E2E2E2EAE2E2E2E2E2E2E2E228ECE2EC28E2E2E2E2E2E2E2E2E2E2E2E2E2E2E2E2E2E2E2E2E2E2E2E2E2E2E2E2E2E2E2E2E2E2E2E2E2E2E2E2E2E2E2E2E2E2E2E2E2E2E2E2E2E2E2E2E2
310
E2E2E2E2E2E2E2E2E2E2E2E2EAE2E2E2E2E2E2F5EF00E2E2F5E2E2E2E2EAE2E2E2E2E2E2E2E22828ECE228E2E2E2E2E2E2E2E2E2E2E2E2E2E2E2E2E2E2E2E2E2E2E2E2E2E2E2E2E2E2E2E2E2E2E2E2E2E2E2E2E2E2E2E2E2E2E2E2E2E2E2E2E2E2E2E2E2E2E2E2E2E2E2E2E2E2E2E2E2EAE2E2E2F5E2E2F5EF00E2E2F5E2E2
310
E2E2EAE2E2E2E2E2E2E2E2E228ECE2ECE2E2E2E2E2E2E2E2E2E2E2E2E2E2E2E2E2E2E2E2E2E2E2E2E2E2E2E2E2E2E2E2E2E2E2E2E2E2E2E2E2E2E2E2E2E2E2E2E2E2E2E2E2E2E2E2E2E2E2E2E2E2E2E2E2E2E2E2E2EAE2E2E2F5E2E2F5EF00E2E2F5E2E2E2E2EAE2E2E2E2E2E2E2E22828E2EC28E2E2E2E2E2E2E2E2E2E2E2
310
E2E2E2E2E2E2E2E2E2E2E2E2E2E2E2E2E2E2E2E2E2E2E2E2E2E2E2E2E2E2E2E2E2E2E2E2E2E2E2E2E2E2E2E2E2E2E2E2E2E2E2E2E2E2E2E2E2E2EAE2E2E2F5E2E2F5EF00E2E2F5E2E2E2E2EAE2E2E2E2E2E2E2E228E2ECEC28E2E2E2E2E2E2E2E2E2E2E2E2E2E2E2E2E2E2E2E2E2E2E2E2E2E2E2E2E2E2E2E2E2E2E2E2E2E2
310
E2E2E2E2E2E2E2E2E2E2E2E2E2E2E2E2E2E2E2E2E2E2E2E2E2E2E2E2E2E2E2EAE2E2E2F5E2E2F5EF00E2E2F5E2E2E2E2EAE2E2E2E2E2E2E2E22828282828E2E2E2E2E2E2E2E2E2E2E2E2E2E2E2E2E2E2E2E2E2E2E2E2E2E2E2E2E2E2E2E2E2E2E2E2E2E2E2E2E2E2E2E2E2E2E2E2E2E2E2E2E2E2E2E2E2E2E2E2E2E2E2E2E2
310
E2E2E2E2EAE2E2E2F5E2E2F5EF00E2E2F5E2E2E2E2EAE2E2E2E2E2E2E2E2E2E2E2E2E2E2E2E2E2E2E2E2E2E2E2E2E2E2E2E2E2E2E2E2E2E2E2E2E2E2E2E2E2E2E2E2E2E2E2E2E2E2E2E2E2E2E2E2E2E2E2E2E2E2E2E2E2E2E2E2E2E2E2E2E2E2E2E2E2E2E2E2E2E2EAE2E2E2F5E2E2F5EF00E2E2F5E2E2E2E2EAE2E2E2E2E2
310
E2E2E2E2E2E2E2E2E2E2E2E2E2E2E2E2E2E2E2E2E2E2E2E2E2E2E2E2E2E2E2E2E2E2E2E2E2E2E2E2E2E2E2E2E2E2E2E2E2E2E2E2E2E2E2E2E2E2E2E2E2E2E2E2E2E2E2E2E2E2E2E2E2E2E2E2E2EAE2E2E2F5E2E2F5EF00E2E2F5E2E2E2E2EAE2E2E2E2E2E2E2E2E2E2E2E2E2E2E2E2E2E2E2E2E2E2E2E2E2E2E2E2E2E2E2E2
310
E2E2E2E2E2E2E2E2E2E2E2E2E2E2E2E2E2E2E2E2E2E2E2E2E2E2E2E2E2E2E2E2E2E2E2E2E2E2E2E2E2E2E2E2E2E2E2E2E2E2EAE2E2E2F5E2E2F5EF00E2E2F5E2E2E2E2EAE2E2E2E2E2E2E2E2E2E2E2E2E2E2E2E2E2E2E2E2E2E2E2E2E2E2E2E2E2E2E2E2E2E2E2E2E2E2E2E2E2E2E2E2E2E2E2E2E2E2E2E2E2E2E2E2E2E2E2
310
E2E2E2E2E2E2E2E2E2E2E2E2E2E2E2E2E2E2E2E2E2E2E2EAE2E2E2F5E2E2F5EF00E2E2F5E2E2E2E2EAE2E2E2E2E2E2E2E2E2E2E2E2E2E2EFEFE2E2E2E2E2E2E2E2E2E2E2E2E2E2E2E2E2E2E2E2E2E2E2E2E2E2E2E2E2E2E2E2E2E2E2E2E2E2E2E2E2E2E2E2E2E2E2E2E2E2E2E2E2E2E2E2E2E2E2E2E2E2E2E2E2E2EAE2E2E2
310
F5E2E2F5EF00E2E2F5E2E2E2E2EAE2E2E2E2E2E2E2E2E2E2E2E2E2E2EFEFE2E2E2E2E2E2E2E2E2E2E2E2E2E2E2E2E2E2E2E2E2E2E2E2E2E2E2E2E2E2E2E2E2E2E2E2E2E2E2E2E2E2E2E2E2E2E2E2E2E2E2E2E2E2E2E2E2E2E2E2E2E2E2E2E2E2EAE2E2E2F5E2E2F5EF00E2E2F5E2E2E2E2EAE2E2E2E2E2E2E2E2E2E2E2E2E2
310
E2EFEFF5F5F5F5E2E2E2E2E2E2E2E2E2E2E2E2E2E2E2E2E2E2E2E2E2E2E2E2E2E2E2E2E2E2E2E2E2E2E2E2E2E2E2E2E2E2E2E2E2E2E2E2E2E2E2E2E2E2E2E2E2E2E2E2E2E2EAE2E2E2F5E2E2F5EF00E2E2F5E2E2E2E2EAE2E2E2E2E2E2E2E2E2E2E2E2E2E2EFEFF5F5F5F5E2E2E2E2E2E2E2E2E2E2E2E2E2E2E2E2E2E2E2E2
310
E2E2E2E2E2E2E2E2E2E2E2E2E2E2E2E2E2E2E2E2E2E2E2E2E2E2E2E2E2E2E2E2E2E2E2E2E2E2E2E2E2E2EAE2E2E2F5E2E2F5EF00E2E2F5E2E2E2E2EAE2E2E2E2E2E2E2E2E2E2E2E2E2E2EFEFE2E2E2E2E2E2E2E2E2E2E2E2E2E2E2E2E2E2E2E2E2E2E2E2E2E2E2E2E2E2E2E2E2E2E2E2E2E2E2E2E2E2E2E2E2E2E2E2E2E2E2
310
E2E2E2E2E2E2E2E2E2E2E2E2E2E2E2EAE2E2E2F5E2E2F5EF00E2E2F5E2E2E2E2EAE2E2E2E2E2E2E2E2E2E2E2E2E2E2EFEFE2E2E2E2E2E2E2E2E2E2E2E2E2E2E2E2E2E2E2E2E2E2E2E2E2E2E2E2E2E2E2E2E2E2E2E2E2E2E2E2E2E2E2E2E2E2E2E2E2E2E2E2E2E2E2E2E2E2E2E2E2E2E2E2E2E2EAE2E2E2F5E2E2F5EF00E2E2
310
F5E2E2E2E2EAE2E2E2E2E2E2E2E2E2E2E2E2E2E2EFEFE2E2E2EFEFE2E2E2E2E2E228EC282828282828EC28282828E2282828E2E2E2E2E2E2E2E2E2E2E2E2E2E2E2E2E2E2E2E2E2E2E2E2E2E2E2E2E2E2E2E2E2E2E2E2E2E2EAE2E2E2F5E2E2F5EF00E2E2F5E2E2E2E2EAE2E2E2E2E2E2E2E2E2E2E2E2E2E2EFEFEFEFEFEFEF
310
E2E2E2E2E2E228E2ECECECECECECECECE2EC28E228E228E2E2E2E2E2E2E2E2E2E2E2E2E2E2E2E2E2E2E2E2E2E2E2E2E2E2E2E2E2E2E2E2E2E2E2E2E2E2EAE2E2E2F5E2E2F5EF00E2E2E2E2E2E2E2EAE2E2E2E2E2E2E2E2E2E2E2E2E2E2EFEFEFEFEFEFE2E2E2E2E2EFEFECECE2E2E2ECE2ECECECECEC282828E228E2E2E2E2
310
E2E2E2E2E2E2E2E2E2E2E2E2E2E2E2E2E2E2E2E2E2E2E2E2E2E2E2E2E2E2E2E2E2E2EAE2E2E2E2E2E2F5EF00E2E2E2E2E2E2E2EAE2E2E2E2E2E2E2E2E2E2E2E2E2E2EFEFE2E2EFEFEFEFEFEFEFEFEF28E2ECECECECECECECE2E2E2ECECE2E228E2E2E2E2E2E2E2E2E2E2E2E2E2E2E2E2E2E2E2E2E2E2E2E2E2E2E2E2E2E2E2
310
E2E2E2E2E2E2E2EAE2E2E2E2E2E2F5EF00E2E2E2E2E2E2E2EAE2E2E2E2E2E2E2E2F5F5F5F5F5E2EFEFEFEFEFEFEFEFEFEFEFEFEF28ECECECECECECECECECECECE2E2ECEC28E2E2E2E2E2E2E2E2E2E2E2E2E2E2E2E2E2E2E2E2E2E2E2E2E2E2E2E2E2E2E2E2E2E2E2E2E2E2EAE2E2E2E2E2E2F5EF00E2E2E2E2E2E2E2EAE2E2
310
E2E2E2E2E2F5F5F5F5F5F5E2EFEFE2EFEFEFEFEFE2EFEFE2E228282828282828282828282828EC282828E2E2E2E2E2E2E2E2E2E2E2E2E2E2E2E2E2E2E2E2E2E2E2E2E2E2E2E2E2E2E2E2E2E2E2E2E2E2EAE2E2E2E2E2E2F5EF00E2E2E2E2E2E2E2EAE2E2E2E2E2E2E2F5F5F5F5F5F5E2EFEFE2EFEFEFEFEFE2EFEFE2E2E2E2
310
E2E2E2E2E2E2E2E2E2E2E2E2E2E2E2E2E2E2E2E2E2E2E2E2E2E2E2E2E2E2E2E2E2E2E2E2E2E2E2E2E2E2E2E2E2E2E2E2E2E2E2E2E2EAE2E2E2E2E2E2F5EF00E2E2E2E2E2E2E2EAE2E2E2E2E2E2E2E2E2F5F5F5F5E2EFEFE2EFE2E2E2EFE2EFEFE2E2E2E2E2E2E2E2E2E2E2E2E2E2E2E2E2E2E2E2E2E2E2E2E2E2E2E2E2E2E2
310
E2E2E2E2E2E2E2E2E2E2E2E2E2E2E2E2E2E2E2E2E2E2E2E2E2E2EAE2E2E2E2E2E2F5EF00E2E2E2E2E2E2E2EAE2E2E2E2E2E2E2E2E2F5F5F5F5E2EFEFE2EFE2E2E2EFEFEFEFE2E2E2E2E2E2E2E2E2E2E2E2E2E2E2E2E2E2E2E2E2E2E2E2E2E2E2E2E2E2E2E2E2E2E2E2E2E2E2E2E2E2E2E2E2E2E2E2E2E2E2E2E2E2E2E2E2EA
310
E2E2E2E2E2E2F5EF00E2E2E2E2E2E2E2EAE2E2E2E2E2E2E2E2E2E2E2E2E2E2EFEFEFEFE2E2E2EFEFEFEFEFE2E2E2E2E2E2E2E2E2E2E2E2E2E2E2E2E2E2E2E2E2E2E2E2E2E2E2E2E2E2E2E2E2E2E2E2E2E2E2E2E2E2E2E2E2E2E2E2E2E2E2E2E2E2E2E2EAE2E2E2E2E2E2F5EF00E2E2E2E2E2E2E2EAE2E2E2E2E2E2E2E2E2E2
310
E2E2E2E2EFEFEFEFE2E2E2EFEFEFEFECECECE2E2E2E2E2E2E2E2E2E2E2E2E2E2ECECECE2E2E2E2E2E2E2E2E2E2E2E2E2E2E2E2E2E2E2E2E2E2E2E2E2E2E2E2E2E2E2E2E2E2E2E2E2EAE2E2E2E2E2E2F5EF00E2E2E2E2E2E2E2EAE2E2E2E2E2E2E2E2E2E2E2E2E2E2EFEFEFEFE2E2E2EFEFEFECECECE2ECECECE2E2E2E2E2E2
310
E2E2ECECECECECECECE2E2E2E2E2E2E2E2E2E2E2E2E2E2E2E2E2E2E2E2E2E2E2E2E2E2E2E2E2E2E2E2E2E2E2E2EAE2E2E2E2E2E2F5EF00E2E2F5E2E2E2E2EAE2E2E2E2E2E2F5F5F5F5F5F5F5F5EFEFE2E2E2E2E2E2E2EFECECECECE2E2E2ECECE2E2E2ECECECE2E2E2ECECECECE2E2E2E2E2E2E2E2E2E2E2E2E2E2E2E2E2E2
310
E2E2E2E2E2E2E2E2E2E2E2E2E2E2E2E2E2E2EAE2E2E2F5E2E2F5EF00E2E2F5E2E2E2E2EAE2E2E2E2E2E2E2E2E2F5F5F5F5F5EFEFEFEFEFEFEFEFEFEFECECECECE2E2E2E2ECECECECE2E2E2E2ECECECECECECE2E2E2E2E2E2E2E2E2E2E2E2E2E2E2E2E2E2E2E2E2E2E2E2E2E2E2E2E2E2E2E2E2E2E2E2EAE2E2E2F5E2E2F5EF
310
00E2E2F5E2E2E2E2EAE2E2E2E2E2E2E2E2E2F5F5F5F5F5EFEFEFEFEFEFEFEFEFEFECECECECECECE2ECECECE2E2ECECECECE2E2ECECE2ECE2E2E2E2E2E2E2E2E2E2E2E2E2E2E2E2E2E2E2E2E2E2E2E2E2E2E2E2E2E2E2E2E2E2E2E2EAE2E2E2F5E2E2F5EF00E2E2F5E2E2E2E2EAE2E2E2E2E2E2E2E2E2E2E2E2E2E2EFEFE2E2
310
EFEFEFE2EFECECECECECECECECECECECECECE2E2ECECECECECECE2ECE2E2E2E2E2E2E2E2E2E2E2E2E2E2E2E2E2E2E2E2E2E2E2E2E2E2E2E2E2E2E2E2E2E2E2E2EAE2E2E2F5E2E2F5EF00E2E2F5E2E2E2E2EAE2E2E2E2E2E2E2E2E2E2E2E2E2E2EFEFEFEFEFEFE2E2E2EFECECECECECE2ECECECECECECECECE2E2ECE2E2E2EC
310
ECE2E2E2E2E2E2E2E2E2E2E2E2E2E2E2E2E2E2E2E2E2E2E2E2E2E2E2E2E2E2E2E2E2E2E2E2EAE2E2E2F5E2E2F5EF00E2E2F5E2E2E2E2EAE2E2E2E2E2E2E2E2E2E2E2E2E2E2EFEFE2E2EFEFEFEFEFEFECECECECECE2ECECECECE2E2E2E2E2ECE2E2E2E2ECECE2E2E2E2E2E2E2E2E2E2E2E2E2E2E2E2E2E2E2E2E2E2E2E2E2E2
310
E2E2E2E2E2E2E2E2E2E2EAE2E2E2F5E2E2F5EF00E2E2F5E2E2E2E2EAE2E2E2E2E2E2E2E2E2E2E2E2E2E2EFEFE2E2EFEFEFEFEFEFEFF5E2E2E2ECECE2ECECECECECECECE2ECE2E2E2ECECE2E2E2E2E2E2E2E2E2E2E2E2E2E2E2E2E2E2E2E2E2E2E2E2E2E2E2E2E2E2E2E2E2E2E2E2EAE2E2E2F5E2E2F5EF00E2E2F5E2E2E2E2
310
EAE2E2E2E2E2E2E2E2E2E2E2E2E2E2E2DCEFE2E2EFE2ECECEFEFF5E2E2E2E2E2ECE2E2E2E2E2E2E2ECECE2E2E2ECECE2E2E2E2E2E2E2E2E2E2E2E2E2E2E2E2E2E2E2E2E2E2E2E2E2E2E2E2E2E2E2E2E2E2E2E2EAE2E2E2F5E2E2F5EF00E2E2F5E2E2E2E2EAE2E2E2E2E2E2E2E2E2E2E2E2E2E2E2E2DCEFE2EFEFECECEFEFF5
310
E2E2E2E2E2E2E2E2E2E2E2E2E2E2ECECECECECE2E2E2E2E2E2E2E2E2E2E2E2E2E2E2E2E2E2E2E2E2E2E2E2E2E2E2E2E2E2E2E2E2E2E2E2E2EAE2E2E2F5E2E2F5EF00E2E2F5E2E2E2E2EAE2E2E2E2E2E2E2E2E2E2E2E2E2F5F5F5F5F5EFEFECECECECEFF5E2E2E2E2E2E2E2E2E2E2E2E2E2E2E2ECECE2E2E2F5F5F5E2E2E2E2
310
E2E2E2E2E2E2E2E2E2E2E2E2E2E2E2E2E2E2E2E2E2E2E2E2E2E2E2E2E2EAE2E2E2F5E2E2F5EF00E2E2F5E2E2E2E2EAE2E2E2E2E2E2E2E2E2E2E2E2E2F5F5F5F5F5EFECECECECECEFF5E2E2E2E2E2E2E2E2E2E2E2E2E2E2E2E2E2E2E2E2F5F5F5ECECECECECE2E2E2E2E2E2E2E2E2E2E2E2E2E2E2E2E2E2E2E2E2E2E2E2E2E2
310
E2E2EAE2E2E2F5E2E2F5EF00E2E2F5E2E2E2E2EAE2E2E2E2E2E2E2E2E2E2E2E2E2E2E2E2E2E2E2ECECECECECEFF5E2F5F5F5F5F5F5F5F5F5F5F5F5F5E2E2E2E2E2E2E2E2E2E2E2E2E2ECE2E2E2E2E2E2E2E2E2E2E2E2E2E2E2E2E2E2E2E2E2E2E2E2E2E2E2E2EAE2E2E2F5E2E2F5EF00E2E2F5E2E2E2E2EAE2E2E2E2E2E2E2
310
E2E2E2E2E2E2E2E2E2E2E2E2E2E2ECECE2E2F5E2F5F5F5F5F5F5F5F5F5F5F5F5F5E2E2E2E2E2DCDCDCDCDCDCDCDCECDCDCDCDCDCDCDCDCDCDCDCDCDCDCDCDCDCDCDCDCDCDCDCDCDCE2E2E2EAE2E2E2F5E2E2F5EF00E2E2F5E2E2E2E2EAE2E2E2E2E2E2E2E2E2E2E2E2E2F5F5F5F5F5F5F5F5F5F5F5F5F5E2F5F5F5F5F5F5F5
310
F5F5F5F5F5F5E2E2E2E2E2DCDCDCDCDCDCDCDCECDCDCDCDCDCDCDCDCDCDCDCDCDCDCDCDCDCDCDCDCDCDCDCDCDCE2E2E2EAE2E2E2F5E2E2F5EF00E2E2F5E2E2E2E2EAE2E2E2E2E2E2E2E2E2E2E2E2E2F5E2E2E2E2E2E2E2ECECE2E2E2E2F5F5F5F5F5F5F5F5F5F5F5F5F5E2E2E2E2E2DCDCDCDCDCDCDCF5F5F5DCDCDCDCDCDC
310
DCDCDCDCDCDCDCDCF5F5DCDCDCDCDCDCDCDCE2E2E2EAE2E2E2F5E2E2F5EF00E2E2F5E2E2E2E2EAE2E2E2E2E2E2E2E2E2E2E2E2E2F5F5F5F5F5E2ECECECECECEFE2E2E2E2E2E2E2E2E2E2E2E2E2E2E2E2E2E2E2E2DCDCE2E2E2E2F5F5ECF5F5E2E2E2E2DCDCDCE2E2E2E2E2F5E2F5F5E2E2E2E2DCDCDCE2E2E2EAE2E2E2F5E2
310
E2F5EF00E2E2F5E2E2E2E2EAE2E2E2E2E2E2E2E2E2E2E2E2E2F5E2E2E2E2EFEFECECECECEFE2E2E2E2E2E2E2E2E2E2E2E2E2E2E2E2E2E2E2E2DCDCE2E2E2F5F5E2ECE2F5F5E2E2E2DCDCDCE2E2E2E2F5E2E2E2F5F5E2E2E2DCDCDCE2E2E2EAE2E2E2F5E2E2F5EF00E2E2E2E2E2E2E2EAE2E2E2E2E2E2E2E2E2E2E2E2E2F5E2
310
E2E2EFEFEFECECECECEFE2E2E2E2E2E2E2E2E2E2E2E2E2E2E2E2E2F5F5E2DCDCE2E2F5F5E2E2E2E2E2F5F5E2E2DCDCDCE2E2F5F5E2E2E2E2E2F5F5E2E2DCDCDCE2E2E2EAE2E2E2E2E2E2F5EF00E2E2E2E2E2E2E2EAE2E2E2E2E2E2E2E2E2E2E2E2E2F5E2E2EFDCE2EFE2ECECEFEFE2E2E2E2E2E2E2E2E2E2E2E2E2E2E2E2E2
310
F5F5E2DCDCE2F5F5E2E2ECECECE2E2F5F5E2DCDCDCE2F5F5F5E2E2ECECE2E2F5F5E2DCDCDCE2E2E2EAE2E2E2E2E2E2F5EF00E2E2E2E2E2E2E2EAE2E2E2E2E2E2E2E2E2E2E2E2E2F5E2EFEFE2EFEFE2ECECEFEFE2E2E2E2E2E2E2E2E2E2E2E2E2E2E2E2E2E2ECE2DCDCF5F5E2E2ECE2E2E2ECE2E2E2F5DCDCDCF5F5E2ECECEC
310
E2E2ECE2E2E2F5DCDCDCE2E2E2EAE2E2E2E2E2E2F5EF00E2E2E2E2E2E2E2EAE2E2E2E2E2E2E2E2E2E2E2E2E2F5EFEFE2E2EFEFEFEFEFEFEFE2E2E2E2E2E2E2E2E2E2E2E2E2E2E2E2E2ECECE2DCF5F5F5F5ECF5F5F5F5F5F5F5F5F5F5DCF5F5F5ECECECF5F5F5F5F5F5F5F5F5DCDCE2E2E2EAE2E2E2E2E2E2F5EF00E2E2E2E2
310
E2E2E2EAE2E2E2E2E2E2E2E2E2E2E2E2E2F5EFEFEFEFEFEFEFE2EFEFF5F5F5F5F5E2E2E2E2E2E2E2E2E2E2E2E2E2E2ECE2DCF5F5F5F5ECF5F5F5F5F5F5F5F5F5F5DCF5F5F5F5ECF5F5F5F5F5F5F5F5F5F5DCDCE2E2E2EAE2E2E2E2E2E2F5EF00E2E2E2E2E2E2E2EAE2E2E2E2E2E2E2E2E2E2E2E2E2F5EFEFE2E2E2E2E2E2E2
310
EFF5F5F5F5F5E2E2E2E2E2E2E2E2E2E2E2E2E2E2ECE2DCDCF5E2E2E2ECE2E2E2E2E2E2E2F5F5DCDCF5F5E2ECECE2E2E2E2E2E2E2F5F5DCDCE2E2E2EAE2E2E2E2E2E2F5EF00E2E2E2E2E2E2E2EAE2E2E2E2E2E2E2E2E2E2E2E2E2F5EFEFE2E2EFEFEFE2EFEFEFE2E2E2E2E2E2E2E2E2E2E2E2E2E2E2E2E2E2ECE2DCDCE2F5E2
310
E2E2ECE2E2E2E2E2F5F5DCDCDCE2F5F5ECE2ECE2E2E2E2E2F5F5DCDCDCE2E2E2EAE2E2E2E2E2E2F5EF00E2E2E2E2E2E2E2EAE2E2E2E2E2E2E2E2E2E2E2E2E2F5ECEFEFEFEFEFEFEFEFEFEFE2E2E2E2E2E2E2E2E2E2E2E2E2E2E2E2E2E2ECECECECECECF5E2E2ECECE2E2E2F5F5E2ECECECECECECECE2ECECE2E2E2F5F5E2DC
310
DCDCE2E2E2EAE2E2E2E2E2E2F5EF00E2E2E2E2E2E2E2EAE2E2E2E2E2E2E2E2E2E2E2E2E2ECECEFE2EFE2E2E2EFEFEFEFE2E2E2E2E2E2E2E2E2E2E2E2E2E2E2E2E2E2E2E2DCDCE2E2E2F5F5E2ECE2F5F5E2E2E2DCDCDCE2E2E2F5F5E2E2E2E2F5F5E2E2DCDCDCE2E2E2EAE2E2E2E2E2E2F5EF00E2E2F5E2E2E2E2EAE2E2E2E2
310
E2E2E2E2E2E2E2E2E2ECECEFE2E2E2E2E2E2E2EFEFE2E2E2E2E2E2E2E2E2E2E2E2E2E2E2E2E2E2E2E2DCDCE2E2E2E2F5F5ECF5F5E2E2E2E2DCDCDCE2E2E2E2F5F5E2E2F5E2E2E2E2DCDCDCE2E2E2EAE2E2E2F5E2E2F5EF00E2E2F5E2E2E2E2EAE2E2E2E2E2E2E2E2E2E2E2E2E2EFECEFEFEFE2E2E2EFECECEFE2E2E2E2E2E2
310
E2E2E2E2E2E2E2E2E2E2E2E2E2E2DCDCE2E2E2E2E2F5F5F5E2E2E2E2E2DCDCDCE2E2E2E2E2F5F5F5E2E2E2E2E2DCDCDCE2E2E2EAE2E2E2F5E2E2F5EF00E2E2F5E2E2E2E2EAE2E2E2E2E2E2E2E2E2E2E2E2E2EFEFEFEFEFE2E2E2EFECECEFE2E2E2E2E2E2E2E2E2E2E2E2E2E2E2E2E2E2E2E2DCDCDCDCDCDCDCDCF5DCDCDCDC
310
DCDCDCDCDCDCDCDCDCDCDCF5DCDCDCDCDCDCDCDCDCE2E2E2EAE2E2E2F5E2E2F5EF00E2E2F5E2E2E2E2EAE2E2E2E2E2E2E2E2E2E2E2E2E2EFEFEFEFEFE2E2E2EFEFEFEFE2E2E2E2E2E2E2E2E2E2E2E2E2E2E2E2E2E2E2E2DCDCDCDCDCDCDCDCECDCDCDCDCDCDCDCDCDCDCDCDCDCDCDCDCDCDCDCDCDCDCDCDCDCE2E2E2EAE2E2
310
E2F5E2E2F5EF00E2E2F5E2E2E2E2EAE2E2E2E2E2E2E2E2F5F5F5F5F5E2EFEFE2EFE2E2E2EFEFEFEFE2E2E2E2E2E2E2E2E2E2E2E2E2E2E2E2E2E2E2E2E2F5F5F5E2E2E2E2ECE2E2E2E2E2E2E2E2E2E2E2E2E2E2E2E2E2E2E2E2E2E2E2E2E2E2E2E2EAE2E2E2F5E2E2F5EF00E2E2F5E2E2E2E2EAE2E2E2E2E2F5F5F5F5F5F5F5
310
F5E2EFEFE2EFE2E2E2EFE2EFEFE2E2E2E2E2E2E2E2E2E2E2E2E2E2E2E2E2E2E2E2E2F5F5F5ECECECECECE2E2E2E2E2E2E2E2E2E2E2E2E2E2E2E2E2E2E2E2E2E2E2E2E2E2E2E2EAE2E2E2F5E2E2F5EF00E2E2F5E2E2E2E2EAE2E2E2E2E2F5F5F5F5F5F5F5F5E2EFEFE2EFEFEFEFEFE2EFEFE2E2E2E2E2E2E2E2E2E2E2E2E2E2
310
E2E2E2E2E2E2E2E2E2E2E2E2E2E2E2E2E2E2E2E2E2E2E2E2E2E2E2E2E2E2E2E2E2E2E2E2E2E2E2E2E2E2E2EAE2E2E2F5E2E2F5EF00E2E2F5E2E2E2E2EAE2E2E2E2E2E2E2E2E2F5F5F5F5E2EFEFE2EFEFEFEFEFE2EFEFE2E22828282828ECECEC2828282828EC282828E2E2E2E2E2E2E2E2E2E2E2E2E2E2E2E2E2E2E2E2E2E2
310
E2E2E2E2E2E2E2E2E2E2E2E2E2E2E2E2EAE2E2E2F5E2E2F5EF00E2E2F5E2E2E2E2EAE2E2E2E2E2E2E2E2E2F5F5F5F5E2EFEFEFEFEFEFEFEFEFEFEFEFEF28ECECECECE2E2E2ECECECE2E2E2ECEC28E2E2E2E2E2E2E2E2E2E2E2E2E2E2E2E2E2E2E2E2E2E2E2E2E2E2E2E2E2E2E2E2E2E2E2E2E2E2EAE2E2E2F5E2E2F5EF00E2
310
E2F5E2E2E2E2EAE2E2E2E2E2E2E2E2E2E2E2E2E2E2EFEFE2E2EFEFEFEFEFE2E2EFEFECE2ECECECECECECECE2E2ECECECE2EC28E2E2E2E2E2E2E2E2E2E2E2E2E2E2E2E2E2E2E2E2E2E2E2E2E2E2E2E2E2E2E2E2E2E2E2E2E2E2EAE2E2E2F5E2E2F5EF00E2E2F5E2E2E2E2EAE2E2E2E2E2E2E2E2E2E2E2E2E2E2EFEFEFEFEFEF
310
EFE2E2E2E2EFEF28ECECECECECECECE2ECECEC282828E228E2E2E2E2E2E2E2E2E2E2E2E2E2E2E2E2E2E2E2E2E2E2E2E2E2E2E2E2E2E2E2E2E2E2E2E2E2E2EAE2E2E2F5E2E2F5EF00E2E2F5E2E2E2E2EAE2E2E2E2E2E2E2E2E2E2E2E2E2E2EFEFE2EFEFEFEFE2E2E2E2E2E228ECECEC28ECECECECEC282828E2282828E2E2E2
310
E2E2E2E2E2E2E2E2E2E2E2E2E2E2E2E2E2E2E2E2E2E2E2E2E2E2E2E2E2E2E2E2E2E2E2EAE2E2E2F5E2E2F5EF00E2E2F5E2E2E2E2EAE2E2E2E2E2E2E2E2E2E2E2E2E2E2EFEFE2E2E2EFEFE2E2E2E2E2E2EFEFEFEFEFE2E2E2E2E2E2E2E2E2E2E2E2E2E2E2E2E2E2E2E2E2E2E2E2E2E2E2E2E2E2E2E2E2E2E2E2E2E2E2E2E2E2
310
E2E2E2E2E2E2E2E2EAE2E2E2F5E2E2F5EF00E2E2F5E2E2E2E2EAE2E2E2E2E2E2E2E2E2E2E2E2E2E2EFEFE2E2E2E2E2E2E2E2E2E2E2E2E2E2E2E2E2E2E2E2E2E2E2E2E2E2E2E2E2E2E2E2E2E2E2E2E2E2E2E2E2E2E2E2E2E2E2E2E2E2E2E2E2E2E2E2E2E2E2E2E2E2E2E2E2E2EAE2E2E2F5E2E2F5EF00E2E2F5E2E2E2E2EAE2
310
E2E2E2E2E2E2E2E2E2E2E2E2E2EFEFE2E2E2E2E2E2E2E2E2E2E2E2E2E2E2E2E2E2E2E2E2E2E2E2E2E2E2E2E2E2E2E2E2E2E2E2E2E2E2E2E2E2E2E2E2E2E2E2E2E2E2E2E2E2E2E2E2E2E2E2E2E2E2E2E2E2EAE2E2E2F5E2E2F5EF00E2E2F5E2E2E2E2EAE2E2E2E2E2E2E2E2E2E2E2E2E2E2EFEFF5F5F5F5E2E2E2E2E2E2E2E2
310
E2E2E2E2E2E2E2E2E2E2E2E2E2E2E2E2E2E2E2E2E2E2E2E2E2E2E2E2E2E2E2E2E2E2E2E2E2E2E2E2E2E2E2E2E2E2E2E2E2E2E2E2E2E2EAE2E2E2F5E2E2F5EF00E2E2F5E2E2E2E2EAE2E2E2E2E2E2E2E2E2E2E2E2E2E2EFEFF5F5F5F5E2E2E2E2E2E2E2E2E2E2E2E2E2E2E2E2E2E2E2E2E2E2E2E2E2E2E2E2E2E2E2E2E2E2E2
310
E2E2E2E2E2E2E2E2E2E2E2E2E2E2E2E2E2E2E2E2E2E2E2E2E2E2E2EAE2E2E2F5E2E2F5EF00E2E2E2E2E2E2E2EAE2E2E2E2E2E2E2E2E2E2E2E2E2E2EFEFE2E2E2E2E2E2E2E2E2E2E2E2E2E2E2E2E2E2E2E2E2E2E2E2E2E2E2E2E2E2E2E2E2E2E2E2E2E2E2E2E2E2E2E2E2E2E2E2E2E2E2E2E2E2E2E2E2E2E2E2E2E2E2E2E2E2
310
EAE2E2E2E2E2E2F5EF00E2E2E2E2E2E2E2EAE2E2E2E2E2E2E2E2E2E2E2E2E2E2EFEFE2E2E2E2E2E2E2E2E2E2E2E2E2E2E2E2E2E2E2E2E2E2E2E2E2E2E2E2E2E2E2E2E2E2E2E2E2E2E2E2E2E2E2E2E2E2E2E2E2E2E2E2E2E2E2E2E2E2E2E2E2E2E2E2E2E2EAE2E2E2E2E2E2F5EF00E2E2E2E2E2E2E2EAEAEAEAEAEAEAEAEAEA
310
EAEAEAEAEAEAEAEAEAEAEAEAEAEAEAEAEAEAEAEAEAEAEAEAEAEAEAEAEAEAEAEAEAEAEAEAEAEAEAEAEAEAEAEAEAEAEAEAEAEAEAEAEAEAEAEAEAEAEAEAEAEAEAEAEAEAEAEAEAEAEAEAEAEAE2E2E2E2E2E2F5EF00E2E2E2E2E2E2E2E2E2E2E2E2E2F5F5F5F5F5F5F5F5F5F5F5F5F5F5F5F5F5F5F5F5F5F5F5F5F5F5F5F5F5F5F5
310
F5F5F5F5F5F5F5F5F5F5F5F5F5F5F5F5F5F5F5F5F5F5F5F5F5F5F5F5F5F5F5F5F5F5F5F5F5F5F5F5F5F5F5F5F5F5F5E2E2E2E2E2E2F5EF00E2E2E2E2E2E2E2E2E2E2E2E2E2F5E2E2E2E2E2E2E2E2E2E2E2E2E2E2E2E2E2E2E2E2E2E2E2E2E2E2E2E2E2E2E2E2E2E2E2E2E2E2E2E2E2E2E2E2E2E2E2E2E2E2E2E2E2E2F5E2E2
310
F5F5F5F5F5F5E2E2F5E2E2E2E2F5F5E2E2E2E2F5E2E2E2E2E2E2F5EF00E2E2E2E2E2E2E2E2E2E2E2E2ECECECE2E2E2E2E2E2E2E2E2E2E2E2E2E2E2E2E2E2E2E2E2E2E2E2E2E2E2E2E2E2E2E2E2E2E2E2E2E2E2E2E2E2E2E2E2E2E2E2E2E2E2E2E2F5E2E2F5F5F5F5F5F5E2E2F5E2E2E2E2F5F5E2E2E2E2F5E2E2E2E2E2E2F5
310
EF00E2E2E2E2E2E2E2E2E2E2E2E2ECECECECE2E2E2E2E2F5F5F5F5F5F5F5F5F5F5F5F5F5F5F5F5E2E2E2E2E2E2E2E2E2E2E2E2E2E2E2E2E2E2E2E2E2E2E2E2E2E2E2E2E2E2E2F5E2E2E2E2E2E2E2E2E2E2F5E2E2E2E2E2E2E2E2E2E2F5E2E2E2E2E2E2F5EF00E2E2E2E2E2E2E2E2E2E2E2ECECECECECE2E2E2E2E2F5F5F5F5
310
F5F5F5F5F5F5F5F5F5F5F5F5E2E2E2E2E2E2E2E2E2E2E2E2E2E2E2E2E2E2E2E2E2E2E2E2E2E2E2E2E2E2E2F5E2E2E2F5F5F5F5E2E2E2F5E2E2F5F5F5F5F5E2E2E2F5E2E2E2E2E2E2F5EF00E2E2E2E2E2E2E2E2E2E2E2ECECECECECECE2E2E2E2E2E2E2E2E2E2E2E2E2E2E2E2E2E2E2E2E2E2E2E2E2E2E2E2E2E2E2E2E2E2E2
310
E2E2E2E2E2E2E2E2E2E2E2E2E2E2E2E2F5E2E2E2F5F5F5F5E2E2E2F5E2E2F5F5F5F5F5E2E2E2F5E2E2E2E2E2E2F5EF00E2E2E2E2E2E2E2E2E2E2ECECECECECECECE2E2E2E2F5F5F5F5F5F5F5F5F5F5F5F5F5F5F5F5F5F5F5F5F5F5F5F5F5F5F5E2E2E2E2E2E2E2E2E2E2E2E2E2E2E2E2E2E2E2E2F5E2E2E2E2E2E2E2E2E2E2
310
F5E2E2E2E2E2E2E2E2E2E2F5E2E2E2E2E2E2F5EF00E2E2F5E2E2E2E2E2E2E2ECECECECECECECECE2E2E2F5F5F5F5F5F5F5F5F5F5F5F5F5F5F5F5F5F5F5F5F5F5F5F5F5F5F5E2E2E2E2E2E2E2E2E2E2E2E2E2E2E2E2E2E2E2E2F5F5F5F5F5F5F5F5F5F5F5F5F5F5F5F5F5F5F5F5F5F5F5E2E2E2F5E2E2F5EF00E2E2F5E2E2E2
310
E2E2E2ECECECECECECECECECE2E2E2F5F5F5F5F5F5F5F5F5F5F5F5F5F5F5F5F5F5F5F5F5F5F5F5F5F5E2E2E2E2E2E2E2E2E2E2E2E2E2E2E2E2E2E2E2E2E2F5E2E2E2E2E2E2E2E2E2E2E2E2E2E2E2E2E2E2E2E2E2F5E2E2E2F5E2E2F5EF00E2E2F5E2E2E2E2E2E2ECECECECECECECECECECE2E2F5F5F5F5F5F5F5F5F5F5F5F5
310
F5F5F5F5F5F5F5F5F5F5F5F5F5F5E2E2E2E2E2E2E2E2E2E2E2E2E2E2E2E2E2E2E2E2E2F5E2E2F5F5F5F5F5F5F5E2F5F5F5F5F5F5F5E2E2E2E2F5E2E2E2F5E2E2F5EF00E2E2F5E2E2E2E2E2ECECECECECECECECECECECECE2F5F5F5F5F5F5F5F5F5F5F5F5F5F5F5F5F5F5F5F5F5F5F5F5F5F5E2E2E2E2E2E2E2E2E2E2E2E2E2
310
E2E2E2E2E2E2E2E2F5E2E2F5F5F5F5F5F5F5E2F5F5F5F5F5F5F5E2E2E2E2F5E2E2E2F5E2E2F5EF00E2E2F5E2E2E2E2E2ECECECECECECECECECECECECE2E2E2E2E2E2E2E2E2E2E2E2E2E2E2E2E2E2E2E2E2E2E2E2E2E2E2E2E2E2E2E2E2E2E2E2E2E2E2E2E2E2E2E2E2E2E2E2F5E2E2E2E2E2E2E2E2E2E2E2E2E2E2E2E2E2E2
310
E2E2E2F5E2E2E2F5E2E2F5EF00E2E2F5E2E2E2E2ECECECECECECF5ECECECECECECECE2E2E2E2E2E2E2E2E2E2E2E2E2E2E2E2E2E2E2E2E2E2E2E2E2E2E2E2E2E2E2E2E2E2E2E2E2E2E2E2E2E2E2E2E2E2E2F5E2E2E2E2E2E2E2E2E2E2E2E2E2E2E2E2E2E2E2E2E2F5E2E2E2F5E2E2F5EF00E2E2F5E2E2E2E2E2E2E2E2E2E2F5
310
F5F5F5F5F5F5F5F5F5F5F5F5F5F5F5F5F5F5F5F5F5F5F5F5F5F5F5F5F5F5F5F5F5F5F5F5F5F5F5F5F5F5F5F5F5F5F5F5F5F5F5F5F5F5F5F5F5F5F5F5F5F5F5F5F5F5F5F5F5F5F5F5F5F5F5F5F5E2E2E2F5E2E2F5EF00E2E2F5E2E2E2E2E2E2E2E2E2E2E2E2E2E2E2E2E2E2E2E2E2E2E2E2E2E2E2E2E2E2E2E2E2E2E2E2E2E2
310
E2E2E2E2E2E2E2E2E2E2E2E2E2E2E2E2E2E2E2E2E2E2E2E2E2E2E2E2E2E2E2E2E2E2E2E2E2E2E2E2E2E2E2E2E2E2E2E2E2E2E2E2E2F5E2E2F5EF00E2E2F5F5F5F5F5F5F5F5E2E2E2E2E2E2E2E2F5F5F5F5F5F5F5F5F5F5F5F5F5F5F5E2E2E2E2E2E2E2E2F5F5F5F5F5F5F5F5F5F5F5F5F5F5F5E2E2E2E2E2E2E2E2F5F5F5F5
310
F5F5F5F5F5F5F5F5F5F5F5E2E2E2E2E2E2E2E2F5F5F5F5F5F5F5F5E2E2F5EF00E2E2E2E2E2E2E2E2E2E2E2E2E2E2E2E2E2E2E2E2E2E2E2E2E2E2E2E2E2E2E2E2E2E2E2E2E2E2E2E2E2E2E2E2E2E2E2E2E2E2E2E2E2E2E2E2E2E2E2E2E2E2E2E2E2E2E2E2E2E2E2E2E2E2E2E2E2E2E2E2E2E2E2E2E2E2E2E2E2E2E2E2E2E2E2
310
E2E2F5EF00E2E2E2E2E2E2E2E2E2E2E2E2E2E2E2E2E2E2E2E2E2E2E2E2E2E2E2E2E2E2E2E2E2E2E2E2E2E2E2E2E2E2E2E2E2E2E2E2E2E2E2E2E2E2E2E2E2E2E2E2E2E2E2E2E2E2E2E2E2E2E2E2E2E2E2E2E2E2E2E2E2E2E2E2E2E2E2E2E2E2E2E2E2E2E2E2E2F5EF00F5F5F5F5F5F5F5F5F5F5F5F5F5F5F5F5F5F5F5F5F5F5
310
F5F5F5F5F5F5F5F5F5F5F5F5F5F5F5F5F5F5F5F5F5F5F5F5F5F5F5F5F5F5F5F5F5F5F5F5F5F5F5F5F5F5F5F5F5F5F5F5F5F5F5F5F5F5F5F5F5F5F5F5F5F5F5F5F5F5F5F5F5F5F5F5F5F5F5F5EF00
  0
XRECORD
  5
4D7F
102
{ACAD_REACTORS
330
45EA
102
}
330
45EA
100
AcDbXrecord
280
     1
102
MATERIAL
148
0.0
149
0.0
149
0.0
 93
        0
 94
      127
282
     0
 72
     0
 77
     0
171
     0
175
     0
179
     0
273
     0
  0
XRECORD
  5
45EC
102
{ACAD_REACTORS
330
45EA
102
}
330
45EA
100
AcDbXrecord
280
     1
270
     1
271
     1
  0
XRECORD
  5
45EB
102
{ACAD_REACTORS
330
45EA
102
}
330
45EA
100
AcDbXrecord
280
     1
270
     1
271
     1
  0
XRECORD
  5
45EF
102
{ACAD_REACTORS
330
45EA
102
}
330
45EA
100
AcDbXrecord
280
     1
270
     1
271
     1
  0
XRECORD
  5
45EE
102
{ACAD_REACTORS
330
45EA
102
}
330
45EA
100
AcDbXrecord
280
     1
270
     1
271
     1
  0
XRECORD
  5
45F0
102
{ACAD_REACTORS
330
45EA
102
}
330
45EA
100
AcDbXrecord
280
     1
270
     1
271
     1
  0
XRECORD
  5
45ED
102
{ACAD_REACTORS
330
45EA
102
}
330
45EA
100
AcDbXrecord
280
     1
270
     1
271
     1
  0
XRECORD
  5
4D7E
102
{ACAD_REACTORS
330
45E2
102
}
330
45E2
100
AcDbXrecord
280
     1
102
MATERIAL
148
0.0
149
0.0
149
0.0
 93
        0
 94
      127
282
     0
 72
     0
 77
     0
171
     0
175
     0
179
     0
273
     0
  0
XRECORD
  5
45E4
102
{ACAD_REACTORS
330
45E2
102
}
330
45E2
100
AcDbXrecord
280
     1
270
     1
271
     1
  0
XRECORD
  5
45E3
102
{ACAD_REACTORS
330
45E2
102
}
330
45E2
100
AcDbXrecord
280
     1
270
     1
271
     1
  0
XRECORD
  5
45E7
102
{ACAD_REACTORS
330
45E2
102
}
330
45E2
100
AcDbXrecord
280
     1
270
     1
271
     1
  0
XRECORD
  5
45E6
102
{ACAD_REACTORS
330
45E2
102
}
330
45E2
100
AcDbXrecord
280
     1
270
     1
271
     1
  0
XRECORD
  5
45E8
102
{ACAD_REACTORS
330
45E2
102
}
330
45E2
100
AcDbXrecord
280
     1
270
     1
271
     1
  0
XRECORD
  5
45E5
102
{ACAD_REACTORS
330
45E2
102
}
330
45E2
100
AcDbXrecord
280
     1
270
     1
271
     1
  0
XRECORD
  5
4D80
102
{ACAD_REACTORS
330
45F2
102
}
330
45F2
100
AcDbXrecord
280
     1
102
MATERIAL
148
0.0
149
0.0
149
0.0
 93
        0
 94
      127
282
     0
 72
     0
 77
     0
171
     0
175
     0
179
     0
273
     0
  0
XRECORD
  5
45F4
102
{ACAD_REACTORS
330
45F2
102
}
330
45F2
100
AcDbXrecord
280
     1
270
     1
271
     1
  0
XRECORD
  5
45F3
102
{ACAD_REACTORS
330
45F2
102
}
330
45F2
100
AcDbXrecord
280
     1
270
     1
271
     1
  0
XRECORD
  5
45F7
102
{ACAD_REACTORS
330
45F2
102
}
330
45F2
100
AcDbXrecord
280
     1
270
     1
271
     1
  0
XRECORD
  5
45F6
102
{ACAD_REACTORS
330
45F2
102
}
330
45F2
100
AcDbXrecord
280
     1
270
     1
271
     1
  0
XRECORD
  5
45F8
102
{ACAD_REACTORS
330
45F2
102
}
330
45F2
100
AcDbXrecord
280
     1
270
     1
271
     1
  0
XRECORD
  5
45F5
102
{ACAD_REACTORS
330
45F2
102
}
330
45F2
100
AcDbXrecord
280
     1
270
     1
271
     1
  0
XRECORD
  5
5208
102
{ACAD_REACTORS
330
5207
102
}
330
5207
100
AcDbXrecord
280
     1
102
SHADEPLOT
 70
     0
102
SHADEPLOTRESLEVEL
 70
     2
102
SHADEPLOTCUSTOMDPI
 70
   300
  0
XRECORD
  5
520A
102
{ACAD_REACTORS
330
5209
102
}
330
5209
100
AcDbXrecord
280
     1
102
SHADEPLOT
 70
     0
102
SHADEPLOTRESLEVEL
 70
     2
102
SHADEPLOTCUSTOMDPI
 70
   300
  0
ACAD_PROXY_OBJECT
  5
4D62
102
{ACAD_REACTORS
330
48AE
102
}
330
48AE
100
AcDbProxyObject
 90
      499
 91
      515
 95
   983063
 70
     0
 93
     5304
310
40D054060020000020000003200101A000080002A5058000000C10000000000000006101010000000000003E0FC000000000000F83F0000000000003E0FC000000000000F83F000000000000049000000000000001240419019018000000C1003FBFFFFFE0000000000003C8FD029018000000C1003FBFFFFFE00000000000
310
03C8FD049018000000C1003FBFFFFFE0000000000003C8FD089018000000C1003FBFFFFFE0000000000003C8FD109018000000C1003FBFFFFFE0000000000003C8FD209018000000C1003FBFFFFFE0000000000003C8FD01405075F5449544C450041501A8000000C800406800020000A94160000003040000000000000012
310
40404000000000000F83F0000000000003E0FC000000000000F83F0000000000003E0FC0000000000001240000000000000049010640640600000030400FEFFFFFF8000000000000F23F40A40600000030400FEFFFFFF8000000000000F23F41240600000030400FEFFFFFF8000000000000F23F42240600000030400FEFFF
310
FFF8000000000000F23F44240600000030400FEFFFFFF8000000000000F23F48240600000030400FEFFFFFF8000000000000F23F409014217D2115051115480105406A0000003200101A000080002A5028000000C10000000000000004901010000000000003E0FC000000000000F83F0000000000003E0FC000000000000F
310
83F000000000000049000000000000001240419019018000000C1003FBFFFFFE0000000000003C8FD029018000000C1003FBFFFFFE0000000000003C8FD049018000000C1003FBFFFFFE0000000000003C8FD089018000000C1003FBFFFFFE0000000000003C8FD109018000000C1003FBFFFFFE0000000000003C8FD20901
310
8000000C1003FBFFFFFE0000000000003C8FD03409065F44415441005F
340
11
340
0
340
0
340
0
340
0
340
0
340
0
340
11
340
0
340
0
340
0
340
0
340
0
340
0
340
11
340
0
340
0
340
0
340
0
340
0
340
0
 94
        0
1001
ACAD
1000
AcRTDxfName
1000
CELLSTYLEMAP
1000
AcRTDxfName
1000
CELLSTYLEMAP
1000
AcRTDxfName
1000
CELLSTYLEMAP
  0
XRECORD
  5
4D81
102
{ACAD_REACTORS
330
48AE
102
}
330
48AE
100
AcDbXrecord
280
     1
102
ACAD_ROUNDTRIP_PRE2007_TABLESTYLE
 90
      512
 91
        0
  1

 92
      512
 93
        0
  2

 94
      512
 95
        0
  3

  0
ENDSEC
  0
EOF
