  0
SECTION
  2
HEADER
  9
$ACADVER
  1
AC1015
  9
$ACADMAINTVER
 70
    20
  9
$DWGCODEPAGE
  3
ANSI_1252
  9
$INSBASE
 10
0.0
 20
0.0
 30
0.0
  9
$EXTMIN
 10
-0.0000008078504834
 20
0.0000001108869583
 30
0.0
  9
$EXTMAX
 10
353.9999991921495
 20
482.0000001108869
 30
0.0
  9
$LIMMIN
 10
0.0
 20
0.0
  9
$LIMMAX
 10
420.0
 20
297.0
  9
$ORTHOMODE
 70
     0
  9
$REGENMODE
 70
     1
  9
$FILLMODE
 70
     1
  9
$QTEXTMODE
 70
     0
  9
$MIRRTEXT
 70
     0
  9
$LTSCALE
 40
1.0
  9
$ATTMODE
 70
     1
  9
$TEXTSIZE
 40
5.0
  9
$TRACEWID
 40
1.0
  9
$TEXTSTYLE
  7
Arial-Bold
  9
$CLAYER
  8
APL Border
  9
$CELTYPE
  6
ByLayer
  9
$CECOLOR
 62
   256
  9
$CELTSCALE
 40
1.0
  9
$DISPSILH
 70
     0
  9
$DIMSCALE
 40
1.0
  9
$DIMASZ
 40
4.0
  9
$DIMEXO
 40
0.625
  9
$DIMDLI
 40
3.75
  9
$DIMRND
 40
0.0
  9
$DIMDLE
 40
0.0
  9
$DIMEXE
 40
1.25
  9
$DIMTP
 40
0.0
  9
$DIMTM
 40
0.0
  9
$DIMTXT
 40
2.0
  9
$DIMCEN
 40
2.5
  9
$DIMTSZ
 40
0.0
  9
$DIMTOL
 70
     0
  9
$DIMLIM
 70
     0
  9
$DIMTIH
 70
     0
  9
$DIMTOH
 70
     0
  9
$DIMSE1
 70
     0
  9
$DIMSE2
 70
     0
  9
$DIMTAD
 70
     1
  9
$DIMZIN
 70
     8
  9
$DIMBLK
  1

  9
$DIMASO
 70
     1
  9
$DIMSHO
 70
     1
  9
$DIMPOST
  1

  9
$DIMAPOST
  1

  9
$DIMALT
 70
     0
  9
$DIMALTD
 70
     3
  9
$DIMALTF
 40
0.03937007874016
  9
$DIMLFAC
 40
1.0
  9
$DIMTOFL
 70
     1
  9
$DIMTVP
 40
0.0
  9
$DIMTIX
 70
     0
  9
$DIMSOXD
 70
     0
  9
$DIMSAH
 70
     0
  9
$DIMBLK1
  1

  9
$DIMBLK2
  1

  9
$DIMSTYLE
  2
ISO-25
  9
$DIMCLRD
 70
     0
  9
$DIMCLRE
 70
     0
  9
$DIMCLRT
 70
     0
  9
$DIMTFAC
 40
1.0
  9
$DIMGAP
 40
0.625
  9
$DIMJUST
 70
     0
  9
$DIMSD1
 70
     0
  9
$DIMSD2
 70
     0
  9
$DIMTOLJ
 70
     0
  9
$DIMTZIN
 70
     8
  9
$DIMALTZ
 70
     0
  9
$DIMALTTZ
 70
     0
  9
$DIMUPT
 70
     0
  9
$DIMDEC
 70
     3
  9
$DIMTDEC
 70
     3
  9
$DIMALTU
 70
     2
  9
$DIMALTTD
 70
     3
  9
$DIMTXSTY
  7
Standard
  9
$DIMAUNIT
 70
     0
  9
$DIMADEC
 70
     0
  9
$DIMALTRND
 40
0.0
  9
$DIMAZIN
 70
     0
  9
$DIMDSEP
 70
    46
  9
$DIMATFIT
 70
     3
  9
$DIMFRAC
 70
     0
  9
$DIMLDRBLK
  1

  9
$DIMLUNIT
 70
     2
  9
$DIMLWD
 70
    -2
  9
$DIMLWE
 70
    -2
  9
$DIMTMOVE
 70
     0
  9
$LUNITS
 70
     2
  9
$LUPREC
 70
     4
  9
$SKETCHINC
 40
1.0
  9
$FILLETRAD
 40
0.0
  9
$AUNITS
 70
     0
  9
$AUPREC
 70
     0
  9
$MENU
  1
.
  9
$ELEVATION
 40
0.0
  9
$PELEVATION
 40
0.0
  9
$THICKNESS
 40
0.0
  9
$LIMCHECK
 70
     0
  9
$CHAMFERA
 40
0.0
  9
$CHAMFERB
 40
0.0
  9
$CHAMFERC
 40
20.0
  9
$CHAMFERD
 40
0.0
  9
$SKPOLY
 70
     0
  9
$TDCREATE
 40
2452286.590325035
  9
$TDUCREATE
 40
2452286.090325035
  9
$TDUPDATE
 40
2455660.553335371
  9
$TDUUPDATE
 40
2455660.053335371
  9
$TDINDWG
 40
1.0411199074
  9
$TDUSRTIMER
 40
1.0411199074
  9
$USRTIMER
 70
     1
  9
$ANGBASE
 50
0.0
  9
$ANGDIR
 70
     0
  9
$PDMODE
 70
     3
  9
$PDSIZE
 40
3.0
  9
$PLINEWID
 40
0.0
  9
$SPLFRAME
 70
     0
  9
$SPLINETYPE
 70
     6
  9
$SPLINESEGS
 70
     8
  9
$HANDSEED
  5
5ABB
  9
$SURFTAB1
 70
     6
  9
$SURFTAB2
 70
     6
  9
$SURFTYPE
 70
     6
  9
$SURFU
 70
     6
  9
$SURFV
 70
     6
  9
$UCSBASE
  2

  9
$UCSNAME
  2

  9
$UCSORG
 10
0.0
 20
0.0
 30
0.0
  9
$UCSXDIR
 10
1.0
 20
0.0
 30
0.0
  9
$UCSYDIR
 10
0.0
 20
1.0
 30
0.0
  9
$UCSORTHOREF
  2

  9
$UCSORTHOVIEW
 70
     0
  9
$UCSORGTOP
 10
0.0
 20
0.0
 30
0.0
  9
$UCSORGBOTTOM
 10
0.0
 20
0.0
 30
0.0
  9
$UCSORGLEFT
 10
0.0
 20
0.0
 30
0.0
  9
$UCSORGRIGHT
 10
0.0
 20
0.0
 30
0.0
  9
$UCSORGFRONT
 10
0.0
 20
0.0
 30
0.0
  9
$UCSORGBACK
 10
0.0
 20
0.0
 30
0.0
  9
$PUCSBASE
  2

  9
$PUCSNAME
  2

  9
$PUCSORG
 10
0.0
 20
0.0
 30
0.0
  9
$PUCSXDIR
 10
1.0
 20
0.0
 30
0.0
  9
$PUCSYDIR
 10
0.0
 20
1.0
 30
0.0
  9
$PUCSORTHOREF
  2

  9
$PUCSORTHOVIEW
 70
     0
  9
$PUCSORGTOP
 10
0.0
 20
0.0
 30
0.0
  9
$PUCSORGBOTTOM
 10
0.0
 20
0.0
 30
0.0
  9
$PUCSORGLEFT
 10
0.0
 20
0.0
 30
0.0
  9
$PUCSORGRIGHT
 10
0.0
 20
0.0
 30
0.0
  9
$PUCSORGFRONT
 10
0.0
 20
0.0
 30
0.0
  9
$PUCSORGBACK
 10
0.0
 20
0.0
 30
0.0
  9
$USERI1
 70
     0
  9
$USERI2
 70
     0
  9
$USERI3
 70
     0
  9
$USERI4
 70
     0
  9
$USERI5
 70
     0
  9
$USERR1
 40
0.0
  9
$USERR2
 40
0.0
  9
$USERR3
 40
0.0
  9
$USERR4
 40
0.0
  9
$USERR5
 40
0.0
  9
$WORLDVIEW
 70
     1
  9
$SHADEDGE
 70
     3
  9
$SHADEDIF
 70
    70
  9
$TILEMODE
 70
     0
  9
$MAXACTVP
 70
    64
  9
$PINSBASE
 10
0.0
 20
0.0
 30
0.0
  9
$PLIMCHECK
 70
     0
  9
$PEXTMIN
 10
11.46014299460751
 20
3.285575844812797
 30
-0.0015258207003583
  9
$PEXTMAX
 10
189.6073677543587
 20
282.2033753668244
 30
0.0000000349246037
  9
$PLIMMIN
 10
-5.027082920074462
 20
-5.408084392547607
  9
$PLIMMAX
 10
204.8615736961365
 20
291.6449246406555
  9
$UNITMODE
 70
     0
  9
$VISRETAIN
 70
     1
  9
$PLINEGEN
 70
     0
  9
$PSLTSCALE
 70
     1
  9
$TREEDEPTH
 70
  3020
  9
$CMLSTYLE
  2
Standard
  9
$CMLJUST
 70
     0
  9
$CMLSCALE
 40
20.0
  9
$PROXYGRAPHICS
 70
     1
  9
$MEASUREMENT
 70
     1
  9
$CELWEIGHT
370
    -1
  9
$ENDCAPS
280
     0
  9
$JOINSTYLE
280
     0
  9
$LWDISPLAY
290
     0
  9
$INSUNITS
 70
     4
  9
$HYPERLINKBASE
  1

  9
$STYLESHEET
  1
A4 Specifier Manual.ctb
  9
$XEDIT
290
     1
  9
$CEPSNTYPE
380
     0
  9
$PSTYLEMODE
290
     1
  9
$FINGERPRINTGUID
  2
{D079D194-C9C2-11D5-B123-005004D48FB5}
  9
$VERSIONGUID
  2
{94B9EA91-79D6-456B-8995-7DC447286F80}
  9
$EXTNAMES
290
     1
  9
$PSVPSCALE
 40
0.0
  9
$OLESTARTUP
290
     0
  0
ENDSEC
  0
SECTION
  2
CLASSES
  0
CLASS
  1
ACDBDICTIONARYWDFLT
  2
AcDbDictionaryWithDefault
  3
ObjectDBX Classes
 90
        0
280
     0
281
     0
  0
CLASS
  1
ACDBPLACEHOLDER
  2
AcDbPlaceHolder
  3
ObjectDBX Classes
 90
        0
280
     0
281
     0
  0
CLASS
  1
LAYOUT
  2
AcDbLayout
  3
ObjectDBX Classes
 90
        0
280
     0
281
     0
  0
CLASS
  1
DICTIONARYVAR
  2
AcDbDictionaryVar
  3
ObjectDBX Classes
 90
        0
280
     0
281
     0
  0
CLASS
  1
PLOTSETTINGS
  2
AcDbPlotSettings
  3
ObjectDBX Classes
 90
        0
280
     0
281
     0
  0
CLASS
  1
DIMASSOC
  2
AcDbDimAssoc
  3
"AcDbDimAssoc|Product Desc:     AcDim ARX App For Dimension|Company:          Autodesk, Inc.|WEB Address:      www.autodesk.com"
 90
    32768
280
     0
281
     0
  0
CLASS
  1
MATERIAL
  2
AcDbMaterial
  3
ObjectDBX Classes
 90
        0
280
     0
281
     0
  0
CLASS
  1
VISUALSTYLE
  2
AcDbVisualStyle
  3
ObjectDBX Classes
 90
     4095
280
     0
281
     0
  0
CLASS
  1
TABLESTYLE
  2
AcDbTableStyle
  3
ObjectDBX Classes
 90
     2047
280
     0
281
     0
  0
CLASS
  1
SCALE
  2
AcDbScale
  3
ObjectDBX Classes
 90
     1153
280
     0
281
     0
  0
CLASS
  1
MLEADERSTYLE
  2
AcDbMLeaderStyle
  3
ACDB_MLEADERSTYLE_CLASS
 90
     4095
280
     0
281
     0
  0
CLASS
  1
EXACTERMXREFMAP
  2
ExAcTermXrefMap
  3
EXAC_SERVICE
 90
    33793
280
     0
281
     0
  0
CLASS
  1
NPOCOLLECTION
  2
AcDbImpNonPersistentObjectsCollection
  3
ObjectDBX Classes
 90
    33921
280
     0
281
     0
  0
CLASS
  1
EXACXREFPANELOBJECT
  2
ExAcXREFPanelObject
  3
EXAC_ESW
 90
    33793
280
     0
281
     0
  0
CLASS
  1
CELLSTYLEMAP
  2
AcDbCellStyleMap
  3
ObjectDBX Classes
 90
     1152
280
     0
281
     0
  0
CLASS
  1
SORTENTSTABLE
  2
AcDbSortentsTable
  3
ObjectDBX Classes
 90
        0
280
     0
281
     0
  0
ENDSEC
  0
SECTION
  2
TABLES
  0
TABLE
  2
VPORT
  5
8
102
{ACAD_XDICTIONARY
360
51EB
102
}
330
0
100
AcDbSymbolTable
 70
     1
  0
VPORT
  5
4E14
330
8
100
AcDbSymbolTableRecord
100
AcDbViewportTableRecord
  2
*Active
 70
     0
 10
0.0
 20
0.0
 11
1.0
 21
1.0
 12
176.9952397298703
 22
241.0000011776872
 13
0.0
 23
0.0
 14
10.0
 24
10.0
 15
2.0
 25
2.0
 16
0.0
 26
0.0
 36
1.0
 17
0.0
 27
0.0
 37
0.0
 40
486.0631380441587
 41
2.208100558659217
 42
50.0
 43
0.0
 44
0.0
 50
0.0
 51
0.0
 71
     0
 72
   100
 73
     1
 74
     3
 75
     0
 76
     0
 77
     0
 78
     0
281
     0
 65
     1
110
0.0
120
0.0
130
0.0
111
1.0
121
0.0
131
0.0
112
0.0
122
1.0
132
0.0
 79
     0
146
0.0
  0
ENDTAB
  0
TABLE
  2
LTYPE
  5
5
330
0
100
AcDbSymbolTable
 70
     2
  0
LTYPE
  5
14
330
5
100
AcDbSymbolTableRecord
100
AcDbLinetypeTableRecord
  2
ByBlock
 70
     0
  3

 72
    65
 73
     0
 40
0.0
  0
LTYPE
  5
15
330
5
100
AcDbSymbolTableRecord
100
AcDbLinetypeTableRecord
  2
ByLayer
 70
     0
  3

 72
    65
 73
     0
 40
0.0
  0
LTYPE
  5
16
330
5
100
AcDbSymbolTableRecord
100
AcDbLinetypeTableRecord
  2
Continuous
 70
     0
  3
Solid line
 72
    65
 73
     0
 40
0.0
  0
LTYPE
  5
1123
330
5
100
AcDbSymbolTableRecord
100
AcDbLinetypeTableRecord
  2
DASHED
 70
     0
  3
_ _ _ _ _ _ _ _ _ _ _ _ _ _ _ _
 72
    65
 73
     2
 40
0.2
 49
0.1
 74
     0
 49
-0.1
 74
     0
  0
ENDTAB
  0
TABLE
  2
LAYER
  5
2
102
{ACAD_XDICTIONARY
360
4FCE
102
}
330
0
100
AcDbSymbolTable
 70
     6
  0
LAYER
  5
10
102
{ACAD_XDICTIONARY
360
4FFA
102
}
330
2
100
AcDbSymbolTableRecord
100
AcDbLayerTableRecord
  2
0
 70
     4
 62
     7
  6
Continuous
290
     0
370
    -3
390
F
  0
LAYER
  5
2B
102
{ACAD_XDICTIONARY
360
4FFC
102
}
330
2
100
AcDbSymbolTableRecord
100
AcDbLayerTableRecord
  2
APL Joinery
 70
     0
 62
     2
  6
Continuous
370
    -3
390
F
  0
LAYER
  5
75
102
{ACAD_XDICTIONARY
360
4FFE
102
}
330
2
100
AcDbSymbolTableRecord
100
AcDbLayerTableRecord
  2
APL Notes
 70
     0
 62
     7
  6
Continuous
370
    -3
390
F
  0
LAYER
  5
4B03
102
{ACAD_XDICTIONARY
360
5000
102
}
330
2
100
AcDbSymbolTableRecord
100
AcDbLayerTableRecord
  2
APL Border
 70
     0
 62
     7
  6
Continuous
370
    -3
390
F
  0
LAYER
  5
4FB2
102
{ACAD_XDICTIONARY
360
5004
102
}
330
2
100
AcDbSymbolTableRecord
100
AcDbLayerTableRecord
  2
APL Hatch
 70
     0
 62
   253
  6
Continuous
370
    -3
390
F
  0
ENDTAB
  0
TABLE
  2
STYLE
  5
3
330
0
100
AcDbSymbolTable
 70
     5
  0
STYLE
  5
11
330
3
100
AcDbSymbolTableRecord
100
AcDbTextStyleTableRecord
  2
Standard
 70
     0
 40
2.0
 41
1.0
 50
0.0
 71
     0
 42
3.0
  3
unvr55w.ttf
  4

1001
ACAD
1000
Univers
1071
       34
  0
STYLE
  5
3F2D
330
3
100
AcDbSymbolTableRecord
100
AcDbTextStyleTableRecord
  2
Arial-Bold
 70
     0
 40
0.0
 41
1.0
 50
0.0
 71
     0
 42
5.0
  3
ARIALBD.TTF
  4

1001
ACAD
1000
Arial
1071
 33554466
  0
STYLE
  5
4C27
330
3
100
AcDbSymbolTableRecord
100
AcDbTextStyleTableRecord
  2
Arial-Regular
 70
     0
 40
0.0
 41
1.0
 50
0.0
 71
     0
 42
2.5
  3
ARIAL.TTF
  4

1001
ACAD
1000
Arial
1071
       34
  0
ENDTAB
  0
TABLE
  2
VIEW
  5
6
330
0
100
AcDbSymbolTable
 70
     0
  0
ENDTAB
  0
TABLE
  2
UCS
  5
7
330
0
100
AcDbSymbolTable
 70
     0
  0
ENDTAB
  0
TABLE
  2
APPID
  5
9
330
0
100
AcDbSymbolTable
 70
    12
  0
APPID
  5
12
330
9
100
AcDbSymbolTableRecord
100
AcDbRegAppTableRecord
  2
ACAD
 70
     0
  0
APPID
  5
4FAA
330
9
100
AcDbSymbolTableRecord
100
AcDbRegAppTableRecord
  2
ACAD_MLEADERVER
 70
     0
  0
APPID
  5
4FB3
330
9
100
AcDbSymbolTableRecord
100
AcDbRegAppTableRecord
  2
DCO15
 70
     0
  0
APPID
  5
5190
330
9
100
AcDbSymbolTableRecord
100
AcDbRegAppTableRecord
  2
ACAD_DSTYLE_DIMJAG
 70
     0
  0
APPID
  5
5191
330
9
100
AcDbSymbolTableRecord
100
AcDbRegAppTableRecord
  2
ACAD_DSTYLE_DIMTALN
 70
     0
  0
APPID
  5
5301
330
9
100
AcDbSymbolTableRecord
100
AcDbRegAppTableRecord
  2
ACAD_PSEXT
 70
     0
  0
APPID
  5
54BD
330
9
100
AcDbSymbolTableRecord
100
AcDbRegAppTableRecord
  2
ACAUTHENVIRON
 70
     0
  0
APPID
  5
54BE
330
9
100
AcDbSymbolTableRecord
100
AcDbRegAppTableRecord
  2
AcDbDynamicBlockTrueName
 70
     0
  0
APPID
  5
54BF
330
9
100
AcDbSymbolTableRecord
100
AcDbRegAppTableRecord
  2
AcDbDynamicBlockGUID
 70
     0
  0
APPID
  5
54C0
330
9
100
AcDbSymbolTableRecord
100
AcDbRegAppTableRecord
  2
AcDbBlockRepETag
 70
     0
  0
APPID
  5
54C1
330
9
100
AcDbSymbolTableRecord
100
AcDbRegAppTableRecord
  2
AcDbBlockRepBTag
 70
     0
  0
APPID
  5
54C2
330
9
100
AcDbSymbolTableRecord
100
AcDbRegAppTableRecord
  2
ACAD_EXEMPT_FROM_CAD_STANDARDS
 70
     0
  0
ENDTAB
  0
TABLE
  2
DIMSTYLE
  5
A
330
0
100
AcDbSymbolTable
 70
     2
100
AcDbDimStyleTable
 71
     1
340
4A2B
  0
DIMSTYLE
105
4A2B
102
{ACAD_REACTORS
330
4AC8
330
4ACA
330
4ACC
330
4AEA
102
}
330
A
100
AcDbSymbolTableRecord
100
AcDbDimStyleTableRecord
  2
ISO-25
 70
     0
 41
4.0
 42
0.625
 43
3.75
 44
1.25
 73
     0
 74
     0
 77
     1
 78
     8
140
2.0
141
2.5
143
0.03937007874016
147
0.625
171
     3
172
     1
271
     3
272
     3
274
     3
283
     0
284
     8
340
11
1001
ACAD_DSTYLE_DIMJAG
1070
   388
1040
1.5
1001
ACAD_DSTYLE_DIMTALN
1070
   392
1070
     0
  0
ENDTAB
  0
TABLE
  2
BLOCK_RECORD
  5
1
330
0
100
AcDbSymbolTable
 70
    27
  0
BLOCK_RECORD
  5
1F
330
1
100
AcDbSymbolTableRecord
100
AcDbBlockTableRecord
  2
*Model_Space
340
22
  0
BLOCK_RECORD
  5
4CBF
330
1
100
AcDbSymbolTableRecord
100
AcDbBlockTableRecord
  2
*Paper_Space
340
4CC0
  0
BLOCK_RECORD
  5
37C7
330
1
100
AcDbSymbolTableRecord
100
AcDbBlockTableRecord
  2
08600
340
0
102
{BLKREFS
331
380F
331
4875
331
4880
102
}
  0
BLOCK_RECORD
  5
37CF
330
1
100
AcDbSymbolTableRecord
100
AcDbBlockTableRecord
  2
08656
340
0
102
{BLKREFS
331
4A0A
102
}
  0
BLOCK_RECORD
  5
37D6
330
1
100
AcDbSymbolTableRecord
100
AcDbBlockTableRecord
  2
08655
340
0
102
{BLKREFS
331
4A09
102
}
  0
BLOCK_RECORD
  5
37DC
330
1
100
AcDbSymbolTableRecord
100
AcDbBlockTableRecord
  2
9010312l
340
0
102
{BLKREFS
331
4A0B
102
}
  0
BLOCK_RECORD
  5
37E1
330
1
100
AcDbSymbolTableRecord
100
AcDbBlockTableRecord
  2
9010100
340
0
102
{BLKREFS
331
4A0D
102
}
  0
BLOCK_RECORD
  5
37E6
330
1
100
AcDbSymbolTableRecord
100
AcDbBlockTableRecord
  2
08630
340
0
102
{BLKREFS
331
49B5
102
}
  0
BLOCK_RECORD
  5
37EC
330
1
100
AcDbSymbolTableRecord
100
AcDbBlockTableRecord
  2
9010312r
340
0
102
{BLKREFS
331
49B7
102
}
  0
BLOCK_RECORD
  5
3F2E
330
1
100
AcDbSymbolTableRecord
100
AcDbBlockTableRecord
  2
a4 specifiers manual
340
0
102
{BLKREFS
331
3F35
102
}
1001
ACAD
1000
DesignCenter Data
1002
{
1070
     1
1070
     4
1002
}
  0
BLOCK_RECORD
  5
49A0
330
1
100
AcDbSymbolTableRecord
100
AcDbBlockTableRecord
  2
9010240l
340
0
102
{BLKREFS
331
49B8
102
}
  0
BLOCK_RECORD
  5
49A5
330
1
100
AcDbSymbolTableRecord
100
AcDbBlockTableRecord
  2
6Glass
340
0
102
{BLKREFS
331
49B6
102
}
  0
BLOCK_RECORD
  5
49B4
330
1
100
AcDbSymbolTableRecord
100
AcDbBlockTableRecord
  2
08630Glaze
340
0
310
2800000020000000200000000100080000000000000400000000000000000000000000000000000000000000000080000080000000808000800000008000800080800000C0C0C000C0DCC000F0CAA6000020400000206000002080000020A0000020C0000020E00000400000004020000040400000406000004080000040A0
310
000040C0000040E00000600000006020000060400000606000006080000060A0000060C0000060E00000800000008020000080400000806000008080000080A0000080C0000080E00000A0000000A0200000A0400000A0600000A0800000A0A00000A0C00000A0E00000C0000000C0200000C0400000C0600000C0800000C0
310
A00000C0C00000C0E00000E0000000E0200000E0400000E0600000E0800000E0A00000E0C00000E0E00040000000400020004000400040006000400080004000A0004000C0004000E00040200000402020004020400040206000402080004020A0004020C0004020E000404000004040200040404000404060004040800040
310
40A0004040C0004040E00040600000406020004060400040606000406080004060A0004060C0004060E00040800000408020004080400040806000408080004080A0004080C0004080E00040A0000040A0200040A0400040A0600040A0800040A0A00040A0C00040A0E00040C0000040C0200040C0400040C0600040C08000
310
40C0A00040C0C00040C0E00040E0000040E0200040E0400040E0600040E0800040E0A00040E0C00040E0E00080000000800020008000400080006000800080008000A0008000C0008000E00080200000802020008020400080206000802080008020A0008020C0008020E00080400000804020008040400080406000804080
310
008040A0008040C0008040E00080600000806020008060400080606000806080008060A0008060C0008060E00080800000808020008080400080806000808080008080A0008080C0008080E00080A0000080A0200080A0400080A0600080A0800080A0A00080A0C00080A0E00080C0000080C0200080C0400080C0600080C0
310
800080C0A00080C0C00080C0E00080E0000080E0200080E0400080E0600080E0800080E0A00080E0C00080E0E000C0000000C0002000C0004000C0006000C0008000C000A000C000C000C000E000C0200000C0202000C0204000C0206000C0208000C020A000C020C000C020E000C0400000C0402000C0404000C0406000C0
310
408000C040A000C040C000C040E000C0600000C0602000C0604000C0606000C0608000C060A000C060C000C060E000C0800000C0802000C0804000C0806000C0808000C080A000C080C000C080E000C0A00000C0A02000C0A04000C0A06000C0A08000C0A0A000C0A0C000C0A0E000C0C00000C0C02000C0C04000C0C06000
310
C0C08000C0C0A000F0FBFF00A4A0A000808080000000FF0000FF000000FFFF00FF000000FF00FF00FFFF0000FFFFFF0000000000000000000000000000000000000000000000000000000000000000000000000000000000000000000000000000000000000000000000000000000000000000000000000000000000000000
310
00000000000000000000000000000000000000000000000000000000000000000000000000000000000000000000000000000000000000000000000000000000000000000000000000000000000000000000000000FB000000000000000000FBFB00000000000000000000000000000000000000FBFB0000000000000000FB
310
FBFBFBFB00000000000000000000000000000000FBFBFB0000000000000000FBFB000000000000000000000000000000000000FB0000FB0000000000000000FBFB00000000000000000000000000000000000000FB00FB0000000000000000FBFB0000000000000000000000000000000000000000FB00FB00000000000000
310
00FBFB0000000000000000000000000000000000000000FB00FB0000000000000000FBFB0000000000000000000000000000000000000000FB00FB0000000000000000FBFB00000000FFA4FFA4FF0000000000000000000000FB00FB00000000000000FBFB00000000FFA400A4FF000000000000000000000000FB00FB0000
310
00000000FBFB00000000FFA400A4A4A4000000000000000000000000FBFBFB0000000000FBFB00000000FFA400A4A4A40000000000000000000000000000FBFB00000000FBFBFBFB0000FFA400A4A4A4000000000000000000000000000000FBFB000000FBFBFBFBA400FFA400A4A4A400A400000000000000000000000000
310
00FBFB0000FBFB00A4A4A4A4A400A4A4A4A4A4000000000000000000000000000000FBFB00FBFBA400A4A4A4A400A4FFA400A400000000000000000000000000000000FBFBFBFBFBA4A4A4A4A400A4A4A4A4A40000000000000000000000000000000000FBFBFBFBA4A4A4A4A400A4A4A4A400000000000000000000000000
310
000000000000FB00A4A40000A4A400A4A4A4A4A400000000000000000000000000000000000000FBA4A40000A4A400A4A40000A400000000000000000000000000000000000000000000A4A4A4A400A4A4A4A400000000000000000000000000000000000000000000000000FFA400A4A4A400000000000000000000000000
310
00000000000000000000000000FFA400A4FF00000000000000000000000000000000000000000000000000000000000000000000000000000000000000000000000000000000000000000000000000000000000000000000000000000000000000000000000000000000000000000000000000000000000000000000000000
310
0000000000000000000000000000000000000000000000000000000000000000000000000000000000000000000000000000000000000000
102
{BLKREFS
331
49DC
331
49DB
331
4A0C
102
}
1001
ACAD
1000
DesignCenter Data
1002
{
1070
     1
1070
     4
1002
}
  0
BLOCK_RECORD
  5
49FC
330
1
100
AcDbSymbolTableRecord
100
AcDbBlockTableRecord
  2
19mmliner
340
0
102
{BLKREFS
331
4A00
331
4A02
331
4A18
102
}
  0
BLOCK_RECORD
  5
4A06
330
1
100
AcDbSymbolTableRecord
100
AcDbBlockTableRecord
  2
08655Sash
340
0
310
2800000020000000200000000100080000000000000400000000000000000000000000000000000000000000000080000080000000808000800000008000800080800000C0C0C000C0DCC000F0CAA6000020400000206000002080000020A0000020C0000020E00000400000004020000040400000406000004080000040A0
310
000040C0000040E00000600000006020000060400000606000006080000060A0000060C0000060E00000800000008020000080400000806000008080000080A0000080C0000080E00000A0000000A0200000A0400000A0600000A0800000A0A00000A0C00000A0E00000C0000000C0200000C0400000C0600000C0800000C0
310
A00000C0C00000C0E00000E0000000E0200000E0400000E0600000E0800000E0A00000E0C00000E0E00040000000400020004000400040006000400080004000A0004000C0004000E00040200000402020004020400040206000402080004020A0004020C0004020E000404000004040200040404000404060004040800040
310
40A0004040C0004040E00040600000406020004060400040606000406080004060A0004060C0004060E00040800000408020004080400040806000408080004080A0004080C0004080E00040A0000040A0200040A0400040A0600040A0800040A0A00040A0C00040A0E00040C0000040C0200040C0400040C0600040C08000
310
40C0A00040C0C00040C0E00040E0000040E0200040E0400040E0600040E0800040E0A00040E0C00040E0E00080000000800020008000400080006000800080008000A0008000C0008000E00080200000802020008020400080206000802080008020A0008020C0008020E00080400000804020008040400080406000804080
310
008040A0008040C0008040E00080600000806020008060400080606000806080008060A0008060C0008060E00080800000808020008080400080806000808080008080A0008080C0008080E00080A0000080A0200080A0400080A0600080A0800080A0A00080A0C00080A0E00080C0000080C0200080C0400080C0600080C0
310
800080C0A00080C0C00080C0E00080E0000080E0200080E0400080E0600080E0800080E0A00080E0C00080E0E000C0000000C0002000C0004000C0006000C0008000C000A000C000C000C000E000C0200000C0202000C0204000C0206000C0208000C020A000C020C000C020E000C0400000C0402000C0404000C0406000C0
310
408000C040A000C040C000C040E000C0600000C0602000C0604000C0606000C0608000C060A000C060C000C060E000C0800000C0802000C0804000C0806000C0808000C080A000C080C000C080E000C0A00000C0A02000C0A04000C0A06000C0A08000C0A0A000C0A0C000C0A0E000C0C00000C0C02000C0C04000C0C06000
310
C0C08000C0C0A000F0FBFF00A4A0A000808080000000FF0000FF000000FFFF00FF000000FF00FF00FFFF0000FFFFFF0000000000000000000000000000000000000000000000000000000000000000000000000000000000000000000000000000000000000000000000000000000000000000000000000000000000000000
310
00000000000000000000000000000000000000000000000000000000000000000000000000000000000000000000000000000000000000000000000000000000000000000000000000000000000000000000000000000000000000000000000000000000000000000000000000000000000000000000000000000000000000
310
0000000000000000000000000000000000000000000000000000000000000000000000FB00000000000000000000000000000000000000000000000000000000000000FBFB00000000000000000000000000000000000000000000000000000000000000FB000000000000000000000000000000FBFBFBFBFBFBFBFBFBFBFB
310
A4A4A40000FBFBFBFBFB00000000000000000000FBFBFB00000000FB0000A4A4A4A4A4A400FBFBFBFBFBFB00000000000000000000000000000000FB0000A4A4A4A4A4A4FBFB00FB0000FBFB000000000000000000000000000000FB000000FBFB000000000000FB000000FBFB0000000000000000000000000000FB000000
310
FBFB000000000000FB00000000FBFB00000000000000000000000000FB000000FBFB000000000000FBFBFB000000FBFB00000000000000FBFBFBFBFBFB000000FBFB000000000000FBFBFBFBFBFBFBFBFB0000000000FBFBFBFBFBFBFB000000FBFB000000000000FBFBFB0000FBA4A4A40000000000FBFB00000000000000
310
00FBFB00000000000000FBFBFFFFFFA4A4A4A4FF000000FBFB0000000000000000FBFB00000000000000FBFBA4A4A4A4A4A4A4A4000000FBFB000000000000FBFBFBFB00000000000000FBFBA4A4A4A4A4A4A4A4000000FBFB000000000000FBFBFBFB000000FBFB0000FBFB0000FBA4A4A4A40000000000000000A4A4A4A4
310
0000FB00FBFBFBFBFBFBFBFBFBFBFBFBFBFBFB000000000000000000FBA4A4FBFBFBFBFBFB0000000000000000000000000000000000000000000000FBA4A4FBFBFBFBFB0000000000000000000000000000000000000000000000000000000000000000000000000000000000000000000000000000000000000000000000
310
00000000000000000000000000000000000000000000000000000000000000000000000000000000000000000000000000000000000000000000000000000000000000000000000000000000000000000000000000000000000000000000000000000000000000000000000000000000000000000000000000000000000000
310
0000000000000000000000000000000000000000000000000000000000000000000000000000000000000000000000000000000000000000
102
{BLKREFS
331
4A0E
331
4A10
331
4A13
331
4A19
331
4A1E
102
}
1001
ACAD
1000
DesignCenter Data
1002
{
1070
     1
1070
     4
1002
}
  0
BLOCK_RECORD
  5
4C83
330
1
100
AcDbSymbolTableRecord
100
AcDbBlockTableRecord
  2
08626
340
0
102
{BLKREFS
331
4C88
102
}
  0
BLOCK_RECORD
  5
4C89
330
1
100
AcDbSymbolTableRecord
100
AcDbBlockTableRecord
  2
08614
340
0
102
{BLKREFS
331
4C8E
102
}
  0
BLOCK_RECORD
  5
4CCA
330
1
100
AcDbSymbolTableRecord
100
AcDbBlockTableRecord
  2
vantage a4 SM border
340
0
102
{BLKREFS
331
4CCE
102
}
  0
BLOCK_RECORD
  5
4EDA
330
1
100
AcDbSymbolTableRecord
100
AcDbBlockTableRecord
  2
vantage a4 SM attributes (3)
340
0
102
{BLKREFS
331
4EE5
102
}
1001
ACAD
1000
DesignCenter Data
1002
{
1070
     1
1070
     4
1002
}
  0
BLOCK_RECORD
  5
50AF
330
1
100
AcDbSymbolTableRecord
100
AcDbBlockTableRecord
  2
Hopper Catch 1
340
0
102
{BLKREFS
331
50D8
102
}
  0
BLOCK_RECORD
  5
56AC
102
{ACAD_XDICTIONARY
360
56AD
102
}
330
1
100
AcDbSymbolTableRecord
100
AcDbBlockTableRecord
  2
vantage black & white logo
340
0
310
2800000020000000200000000100080000000000000400000000000000000000000000000000000000000000000080000080000000808000800000008000800080800000C0C0C000C0DCC000F0CAA6000020400000206000002080000020A0000020C0000020E00000400000004020000040400000406000004080000040A0
310
000040C0000040E00000600000006020000060400000606000006080000060A0000060C0000060E00000800000008020000080400000806000008080000080A0000080C0000080E00000A0000000A0200000A0400000A0600000A0800000A0A00000A0C00000A0E00000C0000000C0200000C0400000C0600000C0800000C0
310
A00000C0C00000C0E00000E0000000E0200000E0400000E0600000E0800000E0A00000E0C00000E0E00040000000400020004000400040006000400080004000A0004000C0004000E00040200000402020004020400040206000402080004020A0004020C0004020E000404000004040200040404000404060004040800040
310
40A0004040C0004040E00040600000406020004060400040606000406080004060A0004060C0004060E00040800000408020004080400040806000408080004080A0004080C0004080E00040A0000040A0200040A0400040A0600040A0800040A0A00040A0C00040A0E00040C0000040C0200040C0400040C0600040C08000
310
40C0A00040C0C00040C0E00040E0000040E0200040E0400040E0600040E0800040E0A00040E0C00040E0E00080000000800020008000400080006000800080008000A0008000C0008000E00080200000802020008020400080206000802080008020A0008020C0008020E00080400000804020008040400080406000804080
310
008040A0008040C0008040E00080600000806020008060400080606000806080008060A0008060C0008060E00080800000808020008080400080806000808080008080A0008080C0008080E00080A0000080A0200080A0400080A0600080A0800080A0A00080A0C00080A0E00080C0000080C0200080C0400080C0600080C0
310
800080C0A00080C0C00080C0E00080E0000080E0200080E0400080E0600080E0800080E0A00080E0C00080E0E000C0000000C0002000C0004000C0006000C0008000C000A000C000C000C000E000C0200000C0202000C0204000C0206000C0208000C020A000C020C000C020E000C0400000C0402000C0404000C0406000C0
310
408000C040A000C040C000C040E000C0600000C0602000C0604000C0606000C0608000C060A000C060C000C060E000C0800000C0802000C0804000C0806000C0808000C080A000C080C000C080E000C0A00000C0A02000C0A04000C0A06000C0A08000C0A0A000C0A0C000C0A0E000C0C00000C0C02000C0C04000C0C06000
310
C0C08000C0C0A000F0FBFF00A4A0A000808080000000FF0000FF000000FFFF00FF000000FF00FF00FFFF0000FFFFFF0000000000000000000000000000000000000000000000000000000000000000000000000000000000000000000000000000000000000000000000000000000000000000000000000000000000000000
310
0000000000000000000000000000000000000000000000000000000000000000A4A40000000000000000000000000000000000000000000000000000000000A400000700000000000000000000000000000000000000000000000000000000A4000707000000000000000000000000000000000000000000000000000000A4
310
00A4A407070000000000000000000000000000000000000000000000000000A400A400A40700000000000000000000000000000000000000000000000000A400A4A400A407070000000000000000000000000000000000000000000000A40700A4000000A4070000000000000000000000000000000000000000000000A400
310
A4A4000000A40707000000000000000000000000000000000000000000A400A4A4000000A4A4A400070000000000000000000000000000000000000000A400A400000000A400A4070700000000000000000000000000000000000000A400A4A4000000A4A40000A40007000000000000000000000000000000000000A400A4
310
A4A4A4A4A4A4A4A4A407070000000000000000000000000000000000A400A4A4A4A4A4A4A4A4A4A4A4A40007000000000000000000000000000000A40000A4A4A4A4A4A4A4A4A4A4A4A40700070000000000000000000000000000A400A4A400A4A4A4A4A4A4A4A4A4A4A4070700000000000000000000000000A400A4A4A4
310
A4A4A4A4A4A4A4A4A4A4A4A4070007000000000000000000000000A400A4A4A4A4A4A4A4A4A4A4A4A4A4A4A4A407070000000000000000000000A400A4A400A4A4A4A4A4A4A4A4A4A4A4A4A4A4070007000000000000000000A40700A4A400A4A4A4A4A4A4A4A4A4A4A4A4A400A40707000000000000000000A400A4A4A4A4
310
A4A4A4A4A4A4A4A4A4A4A4A4A4A4A407000700000000000000A400A4A4A4A4A4A4A4A4A4A4A4A4A4A4A4A4A4A4A4A4A4070007000000000000A400A4A4A4A4A4A4A4A4A4A4A4A4A4A4A4A4A4A4A4A4A40700070000000000A400A4A400A4A4A4A4A4A4A4A4A4A4A4A4A4A4A4A4A4A4A40007000700000000A400A4A4A400A4
310
A4A4A4A4A4A4A4A4A4A4A4A4A4A4A4A4A4000700070000000700A4A4A4A4A4A4A4A4A4A4A4A4A4A4A4A4A4A4A4A4A4A4A4A4A40700070000A407A4A4A4A4A4A4A4A4A4A4A4A4A4A4A4A4A4A4A4A4A4A4A4A4A4A407A40000000000000000000000000000000000000000000000000000000000000000000000000000000000
310
0000000000000000000000000000000000000000000000000000000000000000000000000000000000000000000000000000000000000000
102
{BLKREFS
331
56AA
102
}
1001
AcDbDynamicBlockGUID
1000
{7D04BC3F-8AE2-40EA-A482-CE6E620AF154}
1001
AcDbBlockRepETag
1070
     1
1071
      907
1001
ACAD
1000
DesignCenter Data
1002
{
1070
     1
1070
     4
1002
}
  0
ENDTAB
  0
ENDSEC
  0
SECTION
  2
BLOCKS
  0
BLOCK
  5
20
330
1F
100
AcDbEntity
  8
0
100
AcDbBlockBegin
  2
*Model_Space
 70
     0
 10
0.0
 20
0.0
 30
0.0
  3
*Model_Space
  1

  0
ENDBLK
  5
21
330
1F
100
AcDbEntity
  8
0
100
AcDbBlockEnd
  0
BLOCK
  5
4CC1
330
4CBF
100
AcDbEntity
 67
     1
  8
0
100
AcDbBlockBegin
  2
*Paper_Space
 70
     0
 10
0.0
 20
0.0
 30
0.0
  3
*Paper_Space
  1

  0
ENDBLK
  5
4CC2
330
4CBF
100
AcDbEntity
 67
     1
  8
0
100
AcDbBlockEnd
  0
BLOCK
  5
37C8
330
37C7
100
AcDbEntity
  8
0
100
AcDbBlockBegin
  2
08600
 70
     0
 10
199.1571794166645
 20
219.760503870769
 30
0.0
  3
08600
  1
08600.dwg
  0
LWPOLYLINE
  5
567D
102
{ACAD_REACTORS
330
567E
102
}
330
37C7
100
AcDbEntity
  8
APL Joinery
  6
Continuous
100
AcDbPolyline
 90
      144
 70
     1
 43
0.0
 10
244.8269242989592
 20
238.8559584162235
 42
0.1432248589116724
 10
245.276939789862
 20
238.6262656100214
 42
-0.2959768337492813
 10
245.2769397898612
 20
236.3947421315165
 42
0.1432248589116831
 10
244.8269242989602
 20
236.1650493253145
 42
-0.3973597071195351
 10
242.2874345343681
 20
236.1650493253144
 42
0.599363233483035
 10
240.782308840381
 20
235.660503870769
 10
240.3071794166645
 20
235.660503870769
 42
0.4142135623730951
 10
240.0571794166646
 20
235.410503870769
 10
240.0571794166646
 20
234.4105038707691
 42
0.4142135623730951
 10
240.3071794166645
 20
234.160503870769
 10
247.6571794166646
 20
234.1605038707689
 10
247.6571794166646
 20
224.960503870769
 42
0.4142135623728455
 10
247.8571794166646
 20
224.760503870769
 10
248.7571794166649
 20
224.760503870769
 10
249.1571794166646
 20
225.160503870769
 10
262.7571824166651
 20
225.160503870769
 10
263.1571824166647
 20
224.760503870769
 10
264.9071794166648
 20
224.760503870769
 42
0.9999999999999998
 10
264.9071794166648
 20
226.260503870769
 10
249.1571794166646
 20
226.260503870769
 10
249.1571794166649
 20
234.360503870769
 42
0.4142135623731336
 10
247.8571794166648
 20
235.660503870769
 10
247.4814627907343
 20
235.660503870769
 42
-0.5149445451952161
 10
247.0086575649427
 20
236.3231544731787
 42
0.2034359732099162
 10
246.8089892460779
 20
239.1682833595222
 42
-0.4477817127676043
 10
247.0791368053804
 20
239.8636369037673
 42
0.3127834059992393
 10
249.1571794166646
 20
242.860503870769
 10
249.1571794166646
 20
245.7605038707689
 10
252.4571794166647
 20
245.760503870769
 42
1.044748832512376
 10
252.3959900701673
 20
247.1578243594076
 10
248.9610247293112
 20
246.8564087436709
 42
0.3888043079714984
 10
247.9571794166647
 20
245.7606194043816
 10
247.9571794166647
 20
242.860503870769
 42
-0.4142135623730951
 10
245.9571794166647
 20
240.860503870769
 10
235.6571794166646
 20
240.860503870769
 42
-0.4142135623730951
 10
234.6571794166646
 20
241.860503870769
 10
234.6571794166646
 20
262.560503870769
 42
0.4142135623730118
 10
234.4571794166646
 20
262.7605038707689
 10
232.5571794166648
 20
262.760503870769
 42
0.4142135623730118
 10
232.3571794166649
 20
262.560503870769
 10
232.3571794166649
 20
260.7605038707689
 10
231.1571794166646
 20
260.7605038707689
 42
0.4142135623730951
 10
230.6571794166646
 20
260.2605038707689
 10
230.6571794166646
 20
258.7105038707689
 42
0.9999999999999998
 10
231.6571794166646
 20
258.7105038707689
 10
231.6571794166646
 20
259.4605038707689
 10
233.1571794166646
 20
259.4605038707689
 10
233.1571794166646
 20
253.9605038707689
 10
231.6571794166646
 20
253.9605038707689
 10
231.6571794166646
 20
254.7105038707689
 42
0.9999999999999998
 10
230.6571794166646
 20
254.7105038707689
 10
230.6571794166646
 20
253.1605038707689
 42
0.4142135623730951
 10
231.1571794166646
 20
252.6605038707689
 10
232.8571794166649
 20
252.6605038707689
 10
232.8571794166649
 20
247.260503870769
 10
231.1571794166647
 20
247.260503870769
 42
0.9999999999999998
 10
231.1571794166647
 20
246.2605038707689
 10
232.8571794166649
 20
246.2605038707689
 10
232.8571794166649
 20
242.260503870769
 10
230.8571794166645
 20
242.260503870769
 42
0.4142135623730118
 10
230.6571794166647
 20
242.060503870769
 10
230.6571794166646
 20
240.760503870769
 10
226.0571794166647
 20
240.760503870769
 10
225.6571794166646
 20
240.3605038707689
 10
225.2571794166649
 20
240.760503870769
 10
212.657179416665
 20
240.760503870769
 42
0.9999999999999998
 10
212.6571794166646
 20
239.7605038707687
 10
215.1571794166646
 20
239.7605038707687
 42
-0.4142135623730951
 10
215.6571794166646
 20
239.2605038707687
 10
215.6571794166646
 20
237.4605038707687
 42
-0.4142135623730951
 10
215.1571794166646
 20
236.9605038707687
 10
212.5071794166647
 20
236.9605038707687
 42
0.4142135623730951
 10
208.8571794166647
 20
233.3105038707687
 10
208.8571794166646
 20
232.810503870769
 42
-0.4142135623730951
 10
208.6071794166646
 20
232.560503870769
 10
204.0571794166647
 20
232.560503870769
 10
203.6571794166646
 20
232.1605038707691
 10
203.2571794166645
 20
232.560503870769
 10
197.4571794166645
 20
232.560503870769
 42
-0.4142135623730951
 10
196.4571794166645
 20
233.560503870769
 10
196.4571794166647
 20
236.060503870769
 42
0.4142135623730118
 10
196.2571794166647
 20
236.260503870769
 10
196.1571794166646
 20
236.260503870769
 10
196.1571794166646
 20
239.260503870769
 10
196.9071794166645
 20
239.260503870769
 42
0.4744978678080102
 10
197.1521283909429
 20
239.560503870769
 42
0.3563939586925959
 10
195.682434545273
 20
240.760503870769
 10
194.9071794166646
 20
240.760503870769
 42
0.4142135623730951
 10
194.6571794166646
 20
240.510503870769
 10
194.6571794166646
 20
200.760503870769
 42
0.4142135623730951
 10
195.6571794166645
 20
199.7605038707689
 10
198.1571794166645
 20
199.7605038707689
 42
0.4142135623730951
 10
199.1571794166645
 20
200.760503870769
 10
199.1571794166645
 20
202.060503870769
 42
0.4142135623730118
 10
198.9571794166646
 20
202.2605038707689
 10
198.3571794166645
 20
202.2605038707689
 42
0.4142135623730118
 10
198.1571794166645
 20
202.060503870769
 10
198.1571794166645
 20
201.260503870769
 10
196.1571794166646
 20
201.260503870769
 10
196.1571794166646
 20
206.3605038707689
 42
0.9999999999999998
 10
196.1571794166646
 20
207.160503870769
 10
196.1571794166646
 20
212.260503870769
 10
198.1571794166645
 20
212.260503870769
 10
198.1571794166645
 20
211.460503870769
 42
0.4142135623728455
 10
198.3571794166645
 20
211.260503870769
 10
198.9571794166646
 20
211.260503870769
 42
0.4142135623728453
 10
199.1571794166645
 20
211.460503870769
 10
199.1571794166645
 20
212.7605038707689
 42
0.4142135623730951
 10
198.1571794166645
 20
213.760503870769
 10
196.4571794166647
 20
213.760503870769
 10
196.4571794166645
 20
230.3605038707691
 10
208.5071794166647
 20
230.3605038707686
 10
208.5071794166647
 20
229.5105038707687
 42
0.414213562373012
 10
208.7071794166647
 20
229.3105038707687
 10
216.6071794166646
 20
229.3105038707687
 10
216.6071794166646
 20
224.960503870769
 42
0.4142135623728455
 10
216.8071794166646
 20
224.760503870769
 10
217.9071794166646
 20
224.760503870769
 42
0.4142135623730118
 10
218.1071794166646
 20
224.9605038707689
 10
218.1071794166646
 20
229.3105038707687
 42
0.4142135623730951
 10
216.6071794166646
 20
230.8105038707687
 10
215.2946380254823
 20
230.8105038707687
 10
215.2946380254823
 20
231.3105038707687
 42
0.657763010441712
 10
213.7769242989604
 20
231.9650493253142
 42
-0.3973597071194602
 10
211.2374345343701
 20
231.9650493253141
 42
0.1432248589116724
 10
210.7874190434673
 20
232.1947421315162
 42
-0.2959768337492813
 10
210.7874190434681
 20
234.4262656100212
 42
0.1432248589116831
 10
211.2374345343696
 20
234.6559584162235
 42
-0.3973597071194223
 10
213.7769242989602
 20
234.6559584162234
 42
0.6006744515322297
 10
215.2826218615389
 20
235.1639272460893
 42
0.3983200018818864
 10
217.4571794166646
 20
237.4605038707687
 10
217.4571794166648
 20
238.4605038707689
 42
-0.4142135623730951
 10
217.9571794166648
 20
238.9605038707689
 10
221.6571794166646
 20
238.9605038707689
 10
221.6571794166646
 20
238.760503870769
 42
0.4142135623728455
 10
221.8571794166646
 20
238.5605038707689
 10
229.4571794166645
 20
238.5605038707689
 42
0.4142135623729286
 10
229.6571794166646
 20
238.760503870769
 10
229.6571794166646
 20
238.9605038707689
 10
234.4571794166646
 20
238.9605038707689
 42
0.4142135623728453
 10
234.6571794166646
 20
239.1605038707689
 10
234.6571794166646
 20
239.3605038707689
 10
240.782308840381
 20
239.3605038707689
 42
0.5993632334830349
 10
242.287434534369
 20
238.8559584162234
 42
-0.3973597071195353
  0
HATCH
  5
567E
330
37C7
100
AcDbEntity
  8
APL Hatch
100
AcDbHatch
 10
0.0
 20
0.0
 30
0.0
210
0.0
220
0.0
230
1.0
  2
SOLID
 70
     1
 71
     1
 91
        1
 92
        1
 93
      144
 72
     2
 10
245.4446380254818
 20
239.5105038707705
 40
0.9000000000014225
 50
226.6582417728268
 51
259.2612357600979
 73
     1
 72
     2
 10
243.5571794166642
 20
237.5105038707696
 40
2.049999999999971
 50
327.0249334069859
 51
392.9750665930549
 73
     0
 72
     2
 10
245.4446380254817
 20
235.5105038707705
 40
0.8999999999985508
 50
100.7387642399847
 51
133.3417582272588
 73
     1
 72
     2
 10
243.557179416664
 20
237.5105038707694
 40
1.850000000000651
 50
46.65824177277285
 51
133.3417582272221
 73
     0
 72
     2
 10
241.6697208078459
 20
235.5105038707689
 40
0.8999999999999918
 50
46.65824177277566
 51
170.4059317731335
 73
     1
 72
     1
 10
240.782308840381
 20
235.660503870769
 11
240.3071794166645
 21
235.660503870769
 72
     2
 10
240.3071794166645
 20
235.410503870769
 40
0.25
 50
90.0
 51
180.0
 73
     1
 72
     1
 10
240.0571794166646
 20
235.410503870769
 11
240.0571794166646
 21
234.4105038707691
 72
     2
 10
240.3071794166645
 20
234.4105038707691
 40
0.25
 50
180.0
 51
270.0
 73
     1
 72
     1
 10
240.3071794166645
 20
234.160503870769
 11
247.6571794166646
 21
234.1605038707689
 72
     1
 10
247.6571794166646
 20
234.1605038707689
 11
247.6571794166646
 21
224.960503870769
 72
     2
 10
247.8571794166647
 20
224.9605038707691
 40
0.2000000000001023
 50
180.0000000000163
 51
269.9999999999674
 73
     1
 72
     1
 10
247.8571794166646
 20
224.760503870769
 11
248.7571794166649
 21
224.760503870769
 72
     1
 10
248.7571794166649
 20
224.760503870769
 11
249.1571794166646
 21
225.160503870769
 72
     1
 10
249.1571794166646
 20
225.160503870769
 11
262.7571824166651
 21
225.160503870769
 72
     1
 10
262.7571824166651
 20
225.160503870769
 11
263.1571824166647
 21
224.760503870769
 72
     1
 10
263.1571824166647
 20
224.760503870769
 11
264.9071794166648
 21
224.760503870769
 72
     2
 10
264.9071794166648
 20
225.5105038707689
 40
0.75
 50
270.0
 51
450.0
 73
     1
 72
     1
 10
264.9071794166648
 20
226.260503870769
 11
249.1571794166646
 21
226.260503870769
 72
     1
 10
249.1571794166646
 20
226.260503870769
 11
249.1571794166649
 21
234.360503870769
 72
     2
 10
247.857179416665
 20
234.360503870769
 40
1.299999999999897
 50
359.9999999999975
 51
450.0000000000049
 73
     1
 72
     1
 10
247.8571794166648
 20
235.660503870769
 11
247.4814627907343
 21
235.660503870769
 72
     2
 10
247.4814627907343
 20
236.160503870769
 40
0.5
 50
90.00000000000325
 51
198.9838243850384
 73
     0
 72
     2
 10
243.5571794166647
 20
237.5105038707689
 40
3.649999999999852
 50
341.0161756149603
 51
387.0125826341198
 73
     1
 72
     2
 10
247.2544426473673
 20
239.3953764401733
 40
0.4999999999999973
 50
152.9874173658788
 51
249.4752670041154
 73
     0
 72
     2
 10
245.9571794166649
 20
242.8605038707688
 40
3.199999999999662
 50
290.5247329958711
 51
360.0000000000036
 73
     1
 72
     1
 10
249.1571794166646
 20
242.860503870769
 11
249.1571794166646
 21
245.7605038707689
 72
     1
 10
249.1571794166646
 20
245.7605038707689
 11
252.4571794166647
 21
245.760503870769
 72
     2
 10
252.4571794166648
 20
246.460503870769
 40
0.6999999999999887
 50
269.9999999999954
 51
455.0148164792156
 73
     1
 72
     1
 10
252.3959900701673
 20
247.1578243594076
 11
248.9610247293112
 21
246.8564087436709
 72
     2
 10
249.0571794166648
 20
245.7606194043817
 40
1.099999999999999
 50
95.01481647922753
 51
180.0000000000029
 73
     1
 72
     1
 10
247.9571794166647
 20
245.7606194043816
 11
247.9571794166647
 21
242.860503870769
 72
     2
 10
245.9571794166647
 20
242.860503870769
 40
2.0
 50
360.0
 51
450.0
 73
     0
 72
     1
 10
245.9571794166647
 20
240.860503870769
 11
235.6571794166646
 21
240.860503870769
 72
     2
 10
235.6571794166646
 20
241.860503870769
 40
1.0
 50
90.0
 51
180.0
 73
     0
 72
     1
 10
234.6571794166646
 20
241.860503870769
 11
234.6571794166646
 21
262.560503870769
 72
     2
 10
234.4571794166646
 20
262.560503870769
 40
0.1999999999999886
 50
0.0
 51
89.99999999998371
 73
     1
 72
     1
 10
234.4571794166646
 20
262.7605038707689
 11
232.5571794166648
 21
262.760503870769
 72
     2
 10
232.5571794166649
 20
262.560503870769
 40
0.1999999999999886
 50
90.00000000001628
 51
180.0
 73
     1
 72
     1
 10
232.3571794166649
 20
262.560503870769
 11
232.3571794166649
 21
260.7605038707689
 72
     1
 10
232.3571794166649
 20
260.7605038707689
 11
231.1571794166646
 21
260.7605038707689
 72
     2
 10
231.1571794166646
 20
260.2605038707689
 40
0.5
 50
90.0
 51
180.0
 73
     1
 72
     1
 10
230.6571794166646
 20
260.2605038707689
 11
230.6571794166646
 21
258.7105038707689
 72
     2
 10
231.1571794166646
 20
258.7105038707689
 40
0.5
 50
180.0
 51
360.0
 73
     1
 72
     1
 10
231.6571794166646
 20
258.7105038707689
 11
231.6571794166646
 21
259.4605038707689
 72
     1
 10
231.6571794166646
 20
259.4605038707689
 11
233.1571794166646
 21
259.4605038707689
 72
     1
 10
233.1571794166646
 20
259.4605038707689
 11
233.1571794166646
 21
253.9605038707689
 72
     1
 10
233.1571794166646
 20
253.9605038707689
 11
231.6571794166646
 21
253.9605038707689
 72
     1
 10
231.6571794166646
 20
253.9605038707689
 11
231.6571794166646
 21
254.7105038707689
 72
     2
 10
231.1571794166646
 20
254.7105038707689
 40
0.5
 50
0.0
 51
180.0
 73
     1
 72
     1
 10
230.6571794166646
 20
254.7105038707689
 11
230.6571794166646
 21
253.1605038707689
 72
     2
 10
231.1571794166646
 20
253.1605038707689
 40
0.5
 50
180.0
 51
270.0
 73
     1
 72
     1
 10
231.1571794166646
 20
252.6605038707689
 11
232.8571794166649
 21
252.6605038707689
 72
     1
 10
232.8571794166649
 20
252.6605038707689
 11
232.8571794166649
 21
247.260503870769
 72
     1
 10
232.8571794166649
 20
247.260503870769
 11
231.1571794166647
 21
247.260503870769
 72
     2
 10
231.1571794166647
 20
246.760503870769
 40
0.5
 50
90.0
 51
270.0
 73
     1
 72
     1
 10
231.1571794166647
 20
246.2605038707689
 11
232.8571794166649
 21
246.2605038707689
 72
     1
 10
232.8571794166649
 20
246.2605038707689
 11
232.8571794166649
 21
242.260503870769
 72
     1
 10
232.8571794166649
 20
242.260503870769
 11
230.8571794166645
 21
242.260503870769
 72
     2
 10
230.8571794166646
 20
242.060503870769
 40
0.1999999999999886
 50
90.00000000001628
 51
180.0
 73
     1
 72
     1
 10
230.6571794166647
 20
242.060503870769
 11
230.6571794166646
 21
240.760503870769
 72
     1
 10
230.6571794166646
 20
240.760503870769
 11
226.0571794166647
 21
240.760503870769
 72
     1
 10
226.0571794166647
 20
240.760503870769
 11
225.6571794166646
 21
240.3605038707689
 72
     1
 10
225.6571794166646
 20
240.3605038707689
 11
225.2571794166649
 21
240.760503870769
 72
     1
 10
225.2571794166649
 20
240.760503870769
 11
212.657179416665
 21
240.760503870769
 72
     2
 10
212.6571794166648
 20
240.2605038707688
 40
0.5000000000001137
 50
89.99999999997395
 51
269.9999999999739
 73
     1
 72
     1
 10
212.6571794166646
 20
239.7605038707687
 11
215.1571794166646
 21
239.7605038707687
 72
     2
 10
215.1571794166646
 20
239.2605038707687
 40
0.5
 50
270.0
 51
360.0
 73
     0
 72
     1
 10
215.6571794166646
 20
239.2605038707687
 11
215.6571794166646
 21
237.4605038707687
 72
     2
 10
215.1571794166646
 20
237.4605038707687
 40
0.5
 50
360.0
 51
450.0
 73
     0
 72
     1
 10
215.1571794166646
 20
236.9605038707687
 11
212.5071794166647
 21
236.9605038707687
 72
     2
 10
212.5071794166647
 20
233.3105038707687
 40
3.649999999999977
 50
90.0
 51
180.0
 73
     1
 72
     1
 10
208.8571794166647
 20
233.3105038707687
 11
208.8571794166646
 21
232.810503870769
 72
     2
 10
208.6071794166646
 20
232.810503870769
 40
0.25
 50
360.0
 51
450.0
 73
     0
 72
     1
 10
208.6071794166646
 20
232.560503870769
 11
204.0571794166647
 21
232.560503870769
 72
     1
 10
204.0571794166647
 20
232.560503870769
 11
203.6571794166646
 21
232.1605038707691
 72
     1
 10
203.6571794166646
 20
232.1605038707691
 11
203.2571794166645
 21
232.560503870769
 72
     1
 10
203.2571794166645
 20
232.560503870769
 11
197.4571794166645
 21
232.560503870769
 72
     2
 10
197.4571794166645
 20
233.560503870769
 40
1.0
 50
90.0
 51
180.0
 73
     0
 72
     1
 10
196.4571794166645
 20
233.560503870769
 11
196.4571794166647
 21
236.060503870769
 72
     2
 10
196.2571794166647
 20
236.060503870769
 40
0.1999999999999886
 50
0.0000000000162844
 51
90.0
 73
     1
 72
     1
 10
196.2571794166647
 20
236.260503870769
 11
196.1571794166646
 21
236.260503870769
 72
     1
 10
196.1571794166646
 20
236.260503870769
 11
196.1571794166646
 21
239.260503870769
 72
     1
 10
196.1571794166646
 20
239.260503870769
 11
196.9071794166645
 21
239.260503870769
 72
     2
 10
196.9071794166645
 20
239.510503870769
 40
0.2500000000000568
 50
270.000000000013
 51
371.5369590328156
 73
     1
 72
     2
 10
195.682434545273
 20
239.260503870769
 40
1.499999999999934
 50
11.53695903281644
 51
90.0
 73
     1
 72
     1
 10
195.682434545273
 20
240.760503870769
 11
194.9071794166646
 21
240.760503870769
 72
     2
 10
194.9071794166646
 20
240.510503870769
 40
0.25
 50
90.0
 51
180.0
 73
     1
 72
     1
 10
194.6571794166646
 20
240.510503870769
 11
194.6571794166646
 21
200.760503870769
 72
     2
 10
195.6571794166645
 20
200.760503870769
 40
1.0
 50
180.0
 51
270.0
 73
     1
 72
     1
 10
195.6571794166645
 20
199.7605038707689
 11
198.1571794166645
 21
199.7605038707689
 72
     2
 10
198.1571794166645
 20
200.760503870769
 40
1.0
 50
270.0
 51
360.0
 73
     1
 72
     1
 10
199.1571794166645
 20
200.760503870769
 11
199.1571794166645
 21
202.060503870769
 72
     2
 10
198.9571794166646
 20
202.060503870769
 40
0.1999999999999886
 50
0.0000000000162844
 51
90.0
 73
     1
 72
     1
 10
198.9571794166646
 20
202.2605038707689
 11
198.3571794166645
 21
202.2605038707689
 72
     2
 10
198.3571794166645
 20
202.060503870769
 40
0.1999999999999886
 50
90.0
 51
179.9999999999837
 73
     1
 72
     1
 10
198.1571794166645
 20
202.060503870769
 11
198.1571794166645
 21
201.260503870769
 72
     1
 10
198.1571794166645
 20
201.260503870769
 11
196.1571794166646
 21
201.260503870769
 72
     1
 10
196.1571794166646
 20
201.260503870769
 11
196.1571794166646
 21
206.3605038707689
 72
     2
 10
196.1571794166646
 20
206.7605038707689
 40
0.4000000000000341
 50
270.0
 51
450.0
 73
     1
 72
     1
 10
196.1571794166646
 20
207.160503870769
 11
196.1571794166646
 21
212.260503870769
 72
     1
 10
196.1571794166646
 20
212.260503870769
 11
198.1571794166645
 21
212.260503870769
 72
     1
 10
198.1571794166645
 20
212.260503870769
 11
198.1571794166645
 21
211.460503870769
 72
     2
 10
198.3571794166646
 20
211.460503870769
 40
0.2000000000001023
 50
180.0000000000163
 51
269.9999999999674
 73
     1
 72
     1
 10
198.3571794166645
 20
211.260503870769
 11
198.9571794166646
 21
211.260503870769
 72
     2
 10
198.9571794166645
 20
211.460503870769
 40
0.2000000000001023
 50
270.0000000000326
 51
359.9999999999837
 73
     1
 72
     1
 10
199.1571794166645
 20
211.460503870769
 11
199.1571794166645
 21
212.7605038707689
 72
     2
 10
198.1571794166645
 20
212.7605038707689
 40
1.0
 50
0.0
 51
90.0
 73
     1
 72
     1
 10
198.1571794166645
 20
213.760503870769
 11
196.4571794166647
 21
213.760503870769
 72
     1
 10
196.4571794166647
 20
213.760503870769
 11
196.4571794166645
 21
230.3605038707691
 72
     1
 10
196.4571794166645
 20
230.3605038707691
 11
208.5071794166647
 21
230.3605038707686
 72
     1
 10
208.5071794166647
 20
230.3605038707686
 11
208.5071794166647
 21
229.5105038707687
 72
     2
 10
208.7071794166647
 20
229.5105038707687
 40
0.2000000000000455
 50
180.0000000000163
 51
270.0
 73
     1
 72
     1
 10
208.7071794166647
 20
229.3105038707687
 11
216.6071794166646
 21
229.3105038707687
 72
     1
 10
216.6071794166646
 20
229.3105038707687
 11
216.6071794166646
 21
224.960503870769
 72
     2
 10
216.8071794166647
 20
224.9605038707691
 40
0.2000000000001023
 50
180.0000000000163
 51
269.9999999999674
 73
     1
 72
     1
 10
216.8071794166646
 20
224.760503870769
 11
217.9071794166646
 21
224.760503870769
 72
     2
 10
217.9071794166646
 20
224.960503870769
 40
0.2000000000000455
 50
270.0
 51
359.9999999999837
 73
     1
 72
     1
 10
218.1071794166646
 20
224.9605038707689
 11
218.1071794166646
 21
229.3105038707687
 72
     2
 10
216.6071794166646
 20
229.3105038707687
 40
1.5
 50
0.0
 51
90.0
 73
     1
 72
     1
 10
216.6071794166646
 20
230.8105038707687
 11
215.2946380254823
 21
230.8105038707687
 72
     1
 10
215.2946380254823
 20
230.8105038707687
 11
215.2946380254823
 21
231.3105038707687
 72
     2
 10
214.3946380254824
 20
231.3105038707688
 40
0.8999999999998919
 50
359.9999999999964
 51
493.341758227219
 73
     1
 72
     2
 10
212.5071794166652
 20
233.3105038707685
 40
1.849999999999593
 50
46.65824177278063
 51
133.341758227215
 73
     0
 72
     2
 10
210.6197208078475
 20
231.3105038707671
 40
0.9000000000014225
 50
46.65824177282679
 51
79.26123576009786
 73
     1
 72
     2
 10
212.5071794166651
 20
233.3105038707681
 40
2.049999999999971
 50
147.0249334069858
 51
212.9750665930549
 73
     0
 72
     2
 10
210.6197208078472
 20
235.3105038707681
 40
0.8999999999995306
 50
280.7387642399932
 51
313.341758227267
 73
     1
 72
     2
 10
212.5071794166648
 20
233.3105038707687
 40
1.849999999999963
 50
226.658241772789
 51
313.3417582272159
 73
     0
 72
     2
 10
214.3946380254824
 20
235.3105038707688
 40
0.9000000000000309
 50
226.658241772773
 51
350.6268906309589
 73
     1
 72
     2
 10
215.1571794166647
 20
237.4605038707687
 40
2.299999999999914
 50
273.1264742241181
 51
360.0
 73
     1
 72
     1
 10
217.4571794166646
 20
237.4605038707687
 11
217.4571794166648
 21
238.4605038707689
 72
     2
 10
217.9571794166648
 20
238.4605038707689
 40
0.5
 50
180.0
 51
270.0
 73
     0
 72
     1
 10
217.9571794166648
 20
238.9605038707689
 11
221.6571794166646
 21
238.9605038707689
 72
     1
 10
221.6571794166646
 20
238.9605038707689
 11
221.6571794166646
 21
238.760503870769
 72
     2
 10
221.8571794166647
 20
238.760503870769
 40
0.2000000000001023
 50
180.0000000000163
 51
269.9999999999674
 73
     1
 72
     1
 10
221.8571794166646
 20
238.5605038707689
 11
229.4571794166645
 21
238.5605038707689
 72
     2
 10
229.4571794166645
 20
238.760503870769
 40
0.2000000000001023
 50
270.0000000000163
 51
359.9999999999837
 73
     1
 72
     1
 10
229.6571794166646
 20
238.760503870769
 11
229.6571794166646
 21
238.9605038707689
 72
     1
 10
229.6571794166646
 20
238.9605038707689
 11
234.4571794166646
 21
238.9605038707689
 72
     2
 10
234.4571794166645
 20
239.160503870769
 40
0.2000000000001023
 50
270.0000000000326
 51
359.9999999999837
 73
     1
 72
     1
 10
234.6571794166646
 20
239.1605038707689
 11
234.6571794166646
 21
239.3605038707689
 72
     1
 10
234.6571794166646
 20
239.3605038707689
 11
240.782308840381
 21
239.3605038707689
 72
     2
 10
241.6697208078463
 20
239.5105038707692
 40
0.9000000000004636
 50
189.5940682268723
 51
313.341758227233
 73
     1
 72
     2
 10
243.5571794166642
 20
237.5105038707695
 40
1.849999999999345
 50
226.6582417727734
 51
313.3417582272216
 73
     0
 97
        1
330
567D
 75
     0
 76
     1
 98
        1
 10
0.0
 20
0.0
  0
ENDBLK
  5
37C9
330
37C7
100
AcDbEntity
  8
0
100
AcDbBlockEnd
  0
BLOCK
  5
37D0
330
37CF
100
AcDbEntity
  8
0
100
AcDbBlockBegin
  2
08656
 70
     0
 10
-87.02271089873537
 20
623.3672135023791
 30
0.0
  3
08656
  1
08656.dwg
  0
LWPOLYLINE
  5
5680
102
{ACAD_REACTORS
330
5681
102
}
330
37CF
100
AcDbEntity
  8
APL Joinery
  6
Continuous
100
AcDbPolyline
 90
       49
 70
     1
 43
0.0
 10
-83.42271089873534
 20
620.3101067211855
 10
-83.42271089873523
 20
623.1172135023788
 42
0.1989123673796284
 10
-83.8181167441334
 20
624.0718076569805
 10
-85.2227108987353
 20
625.4764018115827
 10
-85.2227108987353
 20
640.567213502379
 42
-0.4142135623730951
 10
-84.7227108987353
 20
641.067213502379
 10
-67.52271089873525
 20
641.067213502379
 42
-0.4142135623730951
 10
-67.02271089873526
 20
640.567213502379
 10
-67.02271089873531
 20
625.6672135023791
 42
0.4142135623730951
 10
-64.7227108987353
 20
623.3672135023791
 10
-51.42271089873535
 20
623.3672135023791
 42
0.4142135623732116
 10
-51.22271089873535
 20
623.5672135023791
 10
-51.2227108987353
 20
624.9672135023792
 42
0.4142135623730118
 10
-51.42271089873535
 20
625.1672135023791
 10
-55.62271089873533
 20
625.167213502379
 10
-56.02271089873531
 20
624.767213502379
 10
-56.42271089873523
 20
625.167213502379
 10
-64.7227108987353
 20
625.1672135023791
 42
-0.4142135623730951
 10
-65.2227108987353
 20
625.6672135023791
 10
-65.22271089873524
 20
640.5672135023791
 42
0.4142135623730951
 10
-67.52271089873525
 20
642.8672135023791
 10
-84.22271089873531
 20
642.8672135023791
 42
-0.4142135623730951
 10
-85.2227108987353
 20
643.8672135023791
 10
-85.2227108987353
 20
654.767213502379
 10
-83.52271089873525
 20
654.767213502379
 42
0.4142135623730951
 10
-83.02271089873526
 20
655.267213502379
 10
-83.02271089873526
 20
656.817213502379
 42
0.9999999999999998
 10
-84.02271089873526
 20
656.817213502379
 10
-84.02271089873526
 20
656.0672135023789
 10
-85.52271089873526
 20
656.0672135023789
 10
-85.52271089873526
 20
661.567213502379
 10
-84.02271089873526
 20
661.567213502379
 10
-84.02271089873526
 20
660.817213502379
 42
0.9999999999999998
 10
-83.02271089873526
 20
660.817213502379
 10
-83.02271089873526
 20
662.3672135023792
 42
0.4142135623730951
 10
-83.52271089873525
 20
662.8672135023792
 10
-84.7227108987353
 20
662.8672135023792
 10
-84.7227108987353
 20
664.6672135023791
 42
0.4142135623729785
 10
-84.92271089873529
 20
664.8672135023791
 10
-86.82271089873527
 20
664.8672135023791
 42
0.4142135623729619
 10
-87.02271089873525
 20
664.6672135023791
 10
-87.02271089873537
 20
623.6550814680229
 42
0.4142135623730951
 10
-86.7348429330913
 20
623.3672135023791
 10
-84.77271089873548
 20
623.3672135023788
 42
-0.4142135623730951
 10
-84.52271089873525
 20
623.1172135023789
 10
-84.52271089873548
 20
622.0136601117756
 10
-84.94948759403186
 20
621.5868834164791
 42
0.4142135623731421
 10
-84.94948759403033
 20
621.2333300258874
 10
-83.84948759403201
 20
620.1333300258887
 42
0.6681786379193471
  0
HATCH
  5
5681
330
37CF
100
AcDbEntity
  8
APL Hatch
100
AcDbHatch
 10
0.0
 20
0.0
 30
0.0
210
0.0
220
0.0
230
1.0
  2
SOLID
 70
     1
 71
     1
 91
        1
 92
        1
 93
       49
 72
     1
 10
-83.42271089873534
 20
620.3101067211855
 11
-83.42271089873523
 21
623.1172135023788
 72
     2
 10
-84.7727108987353
 20
623.1172135023787
 40
1.350000000000079
 50
0.000000000004825
 51
44.99999999999829
 73
     1
 72
     1
 10
-83.8181167441334
 20
624.0718076569805
 11
-85.2227108987353
 21
625.4764018115827
 72
     1
 10
-85.2227108987353
 20
625.4764018115827
 11
-85.2227108987353
 21
640.567213502379
 72
     2
 10
-84.7227108987353
 20
640.567213502379
 40
0.5
 50
180.0
 51
270.0
 73
     0
 72
     1
 10
-84.7227108987353
 20
641.067213502379
 11
-67.52271089873525
 21
641.067213502379
 72
     2
 10
-67.52271089873525
 20
640.567213502379
 40
0.5
 50
270.0
 51
360.0
 73
     0
 72
     1
 10
-67.02271089873526
 20
640.567213502379
 11
-67.02271089873531
 21
625.6672135023791
 72
     2
 10
-64.72271089873533
 20
625.6672135023791
 40
2.299999999999982
 50
180.0
 51
270.0000000000007
 73
     1
 72
     1
 10
-64.7227108987353
 20
623.3672135023791
 11
-51.42271089873535
 21
623.3672135023791
 72
     2
 10
-51.42271089873528
 20
623.5672135023791
 40
0.1999999999999318
 50
269.9999999999796
 51
360.0
 73
     1
 72
     1
 10
-51.22271089873535
 20
623.5672135023791
 11
-51.2227108987353
 21
624.9672135023792
 72
     2
 10
-51.42271089873531
 20
624.967213502379
 40
0.200000000000017
 50
0.0000000000325689
 51
90.00000000000813
 73
     1
 72
     1
 10
-51.42271089873535
 20
625.1672135023791
 11
-55.62271089873533
 21
625.167213502379
 72
     1
 10
-55.62271089873533
 20
625.167213502379
 11
-56.02271089873531
 21
624.767213502379
 72
     1
 10
-56.02271089873531
 20
624.767213502379
 11
-56.42271089873523
 21
625.167213502379
 72
     1
 10
-56.42271089873523
 20
625.167213502379
 11
-64.7227108987353
 21
625.1672135023791
 72
     2
 10
-64.7227108987353
 20
625.6672135023791
 40
0.5
 50
90.0
 51
180.0
 73
     0
 72
     1
 10
-65.2227108987353
 20
625.6672135023791
 11
-65.22271089873524
 21
640.5672135023791
 72
     2
 10
-67.52271089873528
 20
640.5672135023792
 40
2.300000000000039
 50
359.9999999999972
 51
449.9999999999992
 73
     1
 72
     1
 10
-67.52271089873525
 20
642.8672135023791
 11
-84.22271089873531
 21
642.8672135023791
 72
     2
 10
-84.22271089873531
 20
643.8672135023791
 40
1.0
 50
90.0
 51
180.0
 73
     0
 72
     1
 10
-85.2227108987353
 20
643.8672135023791
 11
-85.2227108987353
 21
654.767213502379
 72
     1
 10
-85.2227108987353
 20
654.767213502379
 11
-83.52271089873525
 21
654.767213502379
 72
     2
 10
-83.52271089873525
 20
655.267213502379
 40
0.5
 50
270.0
 51
360.0
 73
     1
 72
     1
 10
-83.02271089873526
 20
655.267213502379
 11
-83.02271089873526
 21
656.817213502379
 72
     2
 10
-83.52271089873525
 20
656.817213502379
 40
0.5
 50
0.0
 51
180.0
 73
     1
 72
     1
 10
-84.02271089873526
 20
656.817213502379
 11
-84.02271089873526
 21
656.0672135023789
 72
     1
 10
-84.02271089873526
 20
656.0672135023789
 11
-85.52271089873526
 21
656.0672135023789
 72
     1
 10
-85.52271089873526
 20
656.0672135023789
 11
-85.52271089873526
 21
661.567213502379
 72
     1
 10
-85.52271089873526
 20
661.567213502379
 11
-84.02271089873526
 21
661.567213502379
 72
     1
 10
-84.02271089873526
 20
661.567213502379
 11
-84.02271089873526
 21
660.817213502379
 72
     2
 10
-83.52271089873525
 20
660.817213502379
 40
0.5
 50
180.0
 51
360.0
 73
     1
 72
     1
 10
-83.02271089873526
 20
660.817213502379
 11
-83.02271089873526
 21
662.3672135023792
 72
     2
 10
-83.52271089873525
 20
662.3672135023792
 40
0.5
 50
0.0
 51
90.0
 73
     1
 72
     1
 10
-83.52271089873525
 20
662.8672135023792
 11
-84.7227108987353
 21
662.8672135023792
 72
     1
 10
-84.7227108987353
 20
662.8672135023792
 11
-84.7227108987353
 21
664.6672135023791
 72
     2
 10
-84.92271089873536
 20
664.6672135023791
 40
0.2000000000000597
 50
0.0
 51
89.99999999997966
 73
     1
 72
     1
 10
-84.92271089873529
 20
664.8672135023791
 11
-86.82271089873527
 21
664.8672135023791
 72
     2
 10
-86.8227108987352
 20
664.6672135023791
 40
0.2000000000000455
 50
90.00000000002037
 51
180.0
 73
     1
 72
     1
 10
-87.02271089873525
 20
664.6672135023791
 11
-87.02271089873537
 21
623.6550814680229
 72
     2
 10
-86.73484293309147
 20
623.6550814680231
 40
0.2878679656438976
 50
180.0000000000452
 51
270.0000000000339
 73
     1
 72
     1
 10
-86.7348429330913
 20
623.3672135023791
 11
-84.77271089873548
 21
623.3672135023788
 72
     2
 10
-84.7727108987353
 20
623.1172135023787
 40
0.2500000000001137
 50
269.9999999999609
 51
359.9999999999479
 73
     0
 72
     1
 10
-84.52271089873525
 20
623.1172135023789
 11
-84.52271089873548
 21
622.0136601117756
 72
     1
 10
-84.52271089873548
 20
622.0136601117756
 11
-84.94948759403186
 21
621.5868834164791
 72
     2
 10
-84.77271089873525
 20
621.410106721184
 40
0.2499999999988765
 50
135.0000000002487
 51
225.0000000002579
 73
     1
 72
     1
 10
-84.94948759403033
 20
621.2333300258874
 11
-83.84948759403201
 21
620.1333300258887
 72
     2
 10
-83.6727108987354
 20
620.3101067211854
 40
0.2500000000000824
 50
225.0000000000276
 51
360.000000000026
 73
     1
 97
        1
330
5680
 75
     0
 76
     1
 98
        1
 10
0.0
 20
0.0
  0
ENDBLK
  5
37D1
330
37CF
100
AcDbEntity
  8
0
100
AcDbBlockEnd
  0
BLOCK
  5
37D7
330
37D6
100
AcDbEntity
  8
0
100
AcDbBlockBegin
  2
08655
 70
     0
 10
-128.1098599547646
 20
622.8082046716848
 30
0.0
  3
08655
  1
08655.dwg
  0
LWPOLYLINE
  5
5683
102
{ACAD_REACTORS
330
5685
102
}
330
37D6
100
AcDbEntity
  8
APL Joinery
  6
Continuous
100
AcDbPolyline
 90
       79
 70
     1
 43
0.0
 10
-159.4149109804865
 20
651.1082046716848
 42
0.3563939586925873
 10
-160.8846048261563
 20
652.3082046716847
 10
-161.6598599547648
 20
652.3082046716847
 42
0.4142135623730951
 10
-161.9098599547648
 20
652.0582046716847
 10
-161.9098599547648
 20
645.3026220541006
 10
-170.1239472512912
 20
637.0885347575748
 42
0.9999999999999596
 10
-169.0632870795118
 20
636.027874585795
 10
-162.8606934298915
 20
642.2304682354148
 42
-0.547625507204578
 10
-162.4492559117066
 20
642.1399139165735
 42
0.0615548353786481
 10
-162.1098599547645
 20
641.4800825386595
 10
-162.1098599547646
 20
639.8332046716847
 42
0.4142135623730951
 10
-161.8598599547646
 20
639.5832046716847
 10
-155.9098599547648
 20
639.5832046716847
 10
-155.9098599547648
 20
620.5082046716849
 42
0.4142135623730118
 10
-155.7098599547648
 20
620.3082046716848
 10
-154.6098599547647
 20
620.308204671685
 42
0.4142135623730118
 10
-154.4098599547648
 20
620.5082046716849
 10
-154.4098599547648
 20
622.8082046716848
 10
-128.1098599547646
 20
622.8082046716848
 10
-128.1098599547646
 20
615.0082046716849
 42
0.4142135623730118
 10
-127.9098599547646
 20
614.8082046716848
 10
-126.6098599547643
 20
614.8082046716848
 42
0.4142135623730451
 10
-126.4098599547643
 20
615.0082046716849
 10
-126.4098599547643
 20
622.3082046716848
 10
-120.8817523910571
 20
622.3082046716848
 42
0.4142135623730951
 10
-120.3817523910571
 20
622.8082046716848
 10
-120.3817523910568
 20
623.965341445436
 42
-0.66817863791934
 10
-119.5761282658988
 20
624.2990418842514
 10
-118.2098599547645
 20
622.9327735731169
 10
-118.2098599547645
 20
611.4082046716847
 10
-118.9098599547643
 20
611.4082046716847
 42
0.4142135623730951
 10
-119.9098599547643
 20
610.4082046716847
 10
-119.9098599547643
 20
609.3582046716847
 42
0.9999999999999998
 10
-118.9098599547643
 20
609.3582046716847
 10
-118.9098599547643
 20
610.1082046716848
 10
-117.4098599547643
 20
610.1082046716848
 10
-117.4098599547643
 20
604.6082046716848
 10
-118.9098599547643
 20
604.6082046716848
 10
-118.9098599547643
 20
605.3582046716847
 42
0.9999999999999998
 10
-119.9098599547643
 20
605.3582046716847
 10
-119.9098599547643
 20
604.3082046716848
 42
0.4142135623730951
 10
-118.9098599547643
 20
603.3082046716848
 10
-116.6098599547642
 20
603.3082046716849
 42
0.4142135623730451
 10
-116.4098599547643
 20
603.5082046716849
 10
-116.4098599547643
 20
623.8783579853887
 42
0.1989123673796483
 10
-116.468438598527
 20
624.019779341626
 10
-121.9098599547647
 20
629.4612006978635
 10
-121.9098599547647
 20
674.1082046716846
 42
0.4142135623730617
 10
-122.1098599547648
 20
674.3082046716847
 10
-124.0098599547645
 20
674.3082046716847
 42
0.4142135623730118
 10
-124.2098599547645
 20
674.1082046716847
 10
-124.2098599547645
 20
672.3082046716847
 10
-125.4098599547648
 20
672.3082046716847
 42
0.4142135623730951
 10
-125.9098599547648
 20
671.8082046716847
 10
-125.9098599547648
 20
670.2582046716847
 42
0.9999999999999998
 10
-124.9098599547648
 20
670.2582046716847
 10
-124.9098599547648
 20
671.0082046716848
 10
-123.4098599547648
 20
671.0082046716848
 10
-123.4098599547648
 20
665.5082046716848
 10
-124.9098599547648
 20
665.5082046716848
 10
-124.9098599547648
 20
666.2582046716847
 42
0.9999999999999998
 10
-125.9098599547648
 20
666.2582046716847
 10
-125.9098599547648
 20
664.7082046716847
 42
0.4142135623730951
 10
-125.4098599547648
 20
664.2082046716847
 10
-123.7098599547645
 20
664.2082046716847
 10
-123.7098599547645
 20
653.3082046716847
 42
-0.4142135623730951
 10
-124.7098599547645
 20
652.3082046716847
 10
-143.9098599547643
 20
652.3082046716847
 42
0.9999999999999998
 10
-143.9098599547643
 20
651.3082046716845
 10
-141.4098599547643
 20
651.3082046716845
 42
-0.4142135623730951
 10
-140.9098599547643
 20
650.8082046716845
 10
-140.9098599547643
 20
649.0082046716845
 42
-0.4142135623730951
 10
-141.4098599547643
 20
648.5082046716845
 10
-147.5098599547645
 20
648.5082046716845
 42
0.4142135623730118
 10
-147.7098599547645
 20
648.3082046716845
 10
-147.7098599547645
 20
647.8082046716845
 10
-160.4098599547647
 20
647.8082046716847
 10
-160.4098599547647
 20
650.8082046716847
 10
-159.6598599547648
 20
650.8082046716847
 42
0.474497867808007
  0
LWPOLYLINE
  5
5684
102
{ACAD_REACTORS
330
5685
102
}
330
37D6
100
AcDbEntity
  8
APL Joinery
  6
Continuous
100
AcDbPolyline
 90
       39
 70
     1
 43
0.0
 10
-125.885493741222
 20
624.9461357061677
 42
-0.0405910897374286
 10
-125.985310610195
 20
625.4427578487111
 42
-0.9999999999999998
 10
-124.3962888019961
 20
625.6298666220739
 42
2.063280015938905
 10
-122.703414341446
 20
627.3227410826241
 42
-0.380285298601721
 10
-123.4098599547645
 20
628.1172519867233
 10
-123.4098599547648
 20
638.8082046716847
 10
-125.4098599547648
 20
638.8082046716847
 42
-0.4142135623730951
 10
-126.4098599547648
 20
639.8082046716847
 10
-126.4098599547648
 20
640.6082046716847
 42
-0.4142135623730118
 10
-126.2098599547648
 20
640.8082046716847
 10
-125.6098599547647
 20
640.8082046716847
 42
-0.4142135623730118
 10
-125.4098599547648
 20
640.6082046716847
 10
-125.4098599547648
 20
639.8082046716847
 10
-123.4098599547648
 20
639.8082046716847
 10
-123.4098599547648
 20
644.9082046716847
 42
-0.9999999999999998
 10
-123.4098599547648
 20
645.7082046716848
 10
-123.4098599547648
 20
650.8082046716847
 10
-125.4098599547648
 20
650.8082046716847
 10
-125.4098599547648
 20
650.0082046716848
 42
-0.4142135623730118
 10
-125.6098599547647
 20
649.8082046716847
 10
-126.2098599547648
 20
649.8082046716847
 42
-0.4142135623730118
 10
-126.4098599547648
 20
650.0082046716848
 10
-126.4098599547648
 20
650.8082046716847
 10
-139.4098599547648
 20
650.8082046716847
 10
-139.4098599547648
 20
648.5082046716844
 42
-0.4142135623730951
 10
-140.9098599547648
 20
647.0082046716844
 10
-146.2098599547645
 20
647.0082046716844
 10
-146.2098599547645
 20
646.5082046716847
 42
-0.4142135623730118
 10
-146.4098599547645
 20
646.3082046716847
 10
-157.1446788490804
 20
646.3082046716847
 42
0.6247472440542471
 10
-157.5387923400788
 20
645.5005123639925
 42
-0.8867822249041818
 10
-158.6650250324591
 20
644.3802476824374
 42
2.063280015938983
 10
-158.6650250324595
 20
641.986161660932
 42
-0.567603178912163
 10
-157.3814472778423
 20
641.4966662101463
 42
0.3641344623254566
 10
-156.8889931229461
 20
641.0832046716847
 10
-155.9098599547648
 20
641.0832046716847
 42
-0.4142135623730951
 10
-154.4098599547648
 20
639.5832046716847
 10
-154.4098599547648
 20
624.3082046716848
 10
-126.3660923572484
 20
624.3082046716848
 42
0.4986545826505564
  0
HATCH
  5
5685
330
37D6
100
AcDbEntity
  8
APL Hatch
100
AcDbHatch
 10
0.0
 20
0.0
 30
0.0
210
0.0
220
0.0
230
1.0
  2
SOLID
 70
     1
 71
     1
 91
        2
 92
        1
 93
       79
 72
     2
 10
-160.8846048261563
 20
650.8082046716847
 40
1.499999999999973
 50
11.53695903281835
 51
89.99999999999891
 73
     1
 72
     1
 10
-160.8846048261563
 20
652.3082046716847
 11
-161.6598599547648
 21
652.3082046716847
 72
     2
 10
-161.6598599547648
 20
652.0582046716847
 40
0.25
 50
90.0
 51
180.0
 73
     1
 72
     1
 10
-161.9098599547648
 20
652.0582046716847
 11
-161.9098599547648
 21
645.3026220541006
 72
     1
 10
-161.9098599547648
 20
645.3026220541006
 11
-170.1239472512912
 21
637.0885347575748
 72
     2
 10
-169.5936171654015
 20
636.5582046716849
 40
0.7499999999998856
 50
134.9999999999938
 51
314.9999999999908
 73
     1
 72
     1
 10
-169.0632870795118
 20
636.027874585795
 11
-162.8606934298915
 21
642.2304682354148
 72
     2
 10
-162.6839167345946
 20
642.053691540118
 40
0.2500000000002834
 50
224.9999999999816
 51
339.8249490605329
 73
     0
 72
     2
 10
-159.6098599547636
 20
643.1832046716842
 40
3.025000000000527
 50
200.1750509394518
 51
214.2646028936912
 73
     1
 72
     1
 10
-162.1098599547645
 20
641.4800825386595
 11
-162.1098599547646
 21
639.8332046716847
 72
     2
 10
-161.8598599547646
 20
639.8332046716847
 40
0.25
 50
180.0
 51
270.0
 73
     1
 72
     1
 10
-161.8598599547646
 20
639.5832046716847
 11
-155.9098599547648
 21
639.5832046716847
 72
     1
 10
-155.9098599547648
 20
639.5832046716847
 11
-155.9098599547648
 21
620.5082046716849
 72
     2
 10
-155.7098599547647
 20
620.5082046716849
 40
0.2000000000000455
 50
180.0
 51
269.9999999999838
 73
     1
 72
     1
 10
-155.7098599547648
 20
620.3082046716848
 11
-154.6098599547647
 21
620.308204671685
 72
     2
 10
-154.6098599547647
 20
620.5082046716849
 40
0.2000000000000455
 50
270.0
 51
359.9999999999675
 73
     1
 72
     1
 10
-154.4098599547648
 20
620.5082046716849
 11
-154.4098599547648
 21
622.8082046716848
 72
     1
 10
-154.4098599547648
 20
622.8082046716848
 11
-128.1098599547646
 21
622.8082046716848
 72
     1
 10
-128.1098599547646
 20
622.8082046716848
 11
-128.1098599547646
 21
615.0082046716849
 72
     2
 10
-127.9098599547645
 20
615.0082046716849
 40
0.2000000000000455
 50
180.0
 51
269.9999999999838
 73
     1
 72
     1
 10
-127.9098599547646
 20
614.8082046716848
 11
-126.6098599547643
 21
614.8082046716848
 72
     2
 10
-126.6098599547644
 20
615.0082046716849
 40
0.2000000000000455
 50
270.0000000000041
 51
360.0
 73
     1
 72
     1
 10
-126.4098599547643
 20
615.0082046716849
 11
-126.4098599547643
 21
622.3082046716848
 72
     1
 10
-126.4098599547643
 20
622.3082046716848
 11
-120.8817523910571
 21
622.3082046716848
 72
     2
 10
-120.8817523910571
 20
622.8082046716848
 40
0.5
 50
270.0
 51
360.0
 73
     1
 72
     1
 10
-120.3817523910571
 20
622.8082046716848
 11
-120.3817523910568
 21
623.965341445436
 72
     2
 10
-119.9098287047142
 20
623.965341445436
 40
0.4719236863426346
 50
180.0
 51
315.0000000000036
 73
     0
 72
     1
 10
-119.5761282658988
 20
624.2990418842514
 11
-118.2098599547645
 21
622.9327735731169
 72
     1
 10
-118.2098599547645
 20
622.9327735731169
 11
-118.2098599547645
 21
611.4082046716847
 72
     1
 10
-118.2098599547645
 20
611.4082046716847
 11
-118.9098599547643
 21
611.4082046716847
 72
     2
 10
-118.9098599547643
 20
610.4082046716847
 40
1.0
 50
90.0
 51
180.0
 73
     1
 72
     1
 10
-119.9098599547643
 20
610.4082046716847
 11
-119.9098599547643
 21
609.3582046716847
 72
     2
 10
-119.4098599547643
 20
609.3582046716847
 40
0.5
 50
180.0
 51
360.0
 73
     1
 72
     1
 10
-118.9098599547643
 20
609.3582046716847
 11
-118.9098599547643
 21
610.1082046716848
 72
     1
 10
-118.9098599547643
 20
610.1082046716848
 11
-117.4098599547643
 21
610.1082046716848
 72
     1
 10
-117.4098599547643
 20
610.1082046716848
 11
-117.4098599547643
 21
604.6082046716848
 72
     1
 10
-117.4098599547643
 20
604.6082046716848
 11
-118.9098599547643
 21
604.6082046716848
 72
     1
 10
-118.9098599547643
 20
604.6082046716848
 11
-118.9098599547643
 21
605.3582046716847
 72
     2
 10
-119.4098599547643
 20
605.3582046716847
 40
0.5
 50
0.0
 51
180.0
 73
     1
 72
     1
 10
-119.9098599547643
 20
605.3582046716847
 11
-119.9098599547643
 21
604.3082046716848
 72
     2
 10
-118.9098599547643
 20
604.3082046716848
 40
1.0
 50
180.0
 51
270.0
 73
     1
 72
     1
 10
-118.9098599547643
 20
603.3082046716848
 11
-116.6098599547642
 21
603.3082046716849
 72
     2
 10
-116.6098599547642
 20
603.5082046716849
 40
0.1999999999999318
 50
270.0000000000041
 51
360.0
 73
     1
 72
     1
 10
-116.4098599547643
 20
603.5082046716849
 11
-116.4098599547643
 21
623.8783579853887
 72
     2
 10
-116.6098599547644
 20
623.8783579853888
 40
0.2000000000001023
 50
359.9999999999675
 51
404.9999999999654
 73
     1
 72
     1
 10
-116.468438598527
 20
624.019779341626
 11
-121.9098599547647
 21
629.4612006978635
 72
     1
 10
-121.9098599547647
 20
629.4612006978635
 11
-121.9098599547647
 21
674.1082046716846
 72
     2
 10
-122.1098599547648
 20
674.1082046716846
 40
0.2000000000000597
 50
0.0
 51
89.99999999999593
 73
     1
 72
     1
 10
-122.1098599547648
 20
674.3082046716847
 11
-124.0098599547645
 21
674.3082046716847
 72
     2
 10
-124.0098599547645
 20
674.1082046716846
 40
0.2000000000000455
 50
90.0
 51
179.9999999999674
 73
     1
 72
     1
 10
-124.2098599547645
 20
674.1082046716847
 11
-124.2098599547645
 21
672.3082046716847
 72
     1
 10
-124.2098599547645
 20
672.3082046716847
 11
-125.4098599547648
 21
672.3082046716847
 72
     2
 10
-125.4098599547648
 20
671.8082046716847
 40
0.5
 50
90.0
 51
180.0
 73
     1
 72
     1
 10
-125.9098599547648
 20
671.8082046716847
 11
-125.9098599547648
 21
670.2582046716847
 72
     2
 10
-125.4098599547648
 20
670.2582046716847
 40
0.5
 50
180.0
 51
360.0
 73
     1
 72
     1
 10
-124.9098599547648
 20
670.2582046716847
 11
-124.9098599547648
 21
671.0082046716848
 72
     1
 10
-124.9098599547648
 20
671.0082046716848
 11
-123.4098599547648
 21
671.0082046716848
 72
     1
 10
-123.4098599547648
 20
671.0082046716848
 11
-123.4098599547648
 21
665.5082046716848
 72
     1
 10
-123.4098599547648
 20
665.5082046716848
 11
-124.9098599547648
 21
665.5082046716848
 72
     1
 10
-124.9098599547648
 20
665.5082046716848
 11
-124.9098599547648
 21
666.2582046716847
 72
     2
 10
-125.4098599547648
 20
666.2582046716847
 40
0.5
 50
0.0
 51
180.0
 73
     1
 72
     1
 10
-125.9098599547648
 20
666.2582046716847
 11
-125.9098599547648
 21
664.7082046716847
 72
     2
 10
-125.4098599547648
 20
664.7082046716847
 40
0.5
 50
180.0
 51
270.0
 73
     1
 72
     1
 10
-125.4098599547648
 20
664.2082046716847
 11
-123.7098599547645
 21
664.2082046716847
 72
     1
 10
-123.7098599547645
 20
664.2082046716847
 11
-123.7098599547645
 21
653.3082046716847
 72
     2
 10
-124.7098599547645
 20
653.3082046716847
 40
1.0
 50
360.0
 51
450.0
 73
     0
 72
     1
 10
-124.7098599547645
 20
652.3082046716847
 11
-143.9098599547643
 21
652.3082046716847
 72
     2
 10
-143.9098599547643
 20
651.8082046716846
 40
0.5000000000001137
 50
90.0
 51
270.0
 73
     1
 72
     1
 10
-143.9098599547643
 20
651.3082046716845
 11
-141.4098599547643
 21
651.3082046716845
 72
     2
 10
-141.4098599547643
 20
650.8082046716845
 40
0.5
 50
270.0
 51
360.0
 73
     0
 72
     1
 10
-140.9098599547643
 20
650.8082046716845
 11
-140.9098599547643
 21
649.0082046716845
 72
     2
 10
-141.4098599547643
 20
649.0082046716845
 40
0.5
 50
360.0
 51
450.0
 73
     0
 72
     1
 10
-141.4098599547643
 20
648.5082046716845
 11
-147.5098599547645
 21
648.5082046716845
 72
     2
 10
-147.5098599547645
 20
648.3082046716845
 40
0.2000000000000455
 50
90.0
 51
179.9999999999674
 73
     1
 72
     1
 10
-147.7098599547645
 20
648.3082046716845
 11
-147.7098599547645
 21
647.8082046716845
 72
     1
 10
-147.7098599547645
 20
647.8082046716845
 11
-160.4098599547647
 21
647.8082046716847
 72
     1
 10
-160.4098599547647
 20
647.8082046716847
 11
-160.4098599547647
 21
650.8082046716847
 72
     1
 10
-160.4098599547647
 20
650.8082046716847
 11
-159.6598599547648
 21
650.8082046716847
 72
     2
 10
-159.6598599547648
 20
651.0582046716847
 40
0.25
 50
270.000000000013
 51
371.5369590328283
 73
     1
 97
        1
330
5683
 92
       16
 93
       39
 72
     2
 10
-122.8817523910573
 20
625.8082046716865
 40
3.124999999999988
 50
163.9866055760216
 51
173.2842939250846
 73
     0
 72
     2
 10
-125.1907997060955
 20
625.5363122353925
 40
0.8000000000001765
 50
173.2842939251097
 51
353.2842939251097
 73
     0
 72
     2
 10
-122.881752391057
 20
625.808204671685
 40
1.524999999999736
 50
186.7157060748853
 51
443.284293925119
 73
     1
 72
     2
 10
-122.6098599547647
 20
628.1172519867232
 40
0.7999999999997714
 50
96.71570607488757
 51
180.0000000000081
 73
     0
 72
     1
 10
-123.4098599547645
 20
628.1172519867233
 11
-123.4098599547648
 21
638.8082046716847
 72
     1
 10
-123.4098599547648
 20
638.8082046716847
 11
-125.4098599547648
 21
638.8082046716847
 72
     2
 10
-125.4098599547648
 20
639.8082046716847
 40
1.0
 50
90.0
 51
180.0
 73
     0
 72
     1
 10
-126.4098599547648
 20
639.8082046716847
 11
-126.4098599547648
 21
640.6082046716847
 72
     2
 10
-126.2098599547648
 20
640.6082046716846
 40
0.1999999999999886
 50
180.0000000000325
 51
270.0
 73
     0
 72
     1
 10
-126.2098599547648
 20
640.8082046716847
 11
-125.6098599547647
 21
640.8082046716847
 72
     2
 10
-125.6098599547647
 20
640.6082046716846
 40
0.2000000000000455
 50
270.0
 51
359.9999999999675
 73
     0
 72
     1
 10
-125.4098599547648
 20
640.6082046716847
 11
-125.4098599547648
 21
639.8082046716847
 72
     1
 10
-125.4098599547648
 20
639.8082046716847
 11
-123.4098599547648
 21
639.8082046716847
 72
     1
 10
-123.4098599547648
 20
639.8082046716847
 11
-123.4098599547648
 21
644.9082046716847
 72
     2
 10
-123.4098599547648
 20
645.3082046716847
 40
0.3999999999999772
 50
90.0
 51
270.0
 73
     0
 72
     1
 10
-123.4098599547648
 20
645.7082046716848
 11
-123.4098599547648
 21
650.8082046716847
 72
     1
 10
-123.4098599547648
 20
650.8082046716847
 11
-125.4098599547648
 21
650.8082046716847
 72
     1
 10
-125.4098599547648
 20
650.8082046716847
 11
-125.4098599547648
 21
650.0082046716848
 72
     2
 10
-125.6098599547648
 20
650.0082046716848
 40
0.2000000000000455
 50
360.0
 51
449.9999999999836
 73
     0
 72
     1
 10
-125.6098599547647
 20
649.8082046716847
 11
-126.2098599547648
 21
649.8082046716847
 72
     2
 10
-126.2098599547647
 20
650.0082046716848
 40
0.2000000000000455
 50
90.00000000001628
 51
180.0
 73
     0
 72
     1
 10
-126.4098599547648
 20
650.0082046716848
 11
-126.4098599547648
 21
650.8082046716847
 72
     1
 10
-126.4098599547648
 20
650.8082046716847
 11
-139.4098599547648
 21
650.8082046716847
 72
     1
 10
-139.4098599547648
 20
650.8082046716847
 11
-139.4098599547648
 21
648.5082046716844
 72
     2
 10
-140.9098599547648
 20
648.5082046716844
 40
1.5
 50
360.0
 51
450.0
 73
     0
 72
     1
 10
-140.9098599547648
 20
647.0082046716844
 11
-146.2098599547645
 21
647.0082046716844
 72
     1
 10
-146.2098599547645
 20
647.0082046716844
 11
-146.2098599547645
 21
646.5082046716847
 72
     2
 10
-146.4098599547645
 20
646.5082046716847
 40
0.2000000000000455
 50
360.0
 51
449.9999999999836
 73
     0
 72
     1
 10
-146.4098599547645
 20
646.3082046716847
 11
-157.1446788490804
 21
646.3082046716847
 72
     2
 10
-157.1446788490805
 20
645.8082046716848
 40
0.4999999999998864
 50
89.99999999998371
 51
217.9798724448578
 73
     1
 72
     2
 10
-158.1693739256761
 20
645.0082046716848
 40
0.799999999999899
 50
322.0201275551322
 51
488.2842939251055
 73
     0
 72
     2
 10
-159.6098599547648
 20
643.1832046716849
 40
1.524999999999943
 50
51.71570607487204
 51
308.2842939251091
 73
     1
 72
     2
 10
-158.1693739256762
 20
641.3582046716848
 40
0.7999999999999813
 50
231.7157060748816
 51
350.0332336997611
 73
     0
 72
     2
 10
-156.8889931229461
 20
641.5832046716847
 40
0.499999999999995
 50
189.9667663002438
 51
270.0
 73
     1
 72
     1
 10
-156.8889931229461
 20
641.0832046716847
 11
-155.9098599547648
 21
641.0832046716847
 72
     2
 10
-155.9098599547648
 20
639.5832046716847
 40
1.5
 50
270.0
 51
360.0
 73
     0
 72
     1
 10
-154.4098599547648
 20
639.5832046716847
 11
-154.4098599547648
 21
624.3082046716848
 72
     1
 10
-154.4098599547648
 20
624.3082046716848
 11
-126.3660923572484
 21
624.3082046716848
 72
     2
 10
-126.3660923572485
 20
624.808204671685
 40
0.5000000000001137
 50
270.0000000000017
 51
376.0133944239511
 73
     1
 97
        1
330
5684
 75
     0
 76
     1
 98
        1
 10
0.0
 20
0.0
  0
ENDBLK
  5
37D8
330
37D6
100
AcDbEntity
  8
0
100
AcDbBlockEnd
  0
BLOCK
  5
37DD
330
37DC
100
AcDbEntity
  8
0
100
AcDbBlockBegin
  2
9010312l
 70
     0
 10
365.0634067278241
 20
339.4121540145173
 30
0.0
  3
9010312l
  1
9010312l.dwg
  0
LWPOLYLINE
  5
5687
330
37DC
100
AcDbEntity
  8
APL Joinery
  6
Continuous
 62
   252
100
AcDbPolyline
 90
       28
 70
   128
 43
0.0
 10
368.7634067278242
 20
336.2999919725366
 10
368.7634067278242
 20
343.1621540145172
 42
0.7673269879789622
 10
368.2969003768781
 20
343.2871540145172
 10
367.7417988747633
 20
342.3256900094965
 10
365.2336571919708
 20
341.6536354710895
 42
0.3626955242591878
 10
365.0492176629833
 20
341.3914870691883
 10
365.2134067278238
 20
339.4121540145172
 10
366.7634067278242
 20
339.4121540145172
 10
366.7634067278242
 20
336.5121540145171
 10
365.513243805812
 20
336.5121540145171
 10
365.2515573605315
 20
337.3376963843301
 42
0.6640183420487276
 10
364.792655570518
 20
337.3798010733406
 42
0.250000000000001
 10
364.7926555705179
 20
333.1445069556935
 42
0.6640183420487097
 10
365.2515573605313
 20
333.1866116447042
 10
365.513243805812
 20
334.0121540145171
 10
367.0632438058122
 20
334.0121540145171
 10
367.3369346947806
 20
334.2858449034854
 42
-0.6681785464135807
 10
367.7637113900772
 20
334.1090682714504
 10
367.7637118012051
 20
332.4843569389277
 10
368.2660718660176
 20
329.0715154000631
 42
0.9294717386060577
 10
368.7634067278242
 20
329.1079223518048
 10
368.7634067278242
 20
334.5749919747145
 42
0.3563939586926081
 10
367.9634067278242
 20
335.5547878718279
 42
-0.3563939586925715
 10
367.7634067278242
 20
335.7997368461061
 10
367.7634067278241
 20
339.3871540145172
 42
-0.9999999999999998
 10
367.8134067278242
 20
339.3871540145172
 10
367.8134067278242
 20
336.2999919725366
 42
0.9999999999999998
 10
368.7634067234684
 20
336.2999919725366
  0
ENDBLK
  5
37DE
330
37DC
100
AcDbEntity
  8
0
100
AcDbBlockEnd
  0
BLOCK
  5
37E2
330
37E1
100
AcDbEntity
  8
0
100
AcDbBlockBegin
  2
9010100
 70
     0
 10
-698.0412257018842
 20
103.9239421823788
 30
0.0
  3
9010100
  1
9010100.dwg
  0
LWPOLYLINE
  5
568A
330
37E1
100
AcDbEntity
  8
APL Joinery
 62
   252
100
AcDbPolyline
 90
       16
 70
     1
 43
0.0
 10
-697.0412257018843
 20
102.9239421823788
 10
-695.7492784149856
 20
102.9239421823788
 10
-694.0229808775646
 20
98.81824357162003
 42
0.9293418001092543
 10
-693.550394430906
 20
98.97737999157357
 10
-694.5444653146969
 20
102.8447215218598
 10
-693.5412257018843
 20
103.4239421823788
 10
-693.5412257018843
 20
104.4239421823788
 10
-694.5663527677213
 20
105.0157995697934
 10
-693.5768325592873
 20
108.8654371152974
 42
0.9293418001092604
 10
-694.0494190059462
 20
109.024573535251
 10
-695.7735859449865
 20
104.9239421823788
 10
-697.0412257018843
 20
104.9239421823788
 10
-697.0412257018843
 20
106.1739421823788
 10
-698.0412257018842
 20
106.1739421823788
 10
-698.0412257018842
 20
101.6739421823788
 10
-697.0412257018843
 20
101.6739421823788
  0
ENDBLK
  5
37E3
330
37E1
100
AcDbEntity
  8
0
100
AcDbBlockEnd
  0
BLOCK
  5
37E7
330
37E6
100
AcDbEntity
  8
0
100
AcDbBlockBegin
  2
08630
 70
     0
 10
-17.4261114729422
 20
630.6343283014046
 30
0.0
  3
08630
  1
08630.dwg
  0
LWPOLYLINE
  5
568D
102
{ACAD_REACTORS
330
568E
102
}
330
37E6
100
AcDbEntity
  8
APL Joinery
  6
Continuous
100
AcDbPolyline
 90
       40
 70
     1
 43
0.0
 10
-1.526111472942091
 20
629.5343283014045
 42
0.4142135623730451
 10
0.0738885270575338
 20
627.9343283014043
 10
1.113938033221871
 20
627.9343283014038
 42
3.927182716064285
 10
1.113938033221643
 20
629.0343283014042
 10
0.0738885270577042
 20
629.0343283014045
 42
-0.4142135623731284
 10
-0.4261114729423526
 20
629.5343283014044
 10
-0.4261114729422389
 20
632.8036933827943
 10
4.073888527057647
 20
637.3036933827943
 10
4.073888527057647
 20
642.5343283014045
 10
6.073888527057874
 20
642.5343283014044
 42
0.4142135623730951
 10
6.573888527057874
 20
643.0343283014046
 10
6.573888527057647
 20
644.5843283014047
 42
0.9999999999999998
 10
5.573888527057874
 20
644.5843283014045
 10
5.573888527057647
 20
643.8343283014043
 10
4.073888527057647
 20
643.8343283014045
 10
4.073888527057874
 20
649.3343283014046
 10
5.573888527057647
 20
649.3343283014045
 10
5.573888527057874
 20
648.5843283014046
 42
0.9999999999999998
 10
6.573888527057647
 20
648.5843283014046
 10
6.573888527057874
 20
650.1343283014046
 42
0.4142135623730951
 10
6.073888527057647
 20
650.6343283014043
 10
4.873888527057829
 20
650.6343283014046
 10
4.873888527057829
 20
652.1343283014048
 42
0.6681786379192748
 10
4.020335136464495
 20
652.4878816919979
 10
-17.3417968978915
 20
631.1257496576417
 42
0.6681786379192588
 10
-17.13824350729814
 20
630.6343283014046
 10
-15.17611147294221
 20
630.6343283014046
 42
-0.4142135623730951
 10
-14.92611147294221
 20
630.3843283014046
 10
-14.92611147294221
 20
629.2807749108012
 10
-15.35288816823888
 20
628.8539982155047
 42
0.4142135623730715
 10
-15.35288816823728
 20
628.500444824913
 10
-14.25288816823885
 20
627.4004448249144
 42
0.6681786379193812
 10
-13.82611147294219
 20
627.5772215202111
 10
-13.82611147294219
 20
631.299703347391
 42
0.3113104180177044
 10
-14.14829401363691
 20
631.7670158243977
 42
-0.543903169065067
 10
-14.32402994492506
 20
632.5878816919979
 10
2.120335136464461
 20
649.0322467733872
 42
-0.6681786379192989
 10
2.973888527057738
 20
648.6786933827939
 10
2.973888527057738
 20
637.7593283014048
 10
-1.526111472942147
 20
633.2593283014047
  0
HATCH
  5
568E
330
37E6
100
AcDbEntity
  8
APL Hatch
100
AcDbHatch
 10
0.0
 20
0.0
 30
0.0
210
0.0
220
0.0
230
1.0
  2
SOLID
 70
     1
 71
     1
 91
        1
 92
        1
 93
       40
 72
     2
 10
0.0738885270579829
 20
629.5343283014044
 40
1.600000000000073
 50
179.9999999999959
 51
269.9999999999839
 73
     1
 72
     1
 10
0.0738885270575338
 20
627.9343283014043
 11
1.113938033221871
 21
627.9343283014038
 72
     2
 10
2.123888527057846
 20
628.4843283014042
 40
1.149999999999991
 50
208.5718781423323
 51
511.428121857693
 73
     1
 72
     1
 10
1.113938033221643
 20
629.0343283014042
 11
0.0738885270577043
 21
629.0343283014045
 72
     2
 10
0.0738885270576474
 20
629.5343283014044
 40
0.5
 50
89.99999999999349
 51
180.0
 73
     0
 72
     1
 10
-0.4261114729423526
 20
629.5343283014044
 11
-0.4261114729422389
 21
632.8036933827943
 72
     1
 10
-0.4261114729422389
 20
632.8036933827943
 11
4.073888527057647
 21
637.3036933827943
 72
     1
 10
4.073888527057647
 20
637.3036933827943
 11
4.073888527057647
 21
642.5343283014045
 72
     1
 10
4.073888527057647
 20
642.5343283014045
 11
6.073888527057874
 21
642.5343283014044
 72
     2
 10
6.073888527057761
 20
643.0343283014045
 40
0.5000000000001137
 50
270.000000000013
 51
360.000000000013
 73
     1
 72
     1
 10
6.573888527057874
 20
643.0343283014046
 11
6.573888527057647
 21
644.5843283014047
 72
     2
 10
6.073888527057761
 20
644.5843283014046
 40
0.4999999999998864
 50
0.0000000000130276
 51
180.000000000013
 73
     1
 72
     1
 10
5.573888527057874
 20
644.5843283014045
 11
5.573888527057647
 21
643.8343283014043
 72
     1
 10
5.573888527057647
 20
643.8343283014043
 11
4.073888527057647
 21
643.8343283014045
 72
     1
 10
4.073888527057647
 20
643.8343283014045
 11
4.073888527057874
 21
649.3343283014046
 72
     1
 10
4.073888527057874
 20
649.3343283014046
 11
5.573888527057647
 21
649.3343283014045
 72
     1
 10
5.573888527057647
 20
649.3343283014045
 11
5.573888527057874
 21
648.5843283014046
 72
     2
 10
6.073888527057761
 20
648.5843283014046
 40
0.4999999999998864
 50
180.0
 51
360.0
 73
     1
 72
     1
 10
6.573888527057647
 20
648.5843283014046
 11
6.573888527057874
 21
650.1343283014046
 72
     2
 10
6.073888527057874
 20
650.1343283014043
 40
0.5
 50
0.0000000000260551
 51
90.00000000002605
 73
     1
 72
     1
 10
6.073888527057647
 20
650.6343283014043
 11
4.873888527057829
 21
650.6343283014046
 72
     1
 10
4.873888527057829
 20
650.6343283014046
 11
4.873888527057829
 21
652.1343283014048
 72
     2
 10
4.373888527057827
 20
652.1343283014047
 40
0.5000000000000018
 50
0.0000000000130276
 51
135.000000000009
 73
     1
 72
     1
 10
4.020335136464495
 20
652.4878816919979
 11
-17.3417968978915
 21
631.1257496576417
 72
     2
 10
-17.13824350729821
 20
630.9221962670486
 40
0.2878679656439413
 50
135.000000000022
 51
270.0000000000141
 73
     1
 72
     1
 10
-17.13824350729814
 20
630.6343283014046
 11
-15.17611147294221
 21
630.6343283014046
 72
     2
 10
-15.17611147294221
 20
630.3843283014046
 40
0.25
 50
270.0
 51
360.0
 73
     0
 72
     1
 10
-14.92611147294221
 20
630.3843283014046
 11
-14.92611147294221
 21
629.2807749108012
 72
     1
 10
-14.92611147294221
 20
629.2807749108012
 11
-15.35288816823888
 21
628.8539982155047
 72
     2
 10
-15.17611147294225
 20
628.6772215202097
 40
0.2499999999988062
 50
135.0000000002694
 51
225.0000000002648
 73
     1
 72
     1
 10
-15.35288816823728
 20
628.500444824913
 11
-14.25288816823885
 21
627.4004448249144
 72
     2
 10
-14.07611147294219
 20
627.577221520211
 40
0.2499999999999555
 50
224.999999999983
 51
360.000000000026
 73
     1
 72
     1
 10
-13.82611147294219
 20
627.5772215202111
 11
-13.82611147294219
 21
631.299703347391
 72
     2
 10
-14.32611147294202
 20
631.299703347391
 40
0.4999999999998313
 50
0.0
 51
69.16763791366536
 73
     1
 72
     2
 10
-13.97047655433168
 20
632.2343283014046
 40
0.500000000000077
 50
110.8323620863383
 51
224.9999999999967
 73
     0
 72
     1
 10
-14.32402994492506
 20
632.5878816919979
 11
2.120335136464461
 21
649.0322467733872
 72
     2
 10
2.473888527057748
 20
648.6786933827939
 40
0.4999999999999708
 50
224.9999999999946
 51
360.0
 73
     0
 72
     1
 10
2.973888527057738
 20
648.6786933827939
 11
2.973888527057738
 21
637.7593283014048
 72
     1
 10
2.973888527057738
 20
637.7593283014048
 11
-1.526111472942147
 21
633.2593283014047
 72
     1
 10
-1.526111472942147
 20
633.2593283014047
 11
-1.526111472942091
 21
629.5343283014045
 97
        1
330
568D
 75
     0
 76
     1
 98
        1
 10
0.0
 20
0.0
  0
ENDBLK
  5
37E8
330
37E6
100
AcDbEntity
  8
0
100
AcDbBlockEnd
  0
BLOCK
  5
37ED
330
37EC
100
AcDbEntity
  8
0
100
AcDbBlockBegin
  2
9010312r
 70
     0
 10
399.4634067278245
 20
339.4121540145172
 30
0.0
  3
9010312r
  1
9010312r.dwg
  0
LWPOLYLINE
  5
5690
330
37EC
100
AcDbEntity
  8
APL Joinery
  6
Continuous
 62
   252
100
AcDbPolyline
 90
       28
 70
   128
 43
0.0
 10
395.7634067278242
 20
336.2999919725366
 10
395.7634067278242
 20
343.1621540145172
 42
-0.7673269879789622
 10
396.2299130787703
 20
343.2871540145172
 10
396.7850145808851
 20
342.3256900094965
 10
399.2931562636775
 20
341.6536354710895
 42
-0.3626955242591878
 10
399.4775957926651
 20
341.3914870691883
 10
399.3134067278246
 20
339.4121540145172
 10
397.7634067278242
 20
339.4121540145172
 10
397.7634067278242
 20
336.5121540145171
 10
399.0135696498364
 20
336.5121540145171
 10
399.2752560951169
 20
337.3376963843301
 42
-0.6640183420487276
 10
399.7341578851304
 20
337.3798010733406
 42
-0.250000000000001
 10
399.7341578851305
 20
333.1445069556935
 42
-0.6640183420487097
 10
399.2752560951171
 20
333.1866116447042
 10
399.0135696498364
 20
334.0121540145171
 10
397.4635696498362
 20
334.0121540145171
 10
397.1898787608678
 20
334.2858449034854
 42
0.6681785464135807
 10
396.7631020655712
 20
334.1090682714504
 10
396.7631016544432
 20
332.4843569389277
 10
396.2607415896308
 20
329.0715154000631
 42
-0.9294717386060577
 10
395.7634067278242
 20
329.1079223518048
 10
395.7634067278242
 20
334.5749919747145
 42
-0.3563939586926081
 10
396.5634067278242
 20
335.5547878718279
 42
0.3563939586925715
 10
396.7634067278242
 20
335.7997368461061
 10
396.7634067278242
 20
339.3871540145172
 42
0.9999999999999998
 10
396.7134067278242
 20
339.3871540145172
 10
396.7134067278242
 20
336.2999919725366
 42
-0.9999999999999998
 10
395.76340673218
 20
336.2999919725366
  0
ENDBLK
  5
37EE
330
37EC
100
AcDbEntity
  8
0
100
AcDbBlockEnd
  0
BLOCK
  5
3F33
330
3F2E
100
AcDbEntity
  8
0
100
AcDbBlockBegin
  2
a4 specifiers manual
 70
     0
 10
0.0
 20
0.0
 30
0.0
  3
a4 specifiers manual
  1

  0
LINE
  5
3F2F
330
3F2E
100
AcDbEntity
  8
0
100
AcDbLine
 10
-0.0000008078504834
 20
0.0000001108869583
 30
0.0
 11
353.9999991921495
 21
0.0000001108869583
 31
0.0
  0
LINE
  5
3F30
330
3F2E
100
AcDbEntity
  8
0
100
AcDbLine
 10
353.9999991921495
 20
482.0000001108869
 30
0.0
 11
-0.0000008078504834
 21
482.0000001108869
 31
0.0
  0
LINE
  5
3F31
330
3F2E
100
AcDbEntity
  8
0
100
AcDbLine
 10
-0.0000008078504834
 20
482.0000001108869
 30
0.0
 11
-0.0000008078504834
 21
0.0000001108869583
 31
0.0
  0
LINE
  5
3F32
330
3F2E
100
AcDbEntity
  8
0
100
AcDbLine
 10
353.9999991921495
 20
0.0000001108869583
 30
0.0
 11
353.9999991921495
 21
482.0000001108869
 31
0.0
  0
ENDBLK
  5
3F34
330
3F2E
100
AcDbEntity
  8
0
100
AcDbBlockEnd
  0
BLOCK
  5
49A1
330
49A0
100
AcDbEntity
  8
0
100
AcDbBlockBegin
  2
9010240l
 70
     0
 10
121.7743665915091
 20
318.4609762649906
 30
0.0
  3
9010240l
  1
9010240l.dwg
  0
LWPOLYLINE
  5
5693
330
49A0
100
AcDbEntity
  8
APL Joinery
  6
Continuous
 62
   252
100
AcDbPolyline
 90
       30
 70
   129
 43
0.0
 10
125.4743665915089
 20
314.4561557475136
 42
-0.2835524870706119
 10
125.639679738777
 20
314.7242218805875
 42
0.0902645523985048
 10
127.3754845981152
 20
316.3445044937532
 42
0.161319204780224
 10
127.4743665871533
 20
316.6430079967175
 10
127.4743665871533
 20
317.3876867032266
 42
0.7182204474982408
 10
127.1151731138881
 20
317.5087546100796
 42
-0.1023621877757452
 10
125.7724514164482
 20
316.3391728353994
 42
-0.5736819561067553
 10
125.4743665915088
 20
316.5134696142469
 10
125.4743665915089
 20
317.4272819212232
 42
-0.2007459679516776
 10
125.6233155046325
 20
317.7833200293
 10
127.3629395678818
 20
319.4985772006699
 42
0.1718314268301038
 10
127.4743665871533
 20
319.8132373961948
 10
127.4743665871533
 20
321.0651669139914
 42
0.4607623830565128
 10
127.1854567012142
 20
321.3121203929631
 10
121.9854567055696
 20
320.4579297439622
 42
0.39414290722904
 10
121.7753179169858
 20
320.1891873293035
 10
121.9265167932934
 20
318.4609762649903
 10
123.4743665871533
 20
318.4609762649903
 10
123.4743665871533
 20
315.5609762649902
 10
122.9743665871533
 20
315.5609762649902
 42
0.5486826681767499
 10
122.7478103958356
 20
315.2052772007768
 10
124.4491917600105
 20
311.5585232326624
 42
0.5205046449868776
 10
125.12771125539
 20
311.4389506414458
 10
125.4743665915089
 20
311.7856059775647
 42
0.0847796409423414
 10
127.3739886902729
 20
313.5798636206071
 42
0.1626006128156405
 10
127.4743665871533
 20
313.880366823083
 10
127.4743665871533
 20
314.5348039882088
 42
0.6868018179313476
 10
127.1259119882316
 20
314.668823509395
 42
-0.0728137603887277
 10
125.7781723137974
 20
313.554024525722
 42
-0.5847457288354972
 10
125.4743665915089
 20
313.7249758989839
  0
ENDBLK
  5
49A2
330
49A0
100
AcDbEntity
  8
0
100
AcDbBlockEnd
  0
BLOCK
  5
49A6
330
49A5
100
AcDbEntity
  8
0
100
AcDbBlockBegin
  2
6Glass
 70
     0
 10
101.8368839708302
 20
399.4111348733001
 30
0.0
  3
6Glass
  1
6Glass.dwg
  0
LINE
  5
4D39
330
49A5
100
AcDbEntity
  8
APL Joinery
 62
     7
100
AcDbLine
 10
95.33688397083029
 20
412.4111348732999
 30
0.0
 11
95.33688397083029
 21
392.4111348733
 31
0.0
  0
LINE
  5
4D3A
330
49A5
100
AcDbEntity
  8
APL Joinery
 62
     7
100
AcDbLine
 10
89.33688397083029
 20
412.4111348732999
 30
0.0
 11
95.33688397083029
 21
412.4111348732999
 31
0.0
  0
LINE
  5
4D3B
330
49A5
100
AcDbEntity
  8
APL Joinery
 62
     8
100
AcDbLine
 10
93.33688397083028
 20
412.4111348732999
 30
0.0
 11
93.33688397083028
 21
392.4111348733
 31
0.0
  0
LINE
  5
4D3C
330
49A5
100
AcDbEntity
  8
APL Joinery
 62
     7
100
AcDbLine
 10
89.33688397083029
 20
412.4111348732999
 30
0.0
 11
89.33688397083029
 21
392.4111348733
 31
0.0
  0
LINE
  5
4D3D
330
49A5
100
AcDbEntity
  8
APL Joinery
 62
     8
100
AcDbLine
 10
91.33688397083028
 20
412.4111348732999
 30
0.0
 11
91.33688397083028
 21
392.4111348733
 31
0.0
  0
ENDBLK
  5
49A7
330
49A5
100
AcDbEntity
  8
0
100
AcDbBlockEnd
  0
BLOCK
  5
49B9
330
49B4
100
AcDbEntity
  8
0
 48
3.0
100
AcDbBlockBegin
  2
08630Glaze
 70
     0
 10
0.0
 20
0.0
 30
0.0
  3
08630Glaze
  1

  0
INSERT
  5
49B5
330
49B4
100
AcDbEntity
  8
APL Joinery
100
AcDbBlockReference
  2
08630
 10
0.0
 20
0.0
 30
0.0
 43
2.0
  0
INSERT
  5
49B6
330
49B4
100
AcDbEntity
  8
APL Joinery
 48
3.0
100
AcDbBlockReference
  2
6Glass
 10
40.50000225423514
 20
18.99987984172827
 30
0.0
 41
-1.0
 50
180.0
  0
INSERT
  5
49B7
330
49B4
100
AcDbEntity
  8
APL Joinery
100
AcDbBlockReference
  2
9010312r
 10
37.70000000000027
 20
20.0
 30
0.0
 43
2.0
  0
INSERT
  5
49B8
330
49B4
100
AcDbEntity
  8
APL Joinery
 48
3.0
100
AcDbBlockReference
  2
9010240l
 10
22.30000000000015
 20
19.99999999999969
 30
0.0
  0
ENDBLK
  5
49BA
330
49B4
100
AcDbEntity
  8
0
 48
3.0
100
AcDbBlockEnd
  0
BLOCK
  5
49FD
330
49FC
100
AcDbEntity
  8
0
100
AcDbBlockBegin
  2
19mmliner
 70
     0
 10
110.739951507863
 20
355.7623510830485
 30
0.0
  3
19mmliner
  1
G:\Blocks\19mmliner.dwg
  0
LINE
  5
4D3F
330
49FC
100
AcDbEntity
  8
APL Joinery
 62
     3
100
AcDbLine
 10
110.739951507863
 20
336.7623510830484
 30
0.0
 11
160.7399515078631
 21
336.7623510830485
 31
0.0
  0
LINE
  5
4D40
330
49FC
100
AcDbEntity
  8
APL Joinery
 62
     3
100
AcDbLine
 10
110.739951507863
 20
355.7623510830485
 30
0.0
 11
177.7399515078631
 21
355.7623510830485
 31
0.0
  0
LINE
  5
4D41
330
49FC
100
AcDbEntity
  8
APL Joinery
 62
     8
100
AcDbLine
 10
136.9304814615635
 20
338.5194764502585
 30
0.0
 11
148.1588522325407
 21
350.7651184192899
 31
0.0
  0
SPLINE
  5
4D42
330
49FC
100
AcDbEntity
  8
APL Joinery
 62
     8
100
AcDbSpline
210
0.0
220
0.0
230
1.0
 70
     8
 71
     3
 72
    14
 73
    10
 74
     8
 42
0.0000000001
 43
0.0000000001
 44
0.0000000001
 40
0.0
 40
0.0
 40
0.0
 40
0.0
 40
8.267050822299994
 40
20.90203347130239
 40
31.18486054127779
 40
41.04700630219173
 40
47.37085711970707
 40
52.62972264650577
 40
55.04603969815228
 40
55.04603969815228
 40
55.04603969815228
 40
55.04603969815228
 10
112.962024863876
 20
352.4416363673449
 30
0.0
 10
115.710435231041
 20
352.6547702152513
 30
0.0
 10
122.6593903931888
 20
353.1936480954732
 30
0.0
 10
133.0603500725692
 20
353.1446097782715
 30
0.0
 10
143.9830780527489
 20
353.7000992866996
 30
0.0
 10
152.8130144084047
 20
352.2948735856875
 30
0.0
 10
159.402266048835
 20
349.3943549626646
 30
0.0
 10
163.2730412780899
 20
346.7537889098187
 30
0.0
 10
165.2352067994704
 20
345.1119730676722
 30
0.0
 10
165.8529398578057
 20
344.5950931661851
 30
0.0
 11
112.962024863876
 21
352.4416363673449
 31
0.0
 11
121.2107623821955
 21
352.9915987772956
 31
0.0
 11
133.8426794995448
 21
353.2699088220463
 31
0.0
 11
144.1252702312661
 21
353.3396253547937
 31
0.0
 11
153.8351469582417
 21
351.6132960245525
 31
0.0
 11
159.6232888309603
 21
349.0660420475272
 31
0.0
 11
163.9838780752223
 21
346.1264964922112
 31
0.0
 11
165.8529398578057
 21
344.5950931661851
 31
0.0
  0
SPLINE
  5
4D43
330
49FC
100
AcDbEntity
  8
APL Joinery
 62
     8
100
AcDbSpline
210
0.0
220
0.0
230
1.0
 70
     8
 71
     3
 72
    13
 73
     9
 74
     7
 42
0.0000000001
 43
0.0000000001
 44
0.0000000001
 40
0.0
 40
0.0
 40
0.0
 40
0.0
 40
7.873644080568313
 40
17.07129258656329
 40
24.77081643184663
 40
33.27528257512341
 40
39.90117587444498
 40
45.52268627951728
 40
45.52268627951728
 40
45.52268627951728
 40
45.52268627951728
 10
117.2336493875612
 20
346.4777841475926
 30
0.0
 10
119.8422678032878
 20
346.8000537066384
 30
0.0
 10
125.4981607755736
 20
347.4987845456142
 30
0.0
 10
133.7781962604838
 20
347.1223878341504
 30
0.0
 10
142.2036965073619
 20
346.5273623865884
 30
0.0
 10
149.7800610034507
 20
345.0750496880203
 30
0.0
 10
155.8214982068499
 20
341.4387446299347
 30
0.0
 10
158.650253791137
 20
338.4840976402127
 30
0.0
 10
159.9486415420667
 20
337.1279262265049
 30
0.0
 11
117.2336493875612
 21
346.4777841475926
 31
0.0
 11
125.0702377681257
 21
347.2407740958025
 31
0.0
 11
134.2660784444942
 21
347.0584219785152
 31
0.0
 11
141.9373280562645
 21
346.3991823877746
 31
0.0
 11
150.2087695760063
 21
344.4220128028292
 31
0.0
 11
155.8982514277181
 21
341.0260949190992
 31
0.0
 11
159.9486415420667
 21
337.1279262265049
 31
0.0
  0
LINE
  5
4D44
330
49FC
100
AcDbEntity
  8
APL Joinery
 62
     3
100
AcDbLine
 10
110.739951507863
 20
336.7623510830484
 30
0.0
 11
110.739951507863
 21
355.7623510830485
 31
0.0
  0
LINE
  5
4D45
330
49FC
100
AcDbEntity
  8
APL Joinery
 62
     8
100
AcDbLine
 10
130.1934589989773
 20
339.0760965397599
 30
0.0
 11
127.6670755755074
 21
350.2084983297885
 31
0.0
  0
SPLINE
  5
4D46
330
49FC
100
AcDbEntity
  8
APL Joinery
 62
     8
100
AcDbSpline
210
0.0
220
0.0
230
1.0
 70
     8
 71
     3
 72
    15
 73
    11
 74
     9
 42
0.0000000001
 43
0.0000000001
 44
0.0000000001
 40
0.0
 40
0.0
 40
0.0
 40
0.0
 40
4.844139449286539
 40
10.54193621031332
 40
16.07410556410715
 40
19.51351901015936
 40
22.27929741151003
 40
25.6710732269026
 40
27.95241956603697
 40
30.23778869522836
 40
30.23778869522836
 40
30.23778869522836
 40
30.23778869522836
 10
115.8770369925237
 20
337.0554560822224
 30
0.0
 10
117.1487211363271
 20
338.1096881093439
 30
0.0
 10
119.9161916569408
 20
340.4039339495252
 30
0.0
 10
125.4540610404964
 20
340.8199775377686
 30
0.0
 10
130.238054618822
 20
341.7249569545736
 30
0.0
 10
134.1816997355666
 20
341.426500736041
 30
0.0
 10
137.2886936906936
 20
340.6778211815542
 30
0.0
 10
140.1492368439622
 20
340.581128745862
 30
0.0
 10
142.5350224188241
 20
339.1458380938952
 30
0.0
 10
143.2897884662015
 20
337.8009584142327
 30
0.0
 10
143.6675039241498
 20
337.1279262265049
 30
0.0
 11
115.8770369925237
 21
337.0554560822224
 31
0.0
 11
119.8746185322385
 21
339.7913341565277
 31
0.0
 11
125.4579300570243
 21
340.9277849241204
 31
0.0
 11
130.9542151154868
 21
341.556870224519
 31
0.0
 11
134.3846942728782
 21
341.3091251870553
 31
0.0
 11
137.1049409005003
 21
340.8093367815391
 31
0.0
 11
140.4461645861669
 21
340.2259265791753
 31
0.0
 11
142.3805274829412
 21
339.0164716181847
 31
0.0
 11
143.6675039241498
 21
337.1279262265049
 31
0.0
  0
LINE
  5
4D47
330
49FC
100
AcDbEntity
  8
APL Joinery
 62
     8
100
AcDbLine
 10
122.8950179978421
 20
338.2411664055077
 30
0.0
 11
112.4454077587423
 21
345.190146322691
 31
0.0
  0
LINE
  5
4D48
330
49FC
100
AcDbEntity
  8
APL Joinery
 62
     3
100
AcDbLine
 10
177.7399515078631
 20
336.7623510830485
 30
0.0
 11
170.7399515078631
 21
336.7623510830485
 31
0.0
  0
SPLINE
  5
4D49
330
49FC
100
AcDbEntity
  8
APL Joinery
 62
     8
100
AcDbSpline
210
0.0
220
0.0
230
1.0
 70
     8
 71
     3
 72
    11
 73
     7
 74
     5
 42
0.0000000001
 43
0.0000000001
 44
0.0000000001
 40
0.0
 40
0.0
 40
0.0
 40
0.0
 40
4.077163776164723
 40
7.378903861023069
 40
10.95052549711435
 40
14.90356917242528
 40
14.90356917242528
 40
14.90356917242528
 40
14.90356917242528
 10
165.2821176582808
 20
355.2180791353014
 30
0.0
 10
166.5726858318287
 20
354.7818781738363
 30
0.0
 10
168.9083728440546
 20
353.9924360185927
 30
0.0
 10
172.0610412556228
 20
352.0900882102073
 30
0.0
 10
174.6875300120783
 20
349.5844033021437
 30
0.0
 10
176.2507024700006
 20
347.6216106372748
 30
0.0
 10
177.0719069678068
 20
346.5904677480291
 30
0.0
 11
165.2821176582808
 21
355.2180791353014
 31
0.0
 11
169.0893137398045
 21
353.7591334699317
 31
0.0
 11
171.9114927001994
 21
352.0454259384479
 31
0.0
 11
174.5358983769054
 21
349.6228289939545
 31
0.0
 11
177.0719069678068
 21
346.5904677480291
 31
0.0
  0
LINE
  5
4D4A
330
49FC
100
AcDbEntity
  8
APL Joinery
 62
     3
100
AcDbLine
 10
160.7399515078631
 20
343.7623510830484
 30
0.0
 11
170.7399515078631
 21
343.7623510830484
 31
0.0
  0
LINE
  5
4D4B
330
49FC
100
AcDbEntity
  8
APL Joinery
 62
     8
100
AcDbLine
 10
145.9131780783453
 20
339.6327166292613
 30
0.0
 11
175.1069420828859
 21
352.7132887325449
 31
0.0
  0
LINE
  5
4D4C
330
49FC
100
AcDbEntity
  8
APL Joinery
 62
     3
100
AcDbLine
 10
160.7399515078631
 20
336.7623510830485
 30
0.0
 11
160.7399515078631
 21
343.7623510830484
 31
0.0
  0
LINE
  5
4D4D
330
49FC
100
AcDbEntity
  8
APL Joinery
 62
     3
100
AcDbLine
 10
170.7399515078631
 20
336.7623510830485
 30
0.0
 11
170.7399515078631
 21
343.7623510830484
 31
0.0
  0
LINE
  5
4D4E
330
49FC
100
AcDbEntity
  8
APL Joinery
 62
     3
100
AcDbLine
 10
177.7399515078631
 20
336.7623510830485
 30
0.0
 11
177.7399515078631
 21
355.7623510830485
 31
0.0
  0
ENDBLK
  5
49FE
330
49FC
100
AcDbEntity
  8
0
100
AcDbBlockEnd
  0
BLOCK
  5
4A07
330
4A06
100
AcDbEntity
  8
0
100
AcDbBlockBegin
  2
08655Sash
 70
     0
 10
0.0
 20
0.0
 30
0.0
  3
08655Sash
  1

  0
INSERT
  5
4A09
330
4A06
100
AcDbEntity
  8
APL Joinery
100
AcDbBlockReference
  2
08655
 10
32.5
 20
33.8000000000001
 30
0.0
 41
-1.0
 50
270.0
  0
INSERT
  5
4A0A
330
4A06
100
AcDbEntity
  8
APL Joinery
100
AcDbBlockReference
  2
08656
 10
0.0
 20
0.0000000000000284
 30
0.0
 41
-1.0
 50
270.0
  0
INSERT
  5
4A0B
330
4A06
100
AcDbEntity
  8
APL Joinery
100
AcDbBlockReference
  2
9010312l
 10
39.5
 20
2.300000000000096
 30
0.0
 41
-1.0
 50
270.0
  0
INSERT
  5
4A0C
330
4A06
100
AcDbEntity
  8
APL Notes
100
AcDbBlockReference
  2
08630Glaze
 10
61.99999999999988
 20
-0.0000000000000853
 30
0.0
 41
-1.0
 50
270.0
  0
INSERT
  5
4A0D
330
4A06
100
AcDbEntity
  8
APL Joinery
100
AcDbBlockReference
  2
9010100
 10
17.04999999999995
 20
44.50000000000037
 30
0.0
 41
-1.0
 50
90.0
  0
ENDBLK
  5
4A08
330
4A06
100
AcDbEntity
  8
0
100
AcDbBlockEnd
  0
BLOCK
  5
4C84
330
4C83
100
AcDbEntity
  8
0
100
AcDbBlockBegin
  2
08626
 70
     0
 10
-82.67685423316441
 20
204.5487317830279
 30
0.0
  3
08626
  1
08626.dwg
  0
LWPOLYLINE
  5
5696
102
{ACAD_REACTORS
330
5698
102
}
330
4C83
100
AcDbEntity
  8
APL Joinery
  6
Continuous
100
AcDbPolyline
 90
      102
 70
     1
 43
0.0
 10
-120.8768542331644
 20
214.8487317823153
 42
0.4142135623729619
 10
-121.0768542331644
 20
215.0487317823153
 10
-121.1768542331645
 20
215.0487317823153
 10
-121.1768542331645
 20
218.0487317823152
 10
-120.4268542331644
 20
218.0487317823152
 42
0.4744978678081847
 10
-120.1819052588863
 20
218.3487317823153
 42
0.3563939586925875
 10
-121.6515991045562
 20
219.5487317823153
 10
-122.4268542331645
 20
219.5487317823152
 42
0.4142135623730951
 10
-122.6768542331645
 20
219.2987317823153
 10
-122.6768542331645
 20
206.0487317830279
 10
-152.1768542331644
 20
206.0487317830279
 42
-0.4142135623730951
 10
-152.6768542331645
 20
206.5487317830279
 10
-152.6768542331645
 20
208.0487317830279
 42
0.4142135623730617
 10
-153.1768542331644
 20
208.5487317830279
 10
-167.1768542331644
 20
208.5487317830279
 42
0.4142135623730617
 10
-167.6768542331644
 20
208.0487317830278
 10
-167.6768542331644
 20
201.0487317830279
 42
0.4142135623731284
 10
-167.1768542331645
 20
200.5487317830279
 10
-153.1768542331644
 20
200.5487317830279
 42
0.4142135623731284
 10
-152.6768542331645
 20
201.0487317830278
 10
-152.6768542331645
 20
202.5487317830279
 42
-0.4142135623730784
 10
-152.1768542331644
 20
203.0487317830278
 10
-122.6768542331645
 20
203.0487317830278
 10
-122.6768542331645
 20
189.7987317837405
 42
0.4142135623730951
 10
-122.4268542331645
 20
189.5487317837405
 10
-121.6515991045562
 20
189.5487317837405
 42
0.3563939586926033
 10
-120.1819052588863
 20
190.7487317837405
 42
0.4744978678081847
 10
-120.4268542331645
 20
191.0487317837405
 10
-121.1768542331645
 20
191.0487317837405
 10
-121.1768542331645
 20
194.0487317837405
 10
-108.4768542331644
 20
194.0487317837405
 10
-108.4768542331644
 20
193.5487317837407
 42
0.4142135623730118
 10
-108.2768542331644
 20
193.3487317837407
 10
-102.1768542331644
 20
193.3487317837407
 42
-0.4142135623730784
 10
-101.6768542331645
 20
192.8487317837407
 10
-101.6768542331645
 20
191.0487317837407
 42
-0.4142135623730951
 10
-102.1768542331644
 20
190.5487317837408
 10
-104.6768542331643
 20
190.5487317837408
 42
1.000000000000028
 10
-104.6768542331643
 20
189.5487317837408
 10
-86.67685423316447
 20
189.5487317837405
 10
-86.67685423316447
 20
188.2487317837405
 42
0.4142135623730118
 10
-86.47685423316444
 20
188.0487317837405
 10
-84.47685423316466
 20
188.0487317837405
 10
-84.47685423316466
 20
184.0487317837405
 10
-86.17685423316435
 20
184.0487317837405
 42
0.9999999999999998
 10
-86.17685423316435
 20
183.0487317837405
 10
-84.47685423316466
 20
183.0487317837405
 10
-84.47685423316466
 20
177.6487317837404
 10
-86.17685423316448
 20
177.6487317837404
 42
0.4142135623730951
 10
-86.67685423316447
 20
177.1487317837404
 10
-86.67685423316447
 20
175.5987317837405
 42
0.9999999999999998
 10
-85.67685423316447
 20
175.5987317837405
 10
-85.67685423316447
 20
176.3487317837405
 10
-84.17685423316447
 20
176.3487317837405
 10
-84.17685423316447
 20
170.8487317837405
 10
-85.67685423316447
 20
170.8487317837405
 10
-85.67685423316447
 20
171.5987317837405
 42
0.9999999999999998
 10
-86.67685423316447
 20
171.5987317837405
 10
-86.67685423316447
 20
170.0487317837405
 42
0.4142135623730784
 10
-86.17685423316448
 20
169.5487317837405
 10
-84.97685423316466
 20
169.5487317837405
 10
-84.97685423316459
 20
167.7487317837406
 42
0.4142135623731117
 10
-84.77685423316462
 20
167.5487317837405
 10
-82.87685423316441
 20
167.5487317837406
 42
0.4142135623730118
 10
-82.67685423316448
 20
167.7487317837405
 10
-82.67685423316436
 20
241.3487317823153
 42
0.4142135623730284
 10
-82.87685423316441
 20
241.5487317823153
 10
-84.77685423316462
 20
241.5487317823153
 42
0.4142135623730951
 10
-84.97685423316466
 20
241.3487317823152
 10
-84.97685423316454
 20
239.5487317823153
 10
-86.17685423316439
 20
239.5487317823153
 42
0.4142135623730784
 10
-86.67685423316436
 20
239.0487317823152
 10
-86.6768542331645
 20
237.4987317823152
 42
0.9999999999999998
 10
-85.67685423316437
 20
237.4987317823152
 10
-85.67685423316437
 20
238.2487317823152
 10
-84.17685423316436
 20
238.2487317823152
 10
-84.17685423316436
 20
232.7487317823152
 10
-85.67685423316437
 20
232.7487317823152
 10
-85.67685423316451
 20
233.4987317823152
 42
0.9999999999999998
 10
-86.67685423316436
 20
233.4987317823152
 10
-86.67685423316447
 20
231.9487317823152
 42
0.4142135623731117
 10
-86.17685423316435
 20
231.4487317823152
 10
-84.47685423316455
 20
231.4487317823152
 10
-84.47685423316455
 20
226.0487317823153
 10
-86.17685423316448
 20
226.0487317823153
 42
0.9999999999999998
 10
-86.17685423316448
 20
225.0487317823151
 10
-84.47685423316466
 20
225.0487317823153
 10
-84.47685423316466
 20
221.0487317823153
 10
-86.47685423316444
 20
221.0487317823152
 42
0.4142135623730951
 10
-86.67685423316447
 20
220.8487317823152
 10
-86.67685423316447
 20
219.5487317823153
 10
-104.6768542331643
 20
219.548731782315
 42
1.000000000000028
 10
-104.6768542331645
 20
218.548731782315
 10
-102.1768542331644
 20
218.5487317823151
 42
-0.4142135623730951
 10
-101.6768542331645
 20
218.048731782315
 10
-101.6768542331645
 20
216.2487317823151
 42
-0.4142135623730784
 10
-102.1768542331644
 20
215.7487317823151
 10
-108.2768542331645
 20
215.748731782315
 42
0.4142135623730951
 10
-108.4768542331645
 20
215.548731782315
 10
-108.4768542331645
 20
211.3487317823152
 10
-119.8768542331645
 20
211.3487317823152
 42
-0.4142135623730951
 10
-120.8768542331645
 20
212.3487317823152
  0
LWPOLYLINE
  5
5697
102
{ACAD_REACTORS
330
5698
102
}
330
4C83
100
AcDbEntity
  8
APL Joinery
  6
Continuous
100
AcDbPolyline
 90
       45
 70
     1
 43
0.0
 10
-89.02230877861901
 20
195.7039041190804
 42
0.9999999999999596
 10
-90.33139968770999
 20
194.4684766660361
 42
-2.318729304408965
 10
-93.022308778619
 20
194.4684766660361
 42
0.9999999999999792
 10
-94.33139968770992
 20
195.7039041190803
 42
0.2788550286926634
 10
-95.12833238144267
 20
192.0113823861503
 42
-0.5149445451952542
 10
-95.60113760723425
 20
191.3487317837405
 10
-98.87685423316453
 20
191.3487317837405
 42
-0.4142135623730951
 10
-99.87685423316452
 20
192.3487317837405
 10
-99.87685423316447
 20
192.8487317837408
 42
0.4142135623730951
 10
-102.1768542331644
 20
195.1487317837408
 10
-106.6768542331645
 20
195.1487317837408
 10
-106.6768542331643
 20
195.6487317837405
 42
0.4142135623730118
 10
-106.8768542331644
 20
195.8487317837405
 10
-119.8768542331645
 20
195.8487317837405
 42
-0.4142135623730951
 10
-120.8768542331645
 20
196.8487317837405
 10
-120.8768542331645
 20
208.5487317823153
 42
-0.4142135623730951
 10
-119.8768542331645
 20
209.5487317823153
 10
-115.4293909309126
 20
209.5487317823153
 42
-0.8177126633499668
 10
-115.0975553570398
 20
207.9108900655332
 42
0.5229816358584582
 10
-116.33139968771
 20
202.0435594476881
 42
0.9999999999999998
 10
-115.0223087786189
 20
203.2789869007322
 42
-2.318729304408836
 10
-112.3313996877099
 20
203.2789869007323
 42
1.00000000000004
 10
-111.022308778619
 20
202.043559447688
 42
0.5229816358584712
 10
-112.2561531092891
 20
207.9108900655332
 42
-0.8177126633499904
 10
-111.9243175354163
 20
209.5487317823152
 10
-106.6768542331645
 20
209.5487317823153
 10
-106.6768542331645
 20
213.948731782315
 10
-102.1768542331644
 20
213.948731782315
 42
0.4142135623730951
 10
-99.87685423316442
 20
216.2487317823151
 10
-99.87685423316449
 20
216.7487317823152
 42
-0.4142135623730951
 10
-98.87685423316453
 20
217.7487317823152
 10
-95.60113760723425
 20
217.7487317823152
 42
-0.5149445451952152
 10
-95.12833238144271
 20
217.0860811799054
 42
0.2788550286926684
 10
-94.33139968770994
 20
213.3935594469754
 42
0.9999999999999998
 10
-93.022308778619
 20
214.6289869000196
 42
-2.318729304408964
 10
-90.33139968770996
 20
214.6289869000196
 42
0.9999999999999598
 10
-89.02230877861903
 20
213.3935594469752
 42
0.2788550286926634
 10
-88.22537608488618
 20
217.0860811799054
 42
-0.5149445451952542
 10
-87.75257085909471
 20
217.7487317823152
 10
-85.47685423316465
 20
217.7487317823152
 42
-0.4142135623730951
 10
-84.47685423316466
 20
216.7487317823152
 10
-84.47685423316466
 20
192.3487317837405
 42
-0.4142135623730951
 10
-85.47685423316465
 20
191.3487317837405
 10
-87.75257085909471
 20
191.3487317837406
 42
-0.5149445451951982
 10
-88.22537608488628
 20
192.0113823861504
 42
0.2788550286926636
  0
HATCH
  5
5698
330
4C83
100
AcDbEntity
  8
APL Hatch
100
AcDbHatch
 10
0.0
 20
0.0
 30
0.0
210
0.0
220
0.0
230
1.0
  2
SOLID
 70
     1
 71
     1
 91
        2
 92
       16
 93
       45
 72
     2
 10
-89.67685423316448
 20
195.0861903925582
 40
0.9000000000000319
 50
43.3417582272244
 51
223.3417582272193
 73
     1
 72
     2
 10
-91.67685423316449
 20
193.1987317837405
 40
1.850000000000001
 50
316.6582417727756
 51
583.3417582272244
 73
     0
 72
     2
 10
-93.67685423316448
 20
195.0861903925582
 40
0.9000000000000136
 50
316.6582417727795
 51
496.6582417727781
 73
     1
 72
     2
 10
-91.67685423316457
 20
193.1987317837405
 40
3.649999999999906
 50
136.6582417727769
 51
198.9838243850399
 73
     1
 72
     2
 10
-95.60113760723426
 20
191.8487317837405
 40
0.500000000000078
 50
341.0161756149538
 51
449.9999999999984
 73
     0
 72
     1
 10
-95.60113760723425
 20
191.3487317837405
 11
-98.87685423316453
 21
191.3487317837405
 72
     2
 10
-98.87685423316453
 20
192.3487317837405
 40
1.0
 50
90.0
 51
180.0
 73
     0
 72
     1
 10
-99.87685423316452
 20
192.3487317837405
 11
-99.87685423316447
 21
192.8487317837408
 72
     2
 10
-102.1768542331644
 20
192.8487317837408
 40
2.300000000000011
 50
0.0
 51
90.0
 73
     1
 72
     1
 10
-102.1768542331644
 20
195.1487317837408
 11
-106.6768542331645
 21
195.1487317837408
 72
     1
 10
-106.6768542331645
 20
195.1487317837408
 11
-106.6768542331643
 21
195.6487317837405
 72
     2
 10
-106.8768542331644
 20
195.6487317837404
 40
0.2000000000000739
 50
0.0000000000081422
 51
89.99999999999186
 73
     1
 72
     1
 10
-106.8768542331644
 20
195.8487317837405
 11
-119.8768542331645
 21
195.8487317837405
 72
     2
 10
-119.8768542331645
 20
196.8487317837405
 40
1.0
 50
90.0
 51
180.0
 73
     0
 72
     1
 10
-120.8768542331645
 20
196.8487317837405
 11
-120.8768542331645
 21
208.5487317823153
 72
     2
 10
-119.8768542331645
 20
208.5487317823153
 40
0.9999999999999857
 50
180.0
 51
269.9999999999992
 73
     0
 72
     1
 10
-119.8768542331645
 20
209.5487317823153
 11
-115.4293909309126
 21
209.5487317823153
 72
     2
 10
-115.4293909309126
 20
208.6961950845671
 40
0.852536697748178
 50
270.0000000000029
 51
427.0932056765145
 73
     0
 72
     2
 10
-113.6768542331644
 20
204.5487317830279
 40
3.649999999999984
 50
112.9067943234853
 51
223.3417582272201
 73
     1
 72
     2
 10
-115.6768542331644
 20
202.6612731742102
 40
0.8999999999999861
 50
223.3417582272147
 51
403.3417582272146
 73
     1
 72
     2
 10
-113.6768542331645
 20
204.5487317830278
 40
1.84999999999995
 50
136.6582417727753
 51
403.3417582272206
 73
     0
 72
     2
 10
-111.6768542331645
 20
202.6612731742101
 40
0.9000000000000113
 50
136.6582417727743
 51
316.6582417727775
 73
     1
 72
     2
 10
-113.6768542331645
 20
204.5487317830278
 40
3.650000000000008
 50
316.6582417727779
 51
427.0932056765148
 73
     1
 72
     2
 10
-111.9243175354163
 20
208.6961950845671
 40
0.8525366977481604
 50
112.9067943234855
 51
270.0
 73
     0
 72
     1
 10
-111.9243175354163
 20
209.5487317823152
 11
-106.6768542331645
 21
209.5487317823153
 72
     1
 10
-106.6768542331645
 20
209.5487317823153
 11
-106.6768542331645
 21
213.948731782315
 72
     1
 10
-106.6768542331645
 20
213.948731782315
 11
-102.1768542331644
 21
213.948731782315
 72
     2
 10
-102.1768542331644
 20
216.2487317823151
 40
2.300000000000068
 50
270.0
 51
360.0
 73
     1
 72
     1
 10
-99.87685423316442
 20
216.2487317823151
 11
-99.87685423316449
 21
216.7487317823152
 72
     2
 10
-98.87685423316451
 20
216.7487317823152
 40
0.9999999999999857
 50
180.0
 51
269.9999999999992
 73
     0
 72
     1
 10
-98.87685423316453
 20
217.7487317823152
 11
-95.60113760723425
 21
217.7487317823152
 72
     2
 10
-95.6011376072343
 20
217.2487317823151
 40
0.5000000000000569
 50
270.0000000000065
 51
378.9838243850425
 73
     0
 72
     2
 10
-91.67685423316468
 20
215.8987317823152
 40
3.649999999999835
 50
161.0161756149597
 51
223.341758227224
 73
     1
 72
     2
 10
-93.67685423316448
 20
214.0112731734975
 40
0.8999999999999838
 50
223.3417582272198
 51
403.3417582272192
 73
     1
 72
     2
 10
-91.67685423316449
 20
215.8987317823152
 40
1.85000000000002
 50
136.6582417727749
 51
403.3417582272238
 73
     0
 72
     2
 10
-89.67685423316448
 20
214.0112731734974
 40
0.900000000000033
 50
136.6582417727781
 51
316.6582417727736
 73
     1
 72
     2
 10
-91.67685423316441
 20
215.8987317823152
 40
3.650000000000025
 50
316.6582417727756
 51
378.9838243850387
 73
     1
 72
     2
 10
-87.75257085909464
 20
217.2487317823151
 40
0.5000000000000242
 50
161.0161756149517
 51
269.9999999999935
 73
     0
 72
     1
 10
-87.75257085909471
 20
217.7487317823152
 11
-85.47685423316465
 21
217.7487317823152
 72
     2
 10
-85.47685423316465
 20
216.7487317823152
 40
1.0
 50
270.0
 51
360.0
 73
     0
 72
     1
 10
-84.47685423316466
 20
216.7487317823152
 11
-84.47685423316466
 21
192.3487317837405
 72
     2
 10
-85.47685423316465
 20
192.3487317837405
 40
1.0
 50
360.0
 51
450.0
 73
     0
 72
     1
 10
-85.47685423316465
 20
191.3487317837405
 11
-87.75257085909471
 21
191.3487317837406
 72
     2
 10
-87.75257085909466
 20
191.8487317837407
 40
0.5000000000001137
 50
90.00000000000488
 51
198.9838243850384
 73
     0
 72
     2
 10
-91.67685423316433
 20
193.1987317837407
 40
3.649999999999835
 50
341.0161756149597
 51
403.341758227223
 73
     1
 97
        1
330
5697
 92
        1
 93
      102
 72
     2
 10
-121.0768542331644
 20
214.8487317823152
 40
0.2000000000000597
 50
0.0000000000162844
 51
89.99999999999593
 73
     1
 72
     1
 10
-121.0768542331644
 20
215.0487317823153
 11
-121.1768542331645
 21
215.0487317823153
 72
     1
 10
-121.1768542331645
 20
215.0487317823153
 11
-121.1768542331645
 21
218.0487317823152
 72
     1
 10
-121.1768542331645
 20
218.0487317823152
 11
-120.4268542331644
 21
218.0487317823152
 72
     2
 10
-120.4268542331645
 20
218.2987317823152
 40
0.2499999999999432
 50
270.0000000000293
 51
371.536959032861
 73
     1
 72
     2
 10
-121.6515991045562
 20
218.0487317823152
 40
1.500000000000001
 50
11.53695903281813
 51
90.0
 73
     1
 72
     1
 10
-121.6515991045562
 20
219.5487317823153
 11
-122.4268542331645
 21
219.5487317823152
 72
     2
 10
-122.4268542331645
 20
219.2987317823153
 40
0.2499999999999716
 50
89.99999999999674
 51
180.0
 73
     1
 72
     1
 10
-122.6768542331645
 20
219.2987317823153
 11
-122.6768542331645
 21
206.0487317830279
 72
     1
 10
-122.6768542331645
 20
206.0487317830279
 11
-152.1768542331644
 21
206.0487317830279
 72
     2
 10
-152.1768542331644
 20
206.5487317830279
 40
0.4999999999999716
 50
90.0
 51
180.0
 73
     0
 72
     1
 10
-152.6768542331645
 20
206.5487317830279
 11
-152.6768542331645
 21
208.0487317830279
 72
     2
 10
-153.1768542331644
 20
208.0487317830278
 40
0.5
 50
0.0000000000065138
 51
90.0
 73
     1
 72
     1
 10
-153.1768542331644
 20
208.5487317830279
 11
-167.1768542331644
 21
208.5487317830279
 72
     2
 10
-167.1768542331644
 20
208.0487317830278
 40
0.5000000000000853
 50
90.00000000000325
 51
179.9999999999935
 73
     1
 72
     1
 10
-167.6768542331644
 20
208.0487317830278
 11
-167.6768542331644
 21
201.0487317830279
 72
     2
 10
-167.1768542331645
 20
201.0487317830278
 40
0.5
 50
179.9999999999935
 51
270.0
 73
     1
 72
     1
 10
-167.1768542331645
 20
200.5487317830279
 11
-153.1768542331644
 21
200.5487317830279
 72
     2
 10
-153.1768542331644
 20
201.0487317830278
 40
0.4999999999999148
 50
270.0
 51
360.0000000000065
 73
     1
 72
     1
 10
-152.6768542331645
 20
201.0487317830278
 11
-152.6768542331645
 21
202.5487317830279
 72
     2
 10
-152.1768542331644
 20
202.5487317830279
 40
0.5
 50
180.0000000000065
 51
270.0
 73
     0
 72
     1
 10
-152.1768542331644
 20
203.0487317830278
 11
-122.6768542331645
 21
203.0487317830278
 72
     1
 10
-122.6768542331645
 20
203.0487317830278
 11
-122.6768542331645
 21
189.7987317837405
 72
     2
 10
-122.4268542331645
 20
189.7987317837405
 40
0.25
 50
180.0
 51
270.0
 73
     1
 72
     1
 10
-122.4268542331645
 20
189.5487317837405
 11
-121.6515991045562
 21
189.5487317837405
 72
     2
 10
-121.6515991045562
 20
191.0487317837405
 40
1.5
 50
269.9999999999989
 51
348.463040967184
 73
     1
 72
     2
 10
-120.4268542331645
 20
190.7987317837406
 40
0.2499999999999059
 50
348.4630409671575
 51
449.9999999999935
 73
     1
 72
     1
 10
-120.4268542331645
 20
191.0487317837405
 11
-121.1768542331645
 21
191.0487317837405
 72
     1
 10
-121.1768542331645
 20
191.0487317837405
 11
-121.1768542331645
 21
194.0487317837405
 72
     1
 10
-121.1768542331645
 20
194.0487317837405
 11
-108.4768542331644
 21
194.0487317837405
 72
     1
 10
-108.4768542331644
 20
194.0487317837405
 11
-108.4768542331644
 21
193.5487317837407
 72
     2
 10
-108.2768542331644
 20
193.5487317837408
 40
0.2000000000000455
 50
180.0000000000163
 51
270.0
 73
     1
 72
     1
 10
-108.2768542331644
 20
193.3487317837407
 11
-102.1768542331644
 21
193.3487317837407
 72
     2
 10
-102.1768542331644
 20
192.8487317837407
 40
0.5
 50
270.0000000000033
 51
360.0
 73
     0
 72
     1
 10
-101.6768542331645
 20
192.8487317837407
 11
-101.6768542331645
 21
191.0487317837407
 72
     2
 10
-102.1768542331644
 20
191.0487317837407
 40
0.5
 50
360.0
 51
450.0
 73
     0
 72
     1
 10
-102.1768542331644
 20
190.5487317837408
 11
-104.6768542331643
 21
190.5487317837408
 72
     2
 10
-104.6768542331643
 20
190.0487317837407
 40
0.5
 50
89.99999999999674
 51
270.0
 73
     1
 72
     1
 10
-104.6768542331643
 20
189.5487317837408
 11
-86.67685423316447
 21
189.5487317837405
 72
     1
 10
-86.67685423316447
 20
189.5487317837405
 11
-86.67685423316447
 21
188.2487317837405
 72
     2
 10
-86.47685423316444
 20
188.2487317837406
 40
0.2000000000000455
 50
180.0000000000163
 51
270.0
 73
     1
 72
     1
 10
-86.47685423316444
 20
188.0487317837405
 11
-84.47685423316466
 21
188.0487317837405
 72
     1
 10
-84.47685423316466
 20
188.0487317837405
 11
-84.47685423316466
 21
184.0487317837405
 72
     1
 10
-84.47685423316466
 20
184.0487317837405
 11
-86.17685423316435
 21
184.0487317837405
 72
     2
 10
-86.17685423316435
 20
183.5487317837405
 40
0.5
 50
90.0
 51
270.0
 73
     1
 72
     1
 10
-86.17685423316435
 20
183.0487317837405
 11
-84.47685423316466
 21
183.0487317837405
 72
     1
 10
-84.47685423316466
 20
183.0487317837405
 11
-84.47685423316466
 21
177.6487317837404
 72
     1
 10
-84.47685423316466
 20
177.6487317837404
 11
-86.17685423316448
 21
177.6487317837404
 72
     2
 10
-86.17685423316448
 20
177.1487317837404
 40
0.5
 50
90.0
 51
180.0
 73
     1
 72
     1
 10
-86.67685423316447
 20
177.1487317837404
 11
-86.67685423316447
 21
175.5987317837405
 72
     2
 10
-86.17685423316448
 20
175.5987317837405
 40
0.5
 50
180.0
 51
360.0
 73
     1
 72
     1
 10
-85.67685423316447
 20
175.5987317837405
 11
-85.67685423316447
 21
176.3487317837405
 72
     1
 10
-85.67685423316447
 20
176.3487317837405
 11
-84.17685423316447
 21
176.3487317837405
 72
     1
 10
-84.17685423316447
 20
176.3487317837405
 11
-84.17685423316447
 21
170.8487317837405
 72
     1
 10
-84.17685423316447
 20
170.8487317837405
 11
-85.67685423316447
 21
170.8487317837405
 72
     1
 10
-85.67685423316447
 20
170.8487317837405
 11
-85.67685423316447
 21
171.5987317837405
 72
     2
 10
-86.17685423316448
 20
171.5987317837405
 40
0.5
 50
0.0
 51
180.0
 73
     1
 72
     1
 10
-86.67685423316447
 20
171.5987317837405
 11
-86.67685423316447
 21
170.0487317837405
 72
     2
 10
-86.17685423316446
 20
170.0487317837405
 40
0.5000000000000142
 50
180.0
 51
269.9999999999984
 73
     1
 72
     1
 10
-86.17685423316448
 20
169.5487317837405
 11
-84.97685423316466
 21
169.5487317837405
 72
     1
 10
-84.97685423316466
 20
169.5487317837405
 11
-84.97685423316459
 21
167.7487317837406
 72
     2
 10
-84.77685423316458
 20
167.7487317837405
 40
0.200000000000017
 50
179.9999999999918
 51
269.9999999999919
 73
     1
 72
     1
 10
-84.77685423316462
 20
167.5487317837405
 11
-82.87685423316441
 21
167.5487317837406
 72
     2
 10
-82.87685423316444
 20
167.7487317837405
 40
0.1999999999999602
 50
270.0000000000081
 51
359.9999999999919
 73
     1
 72
     1
 10
-82.67685423316448
 20
167.7487317837405
 11
-82.67685423316436
 21
241.3487317823153
 72
     2
 10
-82.87685423316441
 20
241.3487317823152
 40
0.2000000000000455
 50
0.0000000000162844
 51
90.0
 73
     1
 72
     1
 10
-82.87685423316441
 20
241.5487317823153
 11
-84.77685423316462
 21
241.5487317823153
 72
     2
 10
-84.77685423316462
 20
241.3487317823152
 40
0.2000000000000455
 50
90.0
 51
180.0
 73
     1
 72
     1
 10
-84.97685423316466
 20
241.3487317823152
 11
-84.97685423316454
 21
239.5487317823153
 72
     1
 10
-84.97685423316454
 20
239.5487317823153
 11
-86.17685423316439
 21
239.5487317823153
 72
     2
 10
-86.17685423316435
 20
239.0487317823152
 40
0.5
 50
90.00000000000325
 51
180.0
 73
     1
 72
     1
 10
-86.67685423316436
 20
239.0487317823152
 11
-86.6768542331645
 21
237.4987317823152
 72
     2
 10
-86.17685423316443
 20
237.4987317823152
 40
0.5000000000000711
 50
180.0
 51
360.0
 73
     1
 72
     1
 10
-85.67685423316437
 20
237.4987317823152
 11
-85.67685423316437
 21
238.2487317823152
 72
     1
 10
-85.67685423316437
 20
238.2487317823152
 11
-84.17685423316436
 21
238.2487317823152
 72
     1
 10
-84.17685423316436
 20
238.2487317823152
 11
-84.17685423316436
 21
232.7487317823152
 72
     1
 10
-84.17685423316436
 20
232.7487317823152
 11
-85.67685423316437
 21
232.7487317823152
 72
     1
 10
-85.67685423316437
 20
232.7487317823152
 11
-85.67685423316451
 21
233.4987317823152
 72
     2
 10
-86.17685423316443
 20
233.4987317823152
 40
0.499999999999929
 50
0.0
 51
180.0
 73
     1
 72
     1
 10
-86.67685423316436
 20
233.4987317823152
 11
-86.67685423316447
 21
231.9487317823152
 72
     2
 10
-86.17685423316443
 20
231.9487317823153
 40
0.5000000000000427
 50
180.0000000000065
 51
270.0000000000081
 73
     1
 72
     1
 10
-86.17685423316435
 20
231.4487317823152
 11
-84.47685423316455
 21
231.4487317823152
 72
     1
 10
-84.47685423316455
 20
231.4487317823152
 11
-84.47685423316455
 21
226.0487317823153
 72
     1
 10
-84.47685423316455
 20
226.0487317823153
 11
-86.17685423316448
 21
226.0487317823153
 72
     2
 10
-86.17685423316448
 20
225.5487317823152
 40
0.5000000000000569
 50
90.0
 51
270.0
 73
     1
 72
     1
 10
-86.17685423316448
 20
225.0487317823151
 11
-84.47685423316466
 21
225.0487317823153
 72
     1
 10
-84.47685423316466
 20
225.0487317823153
 11
-84.47685423316466
 21
221.0487317823153
 72
     1
 10
-84.47685423316466
 20
221.0487317823153
 11
-86.47685423316444
 21
221.0487317823152
 72
     2
 10
-86.47685423316445
 20
220.8487317823152
 40
0.200000000000017
 50
89.99999999999186
 51
179.9999999999918
 73
     1
 72
     1
 10
-86.67685423316447
 20
220.8487317823152
 11
-86.67685423316447
 21
219.5487317823153
 72
     1
 10
-86.67685423316447
 20
219.5487317823153
 11
-104.6768542331643
 21
219.548731782315
 72
     2
 10
-104.6768542331644
 20
219.048731782315
 40
0.5
 50
89.99999999998861
 51
269.9999999999919
 73
     1
 72
     1
 10
-104.6768542331645
 20
218.548731782315
 11
-102.1768542331644
 21
218.5487317823151
 72
     2
 10
-102.1768542331645
 20
218.048731782315
 40
0.5000000000000285
 50
270.0000000000017
 51
360.0
 73
     0
 72
     1
 10
-101.6768542331645
 20
218.048731782315
 11
-101.6768542331645
 21
216.2487317823151
 72
     2
 10
-102.1768542331645
 20
216.2487317823151
 40
0.5000000000000142
 50
360.0
 51
449.9999999999984
 73
     0
 72
     1
 10
-102.1768542331644
 20
215.7487317823151
 11
-108.2768542331645
 21
215.748731782315
 72
     2
 10
-108.2768542331645
 20
215.548731782315
 40
0.200000000000017
 50
89.99999999999186
 51
179.9999999999918
 73
     1
 72
     1
 10
-108.4768542331645
 20
215.548731782315
 11
-108.4768542331645
 21
211.3487317823152
 72
     1
 10
-108.4768542331645
 20
211.3487317823152
 11
-119.8768542331645
 21
211.3487317823152
 72
     2
 10
-119.8768542331645
 20
212.3487317823152
 40
0.9999999999999715
 50
89.9999999999992
 51
180.0
 73
     0
 72
     1
 10
-120.8768542331645
 20
212.3487317823152
 11
-120.8768542331644
 21
214.8487317823153
 97
        1
330
5696
 75
     0
 76
     1
 98
        1
 10
0.0
 20
0.0
  0
ENDBLK
  5
4C85
330
4C83
100
AcDbEntity
  8
0
100
AcDbBlockEnd
  0
BLOCK
  5
4C8A
330
4C89
100
AcDbEntity
  8
0
100
AcDbBlockBegin
  2
08614
 70
     0
 10
188.2189037986326
 20
557.6258359089741
 30
0.0
  3
08614
  1
08614.dwg
  0
LWPOLYLINE
  5
569A
102
{ACAD_REACTORS
330
569C
102
}
330
4C89
100
AcDbEntity
  8
APL Joinery
  6
Continuous
100
AcDbPolyline
 90
       98
 70
     1
 43
0.0
 10
202.0189037979199
 20
520.1207848832524
 42
0.4744978678080569
 10
201.7189037979199
 20
519.875835908974
 10
201.7189037979199
 20
519.125835908974
 10
198.7189037979199
 20
519.125835908974
 10
198.7189037979199
 20
531.8258359089741
 10
199.2189037979198
 20
531.8258359089741
 42
0.4142135623730118
 10
199.4189037979197
 20
532.025835908974
 10
199.4189037979197
 20
538.1258359089741
 42
-0.4142135623730784
 10
199.9189037979197
 20
538.6258359089741
 10
201.7189037979197
 20
538.6258359089741
 42
-0.4142135623730951
 10
202.2189037979197
 20
538.1258359089741
 10
202.2189037979197
 20
535.6258359089742
 42
0.9999999999999998
 10
203.2189037979196
 20
535.6258359089742
 10
203.21890379792
 20
553.6258359089742
 10
204.5189037979199
 20
553.6258359089742
 42
0.4142135623729619
 10
204.71890379792
 20
553.825835908974
 10
204.71890379792
 20
555.825835908974
 10
208.71890379792
 20
555.825835908974
 10
208.71890379792
 20
554.1258359089741
 42
0.9999999999999998
 10
209.7189037979199
 20
554.1258359089741
 10
209.71890379792
 20
555.825835908974
 10
215.1189037979199
 20
555.825835908974
 10
215.1189037979199
 20
554.1258359089741
 42
0.4142135623730617
 10
215.6189037979199
 20
553.6258359089742
 10
217.1689037979199
 20
553.6258359089742
 42
1.000000000000056
 10
217.1689037979198
 20
554.6258359089741
 10
216.4189037979199
 20
554.6258359089741
 10
216.4189037979199
 20
556.1258359089741
 10
221.9189037979199
 20
556.1258359089741
 10
221.9189037979199
 20
554.6258359089741
 10
221.1689037979199
 20
554.6258359089741
 42
0.9999999999997156
 10
221.1689037979198
 20
553.6258359089742
 10
222.7189037979199
 20
553.6258359089741
 42
0.4142135623731284
 10
223.2189037979199
 20
554.1258359089741
 10
223.21890379792
 20
555.3258359089739
 10
225.01890379792
 20
555.3258359089739
 42
0.4142135623729619
 10
225.2189037979199
 20
555.5258359089739
 10
225.2189037979199
 20
557.4258359089741
 42
0.4142135623729785
 10
225.01890379792
 20
557.6258359089742
 10
151.4189037993453
 20
557.6258359089741
 42
0.4142135623731117
 10
151.2189037993453
 20
557.4258359089741
 10
151.2189037993453
 20
555.5258359089739
 42
0.4142135623730617
 10
151.4189037993453
 20
555.3258359089739
 10
153.2189037993453
 20
555.3258359089739
 10
153.2189037993453
 20
554.1258359089741
 42
0.4142135623730951
 10
153.7189037993453
 20
553.6258359089742
 10
155.2689037993453
 20
553.6258359089742
 42
0.9999999999999998
 10
155.2689037993453
 20
554.6258359089741
 10
154.5189037993453
 20
554.6258359089741
 10
154.5189037993453
 20
556.1258359089741
 10
160.0189037993453
 20
556.1258359089741
 10
160.0189037993453
 20
554.6258359089741
 10
159.2689037993452
 20
554.6258359089741
 42
0.9999999999997156
 10
159.2689037993453
 20
553.6258359089742
 10
160.8189037993452
 20
553.6258359089742
 42
0.4142135623731284
 10
161.3189037993452
 20
554.1258359089741
 10
161.3189037993452
 20
555.825835908974
 10
166.7189037993451
 20
555.825835908974
 10
166.7189037993452
 20
554.1258359089741
 42
0.9999999999999998
 10
167.7189037993451
 20
554.1258359089741
 10
167.7189037993452
 20
555.825835908974
 10
171.7189037993452
 20
555.825835908974
 10
171.7189037993452
 20
553.825835908974
 42
0.4142135623729119
 10
171.9189037993452
 20
553.6258359089741
 10
173.2189037993452
 20
553.6258359089742
 10
173.2189037993454
 20
535.6258359089742
 42
0.9999999999999998
 10
174.2189037993455
 20
535.6258359089742
 10
174.2189037993454
 20
538.1258359089741
 42
-0.4142135623730284
 10
174.7189037993454
 20
538.6258359089741
 10
176.5189037993453
 20
538.6258359089741
 42
-0.4142135623731284
 10
177.0189037993454
 20
538.1258359089741
 10
177.0189037993455
 20
532.025835908974
 42
0.4142135623730951
 10
177.2189037993454
 20
531.8258359089741
 10
177.7189037993452
 20
531.8258359089741
 10
177.7189037993452
 20
519.125835908974
 10
174.7189037993452
 20
519.125835908974
 10
174.7189037993452
 20
519.875835908974
 42
0.4744978678080399
 10
174.4189037993452
 20
520.1207848832524
 42
0.3563939586926193
 10
173.2189037993452
 20
518.6510910375825
 10
173.2189037993452
 20
517.875835908974
 42
0.4142135623730617
 10
173.4689037993452
 20
517.625835908974
 10
186.7189037986325
 20
517.625835908974
 10
186.7189037986325
 20
488.125835908974
 42
-0.4142135623731117
 10
186.2189037986325
 20
487.6258359089741
 10
185.7189037986325
 20
487.6258359089739
 42
0.4142135623730784
 10
185.2189037986325
 20
487.125835908974
 10
185.2189037986325
 20
473.125835908974
 42
0.4142135623730951
 10
185.7189037986325
 20
472.6258359089739
 10
190.7189037986325
 20
472.6258359089739
 42
0.4142135623730951
 10
191.2189037986325
 20
473.125835908974
 10
191.2189037986325
 20
487.1258359089739
 42
0.4142135623731117
 10
190.7189037986324
 20
487.6258359089739
 10
190.2189037986325
 20
487.6258359089741
 42
-0.4142135623730784
 10
189.7189037986325
 20
488.125835908974
 10
189.7189037986325
 20
517.625835908974
 10
202.96890379792
 20
517.6258359089739
 42
0.4142135623731284
 10
203.21890379792
 20
517.875835908974
 10
203.21890379792
 20
518.6510910375824
 42
0.3563939586926033
  0
LWPOLYLINE
  5
569B
102
{ACAD_REACTORS
330
569C
102
}
330
4C89
100
AcDbEntity
  8
APL Joinery
  6
Continuous
100
AcDbPolyline
 90
       50
 70
     1
 43
0.0
 10
197.0637314625799
 20
545.9712904544288
 42
-1.000000000000101
 10
198.2991589156242
 20
547.2803813635196
 42
2.318729304408836
 10
198.2991589156243
 20
549.9712904544286
 42
-0.9999999999999998
 10
197.0637314625799
 20
551.2803813635196
 42
-0.2788550286926635
 10
200.7562531955102
 20
552.0773140572523
 42
0.5149445451952372
 10
201.4189037979199
 20
552.5501192830439
 10
201.4189037979198
 20
554.8258359089738
 42
0.4142135623731117
 10
200.4189037979199
 20
555.825835908974
 10
176.0189037993451
 20
555.825835908974
 42
0.4142135623730784
 10
175.0189037993452
 20
554.8258359089739
 10
175.0189037993452
 20
552.5501192830438
 42
0.5149445451952152
 10
175.6815544017549
 20
552.0773140572523
 42
-0.2788550286926634
 10
179.374076134685
 20
551.2803813635196
 42
-1.00000000000012
 10
178.1386486816407
 20
549.9712904544286
 42
2.318729304408774
 10
178.1386486816407
 20
547.2803813635196
 42
-0.9999999999999998
 10
179.374076134685
 20
545.9712904544288
 42
-0.2788550286926634
 10
175.6815544017549
 20
545.1743577606958
 42
0.5149445451952192
 10
175.0189037993452
 20
544.7015525349043
 10
175.0189037993451
 20
541.425835908974
 42
0.414213562373195
 10
176.0189037993455
 20
540.425835908974
 10
176.5189037993455
 20
540.4258359089741
 42
-0.4142135623731117
 10
178.8189037993455
 20
538.1258359089741
 10
178.8189037993455
 20
533.6258359089741
 10
179.3189037993452
 20
533.6258359089741
 42
-0.4142135623729286
 10
179.5189037993452
 20
533.4258359089741
 10
179.5189037993451
 20
530.5501192830438
 10
179.5189037993452
 20
522.7015525349043
 10
179.5189037993451
 20
520.4258359089741
 42
0.4142135623730951
 10
180.5189037993452
 20
519.425835908974
 10
185.0938633454523
 20
519.425835908974
 42
0.7526299251214308
 10
186.2774026728091
 20
523.5350312599504
 42
-0.4727331324044655
 10
185.564358344087
 20
529.1310082443137
 42
-0.9999999999999998
 10
186.873449253178
 20
527.8955807912695
 42
2.318729304408841
 10
189.5643583440871
 20
527.8955807912695
 42
-1.00000000000004
 10
190.873449253178
 20
529.1310082443138
 42
-0.472733132404478
 10
190.1604049244561
 20
523.5350312599503
 42
0.7526299251214308
 10
191.3439442518129
 20
519.425835908974
 10
195.91890379792
 20
519.425835908974
 42
0.4142135623730951
 10
196.91890379792
 20
520.425835908974
 10
196.91890379792
 20
522.7015525349043
 10
196.9189037979199
 20
530.5501192830438
 10
196.91890379792
 20
533.4258359089741
 42
-0.4142135623730118
 10
197.11890379792
 20
533.6258359089741
 10
197.6189037979197
 20
533.6258359089741
 10
197.6189037979197
 20
538.1258359089741
 42
-0.4142135623730951
 10
199.9189037979196
 20
540.4258359089741
 10
200.4189037979198
 20
540.4258359089741
 42
0.4142135623731284
 10
201.4189037979199
 20
541.4258359089741
 10
201.4189037979198
 20
544.7015525349043
 42
0.5149445451952124
 10
200.7562531955101
 20
545.174357760696
 42
-0.2788550286926829
  0
HATCH
  5
569C
330
4C89
100
AcDbEntity
  8
APL Hatch
100
AcDbHatch
 10
0.0
 20
0.0
 30
0.0
210
0.0
220
0.0
230
1.0
  2
SOLID
 70
     1
 71
     1
 91
        2
 92
        1
 93
       98
 72
     2
 10
201.9689037979199
 20
519.875835908974
 40
0.2500000000000502
 50
78.46304096719085
 51
180.0
 73
     1
 72
     1
 10
201.7189037979199
 20
519.875835908974
 11
201.7189037979199
 21
519.125835908974
 72
     1
 10
201.7189037979199
 20
519.125835908974
 11
198.7189037979199
 21
519.125835908974
 72
     1
 10
198.7189037979199
 20
519.125835908974
 11
198.7189037979199
 21
531.8258359089741
 72
     1
 10
198.7189037979199
 20
531.8258359089741
 11
199.2189037979198
 21
531.8258359089741
 72
     2
 10
199.2189037979197
 20
532.025835908974
 40
0.1999999999999318
 50
270.0000000000081
 51
360.0
 73
     1
 72
     1
 10
199.4189037979197
 20
532.025835908974
 11
199.4189037979197
 21
538.1258359089741
 72
     2
 10
199.9189037979197
 20
538.1258359089741
 40
0.5
 50
180.0
 51
269.9999999999935
 73
     0
 72
     1
 10
199.9189037979197
 20
538.6258359089741
 11
201.7189037979197
 21
538.6258359089741
 72
     2
 10
201.7189037979197
 20
538.1258359089741
 40
0.5
 50
270.0
 51
360.0
 73
     0
 72
     1
 10
202.2189037979197
 20
538.1258359089741
 11
202.2189037979197
 21
535.6258359089742
 72
     2
 10
202.7189037979197
 20
535.6258359089742
 40
0.4999999999999716
 50
180.0
 51
360.0
 73
     1
 72
     1
 10
203.2189037979196
 20
535.6258359089742
 11
203.21890379792
 21
553.6258359089742
 72
     1
 10
203.21890379792
 20
553.6258359089742
 11
204.5189037979199
 21
553.6258359089742
 72
     2
 10
204.5189037979199
 20
553.825835908974
 40
0.1999999999999318
 50
270.0000000000081
 51
360.0
 73
     1
 72
     1
 10
204.71890379792
 20
553.825835908974
 11
204.71890379792
 21
555.825835908974
 72
     1
 10
204.71890379792
 20
555.825835908974
 11
208.71890379792
 21
555.825835908974
 72
     1
 10
208.71890379792
 20
555.825835908974
 11
208.71890379792
 21
554.1258359089741
 72
     2
 10
209.21890379792
 20
554.1258359089741
 40
0.4999999999999716
 50
180.0
 51
360.0
 73
     1
 72
     1
 10
209.7189037979199
 20
554.1258359089741
 11
209.71890379792
 21
555.825835908974
 72
     1
 10
209.71890379792
 20
555.825835908974
 11
215.1189037979199
 21
555.825835908974
 72
     1
 10
215.1189037979199
 20
555.825835908974
 11
215.1189037979199
 21
554.1258359089741
 72
     2
 10
215.6189037979199
 20
554.1258359089741
 40
0.5
 50
180.0
 51
269.9999999999935
 73
     1
 72
     1
 10
215.6189037979199
 20
553.6258359089742
 11
217.1689037979199
 21
553.6258359089742
 72
     2
 10
217.1689037979199
 20
554.1258359089741
 40
0.5
 50
270.0
 51
450.0000000000065
 73
     1
 72
     1
 10
217.1689037979198
 20
554.6258359089741
 11
216.4189037979199
 21
554.6258359089741
 72
     1
 10
216.4189037979199
 20
554.6258359089741
 11
216.4189037979199
 21
556.1258359089741
 72
     1
 10
216.4189037979199
 20
556.1258359089741
 11
221.9189037979199
 21
556.1258359089741
 72
     1
 10
221.9189037979199
 20
556.1258359089741
 11
221.9189037979199
 21
554.6258359089741
 72
     1
 10
221.9189037979199
 20
554.6258359089741
 11
221.1689037979199
 21
554.6258359089741
 72
     2
 10
221.16890379792
 20
554.1258359089741
 40
0.5
 50
90.00000000001303
 51
269.9999999999804
 73
     1
 72
     1
 10
221.1689037979198
 20
553.6258359089742
 11
222.7189037979199
 21
553.6258359089741
 72
     2
 10
222.7189037979199
 20
554.1258359089741
 40
0.5
 50
270.0000000000065
 51
360.000000000013
 73
     1
 72
     1
 10
223.2189037979199
 20
554.1258359089741
 11
223.21890379792
 21
555.3258359089739
 72
     1
 10
223.21890379792
 20
555.3258359089739
 11
225.01890379792
 21
555.3258359089739
 72
     2
 10
225.01890379792
 20
555.5258359089739
 40
0.1999999999999318
 50
270.0000000000081
 51
360.0
 73
     1
 72
     1
 10
225.2189037979199
 20
555.5258359089739
 11
225.2189037979199
 21
557.4258359089741
 72
     2
 10
225.0189037979199
 20
557.4258359089741
 40
0.2000000000000455
 50
0.0
 51
89.99999999998371
 73
     1
 72
     1
 10
225.01890379792
 20
557.6258359089742
 11
151.4189037993453
 21
557.6258359089741
 72
     2
 10
151.4189037993452
 20
557.4258359089741
 40
0.1999999999999318
 50
89.99999999999186
 51
180.0
 73
     1
 72
     1
 10
151.2189037993453
 20
557.4258359089741
 11
151.2189037993453
 21
555.5258359089739
 72
     2
 10
151.4189037993453
 20
555.5258359089739
 40
0.1999999999999318
 50
180.0
 51
270.0
 73
     1
 72
     1
 10
151.4189037993453
 20
555.3258359089739
 11
153.2189037993453
 21
555.3258359089739
 72
     1
 10
153.2189037993453
 20
555.3258359089739
 11
153.2189037993453
 21
554.1258359089741
 72
     2
 10
153.7189037993453
 20
554.1258359089741
 40
0.5
 50
180.0
 51
270.0
 73
     1
 72
     1
 10
153.7189037993453
 20
553.6258359089742
 11
155.2689037993453
 21
553.6258359089742
 72
     2
 10
155.2689037993453
 20
554.1258359089741
 40
0.5
 50
270.0
 51
450.0
 73
     1
 72
     1
 10
155.2689037993453
 20
554.6258359089741
 11
154.5189037993453
 21
554.6258359089741
 72
     1
 10
154.5189037993453
 20
554.6258359089741
 11
154.5189037993453
 21
556.1258359089741
 72
     1
 10
154.5189037993453
 20
556.1258359089741
 11
160.0189037993453
 21
556.1258359089741
 72
     1
 10
160.0189037993453
 20
556.1258359089741
 11
160.0189037993453
 21
554.6258359089741
 72
     1
 10
160.0189037993453
 20
554.6258359089741
 11
159.2689037993452
 21
554.6258359089741
 72
     2
 10
159.2689037993454
 20
554.1258359089741
 40
0.5
 50
90.00000000001953
 51
269.999999999987
 73
     1
 72
     1
 10
159.2689037993453
 20
553.6258359089742
 11
160.8189037993452
 21
553.6258359089742
 72
     2
 10
160.8189037993452
 20
554.1258359089741
 40
0.5
 50
269.9999999999935
 51
360.0
 73
     1
 72
     1
 10
161.3189037993452
 20
554.1258359089741
 11
161.3189037993452
 21
555.825835908974
 72
     1
 10
161.3189037993452
 20
555.825835908974
 11
166.7189037993451
 21
555.825835908974
 72
     1
 10
166.7189037993451
 20
555.825835908974
 11
166.7189037993452
 21
554.1258359089741
 72
     2
 10
167.2189037993452
 20
554.1258359089741
 40
0.4999999999999432
 50
180.0
 51
360.0
 73
     1
 72
     1
 10
167.7189037993451
 20
554.1258359089741
 11
167.7189037993452
 21
555.825835908974
 72
     1
 10
167.7189037993452
 20
555.825835908974
 11
171.7189037993452
 21
555.825835908974
 72
     1
 10
171.7189037993452
 20
555.825835908974
 11
171.7189037993452
 21
553.825835908974
 72
     2
 10
171.9189037993453
 20
553.825835908974
 40
0.2000000000000739
 50
180.0
 51
269.9999999999755
 73
     1
 72
     1
 10
171.9189037993452
 20
553.6258359089741
 11
173.2189037993452
 21
553.6258359089742
 72
     1
 10
173.2189037993452
 20
553.6258359089742
 11
173.2189037993454
 21
535.6258359089742
 72
     2
 10
173.7189037993454
 20
535.6258359089742
 40
0.5000000000000569
 50
180.0
 51
360.0
 73
     1
 72
     1
 10
174.2189037993455
 20
535.6258359089742
 11
174.2189037993454
 21
538.1258359089741
 72
     2
 10
174.7189037993455
 20
538.125835908974
 40
0.5000000000000853
 50
180.000000000013
 51
269.9999999999968
 73
     0
 72
     1
 10
174.7189037993454
 20
538.6258359089741
 11
176.5189037993453
 21
538.6258359089741
 72
     2
 10
176.5189037993454
 20
538.1258359089741
 40
0.5
 50
269.9999999999935
 51
360.0
 73
     0
 72
     1
 10
177.0189037993454
 20
538.1258359089741
 11
177.0189037993455
 21
532.025835908974
 72
     2
 10
177.2189037993454
 20
532.0258359089741
 40
0.1999999999999602
 50
180.0000000000325
 51
270.0000000000081
 73
     1
 72
     1
 10
177.2189037993454
 20
531.8258359089741
 11
177.7189037993452
 21
531.8258359089741
 72
     1
 10
177.7189037993452
 20
531.8258359089741
 11
177.7189037993452
 21
519.125835908974
 72
     1
 10
177.7189037993452
 20
519.125835908974
 11
174.7189037993452
 21
519.125835908974
 72
     1
 10
174.7189037993452
 20
519.125835908974
 11
174.7189037993452
 21
519.875835908974
 72
     2
 10
174.4689037993452
 20
519.875835908974
 40
0.25
 50
0.0
 51
101.5369590328091
 73
     1
 72
     2
 10
174.7189037993451
 20
518.6510910375825
 40
1.499999999999973
 50
101.5369590328128
 51
180.0
 73
     1
 72
     1
 10
173.2189037993452
 20
518.6510910375825
 11
173.2189037993452
 21
517.875835908974
 72
     2
 10
173.4689037993452
 20
517.875835908974
 40
0.2500000000000568
 50
180.0
 51
270.0
 73
     1
 72
     1
 10
173.4689037993452
 20
517.625835908974
 11
186.7189037986325
 21
517.625835908974
 72
     1
 10
186.7189037986325
 20
517.625835908974
 11
186.7189037986325
 21
488.125835908974
 72
     2
 10
186.2189037986325
 20
488.125835908974
 40
0.5
 50
0.0000000000065138
 51
90.00000000000651
 73
     0
 72
     1
 10
186.2189037986325
 20
487.6258359089741
 11
185.7189037986325
 21
487.6258359089739
 72
     2
 10
185.7189037986325
 20
487.1258359089739
 40
0.5
 50
90.0
 51
179.9999999999935
 73
     1
 72
     1
 10
185.2189037986325
 20
487.125835908974
 11
185.2189037986325
 21
473.125835908974
 72
     2
 10
185.7189037986325
 20
473.125835908974
 40
0.5
 50
180.0
 51
270.0
 73
     1
 72
     1
 10
185.7189037986325
 20
472.6258359089739
 11
190.7189037986325
 21
472.6258359089739
 72
     2
 10
190.7189037986325
 20
473.125835908974
 40
0.5
 50
270.0
 51
360.0
 73
     1
 72
     1
 10
191.2189037986325
 20
473.125835908974
 11
191.2189037986325
 21
487.1258359089739
 72
     2
 10
190.7189037986325
 20
487.1258359089739
 40
0.5
 50
0.0
 51
90.00000000000651
 73
     1
 72
     1
 10
190.7189037986324
 20
487.6258359089739
 11
190.2189037986325
 21
487.6258359089741
 72
     2
 10
190.2189037986325
 20
488.125835908974
 40
0.5
 50
90.0
 51
179.9999999999935
 73
     0
 72
     1
 10
189.7189037986325
 20
488.125835908974
 11
189.7189037986325
 21
517.625835908974
 72
     1
 10
189.7189037986325
 20
517.625835908974
 11
202.96890379792
 21
517.6258359089739
 72
     2
 10
202.9689037979199
 20
517.875835908974
 40
0.2500000000001137
 50
270.000000000013
 51
360.0
 73
     1
 72
     1
 10
203.21890379792
 20
517.875835908974
 11
203.21890379792
 21
518.6510910375824
 72
     2
 10
201.7189037979199
 20
518.6510910375825
 40
1.500000000000085
 50
359.9999999999957
 51
438.4630409671829
 73
     1
 97
        1
330
569A
 92
       16
 93
       50
 72
     2
 10
197.681445189102
 20
546.6258359089742
 40
0.8999999999999964
 50
133.3417582272141
 51
313.3417582272293
 73
     0
 72
     2
 10
199.5689037979197
 20
548.625835908974
 40
1.84999999999995
 50
226.6582417727753
 51
493.3417582272197
 73
     1
 72
     2
 10
197.6814451891021
 20
550.625835908974
 40
0.9000000000000113
 50
46.65824177277437
 51
226.6582417727793
 73
     0
 72
     2
 10
199.5689037979198
 20
548.625835908974
 40
3.650000000000099
 50
226.6582417727779
 51
288.9838243850402
 73
     0
 72
     2
 10
200.9189037979198
 20
552.5501192830439
 40
0.5000000000000729
 50
251.0161756149605
 51
360.0
 73
     1
 72
     1
 10
201.4189037979199
 20
552.5501192830439
 11
201.4189037979198
 21
554.8258359089738
 72
     2
 10
200.4189037979198
 20
554.8258359089739
 40
1.0
 50
359.9999999999935
 51
449.9999999999968
 73
     1
 72
     1
 10
200.4189037979199
 20
555.825835908974
 11
176.0189037993451
 21
555.825835908974
 72
     2
 10
176.0189037993452
 20
554.8258359089739
 40
1.0
 50
90.00000000000325
 51
180.0
 73
     1
 72
     1
 10
175.0189037993452
 20
554.8258359089739
 11
175.0189037993452
 21
552.5501192830438
 72
     2
 10
175.5189037993453
 20
552.5501192830438
 40
0.5000000000000285
 50
180.0
 51
288.9838243850468
 73
     1
 72
     2
 10
176.8689037993453
 20
548.6258359089743
 40
3.649999999999861
 50
251.0161756149599
 51
313.3417582272232
 73
     0
 72
     2
 10
178.756362408163
 20
550.625835908974
 40
0.8999999999999964
 50
313.3417582272141
 51
493.3417582272269
 73
     0
 72
     2
 10
176.8689037993453
 20
548.6258359089742
 40
1.849999999999891
 50
46.65824177277723
 51
313.3417582272185
 73
     1
 72
     2
 10
178.7563624081628
 20
546.6258359089741
 40
0.8999999999999722
 50
226.658241772777
 51
406.6582417727756
 73
     0
 72
     2
 10
176.868903799345
 20
548.6258359089739
 40
3.64999999999989
 50
46.6582417727736
 51
108.983824385037
 73
     0
 72
     2
 10
175.5189037993452
 20
544.7015525349042
 40
0.4999999999999839
 50
71.01617561495015
 51
179.999999999987
 73
     1
 72
     1
 10
175.0189037993452
 20
544.7015525349043
 11
175.0189037993451
 21
541.425835908974
 72
     2
 10
176.0189037993451
 20
541.425835908974
 40
1.0
 50
180.0
 51
270.0000000000196
 73
     1
 72
     1
 10
176.0189037993455
 20
540.425835908974
 11
176.5189037993455
 21
540.4258359089741
 72
     2
 10
176.5189037993456
 20
538.1258359089742
 40
2.29999999999984
 50
269.9999999999986
 51
360.0000000000028
 73
     0
 72
     1
 10
178.8189037993455
 20
538.1258359089741
 11
178.8189037993455
 21
533.6258359089741
 72
     1
 10
178.8189037993455
 20
533.6258359089741
 11
179.3189037993452
 21
533.6258359089741
 72
     2
 10
179.3189037993451
 20
533.425835908974
 40
0.2000000000001592
 50
270.0000000000244
 51
359.9999999999675
 73
     0
 72
     1
 10
179.5189037993452
 20
533.4258359089741
 11
179.5189037993451
 21
530.5501192830438
 72
     1
 10
179.5189037993451
 20
530.5501192830438
 11
179.5189037993452
 21
522.7015525349043
 72
     1
 10
179.5189037993452
 20
522.7015525349043
 11
179.5189037993451
 21
520.4258359089741
 72
     2
 10
180.5189037993452
 20
520.425835908974
 40
1.000000000000085
 50
179.9999999999935
 51
269.9999999999984
 73
     1
 72
     1
 10
180.5189037993452
 20
519.425835908974
 11
185.0938633454523
 21
519.425835908974
 72
     2
 10
185.0938633454523
 20
521.6508763621543
 40
2.225040453180326
 50
270.0
 51
417.8648539187583
 73
     1
 72
     2
 10
188.2189037986326
 20
526.625835908974
 40
3.650000000000015
 50
122.1351460812427
 51
223.3417582272198
 73
     0
 72
     2
 10
186.2189037986325
 20
528.5132945177917
 40
0.8999999999999745
 50
223.3417582272179
 51
403.3417582272178
 73
     0
 72
     2
 10
188.2189037986325
 20
526.625835908974
 40
1.849999999999992
 50
136.6582417727778
 51
403.3417582272222
 73
     1
 72
     2
 10
190.2189037986325
 20
528.5132945177918
 40
0.9000000000000319
 50
136.6582417727756
 51
316.6582417727821
 73
     0
 72
     2
 10
188.2189037986325
 20
526.625835908974
 40
3.649999999999999
 50
316.6582417727783
 51
417.8648539187578
 73
     0
 72
     2
 10
191.3439442518129
 20
521.6508763621543
 40
2.225040453180275
 50
122.1351460812432
 51
270.0
 73
     1
 72
     1
 10
191.3439442518129
 20
519.425835908974
 11
195.91890379792
 21
519.425835908974
 72
     2
 10
195.91890379792
 20
520.425835908974
 40
1.0
 50
270.0
 51
360.0
 73
     1
 72
     1
 10
196.91890379792
 20
520.425835908974
 11
196.91890379792
 21
522.7015525349043
 72
     1
 10
196.91890379792
 20
522.7015525349043
 11
196.9189037979199
 21
530.5501192830438
 72
     1
 10
196.9189037979199
 20
530.5501192830438
 11
196.91890379792
 21
533.4258359089741
 72
     2
 10
197.11890379792
 20
533.4258359089741
 40
0.2000000000000455
 50
180.0
 51
269.9999999999838
 73
     0
 72
     1
 10
197.11890379792
 20
533.6258359089741
 11
197.6189037979197
 21
533.6258359089741
 72
     1
 10
197.6189037979197
 20
533.6258359089741
 11
197.6189037979197
 21
538.1258359089741
 72
     2
 10
199.9189037979196
 20
538.1258359089742
 40
2.299999999999926
 50
179.9999999999972
 51
269.9999999999993
 73
     0
 72
     1
 10
199.9189037979196
 20
540.4258359089741
 11
200.4189037979198
 21
540.4258359089741
 72
     2
 10
200.4189037979199
 20
541.4258359089741
 40
1.0
 50
269.9999999999935
 51
360.0
 73
     1
 72
     1
 10
201.4189037979199
 20
541.4258359089741
 11
201.4189037979198
 21
544.7015525349043
 72
     2
 10
200.9189037979197
 20
544.7015525349045
 40
0.5000000000001137
 50
359.999999999987
 51
468.9838243850302
 73
     1
 72
     2
 10
199.5689037979196
 20
548.625835908974
 40
3.649999999999809
 50
71.01617561495676
 51
133.3417582272225
 73
     0
 97
        1
330
569B
 75
     0
 76
     1
 98
        1
 10
0.0
 20
0.0
  0
ENDBLK
  5
4C8B
330
4C89
100
AcDbEntity
  8
0
100
AcDbBlockEnd
  0
BLOCK
  5
4CCB
330
4CCA
100
AcDbEntity
  8
0
100
AcDbBlockBegin
  2
vantage a4 SM border
 70
     0
 10
0.0
 20
0.0
 30
0.0
  3
vantage a4 SM border
  1
vantage a4 SM border.dwg
  0
TEXT
  5
569E
330
4CCA
100
AcDbEntity
  8
APL Border
100
AcDbText
 10
11.59500000000003
 20
3.979818213543524
 30
0.0
 40
1.5
  1
VANTAGE SPECIFIER'S GUIDE 2011:1     ARCHITECTURAL PROFILES LTD. NB. TECHNICAL SPECIFICATIONS SUBJECT TO CHANGE WITHOUT NOTICE.
 41
1.175568529931163
  7
Arial-Regular
 72
     5
 11
189.595
 21
3.979818213543524
 31
0.0
100
AcDbText
  0
LINE
  5
569F
330
4CCA
100
AcDbEntity
  8
APL Border
100
AcDbLine
 10
11.59500000000003
 20
6.189999999999997
 30
0.0
 11
189.595
 21
6.189999999999997
 31
0.0
  0
MTEXT
  5
56A0
330
4CCA
100
AcDbEntity
  8
APL Border
100
AcDbMText
 10
57.55102029361978
 20
3.879818213543526
 30
0.0
 40
1.5
 41
0.0
 71
     8
 72
     5
  1
{\fCommercialPi BT|b0|i0|c2|p18;a}
  7
Arial-Regular
 73
     1
 44
1.0
1001
ACAD
1000
MTEXTBEGIN
1070
    73
1070
     1
1070
    44
1040
1.0
1070
    74
1070
     0
1000
MTEXTEND
  0
LINE
  5
56A1
330
4CCA
100
AcDbEntity
  8
APL Border
100
AcDbLine
 10
189.595
 20
268.19
 30
0.0
 11
142.595
 21
268.19
 31
0.0
  0
LINE
  5
56A2
330
4CCA
100
AcDbEntity
  8
APL Border
100
AcDbLine
 10
189.595
 20
282.19
 30
0.0
 11
189.595
 21
254.19
 31
0.0
  0
LINE
  5
56A3
330
4CCA
100
AcDbEntity
  8
APL Border
100
AcDbLine
 10
166.095
 20
268.19
 30
0.0
 11
166.095
 21
254.19
 31
0.0
  0
LINE
  5
56A4
330
4CCA
100
AcDbEntity
  8
APL Border
100
AcDbLine
 10
189.595
 20
254.19
 30
0.0
 11
24.99473224900737
 21
254.19
 31
0.0
  0
LINE
  5
56A5
330
4CCA
100
AcDbEntity
  8
APL Border
100
AcDbLine
 10
189.595
 20
282.19
 30
0.0
 11
24.99473224900737
 21
282.19
 31
0.0
  0
LINE
  5
56A6
330
4CCA
100
AcDbEntity
  8
APL Border
100
AcDbLine
 10
142.595
 20
282.19
 30
0.0
 11
142.595
 21
254.19
 31
0.0
  0
TEXT
  5
56A7
330
4CCA
100
AcDbEntity
  8
APL Border
100
AcDbText
 10
147.845
 20
273.69
 30
0.0
 40
2.5
  1
CAD REF.
  7
Arial-Regular
100
AcDbText
  0
TEXT
  5
56A8
330
4CCA
100
AcDbEntity
  8
APL Border
100
AcDbText
 10
149.6877694406548
 20
262.19
 30
0.0
 40
2.5
  1
DATE
  7
Arial-Regular
 72
     1
 11
154.345
 21
262.19
 31
0.0
100
AcDbText
  0
TEXT
  5
56A9
330
4CCA
100
AcDbEntity
  8
APL Border
100
AcDbText
 10
172.1185334242838
 20
262.19
 30
0.0
 40
2.5
  1
SCALE
  7
Arial-Regular
 72
     1
 11
177.845
 21
262.19
 31
0.0
100
AcDbText
  0
INSERT
  5
56AA
102
{ACAD_XDICTIONARY
360
56AB
102
}
330
4CCA
100
AcDbEntity
  8
APL Border
100
AcDbBlockReference
  2
vantage black & white logo
 10
24.99473224900737
 20
256.19
 30
0.0
 41
0.5
 42
0.5
 43
0.5
  0
LINE
  5
56EF
330
4CCA
100
AcDbEntity
  8
APL Border
100
AcDbLine
 10
24.99473224900737
 20
256.19
 30
0.0
 11
24.99473224900737
 21
254.19
 31
0.0
  0
LINE
  5
56F0
330
4CCA
100
AcDbEntity
  8
APL Border
100
AcDbLine
 10
24.99473224900716
 20
279.6304177948761
 30
0.0
 11
24.99473224900737
 21
282.19
 31
0.0
  0
ENDBLK
  5
4CCC
330
4CCA
100
AcDbEntity
  8
0
100
AcDbBlockEnd
  0
BLOCK
  5
4EE3
330
4EDA
100
AcDbEntity
  8
0
100
AcDbBlockBegin
  2
vantage a4 SM attributes (3)
 70
     2
 10
0.0
 20
0.0
 30
0.0
  3
vantage a4 SM attributes (3)
  1

  0
ATTDEF
  5
4EDB
330
4EDA
100
AcDbEntity
  8
APL Border
100
AcDbText
 10
41.78979785863008
 20
272.19
 30
0.0
 40
3.5
  1
DRAWING TITLE LINE 1
  7
Arial-Bold
100
AcDbAttributeDefinition
  3
Drawing Title Line 1
  2
DRAWINGTITLE_1
 70
     0
  0
ATTDEF
  5
4EDC
330
4EDA
100
AcDbEntity
  8
APL Border
100
AcDbText
 10
41.78979785863008
 20
266.19
 30
0.0
 40
3.5
  1
DRAWING TITLE LINE 2
  7
Arial-Bold
100
AcDbAttributeDefinition
  3
Drawing Title Line 2
  2
DRAWINGTITLE_2
 70
     0
  0
ATTDEF
  5
4EDD
330
4EDA
100
AcDbEntity
  8
APL Border
100
AcDbText
 10
41.78979785863008
 20
260.19
 30
0.0
 40
3.0
  1
DRAWING TITLE LINE 3
  7
Arial-Regular
100
AcDbAttributeDefinition
  3
Drawing Title Line 3
  2
DRAWINGTITLE_3
 70
     0
  0
ATTDEF
  5
4EDE
330
4EDA
100
AcDbEntity
  8
APL Border
100
AcDbText
 10
165.845
 20
273.69
 30
0.0
 40
2.5
  1
AW123-456
  7
Arial-Regular
100
AcDbAttributeDefinition
  3
CAD Reference
  2
AW123-456
 70
     0
  0
ATTDEF
  5
4EDF
330
4EDA
100
AcDbEntity
  8
APL Border
100
AcDbText
 10
147.5475920873124
 20
257.1899999999999
 30
0.0
 40
2.5
  1
24.05.02
  7
Arial-Regular
 72
     1
 11
154.345
 21
257.1899999999999
 31
0.0
100
AcDbAttributeDefinition
  3
Date
  2
24.05.02
 70
     0
  0
ATTDEF
  5
4EE0
330
4EDA
100
AcDbEntity
  8
APL Border
100
AcDbText
 10
175.4174761255116
 20
257.1899999999999
 30
0.0
 40
2.5
  1
1:2
  7
Arial-Regular
 72
     1
 11
177.845
 21
257.1899999999999
 31
0.0
100
AcDbAttributeDefinition
  3
Scale
  2
1:2
 70
     0
  0
ATTDEF
  5
4EE1
330
4EDA
100
AcDbEntity
  8
APL Border
100
AcDbText
 10
11.59500000000001
 20
1.189999999999997
 30
0.0
 40
3.75
  1
1.2.34
  7
Arial-Bold
100
AcDbAttributeDefinition
  3
Page Number (Left)
  2
1.2.34
 70
     0
  0
ATTDEF
  5
4EE2
330
4EDA
100
AcDbEntity
  8
APL Border
100
AcDbText
 10
175.0298567530696
 20
1.189999999999997
 30
0.0
 40
3.75
  1
1.2.34
  7
Arial-Bold
 72
     2
 11
189.595
 21
1.189999999999997
 31
0.0
100
AcDbAttributeDefinition
  3
Page Number (Right)
  2
1.2.34
 70
     0
  0
ENDBLK
  5
4EE4
330
4EDA
100
AcDbEntity
  8
0
100
AcDbBlockEnd
  0
BLOCK
  5
50D6
330
50AF
100
AcDbEntity
  8
0
100
AcDbBlockBegin
  2
Hopper Catch 1
 70
     0
 10
0.0
 20
0.0
 30
0.0
  3
Hopper Catch 1
  1

  0
LINE
  5
50B0
330
50AF
100
AcDbEntity
  8
APL Joinery
 62
     8
100
AcDbLine
 10
13.80000000000016
 20
51.69999999999996
 30
0.0
 11
13.8
 21
-0.0000000000000568
 31
0.0
  0
LINE
  5
50B1
330
50AF
100
AcDbEntity
  8
APL Joinery
 62
     8
100
AcDbLine
 10
3.000000000000113
 20
24.3994747783253
 30
0.0
 11
3.000000000000198
 21
51.7
 31
0.0
  0
LINE
  5
50B2
330
50AF
100
AcDbEntity
  8
APL Joinery
 62
     8
100
AcDbLine
 10
0.0000000000001137
 20
24.39947477832531
 30
0.0
 11
0.0000000000002132
 21
51.7
 31
0.0
  0
LINE
  5
50B3
330
50AF
100
AcDbEntity
  8
APL Joinery
 62
     8
100
AcDbLine
 10
17.20000000000004
 20
23.23649656262523
 30
0.0
 11
17.20000000000014
 21
51.69999999999994
 31
0.0
  0
LWPOLYLINE
  5
50B4
330
50AF
100
AcDbEntity
  8
APL Joinery
 62
     8
100
AcDbPolyline
 90
        3
 70
   128
 43
0.0
 10
22.32522823528578
 20
14.24196365783412
 10
23.06253731490207
 20
12.77634600504218
 10
23.98289945080204
 20
11.38955503665038
  0
ARC
  5
50B5
330
50AF
100
AcDbEntity
  8
APL Joinery
 62
     8
100
AcDbCircle
 10
31.50000000000004
 20
19.99999999999988
 30
0.0
 40
13.0
100
AcDbArc
 50
206.0691797559559
 51
162.2090576327351
  0
CIRCLE
  5
50B6
330
50AF
100
AcDbEntity
  8
APL Joinery
 62
     8
100
AcDbCircle
 10
31.50000000000004
 20
19.99999999999988
 30
0.0
 40
8.399999999999991
  0
LINE
  5
50B7
330
50AF
100
AcDbEntity
  8
APL Joinery
 62
     8
100
AcDbLine
 10
16.88757714422776
 20
23.19999999999994
 30
0.0
 11
16.88757714422768
 21
-0.0000000000000568
 31
0.0
  0
LINE
  5
50B8
330
50AF
100
AcDbEntity
  8
APL Joinery
 62
     8
100
AcDbLine
 10
2.999999999999985
 20
-0.0000000000000142
 30
0.0
 11
3.000000000000042
 21
12.5
 31
0.0
  0
LINE
  5
50B9
330
50AF
100
AcDbEntity
  8
APL Joinery
 62
     8
100
AcDbLine
 10
0.0000000000000426
 20
12.5
 30
0.0
 11
0.0
 21
0.0
 31
0.0
  0
LINE
  5
50BA
330
50AF
100
AcDbEntity
  8
APL Joinery
 62
     8
100
AcDbLine
 10
2.999999999999985
 20
-0.0000000000000142
 30
0.0
 11
0.0
 21
0.0
 31
0.0
  0
LINE
  5
50BB
330
50AF
100
AcDbEntity
  8
APL Joinery
 62
     8
100
AcDbLine
 10
13.8
 20
-0.0000000000000568
 30
0.0
 11
2.999999999999985
 21
-0.0000000000000142
 31
0.0
  0
LINE
  5
50BC
330
50AF
100
AcDbEntity
  8
APL Joinery
 62
     8
100
AcDbLine
 10
16.88757714422768
 20
-0.0000000000000568
 30
0.0
 11
13.8
 21
-0.0000000000000568
 31
0.0
  0
LINE
  5
50BD
330
50AF
100
AcDbEntity
  8
APL Joinery
 62
     8
100
AcDbLine
 10
3.000000000000113
 20
24.3994747783253
 30
0.0
 11
0.0000000000001137
 21
24.39947477832531
 31
0.0
  0
LINE
  5
50BE
330
50AF
100
AcDbEntity
  8
APL Joinery
 62
     8
100
AcDbLine
 10
0.0000000000001137
 20
24.39947477832531
 30
0.0
 11
0.0000000000000426
 21
12.5
 31
0.0
  0
ARC
  5
50BF
330
50AF
100
AcDbEntity
  8
APL Joinery
 62
     8
100
AcDbCircle
 10
35.00000000000004
 20
19.69999999999989
 30
0.0
 40
13.80000000000001
100
AcDbArc
 50
157.1607647488489
 51
199.507505505123
  0
LINE
  5
50C0
330
50AF
100
AcDbEntity
  8
APL Joinery
 62
     8
100
AcDbLine
 10
3.000000000000042
 20
12.5
 30
0.0
 11
3.000000000000113
 21
24.3994747783253
 31
0.0
  0
ARC
  5
50C1
330
50AF
100
AcDbEntity
  8
APL Joinery
 62
     8
100
AcDbCircle
 10
35.00000000000004
 20
19.69999999999989
 30
0.0
 40
13.80000000000001
100
AcDbArc
 50
199.507505505123
 51
203.2977777547779
  0
LWPOLYLINE
  5
50C2
330
50AF
100
AcDbEntity
  8
APL Joinery
 62
     8
100
AcDbPolyline
 90
        9
 70
   128
 43
0.0
 10
19.82245782453712
 20
14.28746923529805
 10
19.68809660821957
 20
14.53518166364849
 10
19.53108457302296
 20
14.76919056428305
 10
19.35280732384403
 20
14.98743084787155
 10
19.15483812752902
 20
15.18797658048655
 10
18.9389240290574
 20
15.36905797964749
 10
18.70697043416285
 20
15.52907703235451
 10
18.46102429444684
 20
15.6666215972853
 10
18.20325604337384
 20
15.78047786670564
  0
LINE
  5
50C3
330
50AF
100
AcDbEntity
  8
APL Joinery
 62
     8
100
AcDbLine
 10
18.20325604337384
 20
15.78047786670564
 30
0.0
 11
16.88757714422772
 21
16.28277193604666
 31
0.0
  0
LINE
  5
50C4
330
50AF
100
AcDbEntity
  8
APL Joinery
 62
     8
100
AcDbLine
 10
18.20325604337384
 20
15.78047786670564
 30
0.0
 11
18.1998944135089
 21
15.78179030939326
 31
0.0
  0
LINE
  5
50C5
330
50AF
100
AcDbEntity
  8
APL Joinery
 62
     8
100
AcDbLine
 10
17.19370086639212
 20
23.23409184672666
 30
0.0
 11
19.16294728818273
 21
23.98585843455065
 31
0.0
  0
LINE
  5
50C6
330
50AF
100
AcDbEntity
  8
APL Joinery
 62
     8
100
AcDbLine
 10
16.88757714422775
 20
23.11722806395322
 30
0.0
 11
17.10439755301509
 21
23.19999999999994
 31
0.0
  0
LINE
  5
50C7
330
50AF
100
AcDbEntity
  8
APL Joinery
 62
     8
100
AcDbLine
 10
17.17967693221098
 20
23.19999999999994
 30
0.0
 11
16.88757714422776
 21
23.19999999999994
 31
0.0
  0
LINE
  5
50C8
330
50AF
100
AcDbEntity
  8
APL Joinery
 62
     8
100
AcDbLine
 10
17.17967693221098
 20
23.19999999999994
 30
0.0
 11
17.19370086639212
 21
23.23409184672666
 31
0.0
  0
LINE
  5
50C9
330
50AF
100
AcDbEntity
  8
APL Joinery
 62
     8
100
AcDbLine
 10
19.16294728818273
 20
23.98585843455065
 30
0.0
 11
22.09680307864026
 21
25.10586796324864
 31
0.0
  0
LINE
  5
50CA
330
50AF
100
AcDbEntity
  8
APL Joinery
 62
     8
100
AcDbLine
 10
22.09680307864026
 20
25.10586796324864
 30
0.0
 11
22.34338117821356
 21
25.19999999999993
 31
0.0
  0
LINE
  5
50CB
330
50AF
100
AcDbEntity
  8
APL Joinery
 62
     8
100
AcDbLine
 10
22.34338117821356
 20
25.19999999999993
 30
0.0
 11
22.28195352200481
 21
25.05642546700241
 31
0.0
  0
LINE
  5
50CC
330
50AF
100
AcDbEntity
  8
APL Joinery
 62
     8
100
AcDbLine
 10
23.98289945080204
 20
11.38955503665038
 30
0.0
 11
24.03188893490045
 21
11.32500509470949
 31
0.0
  0
LINE
  5
50CD
330
50AF
100
AcDbEntity
  8
APL Joinery
 62
     8
100
AcDbLine
 10
3.000000000000198
 20
51.7
 30
0.0
 11
0.0000000000002132
 21
51.7
 31
0.0
  0
LWPOLYLINE
  5
50CE
330
50AF
100
AcDbEntity
  8
APL Joinery
 62
     8
100
AcDbPolyline
 90
       21
 70
   128
 43
0.0
 10
2.141334877531221
 20
53.6527028592339
 10
2.159505370525579
 20
53.69859924860148
 10
2.221523384843791
 20
53.85140992547666
 10
2.31378365562422
 20
54.06951065464203
 10
2.629810336218284
 20
54.7465297055694
 10
3.253310192798323
 20
55.85452927917926
 10
4.060727602336626
 20
57.00998693430467
 10
5.034138184635679
 20
58.1235633983082
 10
6.18026005719777
 20
59.17205955421455
 10
7.022098535651579
 20
59.80369939979777
 10
7.924864205952687
 20
60.37679472167837
 10
8.783554912207463
 20
60.83409748475084
 10
9.661443313691179
 20
61.22449386278145
 10
10.52683135922279
 20
61.53839736044729
 10
11.35958604861625
 20
61.78020009913452
 10
12.14480460585783
 20
61.95574805397412
 10
12.83478677812124
 20
62.07052652803646
 10
13.40165225409102
 20
62.13747039880094
 10
13.82527128401022
 20
62.17163129221628
 10
14.09026491837655
 20
62.18648609230299
 10
14.17630735932663
 20
62.18983731431517
  0
LWPOLYLINE
  5
50CF
330
50AF
100
AcDbEntity
  8
APL Joinery
 62
     8
100
AcDbPolyline
 90
       23
 70
   128
 43
0.0
 10
14.70000000000017
 20
61.69038105676652
 10
14.69977003057415
 20
61.69037290601351
 10
14.6010275741832
 20
61.68678680663219
 10
14.32815732005666
 20
61.67268198509718
 10
13.88658502918828
 20
61.63995055653218
 10
13.29213329665553
 20
61.57532184181288
 10
12.57331103640095
 20
61.46534314355559
 10
11.74910724625377
 20
61.29574824361101
 10
10.88126384483783
 20
61.06387061140264
 10
9.972888983286168
 20
60.76062371971547
 10
9.057186114181817
 20
60.38581394596438
 10
8.156467157950515
 20
59.94432084309766
 10
7.213833907937882
 20
59.39345766795908
 10
6.331651324195362
 20
58.78420549665105
 10
5.133323859270177
 20
57.77484472434021
 10
4.114669101294637
 20
56.70220964044154
 10
3.528804796677306
 20
55.95697870875577
 10
3.027784554097763
 20
55.21942477763953
 10
2.617962535584666
 20
54.52258416091869
 10
2.287405892664409
 20
53.87063988965529
 10
2.190435812047056
 20
53.65959957951311
 10
2.126034353078466
 20
53.51346594309774
 10
2.106912724988703
 20
53.46900034668329
  0
LINE
  5
50D0
330
50AF
100
AcDbEntity
  8
APL Joinery
 62
     8
100
AcDbLine
 10
14.70000000000014
 20
51.69999999999996
 30
0.0
 11
14.70000000000017
 21
61.69038105676652
 31
0.0
  0
LINE
  5
50D1
330
50AF
100
AcDbEntity
  8
APL Joinery
 62
     8
100
AcDbLine
 10
13.80000000000016
 20
51.69999999999996
 30
0.0
 11
3.00000000000017
 21
51.7
 31
0.0
  0
LINE
  5
50D2
330
50AF
100
AcDbEntity
  8
APL Joinery
 62
     8
100
AcDbLine
 10
2.10000000000015
 20
53.46902650232166
 30
0.0
 11
2.10000000000015
 21
51.7
 31
0.0
  0
LINE
  5
50D3
330
50AF
100
AcDbEntity
  8
APL Joinery
 62
     8
100
AcDbLine
 10
17.20000000000014
 20
51.69999999999994
 30
0.0
 11
13.80000000000016
 21
51.69999999999996
 31
0.0
  0
LINE
  5
50D4
330
50AF
100
AcDbEntity
  8
APL Joinery
 62
     8
100
AcDbLine
 10
14.1807692307694
 20
62.19001109741141
 30
0.0
 11
14.17111109392249
 21
62.18963590922543
 31
0.0
  0
LWPOLYLINE
  5
50D5
330
50AF
100
AcDbEntity
  8
APL Joinery
 62
     8
100
AcDbPolyline
 90
       12
 70
   128
 43
0.0
 10
14.69872751231001
 20
61.6883866673869
 10
14.66788047570357
 20
61.866682062305
 10
14.59647056211933
 20
61.99502767382871
 10
14.51059315328589
 20
62.08221545881021
 10
14.42349688399724
 20
62.13765594235856
 10
14.34505263884317
 20
62.16888754434872
 10
14.28278699547206
 20
62.18349188980424
 10
14.24982867611082
 20
62.18790751425977
 10
14.23583502946242
 20
62.18911398644282
 10
14.22789839132743
 20
62.18962418994708
 10
14.22082772718627
 20
62.18997451986668
 10
14.21322831257687
 20
62.19024625511536
  0
ENDBLK
  5
50D7
330
50AF
100
AcDbEntity
  8
0
100
AcDbBlockEnd
  0
BLOCK
  5
56AF
330
56AC
100
AcDbEntity
  8
0
 62
     9
100
AcDbBlockBegin
  2
vantage black & white logo
 70
     0
 10
0.0
 20
0.0
 30
0.0
  3
vantage black & white logo
  1

  0
SPLINE
  5
56B0
102
{ACAD_REACTORS
330
56E0
102
}
330
56AC
100
AcDbEntity
  8
APL Border
 62
     8
100
AcDbSpline
210
0.0
220
0.0
230
1.0
 70
     8
 71
     3
 72
    16
 73
    12
 74
    10
 42
0.0000000001
 43
0.0000000001
 44
0.0000000001
 40
0.0
 40
0.0
 40
0.0
 40
0.0
 40
0.1978277931646383
 40
0.361463118001824
 40
0.5540499897785108
 40
0.7796220130725381
 40
0.979106605438038
 40
1.222151590302332
 40
1.40748727220097
 40
1.607226525619232
 40
1.815049166761618
 40
1.815049166761618
 40
1.815049166761618
 40
1.815049166761618
 10
-6.679452083611295
 20
24.89125032803118
 30
0.0
 10
-6.685371732996674
 20
24.82559351525051
 30
0.0
 10
-6.696187882184245
 20
24.70562798418881
 30
0.0
 10
-6.721757155054659
 20
24.52229576436942
 30
0.0
 10
-6.768469983285688
 20
24.33480615160983
 30
0.0
 10
-6.86071972339088
 20
24.14153771241002
 30
0.0
 10
-7.051789745146238
 20
24.01851519430105
 30
0.0
 10
-7.233921808197289
 20
23.91285203345822
 30
0.0
 10
-7.443451931375125
 20
23.87675735439051
 30
0.0
 10
-7.641222718647389
 20
23.88093312949101
 30
0.0
 10
-7.776581895343343
 20
23.89281010788354
 30
0.0
 10
-7.845603808282817
 20
23.89886637823479
 30
0.0
 11
-6.679452083611295
 21
24.89125032803118
 31
0.0
 11
-6.698967886443824
 21
24.69438750983487
 31
0.0
 11
-6.7229873764864
 21
24.53252465544059
 31
0.0
 11
-6.771947617386814
 21
24.34626516442952
 31
0.0
 11
-6.880972027936735
 21
24.14879006322128
 31
0.0
 11
-7.039699899396197
 21
24.02796140183178
 31
0.0
 11
-7.25666078222261
 21
23.91842218515177
 31
0.0
 11
-7.438645676318543
 21
23.88333923622035
 31
0.0
 11
-7.638384704687155
 21
23.88303939885124
 31
0.0
 11
-7.845603808282817
 21
23.89886637823479
 31
0.0
1001
AcDbBlockRepETag
1070
     1
1071
      590
1005
56B0
  0
SPLINE
  5
56B1
102
{ACAD_REACTORS
330
56E0
102
}
330
56AC
100
AcDbEntity
  8
APL Border
 62
     8
100
AcDbSpline
210
0.0
220
0.0
230
1.0
 70
     8
 71
     3
 72
    11
 73
     7
 74
     5
 42
0.0000000001
 43
0.0000000001
 44
0.0000000001
 40
0.0
 40
0.0
 40
0.0
 40
0.0
 40
0.0680840587483313
 40
0.1752723045973904
 40
0.2784233367375334
 40
0.4826852714337078
 40
0.4826852714337078
 40
0.4826852714337078
 40
0.4826852714337078
 10
-7.465264214605014
 20
24.80065518845331
 30
0.0
 10
-7.468646137215252
 20
24.77808681972154
 30
0.0
 10
-7.47735239504952
 20
24.719987903891
 30
0.0
 10
-7.524447891091254
 20
24.63752792323728
 30
0.0
 10
-7.635129760920157
 20
24.54333837224584
 30
0.0
 10
-7.743266182308203
 20
24.55714977626708
 30
0.0
 10
-7.815117916056323
 20
24.56632682606847
 30
0.0
 11
-7.465264214605014
 21
24.80065518845331
 31
0.0
 11
-7.478569823577657
 21
24.73388393846117
 31
0.0
 11
-7.530473398252325
 21
24.64010046985295
 31
0.0
 11
-7.611072397370236
 21
24.57572705319073
 31
0.0
 11
-7.815117916056323
 21
24.56632682606847
 31
0.0
1001
AcDbBlockRepETag
1070
     1
1071
      593
1005
56B1
  0
SPLINE
  5
56B2
102
{ACAD_REACTORS
330
56E0
102
}
330
56AC
100
AcDbEntity
  8
APL Border
 62
     8
100
AcDbSpline
210
0.0
220
0.0
230
1.0
 70
     8
 71
     3
 72
    20
 73
    16
 74
     0
 42
0.0000000001
 43
0.0000000001
 40
0.0
 40
0.0
 40
0.0
 40
0.0
 40
0.1774120264923274
 40
0.3258093286713144
 40
0.4834060703451958
 40
0.6311237014699663
 40
0.811161917566129
 40
0.9605198197290178
 40
1.289502400757101
 40
1.459697744220917
 40
1.604754171475458
 40
1.794797311213428
 40
2.030760379210173
 40
2.301729078160567
 40
2.393267743077617
 40
2.393267743077617
 40
2.393267743077617
 40
2.393267743077617
 10
5.780015564168593
 20
26.87985997284487
 30
0.0
 10
5.839056126904296
 20
26.87337384475878
 30
0.0
 10
5.947481505327601
 20
26.86146235781404
 30
0.0
 10
6.098807931884806
 20
26.80185114122353
 30
0.0
 10
6.227972759762906
 20
26.72168911843352
 30
0.0
 10
6.347510602881385
 20
26.61140356622764
 30
0.0
 10
6.442310149474394
 20
26.48207375794227
 30
0.0
 10
6.536759215535255
 20
26.28338234239492
 30
0.0
 10
6.578465181725675
 20
26.06469589684353
 30
0.0
 10
6.553150099427256
 20
25.85079503063701
 30
0.0
 10
6.524121382020268
 20
25.68499989147718
 30
0.0
 10
6.464236525716046
 20
25.50199988960434
 30
0.0
 10
6.327150620479812
 20
25.31187331731421
 30
0.0
 10
6.179477266233362
 20
25.17172660684537
 30
0.0
 10
6.072729148555964
 20
25.11631253421805
 30
0.0
 10
6.045077525535504
 20
25.10350570839811
 30
0.0
1001
AcDbBlockRepETag
1070
     1
1071
      594
1005
56B2
  0
SPLINE
  5
56B3
102
{ACAD_REACTORS
330
56E0
102
}
330
56AC
100
AcDbEntity
  8
APL Border
 62
     8
100
AcDbSpline
210
0.0
220
0.0
230
1.0
 70
     8
 71
     3
 72
    17
 73
    13
 74
    11
 42
0.0000000001
 43
0.0000000001
 44
0.0000000001
 40
0.0
 40
0.0
 40
0.0
 40
0.0
 40
0.0975027714782739
 40
0.2117924486065133
 40
0.317678689712162
 40
0.4843960423119905
 40
0.5983164751676271
 40
0.7475672999664091
 40
0.8854036234346642
 40
1.040732215041493
 40
1.197661337444246
 40
1.243973057737614
 40
1.243973057737614
 40
1.243973057737614
 40
1.243973057737614
 10
5.580769717272147
 20
26.18861664944085
 30
0.0
 10
5.613502616848285
 20
26.1875961553427
 30
0.0
 10
5.684603990133519
 20
26.18537947021098
 30
0.0
 10
5.781919321100519
 20
26.1258482190374
 30
0.0
 10
5.832561030472812
 20
26.0011917111029
 30
0.0
 10
5.820388894698232
 20
25.86817511516085
 30
0.0
 10
5.765298612935113
 20
25.7349784962169
 30
0.0
 10
5.67725421213275
 20
25.62965962372396
 30
0.0
 10
5.546675458142082
 20
25.55725132865025
 30
0.0
 10
5.401760839408257
 20
25.51345804330555
 30
0.0
 10
5.281860155064943
 20
25.50729075876586
 30
0.0
 10
5.21427201805345
 20
25.50302975767877
 30
0.0
 10
5.198870965514487
 20
25.50205881951548
 30
0.0
 11
5.580769717272147
 21
26.18861664944085
 31
0.0
 11
5.67764963039707
 21
26.17761333726443
 31
0.0
 11
5.774085473546278
 21
26.11627608549865
 31
0.0
 11
5.81791994770495
 21
26.01988918322082
 31
0.0
 11
5.809153052873227
 21
25.85340249542595
 31
0.0
 11
5.765318578714499
 21
25.74825305939683
 31
0.0
 11
5.668882735565347
 21
25.63434108961652
 31
0.0
 11
5.55010046754208
 21
25.56441523695462
 31
0.0
 11
5.401316428353624
 21
25.51980267086244
 31
0.0
 11
5.245093480229996
 21
25.50493189624708
 31
0.0
 11
5.198870965514487
 21
25.50205881951548
 31
0.0
1001
AcDbBlockRepETag
1070
     1
1071
      595
1005
56B3
  0
SPLINE
  5
56B4
102
{ACAD_REACTORS
330
56EA
330
56EB
102
}
330
56AC
100
AcDbEntity
  8
APL Border
 62
     8
100
AcDbSpline
210
0.0
220
0.0
230
1.0
 70
     8
 71
     3
 72
    25
 73
    21
 74
     0
 42
0.0000000001
 43
0.0000000001
 40
0.0289432764998855
 40
0.0289432764998855
 40
0.0289432764998855
 40
0.0289432764998855
 40
0.7134165119202287
 40
1.411731005087882
 40
2.041147618059464
 40
3.036171077105474
 40
3.957911241576911
 40
4.83592253147705
 40
5.676684481733094
 40
6.271141751551381
 40
6.974058201941041
 40
7.825808739104269
 40
8.5265481701528
 40
9.125733480364379
 40
9.891766509798275
 40
10.6767880070383
 40
11.66821110410527
 40
12.42950909475574
 40
13.09855121203093
 40
13.70132750762923
 40
13.70132750762923
 40
13.70132750762923
 40
13.70132750762923
 10
13.141643811855
 20
43.40554077871886
 30
0.0
 10
12.91988216430481
 20
43.459256627421
 30
0.0
 10
12.47168844867874
 20
43.5669624691983
 30
0.0
 10
11.80600758681791
 20
43.66484839798013
 30
0.0
 10
11.02988777388427
 20
43.6649333207477
 30
0.0
 10
10.1361516270939
 20
43.55263717791944
 30
0.0
 10
9.306733533720876
 20
43.19741938393827
 30
0.0
 10
8.599762003673276
 20
42.45478219212527
 30
0.0
 10
8.236440109363229
 20
41.77191325718488
 30
0.0
 10
8.073464067873601
 20
41.07996170309042
 30
0.0
 10
8.007035995439764
 20
40.3638923215899
 30
0.0
 10
7.98103501985804
 20
39.60493317412716
 30
0.0
 10
8.107710769833204
 20
38.92055182387923
 30
0.0
 10
8.442098079777224
 20
38.21445924826959
 30
0.0
 10
9.036296716232907
 20
37.66873436641545
 30
0.0
 10
9.909689132144507
 20
37.42421376773082
 30
0.0
 10
10.75775873959412
 20
37.35554609345542
 30
0.0
 10
11.56487972715851
 20
37.38454149767491
 30
0.0
 10
12.23983007222788
 20
37.44815687239099
 30
0.0
 10
12.66077873273661
 20
37.49837935861893
 30
0.0
 10
12.86026661033734
 20
37.52234731786496
 30
0.0
1001
AcDbBlockRepETag
1070
     1
1071
      596
1005
56B4
  0
SPLINE
  5
56B5
102
{ACAD_REACTORS
330
56EA
330
56EB
102
}
330
56AC
100
AcDbEntity
  8
APL Border
 62
     8
100
AcDbSpline
210
0.0
220
0.0
230
1.0
 70
     8
 71
     3
 72
    19
 73
    15
 74
     0
 42
0.0000000001
 43
0.0000000001
 40
1.529304964685563
 40
1.529304964685563
 40
1.529304964685563
 40
1.529304965389289
 40
2.032016958536417
 40
2.556791262130423
 40
2.964493033520332
 40
3.465275586793771
 40
4.160836826595903
 40
4.71800698457321
 40
5.304510401169525
 40
5.733359288828643
 40
6.099728421126306
 40
6.422629926283571
 40
6.722447272622213
 40
6.957123473755099
 40
6.957123473755099
 40
6.957123473755099
 40
6.957123473755099
 10
11.64369617822672
 20
42.03297741382947
 30
0.0
 10
11.47589856643677
 20
42.04574754506741
 30
0.0
 10
11.13485165915975
 20
42.01473204050012
 30
0.0
 10
10.65553906793815
 20
41.91613810684326
 30
0.0
 10
10.23036575101369
 20
41.67654609785123
 30
0.0
 10
9.854221329784113
 20
41.27113304911427
 30
0.0
 10
9.717431528044755
 20
40.66388266631498
 30
0.0
 10
9.641062203095145
 20
40.05806431643046
 30
0.0
 10
9.716968816830743
 20
39.48770259248511
 30
0.0
 10
10.00680770225198
 20
39.09661486818469
 30
0.0
 10
10.3797311442331
 20
38.98358798973799
 30
0.0
 10
10.70216182646531
 20
38.92661434152812
 30
0.0
 10
10.99026249243499
 20
38.92783484269152
 30
0.0
 10
11.24302802126629
 20
38.95177692242413
 30
0.0
 10
11.33360452536307
 20
38.96406177273881
 30
0.0
1001
AcDbBlockRepETag
1070
     1
1071
      597
1005
56B5
  0
LWPOLYLINE
  5
56B6
102
{ACAD_REACTORS
330
56E7
102
}
330
56AC
100
AcDbEntity
  8
APL Border
 62
     8
100
AcDbPolyline
 90
       12
 70
     1
 43
0.0
 10
14.13627631352983
 20
43.61979184908029
 10
18.38986203356285
 20
43.61979184908029
 10
18.21321428445671
 20
41.9726305274507
 10
15.84058876400877
 20
41.9726305274507
 10
15.75340373709809
 20
41.15966911198297
 10
17.71732334684157
 20
41.15966911198297
 10
17.56969663746741
 20
39.57967635988449
 10
15.58395939694927
 20
39.57967635988449
 10
15.5052467299167
 20
38.84571591422678
 10
17.87787225036464
 20
38.84571591422678
 10
17.72077299807506
 20
37.38083558975206
 10
13.46718727804204
 20
37.38083558975206
1001
AcDbBlockRepETag
1070
     1
1071
      599
1005
56B6
  0
LWPOLYLINE
  5
56B7
102
{ACAD_REACTORS
330
56EA
330
56EB
102
}
330
56AC
100
AcDbEntity
  8
APL Border
 62
     8
100
AcDbPolyline
 90
        2
 70
     0
 43
0.0
 10
13.141643811855
 20
43.40554077871887
 10
13.141643811855
 20
41.76981947766621
1001
AcDbBlockRepETag
1070
     1
1071
      600
1005
56B7
  0
LWPOLYLINE
  5
56B8
102
{ACAD_REACTORS
330
56EA
330
56EB
102
}
330
56AC
100
AcDbEntity
  8
APL Border
 62
     8
100
AcDbPolyline
 90
        6
 70
     0
 43
0.0
 10
11.33358781659778
 20
38.96390597096916
 10
11.39962533929804
 20
39.57967635988449
 10
10.96889270630695
 20
39.57967635988449
 10
11.12639005748273
 20
41.04826877857415
 10
13.23839963312048
 20
41.04826877857415
 10
12.86026661033734
 20
37.52234731786496
1001
AcDbBlockRepETag
1070
     1
1071
      601
1005
56B8
  0
LWPOLYLINE
  5
56B9
102
{ACAD_REACTORS
330
56E4
102
}
330
56AC
100
AcDbEntity
  8
APL Border
 62
     8
100
AcDbPolyline
 90
        8
 70
     1
 43
0.0
 10
3.105743226874893
 20
43.61998313276061
 10
2.929095477768755
 20
41.97282181113101
 10
1.466301152475638
 20
41.97282181113101
 10
0.9741138955425029
 20
37.38339558452146
 10
-0.867968570535281
 20
37.38102687343238
 10
-0.3755272841536326
 20
41.97282181113101
 10
-1.891167362926863
 20
41.97282181113101
 10
-1.725754035154749
 20
43.61998313276061
1001
AcDbBlockRepETag
1070
     1
1071
      604
1005
56B9
  0
LWPOLYLINE
  5
56BA
102
{ACAD_REACTORS
330
56E3
102
}
330
56AC
100
AcDbEntity
  8
APL Border
 62
     8
100
AcDbPolyline
 90
       10
 70
     1
 43
0.0
 10
-4.228474015381578
 20
40.14164596649268
 10
-3.855464624526035
 20
43.61979184908029
 10
-2.181839912298443
 20
43.61979184908029
 10
-2.850928947786229
 20
37.38083558975206
 10
-5.032306754624556
 20
37.38083558975206
 10
-6.131920885667284
 20
40.6246666384634
 10
-6.479801476178323
 20
37.38083558975206
 10
-8.135186891292875
 20
37.38083558975206
 10
-7.466097855805088
 20
43.61979184908029
 10
-5.40751765387219
 20
43.61979184908029
1001
AcDbBlockRepETag
1070
     1
1071
      605
1005
56BA
  0
LWPOLYLINE
  5
56BB
102
{ACAD_REACTORS
330
56EA
102
}
330
56AC
100
AcDbEntity
  8
APL Border
  6
Continuous
 62
     8
100
AcDbPolyline
 90
        8
 70
     1
 43
0.0
 10
-8.449177928734428
 20
37.38083558975206
 10
-9.847253547555595
 20
43.61979184908029
 10
-12.02298966350147
 20
43.61979184908029
 10
-14.82679588919473
 20
37.38083558975206
 10
-12.95240022532295
 20
37.38083558975206
 10
-12.35252874042399
 20
38.71565392391761
 10
-10.64639685172309
 20
38.71565392391761
 10
-10.34727999772013
 20
37.38083558975206
1001
AcDbBlockRepETag
1070
     1
1071
      606
1005
56BB
  0
LWPOLYLINE
  5
56BC
330
56AC
100
AcDbEntity
  8
APL Border
  6
Continuous
 62
     8
100
AcDbPolyline
 90
        7
 70
     1
 43
0.0
 10
-18.99614352503855
 20
43.61979184908029
 10
-17.7875751270476
 20
37.38083558975206
 10
-15.77022638070494
 20
37.38083558975206
 10
-12.96642015501169
 20
43.61979184908029
 10
-14.7664201550117
 20
43.61979184908029
 10
-16.54136876356097
 20
39.42215966960597
 10
-17.19614352503853
 20
43.61979184908029
1001
AcDbBlockRepETag
1070
     1
1071
      608
1005
56BC
  0
LWPOLYLINE
  5
56BD
102
{ACAD_REACTORS
330
56ED
102
}
330
56AC
100
AcDbEntity
  8
APL Border
  6
Continuous
 62
     8
100
AcDbPolyline
 90
        4
 70
     1
 43
0.0
 10
16.33779773177886
 20
35.29789574745093
 10
-16.33747952551644
 20
35.29789574745093
 10
-12.98884796421711
 20
29.49789574745094
 10
12.98916617047902
 20
29.49789574745094
1001
AcDbBlockRepETag
1070
     1
1071
      609
1005
56BD
  0
LWPOLYLINE
  5
56BE
102
{ACAD_REACTORS
330
56E0
102
}
330
56AC
100
AcDbEntity
  8
APL Border
 62
     8
100
AcDbPolyline
 90
        9
 70
     1
 43
0.0
 10
7.455500104221528
 20
25.00957443408062
 10
6.800478684667126
 20
26.87985997284487
 10
7.607536311785906
 20
26.87985997284487
 10
7.963471882016364
 20
25.86355557445326
 10
8.538893993587493
 20
26.87985997284487
 10
9.414203966725494
 20
26.87985997284487
 10
8.232331174709315
 20
25.00957443408062
 10
8.120338037129926
 20
23.87985997284487
 10
7.343506966642138
 20
23.87985997284487
1001
AcDbBlockRepETag
1070
     1
1071
      611
1005
56BE
  0
LWPOLYLINE
  5
56BF
102
{ACAD_REACTORS
330
56E0
102
}
330
56AC
100
AcDbEntity
  8
APL Border
 62
     8
100
AcDbPolyline
 90
        4
 70
     1
 43
0.0
 10
12.20974330707307
 20
28.14789574745094
 10
8.850698786449385
 20
22.32985997284487
 10
-8.850380580188158
 20
22.32985997284487
 10
-12.20942510081127
 20
28.14789574745094
1001
AcDbBlockRepETag
1070
     1
1071
      613
1005
56BF
  0
LWPOLYLINE
  5
56C0
102
{ACAD_REACTORS
330
56E0
102
}
330
56AC
100
AcDbEntity
  8
APL Border
 62
     8
100
AcDbPolyline
 90
        6
 70
     0
 43
0.0
 10
5.580769717272147
 20
26.18861664944085
 10
5.137953374950967
 20
26.18861664944085
 10
4.909077041159065
 20
23.87985997284487
 10
4.132245970671277
 20
23.87985997284487
 10
4.429648034880159
 20
26.87985997284487
 10
5.793677369303878
 20
26.87985997284487
1001
AcDbBlockRepETag
1070
     1
1071
      614
1005
56C0
  0
LWPOLYLINE
  5
56C1
102
{ACAD_REACTORS
330
56ED
102
}
330
56AC
100
AcDbEntity
  8
APL Border
  6
Continuous
 62
     8
100
AcDbPolyline
 90
        4
 70
     1
 43
0.0
 10
1.119422795136273
 20
34.02289574745092
 10
0.3425917246484857
 20
34.02289574745092
 10
0.0451896604396041
 20
31.02289574745093
 10
0.8220207309273916
 20
31.02289574745093
1001
AcDbBlockRepETag
1070
     1
1071
      620
1005
56C1
  0
LWPOLYLINE
  5
56C2
102
{ACAD_REACTORS
330
56E0
102
}
330
56AC
100
AcDbEntity
  8
APL Border
 62
     8
100
AcDbPolyline
 90
        4
 70
     0
 43
0.0
 10
6.045077525535504
 20
25.1035057083981
 10
6.339444173005233
 20
23.87985997284487
 10
5.532386545886623
 20
23.87985997284487
 10
5.142141867913778
 20
25.50205881951548
1001
AcDbBlockRepETag
1070
     1
1071
      621
1005
56C2
  0
LWPOLYLINE
  5
56C3
102
{ACAD_REACTORS
330
56E1
102
}
330
56AC
100
AcDbEntity
  8
APL Border
 62
     8
100
AcDbPolyline
 90
        4
 70
     1
 43
0.0
 10
0.0001591031300165
 20
7.000275566930961
 10
3.563095122801513
 20
13.17146177711931
 10
-0.9450856774407441
 20
20.97985997284487
 10
-8.070957716782203
 20
20.97985997284487
1001
AcDbBlockRepETag
1070
     1
1071
      622
1005
56C3
  0
LWPOLYLINE
  5
56C4
102
{ACAD_REACTORS
330
56E5
102
}
330
56AC
100
AcDbEntity
  8
APL Border
 62
     8
100
AcDbPolyline
 90
        3
 70
     1
 43
0.0
 10
0.8484489512626112
 20
20.97985997284487
 10
4.459862437153191
 20
14.72470832814346
 10
8.071275923043373
 20
20.97985997284487
1001
AcDbBlockRepETag
1070
     1
1071
      623
1005
56C4
  0
LWPOLYLINE
  5
56C5
102
{ACAD_REACTORS
330
56E0
102
}
330
56AC
100
AcDbEntity
  8
APL Border
 62
     8
100
AcDbPolyline
 90
        4
 70
     0
 43
0.0
 10
-7.465264214605014
 20
24.80065518845331
 10
-7.259144283007998
 20
26.87985997284487
 10
-6.48231321252021
 20
26.87985997284487
 10
-6.679452083611295
 20
24.89125032803118
1001
AcDbBlockRepETag
1070
     1
1071
      626
1005
56C5
  0
LWPOLYLINE
  5
56C6
102
{ACAD_REACTORS
330
56E0
102
}
330
56AC
100
AcDbEntity
  8
APL Border
 62
     8
100
AcDbPolyline
 90
        4
 70
     0
 43
0.0
 10
-7.845603808282817
 20
23.89886637823479
 10
-8.399876560405061
 20
23.98304774476413
 10
-8.399876560405061
 20
24.64579492155148
 10
-7.81511791605564
 20
24.56632682606838
1001
AcDbBlockRepETag
1070
     1
1071
      627
1005
56C6
  0
LWPOLYLINE
  5
56C7
102
{ACAD_REACTORS
330
56ED
102
}
330
56AC
100
AcDbEntity
  8
APL Border
  6
Continuous
 62
     8
100
AcDbPolyline
 90
        6
 70
     1
 43
0.0
 10
-7.549934049473819
 20
34.02289574745092
 10
-8.326765119961606
 20
34.02289574745092
 10
-8.624167184170488
 20
31.02289574745093
 10
-6.770246795158442
 20
31.02289574745093
 10
-6.700109532938455
 20
31.73039516316516
 10
-7.777198851462713
 20
31.73039516316516
1001
AcDbBlockRepETag
1070
     1
1071
      628
1005
56C7
  0
LWPOLYLINE
  5
56C8
102
{ACAD_REACTORS
330
56ED
102
}
330
56AC
100
AcDbEntity
  8
APL Border
  6
Continuous
 62
     8
100
AcDbPolyline
 90
        3
 70
     1
 43
0.0
 10
-10.14693849009504
 20
33.12550842600547
 10
-10.00044093617224
 20
32.51653621849665
 10
-10.45444607654239
 20
32.51653621849665
1001
AcDbBlockRepETag
1070
     1
1071
      629
1005
56C8
  0
LWPOLYLINE
  5
56C9
102
{ACAD_REACTORS
330
56ED
102
}
330
56AC
100
AcDbEntity
  8
APL Border
  6
Continuous
 62
     8
100
AcDbPolyline
 90
        8
 70
     1
 43
0.0
 10
-8.834065309397374
 20
31.02289574745093
 10
-9.555761072109191
 20
34.02289574745092
 10
-10.50084997043805
 20
34.02289574745092
 10
-12.01573480092304
 20
31.02289574745093
 10
-11.20867717380426
 20
31.02289574745093
 10
-10.74455961985978
 20
31.94201027933759
 10
-9.862229957552528
 20
31.94201027933759
 10
-9.641122936515984
 20
31.02289574745093
1001
AcDbBlockRepETag
1070
     1
1071
      630
1005
56C9
  0
LWPOLYLINE
  5
56CA
102
{ACAD_REACTORS
330
56E6
102
}
330
56AC
100
AcDbEntity
  8
APL Border
 62
     8
100
AcDbPolyline
 90
        3
 70
     1
 43
0.0
 10
0.0000000003145431
 20
4.000000000000009
 10
23.60256143704041
 20
44.88083558975217
 10
-23.60256142783933
 20
44.88083558975206
1001
AcDbBlockRepETag
1070
     1
1071
      631
1005
56CA
  0
LWPOLYLINE
  5
56CB
102
{ACAD_REACTORS
330
56E6
102
}
330
56AC
100
AcDbEntity
  8
APL Border
 62
     8
100
AcDbPolyline
 90
        3
 70
     1
 43
0.0
 10
27.06666305249243
 20
46.88083558975206
 10
-27.06666304266244
 20
46.88083558975206
 10
-0.0000000000000284
 20
0.0000000000000238
1001
AcDbBlockRepETag
1070
     1
1071
      703
1005
56CB
  0
LWPOLYLINE
  5
56CC
102
{ACAD_REACTORS
330
56EA
330
56EC
102
}
330
56AC
100
AcDbEntity
  8
APL Border
  6
Continuous
 62
     8
100
AcDbPolyline
 90
        8
 70
     1
 43
0.0
 10
7.980630193374565
 20
37.38083558975206
 10
6.582554574553398
 20
43.61979184908029
 10
4.406818458607517
 20
43.61979184908029
 10
1.603012232914267
 20
37.38083558975206
 10
3.477407896786047
 20
37.38083558975206
 10
4.077279381685002
 20
38.71565392391761
 10
5.783411270385897
 20
38.71565392391761
 10
6.082528124388858
 20
37.38083558975206
1001
AcDbBlockRepETag
1070
     1
1071
      760
1005
56CC
  0
LWPOLYLINE
  5
56CD
102
{ACAD_REACTORS
330
56EA
330
56EC
102
}
330
56AC
100
AcDbEntity
  8
APL Border
  6
Continuous
 62
     8
100
AcDbPolyline
 90
        3
 70
     1
 43
0.0
 10
5.206046831612667
 20
41.69367581194667
 10
5.552066120962537
 20
40.14955389030274
 10
4.512113667606024
 20
40.14955389030274
1001
AcDbBlockRepETag
1070
     1
1071
      761
1005
56CD
  0
LWPOLYLINE
  5
56CE
102
{ACAD_REACTORS
330
56ED
102
}
330
56AC
100
AcDbEntity
  8
APL Border
  6
Continuous
 62
     8
100
AcDbPolyline
 90
        4
 70
     1
 43
0.0
 10
5.615530392135354
 20
34.02289574745092
 10
4.838699321647567
 20
34.02289574745092
 10
4.541297257438685
 20
31.02289574745093
 10
5.318128327926473
 20
31.02289574745093
1001
AcDbBlockRepETag
1070
     1
1071
      785
1005
56CE
  0
LWPOLYLINE
  5
56CF
102
{ACAD_REACTORS
330
56ED
102
}
330
56AC
100
AcDbEntity
  8
APL Border
 62
     8
100
AcDbPolyline
 90
       13
 70
     0
 43
0.0
 10
-5.535628094882099
 20
32.1870929174454
 10
-5.353790768486447
 20
34.02289574745092
 10
-6.130425112774389
 20
34.0248801943346
 10
-6.333826921263238
 20
31.9730940808461
 42
0.1695250701542156
 10
-6.106840682758871
 20
31.39301551086222
 42
0.0826087127293405
 10
-5.813961912619959
 20
31.13108995311734
 42
0.1017056431856583
 10
-5.510404689928634
 20
31.02488019433462
 10
-4.760057203160528
 20
31.0248801943346
 42
0.1918846087154957
 10
-4.136172756560569
 20
31.41919793838074
 42
0.1021851328841131
 10
-3.889225876952792
 20
31.97309408084612
 10
-3.685824068463887
 20
34.0248801943346
 10
-4.462655138951674
 20
34.0248801943346
 10
-4.65073703420694
 20
32.12763147393075
1001
AcDbBlockRepETag
1070
     1
1071
      866
1005
56CF
  0
SPLINE
  5
56D0
102
{ACAD_REACTORS
330
56ED
102
}
330
56AC
100
AcDbEntity
  8
APL Border
 62
     8
100
AcDbSpline
210
0.0
220
0.0
230
1.0
 70
     8
 71
     3
 72
    24
 73
    20
 74
    18
 42
0.0000000001
 43
0.0000000001
 44
0.0000000001
 40
0.0
 40
0.0
 40
0.0
 40
0.0
 40
0.1612668085855933
 40
0.2532303870616441
 40
0.3214574742553387
 40
0.4101806452459026
 40
0.5031588697521256
 40
0.5664511009171887
 40
0.624871878778038
 40
0.6731644290699905
 40
0.7797386132933425
 40
0.9206747739903356
 40
1.025058962643435
 40
1.116412352300609
 40
1.212929457806147
 40
1.276240530363035
 40
1.339961572016457
 40
1.386280507025952
 40
1.435584820291647
 40
1.435584820291647
 40
1.435584820291647
 40
1.435584820291647
 10
-5.535628094882099
 20
32.1870929174454
 30
0.0
 10
-5.53213414748617
 20
32.13312332644234
 30
0.0
 10
-5.526647751003197
 20
32.04837718097616
 30
0.0
 10
-5.488860432547518
 20
31.94683424540268
 30
0.0
 10
-5.447171648840961
 20
31.8753242559261
 30
0.0
 10
-5.395818187958767
 20
31.80737001333622
 30
0.0
 10
-5.320761662408248
 20
31.77062767698265
 30
0.0
 10
-5.254477128417399
 20
31.74466351916423
 30
0.0
 10
-5.200112096792143
 20
31.72723210184819
 30
0.0
 10
-5.128888988289486
 20
31.72198763189771
 30
0.0
 10
-5.030042811850907
 20
31.72786870372271
 30
0.0
 10
-4.915707066470194
 20
31.75812586881066
 30
0.0
 10
-4.815771266393483
 20
31.81405298527761
 30
0.0
 10
-4.754740567305573
 20
31.89193427605802
 30
0.0
 10
-4.714673995441981
 20
31.96546823314959
 30
0.0
 10
-4.683526695854578
 20
32.03313813212702
 30
0.0
 10
-4.662006183068958
 20
32.08703079743258
 30
0.0
 10
-4.651792807669443
 20
32.13930455656534
 30
0.0
 10
-4.647206914869654
 20
32.17083533130903
 30
0.0
 10
-4.644842382192905
 20
32.1870929174454
 30
0.0
 11
-5.535628094882099
 21
32.1870929174454
 31
0.0
 11
-5.515298846223288
 21
32.02711258990369
 31
0.0
 11
-5.483433995220536
 21
31.94084596230824
 31
0.0
 11
-5.44947766231354
 21
31.88166908437061
 31
0.0
 11
-5.392321718875223
 21
31.8138089399536
 31
0.0
 11
-5.311535231450477
 21
31.76778184269665
 31
0.0
 11
-5.252609732475718
 21
31.74468006578604
 31
0.0
 11
-5.196420818688864
 21
31.72868652792477
 31
0.0
 11
-5.148347479287053
 21
31.72409039341204
 31
0.0
 11
-5.041949649235618
 21
31.73021889267523
 31
0.0
 11
-4.906104524581394
 21
31.76775692005663
 31
0.0
 11
-4.816802280674096
 21
31.82180475140893
 31
0.0
 11
-4.758009512288197
 21
31.89172507883507
 31
0.0
 11
-4.710553499371997
 21
31.97576958188711
 31
0.0
 11
-4.684063009443377
 21
32.03327215445256
 31
0.0
 11
-4.662061522518769
 21
32.09307437617135
 31
0.0
 11
-4.652346246099511
 21
32.13836297456555
 31
0.0
 11
-4.644842382192905
 21
32.1870929174454
 31
0.0
1001
AcDbBlockRepETag
1070
     1
1071
      827
1005
56D0
  0
LWPOLYLINE
  5
56D1
102
{ACAD_REACTORS
330
56ED
102
}
330
56AC
100
AcDbEntity
  8
APL Border
 62
     8
100
AcDbPolyline
 90
       13
 70
     0
 43
0.0
 10
6.787553510813182
 20
32.18510847056172
 10
6.969390837208834
 20
34.02091130056725
 10
6.192756492920892
 20
34.02289574745092
 10
5.989354684432043
 20
31.97110963396243
 42
0.1695250701542156
 10
6.21634092293641
 20
31.39103106397854
 42
0.0826087127293405
 10
6.509219693075323
 20
31.12910550623367
 42
0.1017056431856583
 10
6.812776915766647
 20
31.02289574745094
 10
7.563124402534754
 20
31.02289574745093
 42
0.1918846087154957
 10
8.187008849134713
 20
31.41721349149707
 42
0.1021851328841131
 10
8.433955728742489
 20
31.97110963396244
 10
8.637357537231395
 20
34.02289574745092
 10
7.860526466743607
 20
34.02289574745092
 10
7.672444571488341
 20
32.12564702704707
1001
AcDbBlockRepETag
1070
     1
1071
      837
1005
56D1
  0
LWPOLYLINE
  5
56D2
102
{ACAD_REACTORS
330
56ED
102
}
330
56AC
100
AcDbEntity
  8
APL Border
  6
Continuous
 62
     8
100
AcDbPolyline
 90
       13
 70
     1
 43
0.0
 10
-1.295012624591635
 20
34.02807364104484
 10
-0.1975458970834154
 20
34.0280551402308
 10
-0.4949479612922972
 20
31.0280551402308
 10
-1.115886909891884
 20
31.0280551402308
 10
-0.9222174129992311
 20
32.98166797820307
 10
-1.611942464131544
 20
31.0280551402308
 10
-2.344230471214956
 20
31.0280551402308
 10
-2.63016252924163
 20
32.98166797820306
 10
-2.823832026134283
 20
31.0280551402308
 10
-3.44477097473387
 20
31.0280551402308
 10
-3.147349004861581
 20
34.02825593571061
 10
-2.047349004861558
 20
34.02825593571061
 10
-1.8272453185659
 20
32.52441131541936
1001
AcDbBlockRepETag
1070
     1
1071
      867
1005
56D2
  0
LWPOLYLINE
  5
56D3
102
{ACAD_REACTORS
330
56ED
102
}
330
56AC
100
AcDbEntity
  8
APL Border
  6
Continuous
 62
     8
100
AcDbPolyline
 90
       10
 70
     1
 43
0.0
 10
1.724974710806094
 20
34.02289574745092
 10
1.427552740933805
 20
31.02269495197112
 10
2.048491689533392
 20
31.02269495197112
 10
2.231899581960561
 20
32.87279534971117
 10
3.051434648859952
 20
31.02269495197112
 10
3.902826396438257
 20
31.02269495197112
 10
4.200228460647139
 20
34.02269495197112
 10
3.580266230192904
 20
34.02269495197112
 10
3.395920304875374
 20
32.17298478610545
 10
2.576558098165463
 20
34.02269495197112
1001
AcDbBlockRepETag
1070
     1
1071
      616
1005
56D3
  0
LWPOLYLINE
  5
56D4
102
{ACAD_REACTORS
330
56ED
102
}
330
56AC
100
AcDbEntity
  8
APL Border
  6
Continuous
 62
     8
100
AcDbPolyline
 90
       13
 70
     1
 43
0.0
 10
11.01183437133605
 20
34.02271345278515
 10
12.10930109884427
 20
34.02269495197111
 10
11.81189903463539
 20
31.02269495197111
 10
11.1909600860358
 20
31.02269495197111
 10
11.38462958292845
 20
32.97630778994339
 10
10.69490453179614
 20
31.02269495197111
 10
9.962616524712728
 20
31.02269495197111
 10
9.676684466686054
 20
32.97630778994338
 10
9.483014969793401
 20
31.02269495197111
 10
8.862076021193814
 20
31.02269495197111
 10
9.159497991066103
 20
34.02289574745092
 10
10.25949799106612
 20
34.02289574745092
 10
10.47960167736178
 20
32.51905112715967
1001
AcDbBlockRepETag
1070
     1
1071
      847
1005
56D4
  0
SPLINE
  5
56D5
102
{ACAD_REACTORS
330
56ED
102
}
330
56AC
100
AcDbEntity
  8
APL Border
 62
     8
100
AcDbSpline
210
0.0
220
0.0
230
1.0
 70
     8
 71
     3
 72
    24
 73
    20
 74
    18
 42
0.0000000001
 43
0.0000000001
 44
0.0000000001
 40
0.0
 40
0.0
 40
0.0
 40
0.0
 40
0.1612668085856004
 40
0.2532303870616512
 40
0.3214574742553458
 40
0.4101806452458731
 40
0.5031588697521455
 40
0.5664511009172086
 40
0.6248718787780579
 40
0.6731644290699537
 40
0.7797386132933625
 40
0.9206747739903555
 40
1.025058962643406
 40
1.116412352300617
 40
1.212929457806155
 40
1.276240530363043
 40
1.339961572016455
 40
1.386280507025956
 40
1.435584820291643
 40
1.435584820291643
 40
1.435584820291643
 40
1.435584820291643
 10
6.787553510813182
 20
32.18510847056172
 30
0.0
 10
6.791047458209138
 20
32.13113887955867
 30
0.0
 10
6.796533854692151
 20
32.04639273409249
 30
0.0
 10
6.834321173147815
 20
31.94484979851901
 30
0.0
 10
6.876009956854381
 20
31.87333980904243
 30
0.0
 10
6.927363417736518
 20
31.80538556645249
 30
0.0
 10
7.002419943287081
 20
31.76864323009899
 30
0.0
 10
7.068704477277941
 20
31.74267907228054
 30
0.0
 10
7.123069508903178
 20
31.72524765496453
 30
0.0
 10
7.194292617405833
 20
31.72000318501402
 30
0.0
 10
7.293138793844411
 20
31.72588425683905
 30
0.0
 10
7.407474539225143
 20
31.75614142192696
 30
0.0
 10
7.507410339301799
 20
31.81206853839397
 30
0.0
 10
7.568441038389779
 20
31.88994982917432
 30
0.0
 10
7.608507610253345
 20
31.96348378626594
 30
0.0
 10
7.639654909840773
 20
32.03115368524333
 30
0.0
 10
7.661175422626328
 20
32.08504635054892
 30
0.0
 10
7.671388798025919
 20
32.13732010968165
 30
0.0
 10
7.675974690825655
 20
32.16885088442535
 30
0.0
 10
7.678339223502376
 20
32.18510847056172
 30
0.0
 11
6.787553510813182
 21
32.18510847056172
 31
0.0
 11
6.80788275947205
 21
32.02512814302002
 31
0.0
 11
6.839747610474802
 21
31.93886151542456
 31
0.0
 11
6.873703943381798
 21
31.87968463748693
 31
0.0
 11
6.930859886820059
 21
31.81182449306993
 31
0.0
 11
7.011646374244861
 21
31.76579739581298
 31
0.0
 11
7.07057187321962
 21
31.74269561890237
 31
0.0
 11
7.126760787006475
 21
31.72670208104109
 31
0.0
 11
7.174834126408228
 21
31.72210594652836
 31
0.0
 11
7.28123195645972
 21
31.72823444579155
 31
0.0
 11
7.417077081113944
 21
31.76577247317295
 31
0.0
 11
7.506379325021185
 21
31.81982030452526
 31
0.0
 11
7.565172093407142
 21
31.88974063195139
 31
0.0
 11
7.612628106323342
 21
31.97378513500343
 31
0.0
 11
7.639118596251961
 21
32.03128770756889
 31
0.0
 11
7.661120083176541
 21
32.09108992928768
 31
0.0
 11
7.670835359595827
 21
32.13637852768188
 31
0.0
 11
7.678339223502376
 21
32.18510847056172
 31
0.0
1001
AcDbBlockRepETag
1070
     1
1071
      848
1005
56D5
  0
LWPOLYLINE
  5
56D6
102
{ACAD_REACTORS
330
56E0
102
}
330
56AC
100
AcDbEntity
  8
APL Border
  6
Continuous
 62
     8
100
AcDbPolyline
 90
        4
 70
     1
 43
0.0
 10
-1.87552020613694
 20
26.87985997284487
 10
-2.652351276624727
 20
26.87985997284487
 10
-2.949753340833609
 20
23.87985997284487
 10
-2.172922270345821
 20
23.87985997284487
1001
AcDbBlockRepETag
1070
     1
1071
      851
1005
56D6
  0
LWPOLYLINE
  5
56D7
102
{ACAD_REACTORS
330
56E0
102
}
330
56AC
100
AcDbEntity
  8
APL Border
  6
Continuous
 62
     8
100
AcDbPolyline
 90
       10
 70
     1
 43
0.0
 10
-1.269968290467119
 20
26.87985997284487
 10
-1.567390260339408
 20
23.87965917736506
 10
-0.9464513117398212
 20
23.87965917736506
 10
-0.7630434193126519
 20
25.72975957510511
 10
0.0564916475867392
 20
23.87965917736506
 10
0.9078833951650437
 20
23.87965917736506
 10
1.205285459373925
 20
26.87965917736506
 10
0.5853232289196911
 20
26.87965917736506
 10
0.4009773036021614
 20
25.0299490114994
 10
-0.41838490310775
 20
26.87965917736506
1001
AcDbBlockRepETag
1070
     1
1071
      852
1005
56D7
  0
LWPOLYLINE
  5
56D8
102
{ACAD_REACTORS
330
56E0
102
}
330
56AC
100
AcDbEntity
  8
APL Border
 62
     8
100
AcDbPolyline
 90
       13
 70
     0
 43
0.0
 10
1.882971499788112
 20
26.87985997284487
 10
3.847979515363789
 20
26.87985997284487
 10
3.788499102522024
 20
26.27985997284487
 10
2.600322157434135
 20
26.27985997284487
 10
2.540562294183217
 20
25.67704105755032
 10
3.542578834455781
 20
25.67704105755032
 10
3.476410183919
 20
25.07985997284487
 10
2.474393643646379
 20
25.07985997284487
 10
2.421932428393546
 20
24.48037956726917
 10
3.610109373481435
 20
24.48037956726917
 10
3.550577451154907
 20
23.87985997284487
 10
1.58556943557923
 20
23.87985997284487
 10
1.882971499788112
 20
26.87985997284487
1001
AcDbBlockRepETag
1070
     1
1071
      864
1005
56D8
  0
LINE
  5
56D9
102
{ACAD_REACTORS
330
56E0
102
}
330
56AC
100
AcDbEntity
  8
APL Border
 62
     8
100
AcDbLine
 10
5.198870965514487
 20
25.50205881951548
 30
0.0
 11
5.142141867913778
 21
25.50205881951548
 31
0.0
1001
AcDbBlockRepETag
1070
     1
1071
      865
1005
56D9
  0
SPLINE
  5
56DA
102
{ACAD_REACTORS
330
56E0
102
}
330
56AC
100
AcDbEntity
  8
APL Border
 62
     8
100
AcDbSpline
210
0.0
220
0.0
230
1.0
 70
     8
 71
     3
 72
    25
 73
    21
 74
     0
 42
0.0000000001
 43
0.0000000001
 40
0.0
 40
0.0
 40
0.0
 40
0.0
 40
0.3463130802699203
 40
0.6043703055549736
 40
0.8524756959462802
 40
1.099102870182333
 40
1.318598063912852
 40
1.521064627602771
 40
1.694788988362445
 40
1.912615757663666
 40
2.142780600046976
 40
2.483378398179008
 40
2.873129106540456
 40
3.09179617846886
 40
3.322387155839943
 40
3.509181810940893
 40
3.69147909649244
 40
3.927844502409028
 40
4.143063657146388
 40
4.406491840702669
 40
4.406491840702669
 40
4.406491840702669
 40
4.406491840702669
 10
-5.114032196843737
 20
23.8798599728377
 30
0.0
 10
-5.228982970363915
 20
23.89503832123493
 30
0.0
 10
-5.429589987754155
 20
23.92152690506636
 30
0.0
 10
-5.693675021857103
 20
24.03567408988205
 30
0.0
 10
-5.892941488864977
 20
24.19306688135278
 30
0.0
 10
-6.036314150572081
 20
24.38541826526996
 30
0.0
 10
-6.137502326421099
 20
24.58575647986304
 30
0.0
 10
-6.184089306330008
 20
24.77995730666768
 30
0.0
 10
-6.209030826709039
 20
24.97670983726675
 30
0.0
 10
-6.206060891535827
 20
25.18442176502657
 30
0.0
 10
-6.186178297010457
 20
25.44676950423098
 30
0.0
 10
-6.128537036390639
 20
25.76177491648128
 30
0.0
 10
-6.024273636684796
 20
26.06592307272473
 30
0.0
 10
-5.858617591962229
 20
26.29271170654482
 30
0.0
 10
-5.725334295882049
 20
26.45803039682342
 30
0.0
 10
-5.575727893531166
 20
26.59168695454355
 30
0.0
 10
-5.409633372236157
 20
26.70740493083671
 30
0.0
 10
-5.217340570729675
 20
26.79721770551459
 30
0.0
 10
-4.988026372094168
 20
26.86731869684436
 30
0.0
 10
-4.849424991220388
 20
26.87777876054341
 30
0.0
 10
-4.7645039250757
 20
26.87985997283595
 30
0.0
1001
AcDbBlockRepETag
1070
     1
1071
      875
1005
56DA
  0
ELLIPSE
  5
56DB
102
{ACAD_REACTORS
330
56DF
330
56E0
102
}
330
56AC
100
AcDbEntity
  8
APL Border
 62
     8
100
AcDbEllipse
 10
-4.728528852722632
 20
25.3825150979867
 30
0.0
 11
-0.2732326585474372
 21
-0.8283682112856686
 31
0.0
210
0.0
220
0.0
230
-1.0
 40
0.767138872147242
 41
0.0
 42
6.283185307179586
1001
AcDbBlockRepETag
1070
     1
1071
      876
1005
56DB
  0
SPLINE
  5
56DC
102
{ACAD_REACTORS
330
56E0
102
}
330
56AC
100
AcDbEntity
  8
APL Border
 62
     8
100
AcDbSpline
210
0.0
220
0.0
230
1.0
 70
     8
 71
     3
 72
    26
 73
    22
 74
     0
 42
0.0000000001
 43
0.0000000001
 40
4.60284491300692
 40
4.60284491300692
 40
4.60284491300692
 40
4.60284491300692
 40
4.695921259854779
 40
4.963507654731998
 40
5.182979392648435
 40
5.397234555269768
 40
5.619529682274728
 40
5.869260387557257
 40
6.093250787730498
 40
6.263427758207029
 40
6.582064557968705
 40
6.800458868269094
 40
7.179401531729983
 40
7.575889850719137
 40
7.787844664578662
 40
8.01909420716162
 40
8.205730502580088
 40
8.387453763945252
 40
8.621856230932909
 40
8.833419194479944
 40
8.988019761194074
 40
8.988019761194074
 40
8.988019761194074
 40
8.988019761194074
 10
-4.486699891621668
 20
26.8798599728377
 30
0.0
 10
-4.440001835107608
 20
26.87954742494388
 30
0.0
 10
-4.335540249228728
 20
26.87475925711838
 30
0.0
 10
-4.164200665084621
 20
26.85307202884131
 30
0.0
 10
-3.96932086400659
 20
26.77880589501945
 30
0.0
 10
-3.766465201232762
 20
26.6658847706859
 30
0.0
 10
-3.60114437794968
 20
26.50570040783856
 30
0.0
 10
-3.471205788265336
 20
26.31143584383913
 30
0.0
 10
-3.381388817883674
 20
26.11392472080339
 30
0.0
 10
-3.317144182132551
 20
25.88552622199355
 30
0.0
 10
-3.281793375658168
 20
25.65006475492956
 30
0.0
 10
-3.30137826591374
 20
25.34538614523087
 30
0.0
 10
-3.327064239225308
 20
25.0112478652753
 30
0.0
 10
-3.471288581215731
 20
24.71021445059323
 30
0.0
 10
-3.60460091530777
 20
24.4641890220082
 30
0.0
 10
-3.737092402415015
 20
24.29954990084814
 30
0.0
 10
-3.882945983371143
 20
24.16225529150343
 30
0.0
 10
-4.046861838463826
 20
24.04508050911121
 30
0.0
 10
-4.233796525969012
 20
23.94884265716423
 30
0.0
 10
-4.427631511903911
 20
23.89220734010023
 30
0.0
 10
-4.549580407823555
 20
23.882511578974
 30
0.0
 10
-4.601116794093542
 20
23.87985997285202
 30
0.0
1001
AcDbBlockRepETag
1070
     1
1071
      877
1005
56DC
  0
LWPOLYLINE
  5
56DD
102
{ACAD_REACTORS
330
56E0
102
}
330
56AC
100
AcDbEntity
  8
APL Border
 62
     8
100
AcDbPolyline
 90
        2
 70
     0
 43
0.0
 10
-4.764503925211641
 20
26.8798599728377
 10
-4.486699891621924
 20
26.8798599728377
1001
AcDbBlockRepETag
1070
     1
1071
      878
1005
56DD
  0
LWPOLYLINE
  5
56DE
102
{ACAD_REACTORS
330
56E0
102
}
330
56AC
100
AcDbEntity
  8
APL Border
 62
     8
100
AcDbPolyline
 90
        2
 70
     0
 43
0.0
 10
-5.114032196843737
 20
23.8798599728377
 10
-4.601116794093513
 20
23.87985997285202
1001
AcDbBlockRepETag
1070
     1
1071
      879
1005
56DE
  0
HATCH
  5
56DF
330
56AC
100
AcDbEntity
  8
APL Border
 62
     8
100
AcDbHatch
 10
0.0
 20
0.0
 30
0.0
210
0.0
220
0.0
230
1.0
  2
SOLID
 70
     1
 71
     1
 91
        1
 92
        5
 93
        1
 72
     3
 10
-4.728528852722632
 20
25.3825150979867
 11
-0.2732326585474372
 21
-0.8283682112856686
 40
0.767138872147242
 50
0.0
 51
360.0
 73
     0
 97
        1
330
56DB
 75
     0
 76
     1
 47
0.0172809346375552
 98
        1
 10
-4.520972790815363
 20
25.15086651129009
1001
ACAD
1010
0.0
1020
0.0
1030
0.0
1001
AcDbBlockRepETag
1070
     1
1071
      880
1005
56DF
  0
HATCH
  5
56E0
330
56AC
100
AcDbEntity
  8
APL Border
 62
     8
100
AcDbHatch
 10
0.0
 20
0.0
 30
0.0
210
0.0
220
0.0
230
1.0
  2
SOLID
 70
     1
 71
     1
 91
        9
 92
        7
 72
     0
 73
     1
 93
        4
 10
-12.20942510081127
 20
28.14789574745095
 10
-8.85038058018816
 20
22.32985997284487
 10
8.850698786449385
 20
22.32985997284487
 10
12.20974330707306
 20
28.14789574745094
 97
        1
330
56BF
 92
       20
 93
        4
 72
     4
 94
        3
 73
     0
 74
     0
 95
       25
 96
       21
 40
0.0
 40
0.0
 40
0.0
 40
0.0
 40
0.3463130802699203
 40
0.6043703055549736
 40
0.8524756959462802
 40
1.099102870182333
 40
1.318598063912852
 40
1.521064627602771
 40
1.694788988362445
 40
1.912615757663666
 40
2.142780600046976
 40
2.483378398179008
 40
2.873129106540456
 40
3.09179617846886
 40
3.322387155839943
 40
3.509181810940893
 40
3.69147909649244
 40
3.927844502409028
 40
4.143063657146388
 40
4.406491840702669
 40
4.406491840702669
 40
4.406491840702669
 40
4.406491840702669
 10
-5.114032196843737
 20
23.8798599728377
 10
-5.228982970363915
 20
23.89503832123493
 10
-5.429589987754155
 20
23.92152690506636
 10
-5.693675021857103
 20
24.03567408988205
 10
-5.892941488864977
 20
24.19306688135278
 10
-6.036314150572081
 20
24.38541826526996
 10
-6.137502326421099
 20
24.58575647986304
 10
-6.184089306330008
 20
24.77995730666768
 10
-6.209030826709039
 20
24.97670983726675
 10
-6.206060891535827
 20
25.18442176502657
 10
-6.186178297010457
 20
25.44676950423098
 10
-6.128537036390639
 20
25.76177491648128
 10
-6.024273636684796
 20
26.06592307272473
 10
-5.858617591962229
 20
26.29271170654482
 10
-5.725334295882049
 20
26.45803039682342
 10
-5.575727893531166
 20
26.59168695454355
 10
-5.409633372236157
 20
26.70740493083671
 10
-5.217340570729675
 20
26.79721770551459
 10
-4.988026372094168
 20
26.86731869684436
 10
-4.849424991220388
 20
26.87777876054341
 10
-4.7645039250757
 20
26.87985997283595
 72
     1
 10
-4.764503925020689
 20
26.87985997283771
 11
-4.486699891621347
 21
26.8798599728377
 72
     4
 94
        3
 73
     0
 74
     0
 95
       26
 96
       22
 40
4.60284491300692
 40
4.60284491300692
 40
4.60284491300692
 40
4.60284491300692
 40
4.695921259854779
 40
4.963507654731998
 40
5.182979392648435
 40
5.397234555269768
 40
5.619529682274728
 40
5.869260387557257
 40
6.093250787730498
 40
6.263427758207029
 40
6.582064557968705
 40
6.800458868269094
 40
7.179401531729983
 40
7.575889850719137
 40
7.787844664578662
 40
8.01909420716162
 40
8.205730502580088
 40
8.387453763945252
 40
8.621856230932909
 40
8.833419194479944
 40
8.988019761194074
 40
8.988019761194074
 40
8.988019761194074
 40
8.988019761194074
 10
-4.486699891621668
 20
26.8798599728377
 10
-4.440001835107608
 20
26.87954742494388
 10
-4.335540249228728
 20
26.87475925711838
 10
-4.164200665084621
 20
26.85307202884131
 10
-3.96932086400659
 20
26.77880589501945
 10
-3.766465201232762
 20
26.6658847706859
 10
-3.60114437794968
 20
26.50570040783856
 10
-3.471205788265336
 20
26.31143584383913
 10
-3.381388817883674
 20
26.11392472080339
 10
-3.317144182132551
 20
25.88552622199355
 10
-3.281793375658168
 20
25.65006475492956
 10
-3.30137826591374
 20
25.34538614523087
 10
-3.327064239225308
 20
25.0112478652753
 10
-3.471288581215731
 20
24.71021445059323
 10
-3.60460091530777
 20
24.4641890220082
 10
-3.737092402415015
 20
24.29954990084814
 10
-3.882945983371143
 20
24.16225529150343
 10
-4.046861838463826
 20
24.04508050911121
 10
-4.233796525969012
 20
23.94884265716423
 10
-4.427631511903911
 20
23.89220734010023
 10
-4.549580407823555
 20
23.882511578974
 10
-4.601116794093542
 20
23.87985997285202
 72
     1
 10
-4.601116794093525
 20
23.87985997285202
 11
-5.114032196843729
 21
23.8798599728377
 97
        4
330
56DA
330
56DD
330
56DC
330
56DE
 92
        4
 93
        1
 72
     3
 10
-4.728528852722632
 20
25.3825150979867
 11
-0.2732326585474372
 21
-0.8283682112856686
 40
0.767138872147242
 50
0.0
 51
360.0
 73
     0
 97
        1
330
56DB
 92
       20
 93
        8
 72
     1
 10
-6.482313212520211
 20
26.87985997284487
 11
-6.679452083611267
 21
24.89125032803125
 72
     4
 94
        3
 73
     0
 74
     0
 95
       16
 96
       12
 40
0.0
 40
0.0
 40
0.0
 40
0.0
 40
0.1978277931646383
 40
0.361463118001824
 40
0.5540499897785108
 40
0.7796220130725381
 40
0.979106605438038
 40
1.222151590302332
 40
1.40748727220097
 40
1.607226525619232
 40
1.815049166761618
 40
1.815049166761618
 40
1.815049166761618
 40
1.815049166761618
 10
-6.679452083611295
 20
24.89125032803118
 10
-6.685371732996685
 20
24.82559351525052
 10
-6.696187882184318
 20
24.70562798418881
 10
-6.721757155054632
 20
24.52229576436942
 10
-6.768469983285655
 20
24.33480615160982
 10
-6.860719723390843
 20
24.14153771241002
 10
-7.051789745146265
 20
24.01851519430106
 10
-7.233921808197266
 20
23.91285203345821
 10
-7.443451931375136
 20
23.87675735439051
 10
-7.641222718647384
 20
23.88093312949101
 10
-7.776581895343355
 20
23.89281010788354
 10
-7.845603808282817
 20
23.89886637823479
 72
     1
 10
-7.845603808282787
 20
23.89886637823479
 11
-8.399876560405061
 21
23.98304774476413
 72
     1
 10
-8.399876560405061
 20
23.98304774476413
 11
-8.399876560405061
 21
24.64579492155148
 72
     1
 10
-8.399876560405061
 20
24.64579492155148
 11
-7.815117916056302
 21
24.56632682606845
 72
     4
 94
        3
 73
     0
 74
     0
 95
       11
 96
        7
 40
0.0
 40
0.0
 40
0.0
 40
0.0
 40
0.2042619346961744
 40
0.3074129668363174
 40
0.4146012126853764
 40
0.4826852714337078
 40
0.4826852714337078
 40
0.4826852714337078
 40
0.4826852714337078
 10
-7.815117916056323
 20
24.56632682606847
 10
-7.743266182308218
 20
24.55714977626708
 10
-7.635129760920136
 20
24.54333837224583
 10
-7.524447891091284
 20
24.63752792323729
 10
-7.477352395049535
 20
24.71998790389099
 10
-7.468646137215245
 20
24.77808681972154
 10
-7.465264214605014
 20
24.80065518845331
 72
     1
 10
-7.465264214605014
 20
24.80065518845333
 11
-7.259144283007996
 21
26.87985997284487
 72
     1
 10
-7.259144283007996
 20
26.87985997284487
 11
-6.482313212520211
 21
26.87985997284487
 97
        4
330
56C5
330
56B0
330
56C6
330
56B1
 92
       22
 72
     0
 73
     1
 93
        4
 10
-2.652351276624725
 20
26.87985997284486
 10
-1.87552020613694
 20
26.87985997284486
 10
-2.172922270345821
 20
23.87985997284487
 10
-2.949753340833609
 20
23.87985997284487
 97
        1
330
56D6
 92
       22
 72
     0
 73
     1
 93
       10
 10
-1.269968290467114
 20
26.87985997284487
 10
-0.4183849031077484
 20
26.87965917736506
 10
0.4009773036021615
 20
25.0299490114994
 10
0.5853232289196909
 20
26.87965917736506
 10
1.205285459373925
 20
26.87965917736506
 10
0.9078833951650439
 20
23.87965917736506
 10
0.056491647586738
 20
23.87965917736506
 10
-0.7630434193126518
 20
25.72975957510511
 10
-0.946451311739821
 20
23.87965917736506
 10
-1.567390260339408
 20
23.87965917736506
 97
        1
330
56D7
 92
       22
 72
     0
 73
     1
 93
       12
 10
1.882971499788112
 20
26.87985997284486
 10
3.847979515363789
 20
26.87985997284486
 10
3.788499102522024
 20
26.27985997284486
 10
2.600322157434135
 20
26.27985997284487
 10
2.540562294183218
 20
25.67704105755032
 10
3.542578834455781
 20
25.67704105755032
 10
3.476410183919
 20
25.07985997284487
 10
2.47439364364638
 20
25.07985997284487
 10
2.421932428393546
 20
24.48037956726917
 10
3.610109373481436
 20
24.48037956726917
 10
3.550577451154907
 20
23.87985997284487
 10
1.585569435579231
 20
23.87985997284487
 97
        1
330
56D8
 92
       20
 93
       11
 72
     1
 10
4.429648034880159
 20
26.87985997284486
 11
5.780015564168562
 21
26.87985997284487
 72
     4
 94
        3
 73
     0
 74
     0
 95
       20
 96
       16
 40
0.0
 40
0.0
 40
0.0
 40
0.0
 40
0.1774120264923274
 40
0.3258093286713144
 40
0.4834060703451958
 40
0.6311237014699663
 40
0.811161917566129
 40
0.9605198197290178
 40
1.289502400757101
 40
1.459697744220917
 40
1.604754171475458
 40
1.794797311213428
 40
2.030760379210173
 40
2.301729078160567
 40
2.393267743077617
 40
2.393267743077617
 40
2.393267743077617
 40
2.393267743077617
 10
5.780015564168593
 20
26.87985997284487
 10
5.839056126904296
 20
26.87337384475878
 10
5.947481505327601
 20
26.86146235781404
 10
6.098807931884806
 20
26.80185114122353
 10
6.227972759762906
 20
26.72168911843352
 10
6.347510602881385
 20
26.61140356622764
 10
6.442310149474394
 20
26.48207375794227
 10
6.536759215535255
 20
26.28338234239492
 10
6.578465181725675
 20
26.06469589684353
 10
6.553150099427256
 20
25.85079503063701
 10
6.524121382020268
 20
25.68499989147718
 10
6.464236525716046
 20
25.50199988960434
 10
6.327150620479812
 20
25.31187331731421
 10
6.179477266233362
 20
25.17172660684537
 10
6.072729148555964
 20
25.11631253421805
 10
6.045077525535504
 20
25.10350570839811
 72
     1
 10
6.045077525535502
 20
25.1035057083981
 11
6.339444173005232
 21
23.87985997284487
 72
     1
 10
6.339444173005232
 20
23.87985997284487
 11
5.532386545886621
 21
23.87985997284487
 72
     1
 10
5.532386545886621
 20
23.87985997284487
 11
5.142141867913776
 21
25.50205881951548
 72
     1
 10
5.142141867913776
 20
25.50205881951548
 11
5.19887096551445
 21
25.50205881951548
 72
     4
 94
        3
 73
     0
 74
     0
 95
       17
 96
       13
 40
0.0
 40
0.0
 40
0.0
 40
0.0
 40
0.0463117202933683
 40
0.2032408426961212
 40
0.3585694343029505
 40
0.4964057577712057
 40
0.6456565825699876
 40
0.7595770154256244
 40
0.9262943680254526
 40
1.032180609131101
 40
1.14647028625934
 40
1.243973057737614
 40
1.243973057737614
 40
1.243973057737614
 40
1.243973057737614
 10
5.198870965514487
 20
25.50205881951548
 10
5.214272018053407
 20
25.50302975767877
 10
5.28186015506489
 20
25.50729075876586
 10
5.40176083940824
 20
25.51345804330556
 10
5.546675458142118
 20
25.55725132865025
 10
5.67725421213268
 20
25.62965962372397
 10
5.765298612935083
 20
25.7349784962169
 10
5.820388894698254
 20
25.86817511516085
 10
5.832561030472788
 20
26.0011917111029
 10
5.781919321100474
 20
26.1258482190374
 10
5.684603990133524
 20
26.18537947021099
 10
5.613502616848251
 20
26.1875961553427
 10
5.580769717272147
 20
26.18861664944085
 72
     1
 10
5.580769717272125
 20
26.18861664944085
 11
5.137953374950967
 21
26.18861664944085
 72
     1
 10
5.137953374950967
 20
26.18861664944085
 11
4.909077041159065
 21
23.87985997284487
 72
     1
 10
4.909077041159065
 20
23.87985997284487
 11
4.132245970671278
 21
23.87985997284487
 72
     1
 10
4.132245970671278
 20
23.87985997284487
 11
4.429648034880159
 21
26.87985997284486
 97
        5
330
56C0
330
56B2
330
56C2
330
56D9
330
56B3
 92
       22
 72
     0
 73
     1
 93
        9
 10
6.800478684667179
 20
26.87985997284487
 10
7.607536311785904
 20
26.87985997284487
 10
7.963471882016363
 20
25.86355557445326
 10
8.538893993587493
 20
26.87985997284487
 10
9.414203966725493
 20
26.87985997284487
 10
8.232331174709315
 20
25.00957443408062
 10
8.120338037129924
 20
23.87985997284486
 10
7.343506966642139
 20
23.87985997284486
 10
7.455500104221528
 20
25.00957443408062
 97
        1
330
56BE
 75
     0
 76
     1
 47
0.0276408434878157
 98
        9
 10
-5.110068937762804
 20
27.30829258594788
 10
-5.110068937762804
 20
27.30829258594788
 10
-5.110068937762804
 20
27.30829258594788
 10
-5.110068937762804
 20
27.30829258594788
 10
-5.110068937762804
 20
27.30829258594788
 10
-5.110068937762804
 20
27.30829258594788
 10
-5.110068937762804
 20
27.30829258594788
 10
-5.110068937762804
 20
27.30829258594788
 10
-5.110068937762804
 20
27.30829258594788
1001
ACAD
1010
0.0
1020
0.0
1030
0.0
1001
AcDbBlockRepETag
1070
     1
1071
      881
1005
56E0
  0
HATCH
  5
56E1
330
56AC
100
AcDbEntity
  8
APL Border
 62
     8
100
AcDbHatch
 10
0.0
 20
0.0
 30
0.0
210
0.0
220
0.0
230
1.0
  2
SOLID
 70
     1
 71
     1
 91
        1
 92
        7
 72
     0
 73
     1
 93
        4
 10
0.0001591031300169
 20
7.000275566930961
 10
3.563095122801513
 20
13.17146177711931
 10
-0.9450856774407473
 20
20.97985997284487
 10
-8.070957716782199
 20
20.97985997284487
 97
        1
330
56C3
 75
     0
 76
     1
 47
0.0707162833847576
 98
        3
 10
-2.675438732228172
 20
16.47794635472378
 10
6.312751868664321
 20
42.28939048605213
 10
-9.894301834166896
 20
39.60217176706084
1001
ACAD
1010
0.0
1020
0.0
1030
0.0
1001
AcDbBlockRepETag
1070
     1
1071
      883
1005
56E1
  0
HATCH
  5
56E2
330
56AC
100
AcDbEntity
  8
APL Border
 62
     8
100
AcDbHatch
 10
0.0
 20
0.0
 30
0.0
210
0.0
220
0.0
230
1.0
  2
SOLID
 70
     1
 71
     0
 91
        1
 92
        7
 72
     0
 73
     1
 93
        7
 10
-12.96642015501169
 20
43.61979184908029
 10
-14.7664201550117
 20
43.61979184908029
 10
-16.54136876356097
 20
39.42215966960598
 10
-17.19614352503853
 20
43.61979184908029
 10
-18.99614352503854
 20
43.61979184908029
 10
-17.7875751270476
 20
37.38083558975206
 10
-15.77022638070493
 20
37.38083558975206
 97
        0
 75
     0
 76
     1
 47
0.0707162833847576
 98
        3
 10
6.249678794057444
 20
42.28939048605213
 10
-9.957374908773772
 20
39.60217176706084
 10
-16.39773218462096
 20
38.68285940442952
1001
ACAD
1010
0.0
1020
0.0
1030
0.0
1001
AcDbBlockRepETag
1070
     1
1071
      884
1005
56E2
  0
HATCH
  5
56E3
330
56AC
100
AcDbEntity
  8
APL Border
 62
     8
100
AcDbHatch
 10
0.0
 20
0.0
 30
0.0
210
0.0
220
0.0
230
1.0
  2
SOLID
 70
     1
 71
     1
 91
        1
 92
        7
 72
     0
 73
     1
 93
       10
 10
-2.850928947786229
 20
37.38083558975206
 10
-2.181839912298442
 20
43.6197918490803
 10
-3.855464624526036
 20
43.61979184908029
 10
-4.228474015381578
 20
40.14164596649268
 10
-5.40751765387219
 20
43.61979184908029
 10
-7.466097855805088
 20
43.61979184908029
 10
-8.135186891292875
 20
37.38083558975206
 10
-6.479801476178323
 20
37.38083558975206
 10
-6.131920885667285
 20
40.6246666384634
 10
-5.032306754624555
 20
37.38083558975206
 97
        1
330
56BA
 75
     0
 76
     1
 47
0.0707162833847576
 98
        3
 10
6.312751868664321
 20
42.28939048605213
 10
-5.364819983741796
 20
40.80434854252457
 10
-9.894301834166896
 20
39.60217176706084
1001
ACAD
1010
0.0
1020
0.0
1030
0.0
1001
AcDbBlockRepETag
1070
     1
1071
      886
1005
56E3
  0
HATCH
  5
56E4
330
56AC
100
AcDbEntity
  8
APL Border
 62
     8
100
AcDbHatch
 10
0.0
 20
0.0
 30
0.0
210
0.0
220
0.0
230
1.0
  2
SOLID
 70
     1
 71
     1
 91
        1
 92
        7
 72
     0
 73
     1
 93
        8
 10
2.929095477768755
 20
41.97282181113101
 10
3.105743226874893
 20
43.6199831327606
 10
-1.725754035154748
 20
43.61998313276061
 10
-1.891167362926863
 20
41.97282181113101
 10
-0.3755272841536335
 20
41.97282181113101
 10
-0.8679685705352806
 20
37.38102687343239
 10
0.9741138955425025
 20
37.38339558452146
 10
1.466301152475638
 20
41.97282181113101
 97
        1
330
56B9
 75
     0
 76
     1
 47
0.0707162833847576
 98
        3
 10
6.461508006627583
 20
42.28958176973246
 10
0.3042431306128051
 20
42.36029787294049
 10
-9.745545696203633
 20
39.60236305074117
1001
ACAD
1010
0.0
1020
0.0
1030
0.0
1001
AcDbBlockRepETag
1070
     1
1071
      887
1005
56E4
  0
HATCH
  5
56E5
330
56AC
100
AcDbEntity
  8
APL Border
 62
     8
100
AcDbHatch
 10
0.0
 20
0.0
 30
0.0
210
0.0
220
0.0
230
1.0
  2
SOLID
 70
     1
 71
     1
 91
        1
 92
        7
 72
     0
 73
     1
 93
        3
 10
8.071275923043375
 20
20.97985997284487
 10
0.8484489512626126
 20
20.97985997284487
 10
4.459862437153192
 20
14.72470832814346
 97
        1
330
56C4
 75
     0
 76
     1
 47
0.0707162833847576
 98
        3
 10
4.897289869501349
 20
18.17513736310713
 10
6.312751868664321
 20
42.28939048605213
 10
-9.894301834166896
 20
39.60217176706084
1001
ACAD
1010
0.0
1020
0.0
1030
0.0
1001
AcDbBlockRepETag
1070
     1
1071
      891
1005
56E5
  0
HATCH
  5
56E6
330
56AC
100
AcDbEntity
  8
APL Border
 62
     8
100
AcDbHatch
 10
0.0
 20
0.0
 30
0.0
210
0.0
220
0.0
230
1.0
  2
SOLID
 70
     1
 71
     1
 91
        2
 92
       16
 93
        3
 72
     1
 10
0.0000000003145431
 20
4.000000000000009
 11
23.60256143704041
 21
44.88083558975217
 72
     1
 10
23.60256143704041
 20
44.88083558975217
 11
-23.60256142783933
 21
44.88083558975206
 72
     1
 10
-23.60256142783933
 20
44.88083558975206
 11
0.0000000003145431
 21
4.000000000000007
 97
        1
330
56CA
 92
        1
 93
        3
 72
     1
 10
27.06666305249243
 20
46.88083558975206
 11
-27.06666304266244
 21
46.88083558975206
 72
     1
 10
-27.06666304266244
 20
46.88083558975206
 11
-0.0000000000000284
 21
0.0000000000000213
 72
     1
 10
-0.0000000000000284
 20
0.0000000000000238
 11
27.06666305249243
 21
46.88083558975206
 97
        1
330
56CB
 75
     0
 76
     1
 98
        1
 10
-236.5641112216887
 20
1.231020082252661
1001
ACAD
1010
0.0
1020
0.0
1030
0.0
1001
AcDbBlockRepETag
1070
     1
1071
      892
1005
56E6
  0
HATCH
  5
56E7
330
56AC
100
AcDbEntity
  8
APL Border
 62
     8
100
AcDbHatch
 10
0.0
 20
0.0
 30
0.0
210
0.0
220
0.0
230
1.0
  2
SOLID
 70
     1
 71
     1
 91
        1
 92
        7
 72
     0
 73
     1
 93
       12
 10
15.84058876400877
 20
41.9726305274507
 10
18.21321428445671
 20
41.9726305274507
 10
18.38986203356285
 20
43.61979184908029
 10
14.13627631352983
 20
43.61979184908029
 10
13.46718727804204
 20
37.38083558975206
 10
17.72077299807506
 20
37.38083558975207
 10
17.87787225036464
 20
38.84571591422678
 10
15.50524672991671
 20
38.84571591422678
 10
15.58395939694927
 20
39.5796763598845
 10
17.56969663746741
 20
39.57967635988449
 10
17.71732334684157
 20
41.15966911198297
 10
15.75340373709809
 20
41.15966911198297
 97
        1
330
56B6
 75
     0
 76
     1
 47
0.0265225354961204
 98
        1
 10
15.74642260871314
 20
42.54140343148856
1001
ACAD
1010
0.0
1020
0.0
1030
0.0
1001
AcDbBlockRepETag
1070
     1
1071
      895
1005
56E7
  0
SPLINE
  5
56E8
102
{ACAD_REACTORS
330
56EA
330
56EB
102
}
330
56AC
100
AcDbEntity
  8
APL Border
 62
     8
100
AcDbSpline
210
0.0
220
0.0
230
1.0
 70
     8
 71
     3
 72
    12
 73
     8
 74
     0
 42
0.0000000001
 43
0.0000000001
 40
0.0
 40
0.0
 40
0.0
 40
0.0
 40
0.6153828260925694
 40
0.6153828260925694
 40
1.184895113366773
 40
1.184895113366773
 40
1.406874102447421
 40
1.406874102447421
 40
1.406874102447421
 40
1.406874102447421
 10
13.141643811855
 20
41.76981947766621
 30
0.0
 10
12.65093549588437
 20
41.90084145687704
 30
0.0
 10
12.40139116615246
 20
41.94113120867605
 30
0.0
 10
12.08548087756223
 20
41.99544455363318
 30
0.0
 10
11.92864742837253
 20
42.01465504085827
 30
0.0
 10
11.75444086026641
 20
42.02973960983341
 30
0.0
 10
11.75444086026641
 20
42.02973960983341
 30
0.0
 10
11.64369617822672
 20
42.03297741382947
 30
0.0
1001
AcDbBlockRepETag
1070
     1
1071
      898
1005
56E8
  0
LWPOLYLINE
  5
56E9
102
{ACAD_REACTORS
330
56EA
102
}
330
56AC
100
AcDbEntity
  8
APL Border
  6
Continuous
 62
     8
100
AcDbPolyline
 90
        3
 70
     1
 43
0.0
 10
-11.22376129049633
 20
41.69367581194667
 10
-10.87774200114645
 20
40.14955389030274
 10
-11.91769445450297
 20
40.14955389030274
1001
AcDbBlockRepETag
1070
     1
1071
      902
1005
56E9
  0
HATCH
  5
56EA
330
56AC
100
AcDbEntity
  8
APL Border
 62
     8
100
AcDbHatch
 10
0.0
 20
0.0
 30
0.0
210
0.0
220
0.0
230
1.0
  2
SOLID
 70
     1
 71
     1
 91
        2
 92
        7
 72
     0
 73
     1
 93
        8
 10
-9.847253547555595
 20
43.61979184908029
 10
-12.02298966350147
 20
43.61979184908029
 10
-14.82679588919472
 20
37.38083558975206
 10
-12.95240022532295
 20
37.38083558975206
 10
-12.352528740424
 20
38.71565392391761
 10
-10.64639685172309
 20
38.71565392391761
 10
-10.34727999772013
 20
37.38083558975206
 10
-8.449177928734428
 20
37.38083558975207
 97
        1
330
56BB
 92
       22
 72
     0
 73
     1
 93
        3
 10
-11.22376129049633
 20
41.69367581194668
 10
-10.87774200114645
 20
40.14955389030274
 10
-11.91769445450297
 20
40.14955389030274
 97
        1
330
56E9
 75
     0
 76
     1
 47
0.0464409783890934
 98
        3
 10
-10.7866676671747
 20
42.18285929720354
 10
-10.7866676671747
 20
42.18285929720354
 10
4.318789658947025
 20
41.34692151769582
1001
ACAD
1010
0.0
1020
0.0
1030
0.0
1001
AcDbBlockRepETag
1070
     1
1071
      903
1005
56EA
  0
HATCH
  5
56EB
330
56AC
100
AcDbEntity
  8
APL Border
 62
     8
100
AcDbHatch
 10
0.0
 20
0.0
 30
0.0
210
0.0
220
0.0
230
1.0
  2
SOLID
 70
     1
 71
     1
 91
        1
 92
        5
 93
        9
 72
     4
 94
        3
 73
     0
 74
     0
 95
       25
 96
       21
 40
0.0289432764998855
 40
0.0289432764998855
 40
0.0289432764998855
 40
0.0289432764998855
 40
0.7134165119202287
 40
1.411731005087882
 40
2.041147618059464
 40
3.036171077105474
 40
3.957911241576911
 40
4.83592253147705
 40
5.676684481733094
 40
6.271141751551381
 40
6.974058201941041
 40
7.825808739104269
 40
8.5265481701528
 40
9.125733480364379
 40
9.891766509798275
 40
10.6767880070383
 40
11.66821110410527
 40
12.42950909475574
 40
13.09855121203093
 40
13.70132750762923
 40
13.70132750762923
 40
13.70132750762923
 40
13.70132750762923
 10
13.141643811855
 20
43.40554077871886
 10
12.91988216430481
 20
43.459256627421
 10
12.47168844867874
 20
43.5669624691983
 10
11.80600758681791
 20
43.66484839798013
 10
11.02988777388427
 20
43.6649333207477
 10
10.1361516270939
 20
43.55263717791944
 10
9.306733533720876
 20
43.19741938393827
 10
8.599762003673276
 20
42.45478219212527
 10
8.236440109363229
 20
41.77191325718488
 10
8.073464067873601
 20
41.07996170309042
 10
8.007035995439764
 20
40.3638923215899
 10
7.98103501985804
 20
39.60493317412716
 10
8.107710769833204
 20
38.92055182387923
 10
8.442098079777224
 20
38.21445924826959
 10
9.036296716232907
 20
37.66873436641545
 10
9.909689132144507
 20
37.42421376773082
 10
10.75775873959412
 20
37.35554609345542
 10
11.56487972715851
 20
37.38454149767491
 10
12.23983007222788
 20
37.44815687239099
 10
12.66077873273661
 20
37.49837935861893
 10
12.86026661033734
 20
37.52234731786496
 72
     1
 10
12.86026661033734
 20
37.52234731786496
 11
13.23839963312048
 21
41.04826877857415
 72
     1
 10
13.23839963312048
 20
41.04826877857415
 11
11.12639005748273
 21
41.04826877857415
 72
     1
 10
11.12639005748273
 20
41.04826877857415
 11
10.96889270630695
 21
39.57967635988449
 72
     1
 10
10.96889270630695
 20
39.57967635988449
 11
11.39962533929804
 21
39.57967635988449
 72
     1
 10
11.39962533929804
 20
39.57967635988449
 11
11.33360452536307
 21
38.96406177273883
 72
     4
 94
        3
 73
     0
 74
     0
 95
       19
 96
       15
 40
1.529304964685562
 40
1.529304964685562
 40
1.529304964685562
 40
1.529304964685562
 40
1.763981165818448
 40
2.06379851215709
 40
2.386700017314354
 40
2.753069149612017
 40
3.181918037271135
 40
3.768421453867451
 40
4.325591611844758
 40
5.021152851646889
 40
5.521935404920329
 40
5.929637176310238
 40
6.454411479904243
 40
6.957123473051371
 40
6.957123473755098
 40
6.957123473755098
 40
6.957123473755098
 10
11.33360452536307
 20
38.96406177273881
 10
11.24302802126629
 20
38.95177692242413
 10
10.99026249243499
 20
38.92783484269152
 10
10.70216182646531
 20
38.92661434152812
 10
10.3797311442331
 20
38.98358798973799
 10
10.00680770225198
 20
39.09661486818469
 10
9.716968816830743
 20
39.48770259248511
 10
9.641062203095145
 20
40.05806431643046
 10
9.717431528044755
 20
40.66388266631498
 10
9.854221329784113
 20
41.27113304911427
 10
10.23036575101369
 20
41.67654609785123
 10
10.65553906793815
 20
41.91613810684326
 10
11.13485165915975
 20
42.01473204050012
 10
11.47589856643677
 20
42.04574754506741
 10
11.64369617822672
 20
42.03297741382947
 72
     4
 94
        3
 73
     0
 74
     0
 95
       12
 96
        8
 40
0.0
 40
0.0
 40
0.0
 40
0.0
 40
0.2219789890806476
 40
0.2219789890806476
 40
0.7914912763548521
 40
0.7914912763548521
 40
1.406874102447421
 40
1.406874102447421
 40
1.406874102447421
 40
1.406874102447421
 10
11.64369617822672
 20
42.03297741382947
 10
11.75444086026641
 20
42.02973960983341
 10
11.75444086026641
 20
42.02973960983341
 10
11.92864742837253
 20
42.01465504085827
 10
12.08548087756223
 20
41.99544455363318
 10
12.40139116615246
 20
41.94113120867605
 10
12.65093549588437
 20
41.90084145687704
 10
13.141643811855
 20
41.76981947766621
 72
     1
 10
13.14164381185501
 20
41.76981947766621
 11
13.141643811855
 21
43.40554077871886
 97
        5
330
56B4
330
56B8
330
56B5
330
56E8
330
56B7
 75
     0
 76
     1
 47
0.0464409783890934
 98
        3
 10
-10.7866676671747
 20
42.18285929720354
 10
4.318789658947025
 20
41.34692151769582
 10
10.26801654887663
 20
42.50794595375691
1001
ACAD
1010
0.0
1020
0.0
1030
0.0
1001
AcDbBlockRepETag
1070
     1
1071
      904
1005
56EB
  0
HATCH
  5
56EC
330
56AC
100
AcDbEntity
  8
APL Border
 62
     8
100
AcDbHatch
 10
0.0
 20
0.0
 30
0.0
210
0.0
220
0.0
230
1.0
  2
SOLID
 70
     1
 71
     1
 91
        2
 92
        7
 72
     0
 73
     1
 93
        8
 10
6.582554574553399
 20
43.61979184908029
 10
4.406818458607519
 20
43.6197918490803
 10
1.603012232914266
 20
37.38083558975206
 10
3.477407896786048
 20
37.38083558975206
 10
4.077279381684999
 20
38.71565392391761
 10
5.783411270385895
 20
38.71565392391761
 10
6.082528124388858
 20
37.38083558975206
 10
7.980630193374566
 20
37.38083558975207
 97
        1
330
56CC
 92
       22
 72
     0
 73
     1
 93
        3
 10
5.206046831612668
 20
41.69367581194667
 10
5.552066120962536
 20
40.14955389030274
 10
4.512113667606024
 20
40.14955389030274
 97
        1
330
56CD
 75
     0
 76
     1
 47
0.0464409783890934
 98
        3
 10
-10.7866676671747
 20
42.18285929720354
 10
4.318789658947025
 20
41.34692151769582
 10
4.318789658947025
 20
41.34692151769582
1001
ACAD
1010
0.0
1020
0.0
1030
0.0
1001
AcDbBlockRepETag
1070
     1
1071
      905
1005
56EC
  0
HATCH
  5
56ED
330
56AC
100
AcDbEntity
  8
APL Border
 62
     8
100
AcDbHatch
 10
0.0
 20
0.0
 30
0.0
210
0.0
220
0.0
230
1.0
  2
SOLID
 70
     1
 71
     1
 91
       11
 92
        7
 72
     0
 73
     1
 93
        4
 10
-16.33747952551644
 20
35.29789574745092
 10
-12.98884796421712
 20
29.49789574745095
 10
12.98916617047902
 20
29.49789574745094
 10
16.33779773177886
 20
35.29789574745093
 97
        1
330
56BD
 92
       22
 72
     0
 73
     1
 93
        8
 10
-10.50084997043805
 20
34.02289574745092
 10
-9.555761072109191
 20
34.02289574745092
 10
-8.834065309397374
 20
31.02289574745093
 10
-9.641122936515984
 20
31.02289574745093
 10
-9.86222995755253
 20
31.94201027933759
 10
-10.74455961985978
 20
31.94201027933758
 10
-11.20867717380426
 20
31.02289574745093
 10
-12.01573480092304
 20
31.02289574745093
 97
        1
330
56C9
 92
        6
 72
     0
 73
     1
 93
        3
 10
-10.14693849009504
 20
33.12550842600547
 10
-10.00044093617224
 20
32.51653621849666
 10
-10.45444607654239
 20
32.51653621849665
 97
        1
330
56C8
 92
       22
 72
     0
 73
     1
 93
        6
 10
-8.326765119961606
 20
34.02289574745092
 10
-7.549934049473819
 20
34.02289574745092
 10
-7.777198851462713
 20
31.73039516316516
 10
-6.700109532938454
 20
31.73039516316516
 10
-6.770246795158442
 20
31.02289574745093
 10
-8.624167184170486
 20
31.02289574745092
 97
        1
330
56C7
 92
       20
 93
       13
 72
     1
 10
-6.13042511277439
 20
34.02488019433461
 11
-5.353790768486449
 21
34.02289574745093
 72
     1
 10
-5.353790768486449
 20
34.02289574745093
 11
-5.5356280948821
 21
32.18709291744541
 72
     4
 94
        3
 73
     0
 74
     0
 95
       24
 96
       20
 40
0.0
 40
0.0
 40
0.0
 40
0.0
 40
0.1612668085855933
 40
0.2532303870616441
 40
0.3214574742553387
 40
0.4101806452459026
 40
0.5031588697521256
 40
0.5664511009171887
 40
0.624871878778038
 40
0.6731644290699905
 40
0.7797386132933425
 40
0.9206747739903356
 40
1.025058962643435
 40
1.116412352300609
 40
1.212929457806147
 40
1.276240530363035
 40
1.339961572016457
 40
1.386280507025952
 40
1.435584820291647
 40
1.435584820291647
 40
1.435584820291647
 40
1.435584820291647
 10
-5.535628094882099
 20
32.1870929174454
 10
-5.53213414748617
 20
32.13312332644234
 10
-5.526647751003197
 20
32.04837718097616
 10
-5.488860432547518
 20
31.94683424540268
 10
-5.447171648840961
 20
31.8753242559261
 10
-5.395818187958767
 20
31.80737001333622
 10
-5.320761662408248
 20
31.77062767698265
 10
-5.254477128417399
 20
31.74466351916423
 10
-5.200112096792143
 20
31.72723210184819
 10
-5.128888988289486
 20
31.72198763189771
 10
-5.030042811850907
 20
31.72786870372271
 10
-4.915707066470194
 20
31.75812586881066
 10
-4.815771266393483
 20
31.81405298527762
 10
-4.754740567305573
 20
31.89193427605802
 10
-4.71467399544198
 20
31.96546823314959
 10
-4.683526695854578
 20
32.03313813212702
 10
-4.662006183068958
 20
32.08703079743258
 10
-4.651792807669443
 20
32.13930455656534
 10
-4.647206914869654
 20
32.17083533130903
 10
-4.644842382192905
 20
32.1870929174454
 72
     1
 10
-4.644842382192908
 20
32.18709291744538
 11
-4.462655138951674
 21
34.0248801943346
 72
     1
 10
-4.462655138951674
 20
34.0248801943346
 11
-3.685824068463886
 21
34.0248801943346
 72
     1
 10
-3.685824068463886
 20
34.0248801943346
 11
-3.889225876952792
 21
31.97309408084612
 72
     2
 10
-5.35367831607159
 20
32.29400281725688
 40
1.499200908332752
 50
12.35998596222624
 51
34.57361697223234
 73
     0
 72
     2
 10
-4.942942423735221
 20
32.00494866311196
 40
0.9969860617863467
 50
34.29038331790704
 51
79.42991665428312
 73
     0
 72
     1
 10
-4.760057203160528
 20
31.0248801943346
 11
-5.510404689928634
 21
31.02488019433462
 72
     2
 10
-5.403812384664131
 20
31.8164328281441
 40
0.7986973717449786
 50
97.66944495435136
 51
120.898786067779
 73
     0
 72
     2
 10
-5.173141343771899
 20
32.14234761068797
 40
1.197202176515717
 50
122.3618931068037
 51
141.2515245137382
 73
     0
 72
     2
 10
-5.389471681131198
 20
32.00817328375058
 40
0.9450065449727091
 50
139.3862736078239
 51
177.8726579657922
 73
     0
 72
     1
 10
-6.333826921263238
 20
31.9730940808461
 11
-6.13042511277439
 21
34.02488019433461
 97
        2
330
56CF
330
56D0
 92
       22
 72
     0
 73
     1
 93
       13
 10
-3.14734900486158
 20
34.02825593571061
 10
-2.047349004861559
 20
34.02825593571061
 10
-1.827245318565901
 20
32.52441131541936
 10
-1.295012624591634
 20
34.02807364104484
 10
-0.1975458970834157
 20
34.0280551402308
 10
-0.4949479612922965
 20
31.0280551402308
 10
-1.115886909891883
 20
31.02805514023081
 10
-0.9222174129992312
 20
32.98166797820307
 10
-1.611942464131546
 20
31.02805514023081
 10
-2.344230471214956
 20
31.0280551402308
 10
-2.630162529241629
 20
32.98166797820306
 10
-2.823832026134283
 20
31.02805514023081
 10
-3.444770974733871
 20
31.0280551402308
 97
        1
330
56D2
 92
       22
 72
     0
 73
     1
 93
        4
 10
0.342591724648486
 20
34.02289574745092
 10
1.119422795136273
 20
34.02289574745092
 10
0.822020730927392
 20
31.02289574745093
 10
0.045189660439604
 20
31.02289574745093
 97
        1
330
56C1
 92
       22
 72
     0
 73
     1
 93
       10
 10
1.724974710806094
 20
34.02289574745093
 10
2.57655809816546
 20
34.02269495197112
 10
3.395920304875375
 20
32.17298478610545
 10
3.580266230192904
 20
34.02269495197112
 10
4.200228460647139
 20
34.02269495197112
 10
3.902826396438257
 20
31.02269495197112
 10
3.051434648859951
 20
31.02269495197112
 10
2.231899581960561
 20
32.87279534971117
 10
2.048491689533392
 20
31.02269495197111
 10
1.427552740933804
 20
31.02269495197111
 97
        1
330
56D3
 92
       22
 72
     0
 73
     1
 93
        4
 10
4.838699321647566
 20
34.02289574745092
 10
5.615530392135354
 20
34.02289574745092
 10
5.318128327926473
 20
31.02289574745093
 10
4.541297257438685
 20
31.02289574745093
 97
        1
330
56CE
 92
       20
 93
       13
 72
     1
 10
6.192756492920892
 20
34.02289574745092
 11
6.969390837208833
 21
34.02091130056725
 72
     1
 10
6.969390837208833
 20
34.02091130056725
 11
6.787553510813181
 21
32.18510847056173
 72
     4
 94
        3
 73
     0
 74
     0
 95
       24
 96
       20
 40
0.0
 40
0.0
 40
0.0
 40
0.0
 40
0.1612668085856004
 40
0.2532303870616512
 40
0.3214574742553458
 40
0.4101806452458731
 40
0.5031588697521455
 40
0.5664511009172086
 40
0.6248718787780579
 40
0.6731644290699537
 40
0.7797386132933625
 40
0.9206747739903555
 40
1.025058962643406
 40
1.116412352300617
 40
1.212929457806155
 40
1.276240530363043
 40
1.339961572016455
 40
1.386280507025956
 40
1.435584820291643
 40
1.435584820291643
 40
1.435584820291643
 40
1.435584820291643
 10
6.787553510813182
 20
32.18510847056172
 10
6.791047458209138
 20
32.13113887955868
 10
6.796533854692151
 20
32.04639273409249
 10
6.834321173147815
 20
31.944849798519
 10
6.876009956854381
 20
31.87333980904244
 10
6.927363417736517
 20
31.80538556645249
 10
7.002419943287081
 20
31.76864323009899
 10
7.068704477277941
 20
31.74267907228055
 10
7.123069508903178
 20
31.72524765496452
 10
7.194292617405833
 20
31.72000318501404
 10
7.293138793844411
 20
31.72588425683904
 10
7.407474539225143
 20
31.75614142192696
 10
7.507410339301799
 20
31.81206853839398
 10
7.568441038389779
 20
31.88994982917431
 10
7.608507610253345
 20
31.96348378626593
 10
7.639654909840775
 20
32.03115368524333
 10
7.661175422626328
 20
32.08504635054892
 10
7.671388798025919
 20
32.13732010968165
 10
7.675974690825655
 20
32.16885088442535
 10
7.678339223502376
 20
32.18510847056172
 72
     1
 10
7.678339223502373
 20
32.1851084705617
 11
7.860526466743608
 21
34.02289574745092
 72
     1
 10
7.860526466743608
 20
34.02289574745092
 11
8.637357537231395
 21
34.02289574745092
 72
     1
 10
8.637357537231395
 20
34.02289574745092
 11
8.433955728742489
 21
31.97110963396244
 72
     2
 10
6.969503289623695
 20
32.29201837037321
 40
1.499200908332751
 50
12.35998596222655
 51
34.57361697220028
 73
     0
 72
     2
 10
7.38023918196006
 20
32.00296421622829
 40
0.9969860617863467
 50
34.2903833178587
 51
79.42991665428322
 73
     0
 72
     1
 10
7.563124402534754
 20
31.02289574745093
 11
6.812776915766647
 21
31.02289574745094
 72
     2
 10
6.919369221031151
 20
31.81444838126043
 40
0.7986973717449786
 50
97.66944495435136
 51
120.898786067779
 73
     0
 72
     2
 10
7.150040261923383
 20
32.14036316380429
 40
1.197202176515717
 50
122.3618931068037
 51
141.2515245137382
 73
     0
 72
     2
 10
6.933709924564084
 20
32.0061888368669
 40
0.9450065449727091
 50
139.3862736078239
 51
177.8726579657922
 73
     0
 72
     1
 10
5.989354684432043
 20
31.97110963396243
 11
6.192756492920892
 21
34.02289574745092
 97
        2
330
56D1
330
56D5
 92
       22
 72
     0
 73
     1
 93
       13
 10
9.159497991066102
 20
34.02289574745092
 10
10.25949799106612
 20
34.02289574745092
 10
10.47960167736178
 20
32.51905112715967
 10
11.01183437133604
 20
34.02271345278515
 10
12.10930109884427
 20
34.02269495197111
 10
11.81189903463539
 20
31.02269495197112
 10
11.1909600860358
 20
31.02269495197111
 10
11.38462958292845
 20
32.97630778994339
 10
10.69490453179614
 20
31.02269495197111
 10
9.962616524712728
 20
31.02269495197112
 10
9.676684466686056
 20
32.97630778994339
 10
9.4830149697934
 20
31.02269495197111
 10
8.862076021193814
 20
31.02269495197111
 97
        1
330
56D4
 75
     0
 76
     1
 47
0.0356978143457059
 98
       11
 10
-12.74387987022192
 20
34.13164800304253
 10
-12.74387987022192
 20
34.13164800304253
 10
-12.74387987022192
 20
34.13164800304253
 10
-12.74387987022192
 20
34.13164800304253
 10
-12.74387987022192
 20
34.13164800304253
 10
-12.74387987022192
 20
34.13164800304253
 10
-12.74387987022192
 20
34.13164800304253
 10
-12.74387987022192
 20
34.13164800304253
 10
-12.74387987022192
 20
34.13164800304253
 10
-12.74387987022192
 20
34.13164800304253
 10
-12.74387987022192
 20
34.13164800304253
1001
ACAD
1010
0.0
1020
0.0
1030
0.0
1001
AcDbBlockRepETag
1070
     1
1071
      906
1005
56ED
  0
ENDBLK
  5
56EE
330
56AC
100
AcDbEntity
  8
0
 62
     9
100
AcDbBlockEnd
  0
ENDSEC
  0
SECTION
  2
ENTITIES
  0
INSERT
  5
380F
330
1F
100
AcDbEntity
  8
APL Joinery
100
AcDbBlockReference
  2
08600
 10
22.98290416894019
 20
57.20257909688519
 30
0.0
 41
-1.0
 50
270.0
  0
INSERT
  5
3F35
330
1F
100
AcDbEntity
  8
0
100
AcDbBlockReference
  2
a4 specifiers manual
 10
0.0
 20
0.0
 30
0.0
  0
INSERT
  5
4875
330
1F
100
AcDbEntity
  8
APL Joinery
100
AcDbBlockReference
  2
08600
 10
104.6158702430704
 20
145.6820855288376
 30
0.0
 43
2.0
  0
INSERT
  5
4880
330
1F
100
AcDbEntity
  8
APL Joinery
100
AcDbBlockReference
  2
08600
 10
104.6158702430704
 20
455.2493912049031
 30
0.0
 41
-1.0
 43
2.0
 50
180.0
  0
INSERT
  5
49DB
330
1F
100
AcDbEntity
  8
APL Joinery
100
AcDbBlockReference
  2
08630Glaze
 10
100.1158702430704
 20
166.6820855288376
 30
0.0
  0
INSERT
  5
49DC
330
1F
100
AcDbEntity
  8
APL Joinery
100
AcDbBlockReference
  2
08630Glaze
 10
100.1158702430704
 20
223.6309007475793
 30
0.0
 41
-1.0
 50
180.0
  0
INSERT
  5
4A00
330
1F
100
AcDbEntity
  8
APL Joinery
100
AcDbBlockReference
  2
19mmliner
 10
154.6158702430704
 20
171.6820855288376
 30
0.0
  0
INSERT
  5
4A02
330
1F
100
AcDbEntity
  8
APL Joinery
100
AcDbBlockReference
  2
19mmliner
 10
154.6158702430704
 20
429.249391204903
 30
0.0
 41
-1.0
 50
180.0
  0
INSERT
  5
4A0E
330
1F
100
AcDbEntity
  8
APL Joinery
100
AcDbBlockReference
  2
08655Sash
 10
43.9829041689402
 20
52.70257909688516
 30
0.0
  0
INSERT
  5
4A10
330
1F
100
AcDbEntity
  8
APL Joinery
100
AcDbBlockReference
  2
08655Sash
 10
231.851496109951
 20
52.70257909688516
 30
0.0
 41
-1.0
  0
INSERT
  5
4A13
330
1F
100
AcDbEntity
  8
APL Joinery
100
AcDbBlockReference
  2
08655Sash
 10
261.8514961085255
 20
52.70257909688516
 30
0.0
  0
INSERT
  5
4A18
330
1F
100
AcDbEntity
  8
APL Joinery
100
AcDbBlockReference
  2
19mmliner
 10
48.48290416894011
 20
107.2025790968852
 30
0.0
 41
-1.0
 50
270.0
  0
INSERT
  5
4A19
330
1F
100
AcDbEntity
  8
APL Joinery
100
AcDbBlockReference
  2
08655Sash
 10
100.1158702430704
 20
253.6309007461539
 30
0.0
 41
-1.0
 50
270.0
  0
INSERT
  5
4A1E
330
1F
100
AcDbEntity
  8
APL Joinery
100
AcDbBlockReference
  2
08655Sash
 10
100.1158702430704
 20
434.2493912049032
 30
0.0
 50
270.0
  0
LINE
  5
4A8B
330
1F
100
AcDbEntity
  8
APL Notes
 62
     2
100
AcDbLine
 10
224.4009832519047
 20
400.5601441911414
 30
0.0
 11
315.6393832519049
 21
400.5601441911416
 31
0.0
  0
LINE
  5
4A8C
330
1F
100
AcDbEntity
  8
APL Notes
 62
     2
100
AcDbLine
 10
226.3017832519047
 20
398.6593441911414
 30
0.0
 11
313.7385832519047
 21
398.6593441911414
 31
0.0
  0
LINE
  5
4A8D
330
1F
100
AcDbEntity
  8
APL Notes
 62
     2
100
AcDbLine
 10
224.4009832519047
 20
400.5601441911413
 30
0.0
 11
224.4009832519047
 21
307.4209441911415
 31
0.0
  0
LINE
  5
4A8E
330
1F
100
AcDbEntity
  8
APL Notes
 62
     2
100
AcDbLine
 10
226.3017832519047
 20
398.6593441911414
 30
0.0
 11
226.3017832519047
 21
309.3217441911415
 31
0.0
  0
LINE
  5
4A8F
330
1F
100
AcDbEntity
  8
APL Notes
 62
     2
100
AcDbLine
 10
269.0697832519047
 20
398.6593441911414
 30
0.0
 11
269.0697832519047
 21
355.8913441911415
 31
0.0
  0
LINE
  5
4A90
330
1F
100
AcDbEntity
  8
APL Notes
 62
     2
100
AcDbLine
 10
270.9705832519047
 20
398.6593441911414
 30
0.0
 11
270.9705832519047
 21
355.8913441911415
 31
0.0
  0
LINE
  5
4A91
330
1F
100
AcDbEntity
  8
APL Notes
 62
     2
100
AcDbLine
 10
226.3017832519047
 20
355.8913441911415
 30
0.0
 11
226.3017832519047
 21
355.8913441911415
 31
0.0
  0
LINE
  5
4A92
330
1F
100
AcDbEntity
  8
APL Notes
 62
     2
100
AcDbLine
 10
226.3017832519047
 20
355.8913441911415
 30
0.0
 11
313.7385832519047
 21
355.8913441911415
 31
0.0
  0
LINE
  5
4A93
330
1F
100
AcDbEntity
  8
APL Notes
 62
     2
100
AcDbLine
 10
228.2025832519047
 20
396.7585441911414
 30
0.0
 11
267.1689832519046
 21
396.7585441911415
 31
0.0
  0
LINE
  5
4A94
330
1F
100
AcDbEntity
  8
APL Notes
 62
     2
100
AcDbLine
 10
228.2025832519047
 20
357.7921441911414
 30
0.0
 11
267.1689832519046
 21
357.7921441911414
 31
0.0
  0
LINE
  5
4A95
330
1F
100
AcDbEntity
  8
APL Notes
 62
     2
100
AcDbLine
 10
228.2025832519047
 20
396.7585441911414
 30
0.0
 11
228.2025832519047
 21
357.7921441911414
 31
0.0
  0
LINE
  5
4A96
330
1F
100
AcDbEntity
  8
APL Notes
 62
     2
100
AcDbLine
 10
228.2025832519047
 20
357.7921441911414
 30
0.0
 11
226.3017832519047
 21
355.8913441911415
 31
0.0
  0
LINE
  5
4A97
330
1F
100
AcDbEntity
  8
APL Notes
 62
     2
100
AcDbLine
 10
224.4009832519047
 20
400.5601441911414
 30
0.0
 11
228.2025832519047
 21
396.7585441911414
 31
0.0
  0
LINE
  5
4A98
330
1F
100
AcDbEntity
  8
APL Notes
 62
     2
100
AcDbLine
 10
267.1689832519046
 20
396.7585441911414
 30
0.0
 11
267.1689832519046
 21
357.7921441911414
 31
0.0
  0
LINE
  5
4A99
330
1F
100
AcDbEntity
  8
APL Notes
 62
     2
100
AcDbLine
 10
267.1689832519046
 20
357.7921441911414
 30
0.0
 11
269.0697832519047
 21
355.8913441911415
 31
0.0
  0
LINE
  5
4A9A
330
1F
100
AcDbEntity
  8
APL Notes
 62
     2
100
AcDbLine
 10
267.1689832519046
 20
396.7585441911415
 30
0.0
 11
269.0697832519047
 21
398.6593441911414
 31
0.0
  0
LINE
  5
4A9B
330
1F
100
AcDbEntity
  8
APL Notes
  6
DASHED
 62
     7
 48
30.0
100
AcDbLine
 10
228.2025832519047
 20
396.7585441911414
 30
0.0
 11
247.6857832519047
 21
357.7921441911414
 31
0.0
  0
LINE
  5
4A9C
330
1F
100
AcDbEntity
  8
APL Notes
 62
     9
100
AcDbLine
 10
247.6857832519047
 20
357.7921441911414
 30
0.0
 11
247.6857832519047
 21
357.7921441911414
 31
0.0
  0
LINE
  5
4A9D
330
1F
100
AcDbEntity
  8
APL Notes
  6
DASHED
 62
     7
 48
30.0
100
AcDbLine
 10
247.6857832519047
 20
357.7921441911414
 30
0.0
 11
267.1689832519046
 21
396.7585441911414
 31
0.0
  0
LINE
  5
4A9E
330
1F
100
AcDbEntity
  8
APL Notes
 62
     2
100
AcDbLine
 10
270.9705832519047
 20
398.6593441911414
 30
0.0
 11
270.9705832519047
 21
355.8913441911415
 31
0.0
  0
LINE
  5
4A9F
330
1F
100
AcDbEntity
  8
APL Notes
 62
     2
100
AcDbLine
 10
313.7385832519047
 20
398.6593441911414
 30
0.0
 11
313.7385832519047
 21
353.9905441911415
 31
0.0
  0
LINE
  5
4AA0
330
1F
100
AcDbEntity
  8
APL Notes
  6
DASHED
 62
     7
 48
30.0
100
AcDbLine
 10
292.3545832519047
 20
357.7921441911414
 30
0.0
 11
311.8377832519048
 21
396.7585441911414
 31
0.0
  0
LINE
  5
4AA1
330
1F
100
AcDbEntity
  8
APL Notes
  6
DASHED
 62
     7
 48
30.0
100
AcDbLine
 10
272.8713832519046
 20
396.7585441911414
 30
0.0
 11
292.3545832519047
 21
357.7921441911414
 31
0.0
  0
LINE
  5
4AA2
330
1F
100
AcDbEntity
  8
APL Notes
 62
     2
100
AcDbLine
 10
272.8713832519046
 20
396.7585441911414
 30
0.0
 11
272.8713832519046
 21
357.7921441911414
 31
0.0
  0
LINE
  5
4AA3
330
1F
100
AcDbEntity
  8
APL Notes
 62
     2
100
AcDbLine
 10
311.8377832519048
 20
396.7585441911414
 30
0.0
 11
311.8377832519048
 21
357.7921441911414
 31
0.0
  0
LINE
  5
4AA4
330
1F
100
AcDbEntity
  8
APL Notes
 62
     2
100
AcDbLine
 10
272.8713832519046
 20
357.7921441911414
 30
0.0
 11
311.8377832519048
 21
357.7921441911414
 31
0.0
  0
LINE
  5
4AA5
330
1F
100
AcDbEntity
  8
APL Notes
 62
     2
100
AcDbLine
 10
272.8713832519046
 20
357.7921441911414
 30
0.0
 11
270.9705832519047
 21
355.8913441911415
 31
0.0
  0
LINE
  5
4AA6
330
1F
100
AcDbEntity
  8
APL Notes
 62
     9
100
AcDbLine
 10
292.3545832519047
 20
357.7921441911414
 30
0.0
 11
292.3545832519047
 21
357.7921441911414
 31
0.0
  0
LINE
  5
4AA7
330
1F
100
AcDbEntity
  8
APL Notes
 62
     2
100
AcDbLine
 10
311.8377832519048
 20
357.7921441911414
 30
0.0
 11
313.7385832519047
 21
355.8913441911415
 31
0.0
  0
LINE
  5
4AA8
330
1F
100
AcDbEntity
  8
APL Notes
 62
     2
100
AcDbLine
 10
272.8713832519046
 20
396.7585441911414
 30
0.0
 11
311.8377832519048
 21
396.7585441911415
 31
0.0
  0
LINE
  5
4AA9
330
1F
100
AcDbEntity
  8
APL Notes
 62
     2
100
AcDbLine
 10
311.8377832519048
 20
396.7585441911415
 30
0.0
 11
315.6393832519049
 21
400.5601441911416
 31
0.0
  0
LINE
  5
4AAA
330
1F
100
AcDbEntity
  8
APL Notes
 62
     2
100
AcDbLine
 10
315.6393832519049
 20
400.5601441911416
 30
0.0
 11
315.6393832519047
 21
353.9905441911415
 31
0.0
  0
LINE
  5
4ABE
330
1F
100
AcDbEntity
  8
APL Notes
 62
     2
100
AcDbLine
 10
272.8713832519046
 20
396.7585441911414
 30
0.0
 11
270.9705832519047
 21
398.6593441911414
 31
0.0
  0
LEADER
  5
4AC8
330
1F
100
AcDbEntity
  8
APL Notes
 62
     8
100
AcDbLeader
  3
ISO-25
 76
     2
 10
216.8082360579955
 20
367.4121425608299
 30
0.0
 10
216.8082360579955
 20
382.61854256083
 30
0.0
1001
ACAD
1000
DSTYLE
1002
{
1070
   147
1040
0.625
1070
    77
1070
     0
1002
}
  0
LINE
  5
4AC9
330
1F
100
AcDbEntity
  8
APL Notes
 62
     8
100
AcDbLine
 10
235.7777720640033
 20
382.6185425608299
 30
0.0
 11
216.8082360579954
 21
382.6185425608299
 31
0.0
  0
LEADER
  5
4ACA
330
1F
100
AcDbEntity
  8
APL Notes
 62
     8
100
AcDbLeader
  3
ISO-25
 76
     2
 10
232.4793832519047
 20
408.155962436203
 30
0.0
 10
247.6857832519047
 20
408.155962436203
 30
0.0
211
-0.0000000000000002
221
-1.0
231
0.0
1001
ACAD
1000
DSTYLE
1002
{
1070
   147
1040
0.625
1070
    77
1070
     0
1002
}
  0
LINE
  5
4ACB
330
1F
100
AcDbEntity
  8
APL Notes
 62
     8
100
AcDbLine
 10
247.6857832519047
 20
385.0725789376268
 30
0.0
 11
247.6857832519047
 21
408.155962436203
 31
0.0
  0
LEADER
  5
4ACC
330
1F
100
AcDbEntity
  8
APL Notes
 62
     8
100
AcDbLeader
  3
ISO-25
 76
     2
 10
232.4694354242574
 20
299.9340768483962
 30
0.0
 10
247.6758354242574
 20
299.9340768483962
 30
0.0
211
-0.0000000000000002
221
1.0
231
0.0
210
0.0
220
0.0
230
-1.0
1001
ACAD
1000
DSTYLE
1002
{
1070
   147
1040
0.625
1070
    77
1070
     0
1002
}
  0
LINE
  5
4ACD
330
1F
100
AcDbEntity
  8
APL Notes
 62
     8
100
AcDbLine
 10
247.6758354242574
 20
332.2476768483962
 30
0.0
 11
247.6758354242574
 21
299.9340768483961
 31
0.0
  0
LINE
  5
4AD4
330
1F
100
AcDbEntity
  8
APL Notes
 62
     2
100
AcDbLine
 10
224.4009832519047
 20
307.4209441911415
 30
0.0
 11
315.6393832519049
 21
307.4209441911415
 31
0.0
  0
LINE
  5
4AD5
330
1F
100
AcDbEntity
  8
APL Notes
 62
     2
100
AcDbLine
 10
226.3017832519047
 20
309.3217441911415
 30
0.0
 11
313.7385832519047
 21
309.3217441911415
 31
0.0
  0
LINE
  5
4AD6
330
1F
100
AcDbEntity
  8
APL Notes
 62
     2
100
AcDbLine
 10
226.3017832519047
 20
309.3217441911415
 30
0.0
 11
224.4009832519047
 21
307.4209441911415
 31
0.0
  0
LINE
  5
4AD7
330
1F
100
AcDbEntity
  8
APL Notes
 62
     2
100
AcDbLine
 10
269.0697832519047
 20
353.9905441911415
 30
0.0
 11
269.0697832519047
 21
309.3217441911415
 31
0.0
  0
LINE
  5
4AD8
330
1F
100
AcDbEntity
  8
APL Notes
 62
     2
100
AcDbLine
 10
270.9705832519047
 20
353.9905441911415
 30
0.0
 11
270.9705832519047
 21
309.3217441911415
 31
0.0
  0
LINE
  5
4AD9
330
1F
100
AcDbEntity
  8
APL Notes
 62
     2
100
AcDbLine
 10
313.7385832519047
 20
353.9905441911415
 30
0.0
 11
313.7385832519047
 21
309.3217441911415
 31
0.0
  0
LINE
  5
4ADA
330
1F
100
AcDbEntity
  8
APL Notes
 62
     2
100
AcDbLine
 10
315.6393832519047
 20
353.9905441911415
 30
0.0
 11
315.6393832519049
 21
307.4209441911415
 31
0.0
  0
LINE
  5
4ADD
330
1F
100
AcDbEntity
  8
APL Notes
 62
     2
100
AcDbLine
 10
226.3017832519047
 20
353.9905441911415
 30
0.0
 11
313.7385832519047
 21
353.9905441911415
 31
0.0
  0
LINE
  5
4AE7
330
1F
100
AcDbEntity
  8
APL Notes
 62
     2
100
AcDbLine
 10
313.7385832519047
 20
309.3217441911415
 30
0.0
 11
315.6393832519049
 21
307.4209441911415
 31
0.0
  0
LINE
  5
4AE9
330
1F
100
AcDbEntity
  8
APL Notes
 62
     8
100
AcDbLine
 10
259.593794439806
 20
382.6185425608299
 30
0.0
 11
278.563330445814
 21
382.6185425608299
 31
0.0
  0
LEADER
  5
4AEA
330
1F
100
AcDbEntity
  8
APL Notes
 62
     8
100
AcDbLeader
  3
ISO-25
 76
     2
 10
278.5633304458139
 20
367.4121425608299
 30
0.0
 10
278.5633304458139
 20
382.61854256083
 30
0.0
211
-1.0
221
0.0
231
0.0
210
0.0
220
0.0
230
-1.0
1001
ACAD
1000
DSTYLE
1002
{
1070
   147
1040
0.625
1070
    77
1070
     0
1002
}
  0
TEXT
  5
4AEB
330
1F
100
AcDbEntity
  8
APL Notes
100
AcDbText
 10
214.3905083592267
 20
361.2142525496371
 30
0.0
 40
5.0
  1
B
  7
Arial-Bold
100
AcDbText
  0
TEXT
  5
4AEC
330
1F
100
AcDbEntity
  8
APL Notes
100
AcDbText
 10
276.7171624587033
 20
361.4170124554795
 30
0.0
 40
5.0
  1
B
  7
Arial-Bold
100
AcDbText
  0
TEXT
  5
4AED
330
1F
100
AcDbEntity
  8
APL Notes
100
AcDbText
 10
226.767939355263
 20
405.4739208850565
 30
0.0
 40
5.0
  1
A
  7
Arial-Bold
100
AcDbText
  0
TEXT
  5
4AEE
330
1F
100
AcDbEntity
  8
APL Notes
100
AcDbText
 10
226.9871552184749
 20
297.5503436352317
 30
0.0
 40
5.0
  1
A
  7
Arial-Bold
100
AcDbText
  0
TEXT
  5
4AEF
330
1F
100
AcDbEntity
  8
APL Notes
100
AcDbText
 10
153.9679644806731
 20
300.6750232620584
 30
0.0
 40
5.0
  1
SECTION  A-A
  7
Arial-Bold
100
AcDbText
  0
TEXT
  5
4AF1
330
1F
100
AcDbEntity
  8
APL Notes
100
AcDbText
 10
158.3942253327895
 20
113.3133141821304
 30
0.0
 40
5.0
  1
SECTION  B-B
  7
Arial-Bold
100
AcDbText
  0
INSERT
  5
4C88
330
1F
100
AcDbEntity
  8
APL Joinery
100
AcDbBlockReference
  2
08626
 10
140.1158702430704
 20
238.6309007468667
 30
0.0
  0
INSERT
  5
4C8E
330
1F
100
AcDbEntity
  8
APL Joinery
100
AcDbBlockReference
  2
08614
 10
246.8514961092383
 20
92.70257909688519
 30
0.0
  0
TEXT
  5
4D29
330
1F
100
AcDbEntity
  8
APL Notes
100
AcDbText
 10
142.3987202895031
 20
228.6771869173776
 30
0.0
 40
5.0
  1
span requirements
  7
Arial-Regular
100
AcDbText
  0
TEXT
  5
4D2A
330
1F
100
AcDbEntity
  8
APL Notes
100
AcDbText
 10
142.1158702430704
 20
236.1309007468667
 30
0.0
 40
5.0
  1
Refer to tables for
  7
Arial-Regular
100
AcDbText
  0
TEXT
  5
4D2B
330
1F
100
AcDbEntity
  8
APL Notes
100
AcDbText
 10
142.395147466697
 20
244.130665375825
 30
0.0
 40
5.0
  1
08626 External Fin Transom
  7
Arial-Bold
100
AcDbText
  0
TEXT
  5
4D30
330
1F
100
AcDbEntity
  8
APL Notes
100
AcDbText
 10
253.2362490670038
 20
7.702579096885131
 30
0.0
 40
5.0
  1
span requirements
  7
Arial-Regular
100
AcDbText
  0
TEXT
  5
4D31
330
1F
100
AcDbEntity
  8
APL Notes
100
AcDbText
 10
253.427046116229
 20
15.15629292637419
 30
0.0
 40
5.0
  1
Refer to tables for
  7
Arial-Regular
100
AcDbText
  0
TEXT
  5
4D32
330
1F
100
AcDbEntity
  8
APL Notes
100
AcDbText
 10
253.6178431654541
 20
22.61000675586325
 30
0.0
 40
5.0
  1
08614 External Mullion
  7
Arial-Bold
100
AcDbText
  0
LWPOLYLINE
  5
4D33
330
1F
100
AcDbEntity
  8
APL Notes
100
AcDbPolyline
 90
        4
 70
     1
 43
0.3
 10
201.9679644806731
 20
297.6750232620584
 10
201.9679644806731
 20
308.6750232620584
 10
150.9679644806731
 20
308.6750232620584
 10
150.9679644806731
 20
297.6750232620584
  0
LWPOLYLINE
  5
4D34
330
1F
100
AcDbEntity
  8
APL Notes
100
AcDbPolyline
 90
        4
 70
     1
 43
0.3
 10
206.3942253327896
 20
110.3133141821304
 10
206.3942253327896
 20
121.3133141821304
 10
155.3942253327895
 20
121.3133141821304
 10
155.3942253327895
 20
110.3133141821304
  0
TEXT
  5
4D9B
330
1F
100
AcDbEntity
  8
APL Notes
100
AcDbText
 10
78.69226860596261
 20
454.3743912049031
 30
0.0
 40
5.0
  1
08600
  7
Arial-Bold
 72
     2
 11
98.11587024307039
 21
454.3743912049031
 31
0.0
100
AcDbText
  0
TEXT
  5
4DA3
330
1F
100
AcDbEntity
  8
APL Notes
100
AcDbText
 10
78.69226860596261
 20
420.4554572220814
 30
0.0
 40
5.0
  1
08656
  7
Arial-Bold
 72
     2
 11
98.11587024307039
 21
420.4554572220814
 31
0.0
100
AcDbText
  0
TEXT
  5
4DA4
330
1F
100
AcDbEntity
  8
APL Notes
100
AcDbText
 10
78.07404839559414
 20
374.9377647106427
 30
0.0
 40
5.0
  1
08655
  7
Arial-Bold
 72
     2
 11
97.49765003270193
 21
374.9377647106427
 31
0.0
100
AcDbText
  0
TEXT
  5
4DA5
330
1F
100
AcDbEntity
  8
APL Notes
100
AcDbText
 10
94.4576491981912
 20
351.0769038314883
 30
0.0
 40
5.0
  1
08630
  7
Arial-Bold
 72
     2
 11
113.881250835299
 21
351.0769038314883
 31
0.0
100
AcDbText
  0
TEXT
  5
4DB3
330
1F
100
AcDbEntity
  8
APL Notes
100
AcDbText
 10
78.69226860596261
 20
309.0713222613727
 30
0.0
 40
5.0
  1
08655
  7
Arial-Bold
 72
     2
 11
98.11587024307039
 21
309.0713222613727
 31
0.0
100
AcDbText
  0
TEXT
  5
4DB5
330
1F
100
AcDbEntity
  8
APL Notes
100
AcDbText
 10
78.69226860596261
 20
269.4930475529866
 30
0.0
 40
5.0
  1
08656
  7
Arial-Bold
 72
     2
 11
98.11587024307039
 21
269.4930475529866
 31
0.0
100
AcDbText
  0
TEXT
  5
4DB6
330
1F
100
AcDbEntity
  8
APL Notes
100
AcDbText
 10
94.4576491981912
 20
331.8716009435799
 30
0.0
 40
5.0
  1
08630
  7
Arial-Bold
 72
     2
 11
113.881250835299
 21
331.8716009435799
 31
0.0
100
AcDbText
  0
TEXT
  5
4DB7
330
1F
100
AcDbEntity
  8
APL Notes
100
AcDbText
 10
78.69226860596261
 20
144.8070855288376
 30
0.0
 40
5.0
  1
08600
  7
Arial-Bold
 72
     2
 11
98.11587024307039
 21
144.8070855288376
 31
0.0
100
AcDbText
  0
TEXT
  5
4DB8
330
1F
100
AcDbEntity
  8
APL Notes
100
AcDbText
 10
89.45764919819131
 20
207.4584133741641
 30
0.0
 40
5.0
  1
08630
  7
Arial-Bold
 72
     2
 11
108.8812508352991
 21
207.4584133741641
 31
0.0
100
AcDbText
  0
TEXT
  5
4DB9
330
1F
100
AcDbEntity
  8
APL Notes
100
AcDbText
 10
89.45764919819131
 20
178.2531104862557
 30
0.0
 40
5.0
  1
08630
  7
Arial-Bold
 72
     2
 11
108.8812508352991
 21
178.2531104862557
 31
0.0
100
AcDbText
  0
TEXT
  5
4DBF
330
1F
100
AcDbEntity
  8
APL Notes
100
AcDbText
 10
142.6932750650722
 20
53.03009172346975
 30
0.0
 40
5.0
  1
08630
  7
Arial-Bold
 72
     2
 11
162.1168767021799
 21
53.03009172346975
 31
0.0
100
AcDbText
  0
TEXT
  5
4DC1
330
1F
100
AcDbEntity
  8
APL Notes
100
AcDbText
 10
113.7175235767112
 20
53.03009172346975
 30
0.0
 40
5.0
  1
08630
  7
Arial-Bold
 72
     2
 11
133.141125213819
 21
53.03009172346975
 31
0.0
100
AcDbText
  0
TEXT
  5
4DC2
330
1F
100
AcDbEntity
  8
APL Notes
100
AcDbText
 10
95.74760136347563
 20
94.70257909688507
 30
0.0
 40
5.0
  1
08655
  7
Arial-Bold
 72
     1
 11
105.4594021820295
 21
94.70257909688507
 31
0.0
100
AcDbText
  0
TEXT
  5
4DC3
330
1F
100
AcDbEntity
  8
APL Notes
100
AcDbText
 10
160.6631972783077
 20
94.70257909688507
 30
0.0
 40
5.0
  1
08655
  7
Arial-Bold
 72
     1
 11
170.3749980968616
 21
94.70257909688507
 31
0.0
100
AcDbText
  0
TEXT
  5
4DC4
330
1F
100
AcDbEntity
  8
APL Notes
100
AcDbText
 10
313.6161933030609
 20
94.70257909688507
 30
0.0
 40
5.0
  1
08655
  7
Arial-Bold
 72
     1
 11
323.3279941216148
 21
94.70257909688507
 31
0.0
100
AcDbText
  0
TEXT
  5
4DC7
330
1F
100
AcDbEntity
  8
APL Notes
100
AcDbText
 10
3.559302531832418
 20
62.20257909688519
 30
0.0
 40
5.0
  1
08600
  7
Arial-Bold
 72
     2
 11
22.98290416894019
 21
62.20257909688519
 31
0.0
100
AcDbText
  0
TEXT
  5
4DC8
330
1F
100
AcDbEntity
  8
APL Notes
100
AcDbText
 10
55.06503733320815
 20
45.70257909688524
 30
0.0
 40
5.0
  1
08656
  7
Arial-Bold
 72
     1
 11
64.77683815176203
 21
50.70257909688525
 31
0.0
100
AcDbText
 73
     3
  0
TEXT
  5
4DC9
330
1F
100
AcDbEntity
  8
APL Notes
100
AcDbText
 10
201.3457613085753
 20
45.70257909688524
 30
0.0
 40
5.0
  1
08656
  7
Arial-Bold
 72
     1
 11
211.0575621271291
 21
50.70257909688525
 31
0.0
100
AcDbText
 73
     3
  0
TEXT
  5
4DCA
330
1F
100
AcDbEntity
  8
APL Notes
100
AcDbText
 10
272.9336292727934
 20
45.70257909688524
 30
0.0
 40
5.0
  1
08656
  7
Arial-Bold
 72
     1
 11
282.6454300913473
 21
50.70257909688525
 31
0.0
100
AcDbText
 73
     3
  0
TEXT
  5
4DCB
330
1F
100
AcDbEntity
  8
APL Notes
100
AcDbText
 10
331.5861155162965
 20
53.03009172346975
 30
0.0
 40
5.0
  1
08630
  7
Arial-Bold
 72
     2
 11
351.0097171534042
 21
53.03009172346975
 31
0.0
100
AcDbText
  0
TEXT
  5
4DCE
330
1F
100
AcDbEntity
  8
APL Notes
100
AcDbText
 10
75.11109534538963
 20
413.4554572220814
 30
0.0
 40
5.0
  1
Hopper
  7
Arial-Regular
 72
     2
 11
98.11587024307039
 21
413.4554572220814
 31
0.0
100
AcDbText
  0
TEXT
  5
4DCF
330
1F
100
AcDbEntity
  8
APL Notes
100
AcDbText
 10
73.55584295794078
 20
406.135616424635
 30
0.0
 40
5.0
  1
Adaptor
  7
Arial-Regular
 72
     2
 11
98.11587024307039
 21
406.135616424635
 31
0.0
100
AcDbText
  0
TEXT
  5
4DD1
330
1F
100
AcDbEntity
  8
APL Notes
100
AcDbText
 10
74.48019941357114
 20
368.4101642576575
 30
0.0
 40
5.0
  1
Hopper
  7
Arial-Regular
 72
     2
 11
97.48497431125191
 21
368.4101642576575
 31
0.0
100
AcDbText
  0
TEXT
  5
4DD2
330
1F
100
AcDbEntity
  8
APL Notes
100
AcDbText
 10
81.56410118710457
 20
360.3633949628395
 30
0.0
 40
5.0
  1
Sash
  7
Arial-Regular
 72
     2
 11
97.48497431125191
 21
360.3633949628395
 31
0.0
100
AcDbText
  0
LWPOLYLINE
  5
4E13
330
1F
100
AcDbEntity
  8
APL Joinery
 62
     8
100
AcDbPolyline
 90
        6
 70
     1
 43
0.0
 10
172.8158702430706
 20
429.2493912049029
 10
160.8158702430706
 20
429.2493912049029
 10
160.8158702430706
 20
417.2493912049029
 10
162.3158702430706
 20
417.2493912049029
 10
162.3158702430706
 20
427.749391204903
 10
172.8158702430706
 20
427.7493912049028
  0
INSERT
  5
50D8
330
1F
100
AcDbEntity
  8
APL Joinery
100
AcDbBlockReference
  2
Hopper Catch 1
 10
146.2239420132021
 20
363.7008182660176
 30
0.0
  0
VIEWPORT
  5
4CC7
102
{ACAD_XDICTIONARY
360
561D
102
}
330
4CBF
100
AcDbEntity
 67
     1
  8
0
100
AcDbViewport
 10
99.91724538803099
 20
143.1184201240539
 30
0.0
 40
430.1964563810208
 41
299.4231128286808
 68
     1
 69
     1
 12
99.91724538803099
 22
143.1184201240539
 13
0.0
 23
0.0
 14
10.0
 24
10.0
 15
10.0
 25
10.0
 16
0.0
 26
0.0
 36
1.0
 17
0.0
 27
0.0
 37
0.0
 42
50.0
 43
0.0
 44
0.0
 45
299.4231128286808
 50
0.0
 51
0.0
 72
 20000
 90
    32800
  1

281
     0
 71
     1
 74
     0
110
0.0
120
0.0
130
0.0
111
1.0
121
0.0
131
0.0
112
0.0
122
1.0
132
0.0
 79
     0
146
0.0
  0
VIEWPORT
  5
4CC9
102
{ACAD_XDICTIONARY
360
561F
102
}
330
4CBF
100
AcDbEntity
 67
     1
  8
0
100
AcDbViewport
 10
100.595
 20
131.1899999999999
 30
0.0
 40
178.0
 41
241.9999999999999
 68
     2
 69
     2
 12
176.9915339215157
 22
241.0000045446581
 13
0.0
 23
0.0
 14
10.0
 24
10.0
 15
2.0
 25
2.0
 16
0.0
 26
0.0
 36
1.0
 17
0.0
 27
0.0
 37
0.0
 42
50.0
 43
0.0
 44
0.0
 45
483.9999999999998
 50
0.0
 51
0.0
 72
   100
 90
    32864
  1

281
     0
 71
     1
 74
     0
110
0.0
120
0.0
130
0.0
111
1.0
121
0.0
131
0.0
112
0.0
122
1.0
132
0.0
 79
     0
146
0.0
  0
INSERT
  5
4CCE
330
4CBF
100
AcDbEntity
 67
     1
  8
APL Border
100
AcDbBlockReference
  2
vantage a4 SM border
 10
0.0
 20
0.0
 30
0.0
  0
INSERT
  5
4EE5
330
4CBF
100
AcDbEntity
 67
     1
  8
APL Border
100
AcDbBlockReference
 66
     1
  2
vantage a4 SM attributes (3)
 10
0.0
 20
0.0
 30
0.0
  0
ATTRIB
  5
4EE7
330
4EE5
100
AcDbEntity
 67
     1
  8
APL Border
100
AcDbText
 10
41.78979785863008
 20
272.19
 30
0.0
 40
3.5
  1
40MM WINDOW SERIES
  7
Arial-Bold
100
AcDbAttribute
  2
DRAWINGTITLE_1
 70
     0
  0
ATTRIB
  5
4EE8
330
4EE5
100
AcDbEntity
 67
     1
  8
APL Border
100
AcDbText
 10
41.78979785863008
 20
266.19
 30
0.0
 40
3.5
  1
HOPPER WINDOW
  7
Arial-Bold
100
AcDbAttribute
  2
DRAWINGTITLE_2
 70
     0
  0
ATTRIB
  5
4EE9
330
4EE5
100
AcDbEntity
 67
     1
  8
APL Border
100
AcDbText
 10
41.78979785863008
 20
260.19
 30
0.0
 40
3.0
  1
CROSS SECTION
  7
Arial-Regular
100
AcDbAttribute
  2
DRAWINGTITLE_3
 70
     0
  0
ATTRIB
  5
4EEA
330
4EE5
100
AcDbEntity
 67
     1
  8
APL Border
100
AcDbText
 10
165.845
 20
273.69
 30
0.0
 40
2.5
  1
VC4007-0
  7
Arial-Regular
100
AcDbAttribute
  2
AW123-456
 70
     0
  0
ATTRIB
  5
4EEB
330
4EE5
100
AcDbEntity
 67
     1
  8
APL Border
100
AcDbText
 10
147.5475920873124
 20
257.1899999999999
 30
0.0
 40
2.5
  1
01.06.11
  7
Arial-Regular
 72
     1
 11
154.345
 21
257.1899999999999
 31
0.0
100
AcDbAttribute
  2
24.05.02
 70
     0
  0
ATTRIB
  5
4EEC
330
4EE5
100
AcDbEntity
 67
     1
  8
APL Border
100
AcDbText
 10
175.4174761255116
 20
257.1899999999999
 30
0.0
 40
2.5
  1
1:2
  7
Arial-Regular
 72
     1
 11
177.845
 21
257.1899999999999
 31
0.0
100
AcDbAttribute
  2
1:2
 70
     0
  0
ATTRIB
  5
4EED
330
4EE5
100
AcDbEntity
 67
     1
  8
APL Border
100
AcDbText
 10
11.59500000000001
 20
1.189999999999997
 30
0.0
 40
3.75
  1

  7
Arial-Bold
100
AcDbAttribute
  2
1.2.34
 70
     0
  0
ATTRIB
  5
4EEE
330
4EE5
100
AcDbEntity
 67
     1
  8
APL Border
100
AcDbText
 10
189.595
 20
1.189999999999997
 30
0.0
 40
3.75
  1

  7
Arial-Bold
 72
     2
 11
189.595
 21
1.189999999999997
 31
0.0
100
AcDbAttribute
  2
1.2.34
 70
     0
  0
SEQEND
  5
4EE6
330
4EE5
100
AcDbEntity
 67
     1
  8
APL Border
  0
ENDSEC
  0
SECTION
  2
OBJECTS
  0
DICTIONARY
  5
C
330
0
100
AcDbDictionary
281
     1
  3
ACAD_COLOR
350
4F83
  3
ACAD_GROUP
350
D
  3
ACAD_LAYOUT
350
1A
  3
ACAD_MATERIAL
350
4F59
  3
ACAD_MLEADERSTYLE
350
4FA8
  3
ACAD_MLINESTYLE
350
17
  3
ACAD_PLOTSETTINGS
350
19
  3
ACAD_PLOTSTYLENAME
350
E
  3
ACAD_SCALELIST
350
4F86
  3
ACAD_TABLESTYLE
350
4F84
  3
ACAD_VISUALSTYLE
350
4F72
  3
AcadDim
350
86
  3
ACDB_RECOMPOSE_DATA
350
51E9
  3
ACDBHEADERROUNDTRIPXREC
350
5AB1
  3
AcDbVariableDictionary
350
3B
  3
AEC_PROPERTY_SET_DEFS
350
53D6
  3
DWGPROPS
350
5AB0
  0
DICTIONARY
  5
51EB
330
8
100
AcDbDictionary
280
     1
281
     1
  3
ACAD_XREC_ROUNDTRIP
360
560F
  0
DICTIONARY
  5
4FCE
330
2
100
AcDbDictionary
280
     1
281
     1
  3
ACAD_LAYERSTATES
360
4FCF
  0
DICTIONARY
  5
4FFA
330
10
100
AcDbDictionary
280
     1
281
     1
  3
ACAD_XREC_ROUNDTRIP
360
5610
  3
ADSK_XREC_LAYER_RECONCILED
360
4FFB
  0
DICTIONARY
  5
4FFC
330
2B
100
AcDbDictionary
280
     1
281
     1
  3
ACAD_XREC_ROUNDTRIP
360
5613
  3
ADSK_XREC_LAYER_RECONCILED
360
4FFD
  0
DICTIONARY
  5
4FFE
330
75
100
AcDbDictionary
280
     1
281
     1
  3
ACAD_XREC_ROUNDTRIP
360
5614
  3
ADSK_XREC_LAYER_RECONCILED
360
4FFF
  0
DICTIONARY
  5
5000
330
4B03
100
AcDbDictionary
280
     1
281
     1
  3
ACAD_XREC_ROUNDTRIP
360
5615
  3
ADSK_XREC_LAYER_RECONCILED
360
5001
  0
DICTIONARY
  5
5004
330
4FB2
100
AcDbDictionary
280
     1
281
     1
  3
ACAD_XREC_ROUNDTRIP
360
562E
  3
ADSK_XREC_LAYER_RECONCILED
360
5005
  0
DICTIONARY
  5
56AD
330
56AC
100
AcDbDictionary
280
     1
281
     1
  3
ACAD_SORTENTS
360
56AE
  0
DICTIONARY
  5
56AB
330
56AA
100
AcDbDictionary
280
     1
281
     1
  0
DICTIONARY
  5
561D
330
4CC7
100
AcDbDictionary
280
     1
281
     1
  3
ACAD_XREC_ROUNDTRIP
360
561E
  0
DICTIONARY
  5
561F
330
4CC9
100
AcDbDictionary
280
     1
281
     1
  3
ACAD_XREC_ROUNDTRIP
360
5620
  0
DICTIONARY
  5
4F83
102
{ACAD_REACTORS
330
C
102
}
330
C
100
AcDbDictionary
281
     1
  0
DICTIONARY
  5
D
102
{ACAD_REACTORS
330
C
102
}
330
C
100
AcDbDictionary
281
     1
  0
DICTIONARY
  5
1A
102
{ACAD_REACTORS
330
C
102
}
330
C
100
AcDbDictionary
281
     1
  3
Model
350
22
  3
Vantage A4
350
4CC0
  0
DICTIONARY
  5
4F59
102
{ACAD_REACTORS
330
C
102
}
330
C
100
AcDbDictionary
281
     1
  3
ByBlock
350
4F62
  3
ByLayer
350
4F5A
  3
Global
350
4F6A
  0
DICTIONARY
  5
4FA8
102
{ACAD_REACTORS
330
C
102
}
330
C
100
AcDbDictionary
281
     1
  3
Standard
350
55F8
  0
DICTIONARY
  5
17
102
{ACAD_REACTORS
330
C
102
}
330
C
100
AcDbDictionary
281
     1
  3
Standard
350
18
  0
DICTIONARY
  5
19
102
{ACAD_REACTORS
330
C
102
}
330
C
100
AcDbDictionary
281
     1
  3
A4 Specifier Manual Hardcopy
350
4C54
  3
A4 Specifier Manual PDF
350
4C55
  0
ACDBDICTIONARYWDFLT
  5
E
102
{ACAD_REACTORS
330
C
102
}
330
C
100
AcDbDictionary
281
     1
  3
Normal
350
F
100
AcDbDictionaryWithDefault
340
F
  0
DICTIONARY
  5
4F86
102
{ACAD_REACTORS
330
C
102
}
330
C
100
AcDbDictionary
281
     1
  3
A0
350
4F87
  3
A1
350
4F88
  3
A2
350
4F89
  3
A3
350
4F8A
  3
A4
350
4F8B
  3
A5
350
4F8C
  3
A6
350
4F8D
  3
A7
350
4F8E
  3
A8
350
4F8F
  3
A9
350
4F90
  3
B0
350
4F91
  3
B1
350
4F92
  3
B2
350
4F93
  3
B3
350
4F94
  3
B4
350
4F95
  3
B5
350
4F96
  3
B6
350
4F97
  3
B7
350
4F98
  3
B8
350
4F99
  3
B9
350
4F9A
  3
C0
350
4F9B
  3
C1
350
4F9C
  3
C2
350
4F9D
  3
C3
350
4F9E
  3
C4
350
4F9F
  3
C5
350
4FA0
  3
C6
350
4FA1
  3
C7
350
4FA2
  3
C8
350
4FA3
  3
C9
350
4FA4
  3
D0
350
4FA5
  3
D1
350
4FA6
  3
D2
350
4FA7
  0
DICTIONARY
  5
4F84
102
{ACAD_REACTORS
330
C
102
}
330
C
100
AcDbDictionary
281
     1
  3
Standard
350
4F85
  0
DICTIONARY
  5
4F72
102
{ACAD_REACTORS
330
C
102
}
330
C
100
AcDbDictionary
281
     1
  3
2dWireframe
350
4F78
  3
3D Hidden
350
4F7A
  3
3dWireframe
350
4F79
  3
Basic
350
4F77
  3
Brighten
350
4F7E
  3
ColorChange
350
4F82
  3
Conceptual
350
4F7B
  3
Dim
350
4F7D
  3
Facepattern
350
4F81
  3
Flat
350
4F73
  3
FlatWithEdges
350
4F74
  3
Gouraud
350
4F75
  3
GouraudWithEdges
350
4F76
  3
Linepattern
350
4F80
  3
Realistic
350
4F7C
  3
Thicken
350
4F7F
  0
XRECORD
  5
86
102
{ACAD_REACTORS
330
C
102
}
330
C
100
AcDbXrecord
280
     1
 90
   990106
  3

 60
     0
 61
     0
 62
     1
 63
     3
 64
     0
 65
     0
 66
     0
 67
     3
 68
     1
 69
     0
 70
     0
 71
     0
 72
     0
 40
8.188652110585962
170
     0
  0
XRECORD
  5
51E9
102
{ACAD_REACTORS
330
C
102
}
330
C
100
AcDbXrecord
280
     1
 90
        1
330
4F85
  0
DICTIONARY
  5
5AB1
102
{ACAD_REACTORS
330
C
102
}
330
C
100
AcDbDictionary
281
     1
  0
DICTIONARY
  5
3B
102
{ACAD_REACTORS
330
C
102
}
330
C
100
AcDbDictionary
281
     1
  3
CANNOSCALE
350
521F
  3
CMLEADERSTYLE
350
526C
  3
CTABLESTYLE
350
521E
  3
DIMASSOC
350
3D
  3
HIDETEXT
350
3C
  3
INDEXCTL
350
5221
  3
PROJECTNAME
350
5673
  3
SORTENTS
350
5220
  0
DICTIONARY
  5
53D6
102
{ACAD_REACTORS
330
C
102
}
330
C
100
AcDbDictionary
281
     1
  0
XRECORD
  5
5AB0
102
{ACAD_REACTORS
330
C
102
}
330
C
100
AcDbXrecord
280
     1
  1
DWGPROPS COOKIE
  2

  3

  4

  6

  7

  8
homer
  9

300
=
301
=
302
=
303
=
304
=
305
=
306
=
307
=
308
=
309
=
 40
1.041119722222222
 41
2452286.590325035
 42
2455660.553335371
  1

 90
        0
  0
XRECORD
  5
560F
102
{ACAD_REACTORS
330
51EB
102
}
330
51EB
100
AcDbXrecord
280
     1
102
VTR_0.000_0.000_1.000_1.000_VISUALSTYLE
340
4F78
102
VTR_0.000_0.000_1.000_1.000_GRIDDISPLAY
 70
     3
102
VTR_0.000_0.000_1.000_1.000_GRIDMAJOR
 70
     5
102
VTR_0.000_0.000_1.000_1.000_DEFAULTLIGHTING
280
     1
102
VTR_0.000_0.000_1.000_1.000_DEFAULTLIGHTINGTYPE
 70
     1
102
VTR_0.000_0.000_1.000_1.000_BRIGHTNESS
141
0.0
102
VTR_0.000_0.000_1.000_1.000_CONTRAST
142
0.0
  0
DICTIONARY
  5
4FCF
102
{ACAD_REACTORS
330
4FCE
102
}
330
4FCE
100
AcDbDictionary
281
     1
  0
XRECORD
  5
5610
102
{ACAD_REACTORS
330
4FFA
102
}
330
4FFA
100
AcDbXrecord
280
     1
102
MATERIAL
340
4F6A
  0
XRECORD
  5
4FFB
102
{ACAD_REACTORS
330
4FFA
102
}
330
4FFA
100
AcDbXrecord
280
     1
290
     1
  0
XRECORD
  5
5613
102
{ACAD_REACTORS
330
4FFC
102
}
330
4FFC
100
AcDbXrecord
280
     1
102
MATERIAL
340
4F6A
  0
XRECORD
  5
4FFD
102
{ACAD_REACTORS
330
4FFC
102
}
330
4FFC
100
AcDbXrecord
280
     1
290
     1
  0
XRECORD
  5
5614
102
{ACAD_REACTORS
330
4FFE
102
}
330
4FFE
100
AcDbXrecord
280
     1
102
MATERIAL
340
4F6A
  0
XRECORD
  5
4FFF
102
{ACAD_REACTORS
330
4FFE
102
}
330
4FFE
100
AcDbXrecord
280
     1
290
     1
  0
XRECORD
  5
5615
102
{ACAD_REACTORS
330
5000
102
}
330
5000
100
AcDbXrecord
280
     1
102
MATERIAL
340
4F6A
  0
XRECORD
  5
5001
102
{ACAD_REACTORS
330
5000
102
}
330
5000
100
AcDbXrecord
280
     1
290
     1
  0
XRECORD
  5
562E
102
{ACAD_REACTORS
330
5004
102
}
330
5004
100
AcDbXrecord
280
     1
102
MATERIAL
340
4F6A
  0
XRECORD
  5
5005
102
{ACAD_REACTORS
330
5004
102
}
330
5004
100
AcDbXrecord
280
     1
290
     1
  0
SORTENTSTABLE
  5
56AE
102
{ACAD_REACTORS
330
56AD
102
}
330
56AD
100
AcDbSortentsTable
330
56AC
  0
XRECORD
  5
561E
102
{ACAD_REACTORS
330
561D
102
}
330
561D
100
AcDbXrecord
280
     1
102
VISUALSTYLE
340
4F78
102
GRIDDISPLAY
 70
     0
102
GRIDMAJOR
 70
     5
102
DEFAULTLIGHTING
280
     1
102
DEFAULTLIGHTINGTYPE
 70
     1
102
BRIGHTNESS
141
0.0
102
CONTRAST
142
0.0
102
SHADEPLOT
 70
     0
  0
XRECORD
  5
5620
102
{ACAD_REACTORS
330
561F
102
}
330
561F
100
AcDbXrecord
280
     1
102
VISUALSTYLE
340
4F78
102
GRIDDISPLAY
 70
     0
102
GRIDMAJOR
 70
     5
102
DEFAULTLIGHTING
280
     1
102
DEFAULTLIGHTINGTYPE
 70
     1
102
BRIGHTNESS
141
0.0
102
CONTRAST
142
0.0
102
SHADEPLOT
 70
     0
  0
LAYOUT
  5
22
102
{ACAD_XDICTIONARY
360
5AB2
102
}
102
{ACAD_REACTORS
330
1A
102
}
330
1A
100
AcDbPlotSettings
  1

  2
A4 Specifier Manual.pc3
  4
A4
  6

 40
6.0
 41
5.0
 42
6.97332763671875
 43
5.96832275390625
 44
209.9733276367187
 45
296.9683227539062
 46
10.5
 47
1.0
 48
55.19893561856474
 49
77.41415496436935
140
329.6878846931311
141
251.7976535946928
142
1.0
143
2.0
 70
 11952
 72
     1
 73
     0
 74
     1
  7
A4 Specifier Manual.ctb
 75
    17
147
0.5
148
2.760743696124336
149
26.14788207115953
100
AcDbLayout
  1
Model
 70
     1
 71
     0
 10
0.0
 20
0.0
 11
12.0
 21
9.0
 12
0.0
 22
0.0
 32
0.0
 14
0.0
 24
0.0
 34
0.0
 15
0.0
 25
0.0
 35
0.0
146
0.0
 13
0.0
 23
0.0
 33
0.0
 16
1.0
 26
0.0
 36
0.0
 17
0.0
 27
1.0
 37
0.0
 76
     0
330
1F
331
4E14
  0
LAYOUT
  5
4CC0
102
{ACAD_XDICTIONARY
360
4FD3
102
}
102
{ACAD_REACTORS
330
1A
102
}
330
1A
100
AcDbPlotSettings
  1

  2
\\Aplfp01\APL Technical HP5100 PSLaser
  4
A4
  6

 40
5.027082920074462
 41
5.408084392547607
 42
5.70440673828125
 43
5.365753173828125
 44
209.8886566162109
 45
297.0530090332031
 46
0.0
 47
0.0
 48
0.0
 49
0.0
140
0.0
141
0.0
142
1.0
143
1.0
 70
   176
 72
     1
 73
     0
 74
     5
  7
A4 Specifier Manual.ctb
 75
    16
147
1.0
148
0.0
149
0.0
100
AcDbLayout
  1
Vantage A4
 70
     1
 71
     1
 10
-5.027082920074462
 20
-5.408084392547607
 11
204.8615736961365
 21
291.6449246406555
 12
0.0
 22
0.0
 32
0.0
 14
11.46014299460751
 24
3.285575844812797
 34
-0.0015258207003583
 15
189.6073677543587
 25
282.2033753668244
 35
0.0000000349246037
146
0.0
 13
0.0
 23
0.0
 33
0.0
 16
1.0
 26
0.0
 36
0.0
 17
0.0
 27
1.0
 37
0.0
 76
     0
330
4CBF
331
4CC7
1001
ACAD_PSEXT
1000
\\Aplfp01\APL Technical HP5100 PSLaser
1000
HP LaserJet 5100 PS
1000
APL Technical Office
1000

1070
     0
  0
MATERIAL
  5
4F62
102
{ACAD_XDICTIONARY
360
4F63
102
}
102
{ACAD_REACTORS
330
4F59
102
}
330
4F59
100
AcDbMaterial
  1
ByBlock
 72
     0
 73
     2
 43
0.0008202099737533
 43
0.0
 43
0.0
 43
0.0
 43
0.0
 43
0.0008202099737533
 43
0.0
 43
0.0
 43
0.0
 43
0.0
 43
1.0
 43
0.0
 43
0.0
 43
0.0
 43
0.0
 43
1.0
 77
     0
 78
     2
 47
0.0008202099737533
 47
0.0
 47
0.0
 47
0.0
 47
0.0
 47
0.0008202099737533
 47
0.0
 47
0.0
 47
0.0
 47
0.0
 47
1.0
 47
0.0
 47
0.0
 47
0.0
 47
0.0
 47
1.0
171
     0
172
     2
 49
0.0008202099737533
 49
0.0
 49
0.0
 49
0.0
 49
0.0
 49
0.0008202099737533
 49
0.0
 49
0.0
 49
0.0
 49
0.0
 49
1.0
 49
0.0
 49
0.0
 49
0.0
 49
0.0
 49
1.0
175
     0
176
     2
142
0.0008202099737533
142
0.0
142
0.0
142
0.0
142
0.0
142
0.0008202099737533
142
0.0
142
0.0
142
0.0
142
0.0
142
1.0
142
0.0
142
0.0
142
0.0
142
0.0
142
1.0
179
     0
270
     2
144
0.0008202099737533
144
0.0
144
0.0
144
0.0
144
0.0
144
0.0008202099737533
144
0.0
144
0.0
144
0.0
144
0.0
144
1.0
144
0.0
144
0.0
144
0.0
144
0.0
144
1.0
274
     2
147
0.0008202099737533
147
0.0
147
0.0
147
0.0
147
0.0
147
0.0008202099737533
147
0.0
147
0.0
147
0.0
147
0.0
147
1.0
147
0.0
147
0.0
147
0.0
147
0.0
147
1.0
  0
MATERIAL
  5
4F5A
102
{ACAD_XDICTIONARY
360
4F5B
102
}
102
{ACAD_REACTORS
330
4F59
102
}
330
4F59
100
AcDbMaterial
  1
ByLayer
 72
     0
 73
     2
 43
0.0008202099737533
 43
0.0
 43
0.0
 43
0.0
 43
0.0
 43
0.0008202099737533
 43
0.0
 43
0.0
 43
0.0
 43
0.0
 43
1.0
 43
0.0
 43
0.0
 43
0.0
 43
0.0
 43
1.0
 77
     0
 78
     2
 47
0.0008202099737533
 47
0.0
 47
0.0
 47
0.0
 47
0.0
 47
0.0008202099737533
 47
0.0
 47
0.0
 47
0.0
 47
0.0
 47
1.0
 47
0.0
 47
0.0
 47
0.0
 47
0.0
 47
1.0
171
     0
172
     2
 49
0.0008202099737533
 49
0.0
 49
0.0
 49
0.0
 49
0.0
 49
0.0008202099737533
 49
0.0
 49
0.0
 49
0.0
 49
0.0
 49
1.0
 49
0.0
 49
0.0
 49
0.0
 49
0.0
 49
1.0
175
     0
176
     2
142
0.0008202099737533
142
0.0
142
0.0
142
0.0
142
0.0
142
0.0008202099737533
142
0.0
142
0.0
142
0.0
142
0.0
142
1.0
142
0.0
142
0.0
142
0.0
142
0.0
142
1.0
179
     0
270
     2
144
0.0008202099737533
144
0.0
144
0.0
144
0.0
144
0.0
144
0.0008202099737533
144
0.0
144
0.0
144
0.0
144
0.0
144
1.0
144
0.0
144
0.0
144
0.0
144
0.0
144
1.0
274
     2
147
0.0008202099737533
147
0.0
147
0.0
147
0.0
147
0.0
147
0.0008202099737533
147
0.0
147
0.0
147
0.0
147
0.0
147
1.0
147
0.0
147
0.0
147
0.0
147
0.0
147
1.0
  0
MATERIAL
  5
4F6A
102
{ACAD_XDICTIONARY
360
4F6B
102
}
102
{ACAD_REACTORS
330
4F59
102
}
330
4F59
100
AcDbMaterial
  1
Global
 72
     0
 73
     2
 43
0.0008202099737533
 43
0.0
 43
0.0
 43
0.0
 43
0.0
 43
0.0008202099737533
 43
0.0
 43
0.0
 43
0.0
 43
0.0
 43
1.0
 43
0.0
 43
0.0
 43
0.0
 43
0.0
 43
1.0
 77
     0
 78
     2
 47
0.0008202099737533
 47
0.0
 47
0.0
 47
0.0
 47
0.0
 47
0.0008202099737533
 47
0.0
 47
0.0
 47
0.0
 47
0.0
 47
1.0
 47
0.0
 47
0.0
 47
0.0
 47
0.0
 47
1.0
171
     0
172
     2
 49
0.0008202099737533
 49
0.0
 49
0.0
 49
0.0
 49
0.0
 49
0.0008202099737533
 49
0.0
 49
0.0
 49
0.0
 49
0.0
 49
1.0
 49
0.0
 49
0.0
 49
0.0
 49
0.0
 49
1.0
175
     0
176
     2
142
0.0008202099737533
142
0.0
142
0.0
142
0.0
142
0.0
142
0.0008202099737533
142
0.0
142
0.0
142
0.0
142
0.0
142
1.0
142
0.0
142
0.0
142
0.0
142
0.0
142
1.0
179
     0
270
     2
144
0.0008202099737533
144
0.0
144
0.0
144
0.0
144
0.0
144
0.0008202099737533
144
0.0
144
0.0
144
0.0
144
0.0
144
1.0
144
0.0
144
0.0
144
0.0
144
0.0
144
1.0
274
     2
147
0.0008202099737533
147
0.0
147
0.0
147
0.0
147
0.0
147
0.0008202099737533
147
0.0
147
0.0
147
0.0
147
0.0
147
1.0
147
0.0
147
0.0
147
0.0
147
0.0
147
1.0
  0
ACAD_PROXY_OBJECT
  5
55F8
102
{ACAD_REACTORS
330
4FA8
102
}
330
4FA8
100
AcDbProxyObject
 90
      499
 91
      510
 95
   983063
 70
     0
 93
      618
310
40901902A4063FBFFFFFE000000000000002040AD7A3703D0AD73F4254DD185B99185C99000000000000000104090141901A00000000000004100000000000000041025764000000000000300FC0
340
14
340
0
340
11
340
0
 94
        0
1001
ACAD_MLEADERVER
1070
     2
1001
ACAD
1000
AcRTDxfName
1000
MLEADERSTYLE
1000
AcRTDxfName
1000
MLEADERSTYLE
1000
AcRTDxfName
1000
MLEADERSTYLE
  0
MLINESTYLE
  5
18
102
{ACAD_REACTORS
330
17
102
}
330
17
100
AcDbMlineStyle
  2
STANDARD
 70
     0
  3

 62
   256
 51
90.0
 52
90.0
 71
     2
 49
0.5
 62
   256
  6
BYLAYER
 49
-0.5
 62
   256
  6
BYLAYER
  0
PLOTSETTINGS
  5
4C54
102
{ACAD_XDICTIONARY
360
5AB4
102
}
102
{ACAD_REACTORS
330
19
102
}
330
19
100
AcDbPlotSettings
  1
A4 Specifier Manual Hardcopy
  2
A4 Specifier Manual.pc3
  4
A4
  6

 40
6.0
 41
5.0
 42
6.97332763671875
 43
5.96832275390625
 44
209.9733276367187
 45
296.9683227539062
 46
10.5
 47
-1.0
 48
55.19893561856474
 49
77.41415496436935
140
329.6878846931311
141
251.7976535946928
142
1.0
143
2.0
 70
  1712
 72
     1
 73
     0
 74
     1
  7
A4 specifier manual.ctb
 75
    17
147
0.5
148
2.225667800726114
149
26.13925412475783
  0
PLOTSETTINGS
  5
4C55
102
{ACAD_XDICTIONARY
360
5AB6
102
}
102
{ACAD_REACTORS
330
19
102
}
330
19
100
AcDbPlotSettings
  1
A4 Specifier Manual PDF
  2
Acrobat Distiller.pc3
  4
A4
  6

 40
3.174999952316284
 41
3.174999952316284
 42
3.175003051757812
 43
3.17498779296875
 44
209.9098358154297
 45
297.0318298339844
 46
12.0
 47
3.0
 48
55.19893561856474
 49
77.41415496436935
140
329.6878846931311
141
251.7976535946928
142
1.0
143
2.0
 70
  1712
 72
     1
 73
     0
 74
     1
  7
A4 Specifier Manual.ctb
 75
    17
147
0.5
148
2.231438335389952
149
26.15846035871732
  0
ACDBPLACEHOLDER
  5
F
102
{ACAD_REACTORS
330
E
102
}
330
E
  0
ACAD_PROXY_OBJECT
  5
4F87
102
{ACAD_REACTORS
330
4F86
102
}
330
4F86
100
AcDbProxyObject
 90
      499
 91
      509
 95
   983063
 70
     0
 93
       49
310
904313A3100580
 94
        0
1001
ACAD
1000
AcRTDxfName
1000
SCALE
1000
AcRTDxfName
1000
SCALE
1000
AcRTDxfName
1000
SCALE
  0
ACAD_PROXY_OBJECT
  5
4F88
102
{ACAD_REACTORS
330
4F86
102
}
330
4F86
100
AcDbProxyObject
 90
      499
 91
      509
 95
   983063
 70
     0
 93
      113
310
904313A32004000000000000004040
 94
        0
1001
ACAD
1000
AcRTDxfName
1000
SCALE
1000
AcRTDxfName
1000
SCALE
1000
AcRTDxfName
1000
SCALE
  0
ACAD_PROXY_OBJECT
  5
4F89
102
{ACAD_REACTORS
330
4F86
102
}
330
4F86
100
AcDbProxyObject
 90
      499
 91
      509
 95
   983063
 70
     0
 93
      113
310
904313A34004000000000000104040
 94
        0
1001
ACAD
1000
AcRTDxfName
1000
SCALE
1000
AcRTDxfName
1000
SCALE
1000
AcRTDxfName
1000
SCALE
  0
ACAD_PROXY_OBJECT
  5
4F8A
102
{ACAD_REACTORS
330
4F86
102
}
330
4F86
100
AcDbProxyObject
 90
      499
 91
      509
 95
   983063
 70
     0
 93
      113
310
904313A35004000000000000144040
 94
        0
1001
ACAD
1000
AcRTDxfName
1000
SCALE
1000
AcRTDxfName
1000
SCALE
1000
AcRTDxfName
1000
SCALE
  0
ACAD_PROXY_OBJECT
  5
4F8B
102
{ACAD_REACTORS
330
4F86
102
}
330
4F86
100
AcDbProxyObject
 90
      499
 91
      509
 95
   983063
 70
     0
 93
      113
310
904313A38004000000000000204040
 94
        0
1001
ACAD
1000
AcRTDxfName
1000
SCALE
1000
AcRTDxfName
1000
SCALE
1000
AcRTDxfName
1000
SCALE
  0
ACAD_PROXY_OBJECT
  5
4F8C
102
{ACAD_REACTORS
330
4F86
102
}
330
4F86
100
AcDbProxyObject
 90
      499
 91
      509
 95
   983063
 70
     0
 93
      121
310
905313A3130004000000000000244000
 94
        0
1001
ACAD
1000
AcRTDxfName
1000
SCALE
1000
AcRTDxfName
1000
SCALE
1000
AcRTDxfName
1000
SCALE
  0
ACAD_PROXY_OBJECT
  5
4F8D
102
{ACAD_REACTORS
330
4F86
102
}
330
4F86
100
AcDbProxyObject
 90
      499
 91
      509
 95
   983063
 70
     0
 93
      121
310
905313A3136004000000000000304040
 94
        0
1001
ACAD
1000
AcRTDxfName
1000
SCALE
1000
AcRTDxfName
1000
SCALE
1000
AcRTDxfName
1000
SCALE
  0
ACAD_PROXY_OBJECT
  5
4F8E
102
{ACAD_REACTORS
330
4F86
102
}
330
4F86
100
AcDbProxyObject
 90
      499
 91
      509
 95
   983063
 70
     0
 93
      121
310
905313A3230004000000000000344000
 94
        0
1001
ACAD
1000
AcRTDxfName
1000
SCALE
1000
AcRTDxfName
1000
SCALE
1000
AcRTDxfName
1000
SCALE
  0
ACAD_PROXY_OBJECT
  5
4F8F
102
{ACAD_REACTORS
330
4F86
102
}
330
4F86
100
AcDbProxyObject
 90
      499
 91
      509
 95
   983063
 70
     0
 93
      121
310
905313A33300040000000000003E4040
 94
        0
1001
ACAD
1000
AcRTDxfName
1000
SCALE
1000
AcRTDxfName
1000
SCALE
1000
AcRTDxfName
1000
SCALE
  0
ACAD_PROXY_OBJECT
  5
4F90
102
{ACAD_REACTORS
330
4F86
102
}
330
4F86
100
AcDbProxyObject
 90
      499
 91
      509
 95
   983063
 70
     0
 93
      121
310
905313A3430004000000000000444000
 94
        0
1001
ACAD
1000
AcRTDxfName
1000
SCALE
1000
AcRTDxfName
1000
SCALE
1000
AcRTDxfName
1000
SCALE
  0
ACAD_PROXY_OBJECT
  5
4F91
102
{ACAD_REACTORS
330
4F86
102
}
330
4F86
100
AcDbProxyObject
 90
      499
 91
      509
 95
   983063
 70
     0
 93
      121
310
905313A3530004000000000000494001
 94
        0
1001
ACAD
1000
AcRTDxfName
1000
SCALE
1000
AcRTDxfName
1000
SCALE
1000
AcRTDxfName
1000
SCALE
  0
ACAD_PROXY_OBJECT
  5
4F92
102
{ACAD_REACTORS
330
4F86
102
}
330
4F86
100
AcDbProxyObject
 90
      499
 91
      509
 95
   983063
 70
     0
 93
      129
310
906313A313030004000000000000594000
 94
        0
1001
ACAD
1000
AcRTDxfName
1000
SCALE
1000
AcRTDxfName
1000
SCALE
1000
AcRTDxfName
1000
SCALE
  0
ACAD_PROXY_OBJECT
  5
4F93
102
{ACAD_REACTORS
330
4F86
102
}
330
4F86
100
AcDbProxyObject
 90
      499
 91
      509
 95
   983063
 70
     0
 93
      113
310
904323A31000000000000000010165
 94
        0
1001
ACAD
1000
AcRTDxfName
1000
SCALE
1000
AcRTDxfName
1000
SCALE
1000
AcRTDxfName
1000
SCALE
  0
ACAD_PROXY_OBJECT
  5
4F94
102
{ACAD_REACTORS
330
4F86
102
}
330
4F86
100
AcDbProxyObject
 90
      499
 91
      509
 95
   983063
 70
     0
 93
      113
310
904343A31000000000000000410101
 94
        0
1001
ACAD
1000
AcRTDxfName
1000
SCALE
1000
AcRTDxfName
1000
SCALE
1000
AcRTDxfName
1000
SCALE
  0
ACAD_PROXY_OBJECT
  5
4F95
102
{ACAD_REACTORS
330
4F86
102
}
330
4F86
100
AcDbProxyObject
 90
      499
 91
      509
 95
   983063
 70
     0
 93
      113
310
904383A31000000000000000810165
 94
        0
1001
ACAD
1000
AcRTDxfName
1000
SCALE
1000
AcRTDxfName
1000
SCALE
1000
AcRTDxfName
1000
SCALE
  0
ACAD_PROXY_OBJECT
  5
4F96
102
{ACAD_REACTORS
330
4F86
102
}
330
4F86
100
AcDbProxyObject
 90
      499
 91
      509
 95
   983063
 70
     0
 93
      121
310
90531303A31000000000000000910120
 94
        0
1001
ACAD
1000
AcRTDxfName
1000
SCALE
1000
AcRTDxfName
1000
SCALE
1000
AcRTDxfName
1000
SCALE
  0
ACAD_PROXY_OBJECT
  5
4F97
102
{ACAD_REACTORS
330
4F86
102
}
330
4F86
100
AcDbProxyObject
 90
      499
 91
      509
 95
   983063
 70
     0
 93
      129
310
9063130303A31000000000000001650100
 94
        0
1001
ACAD
1000
AcRTDxfName
1000
SCALE
1000
AcRTDxfName
1000
SCALE
1000
AcRTDxfName
1000
SCALE
  0
ACAD_PROXY_OBJECT
  5
4F98
102
{ACAD_REACTORS
330
4F86
102
}
330
4F86
100
AcDbProxyObject
 90
      499
 91
      509
 95
   983063
 70
     0
 93
      265
310
90F312F31323822203D2031272D302200000000000000200FC000000000000284018
 94
        0
1001
ACAD
1000
AcRTDxfName
1000
SCALE
1000
AcRTDxfName
1000
SCALE
1000
AcRTDxfName
1000
SCALE
  0
ACAD_PROXY_OBJECT
  5
4F99
102
{ACAD_REACTORS
330
4F86
102
}
330
4F86
100
AcDbProxyObject
 90
      499
 91
      509
 95
   983063
 70
     0
 93
      257
310
90E312F363422203D2031272D302200000000000000240FC000000000000284000
 94
        0
1001
ACAD
1000
AcRTDxfName
1000
SCALE
1000
AcRTDxfName
1000
SCALE
1000
AcRTDxfName
1000
SCALE
  0
ACAD_PROXY_OBJECT
  5
4F9A
102
{ACAD_REACTORS
330
4F86
102
}
330
4F86
100
AcDbProxyObject
 90
      499
 91
      509
 95
   983063
 70
     0
 93
      257
310
90E312F333222203D2031272D302200000000000000280FC000000000000284040
 94
        0
1001
ACAD
1000
AcRTDxfName
1000
SCALE
1000
AcRTDxfName
1000
SCALE
1000
AcRTDxfName
1000
SCALE
  0
ACAD_PROXY_OBJECT
  5
4F9B
102
{ACAD_REACTORS
330
4F86
102
}
330
4F86
100
AcDbProxyObject
 90
      499
 91
      509
 95
   983063
 70
     0
 93
      257
310
90E312F313622203D2031272D3022000000000000002C0FC000000000000284000
 94
        0
1001
ACAD
1000
AcRTDxfName
1000
SCALE
1000
AcRTDxfName
1000
SCALE
1000
AcRTDxfName
1000
SCALE
  0
ACAD_PROXY_OBJECT
  5
4F9C
102
{ACAD_REACTORS
330
4F86
102
}
330
4F86
100
AcDbProxyObject
 90
      499
 91
      509
 95
   983063
 70
     0
 93
      257
310
90E332F333222203D2031272D3022000000000000002E0FC000000000000284040
 94
        0
1001
ACAD
1000
AcRTDxfName
1000
SCALE
1000
AcRTDxfName
1000
SCALE
1000
AcRTDxfName
1000
SCALE
  0
ACAD_PROXY_OBJECT
  5
4F9D
102
{ACAD_REACTORS
330
4F86
102
}
330
4F86
100
AcDbProxyObject
 90
      499
 91
      509
 95
   983063
 70
     0
 93
      249
310
90D312F3822203D2031272D302200000000000000300FC000000000000284040
 94
        0
1001
ACAD
1000
AcRTDxfName
1000
SCALE
1000
AcRTDxfName
1000
SCALE
1000
AcRTDxfName
1000
SCALE
  0
ACAD_PROXY_OBJECT
  5
4F9E
102
{ACAD_REACTORS
330
4F86
102
}
330
4F86
100
AcDbProxyObject
 90
      499
 91
      509
 95
   983063
 70
     0
 93
      257
310
90E332F313622203D2031272D302200000000000000320FC000000000000284040
 94
        0
1001
ACAD
1000
AcRTDxfName
1000
SCALE
1000
AcRTDxfName
1000
SCALE
1000
AcRTDxfName
1000
SCALE
  0
ACAD_PROXY_OBJECT
  5
4F9F
102
{ACAD_REACTORS
330
4F86
102
}
330
4F86
100
AcDbProxyObject
 90
      499
 91
      509
 95
   983063
 70
     0
 93
      249
310
90D312F3422203D2031272D302200000000000000340FC000000000000284040
 94
        0
1001
ACAD
1000
AcRTDxfName
1000
SCALE
1000
AcRTDxfName
1000
SCALE
1000
AcRTDxfName
1000
SCALE
  0
ACAD_PROXY_OBJECT
  5
4FA0
102
{ACAD_REACTORS
330
4F86
102
}
330
4F86
100
AcDbProxyObject
 90
      499
 91
      509
 95
   983063
 70
     0
 93
      249
310
90D332F3822203D2031272D302200000000000000360FC000000000000284028
 94
        0
1001
ACAD
1000
AcRTDxfName
1000
SCALE
1000
AcRTDxfName
1000
SCALE
1000
AcRTDxfName
1000
SCALE
  0
ACAD_PROXY_OBJECT
  5
4FA1
102
{ACAD_REACTORS
330
4F86
102
}
330
4F86
100
AcDbProxyObject
 90
      499
 91
      509
 95
   983063
 70
     0
 93
      249
310
90D312F3222203D2031272D302200000000000000380FC000000000000284040
 94
        0
1001
ACAD
1000
AcRTDxfName
1000
SCALE
1000
AcRTDxfName
1000
SCALE
1000
AcRTDxfName
1000
SCALE
  0
ACAD_PROXY_OBJECT
  5
4FA2
102
{ACAD_REACTORS
330
4F86
102
}
330
4F86
100
AcDbProxyObject
 90
      499
 91
      509
 95
   983063
 70
     0
 93
      249
310
90D332F3422203D2031272D3022000000000000003A0FC000000000000284028
 94
        0
1001
ACAD
1000
AcRTDxfName
1000
SCALE
1000
AcRTDxfName
1000
SCALE
1000
AcRTDxfName
1000
SCALE
  0
ACAD_PROXY_OBJECT
  5
4FA3
102
{ACAD_REACTORS
330
4F86
102
}
330
4F86
100
AcDbProxyObject
 90
      499
 91
      509
 95
   983063
 70
     0
 93
      169
310
90B3122203D2031272D3022004000000000000284000
 94
        0
1001
ACAD
1000
AcRTDxfName
1000
SCALE
1000
AcRTDxfName
1000
SCALE
1000
AcRTDxfName
1000
SCALE
  0
ACAD_PROXY_OBJECT
  5
4FA4
102
{ACAD_REACTORS
330
4F86
102
}
330
4F86
100
AcDbProxyObject
 90
      499
 91
      509
 95
   983063
 70
     0
 93
      265
310
90F312D312F3222203D2031272D3022000000000000003E0FC000000000000284018
 94
        0
1001
ACAD
1000
AcRTDxfName
1000
SCALE
1000
AcRTDxfName
1000
SCALE
1000
AcRTDxfName
1000
SCALE
  0
ACAD_PROXY_OBJECT
  5
4FA5
102
{ACAD_REACTORS
330
4F86
102
}
330
4F86
100
AcDbProxyObject
 90
      499
 91
      509
 95
   983063
 70
     0
 93
      233
310
90B3322203D2031272D30220000000000000002100000000000000284000
 94
        0
1001
ACAD
1000
AcRTDxfName
1000
SCALE
1000
AcRTDxfName
1000
SCALE
1000
AcRTDxfName
1000
SCALE
  0
ACAD_PROXY_OBJECT
  5
4FA6
102
{ACAD_REACTORS
330
4F86
102
}
330
4F86
100
AcDbProxyObject
 90
      499
 91
      509
 95
   983063
 70
     0
 93
      233
310
90B3622203D2031272D3022000000000000000610000000000000028405D
 94
        0
1001
ACAD
1000
AcRTDxfName
1000
SCALE
1000
AcRTDxfName
1000
SCALE
1000
AcRTDxfName
1000
SCALE
  0
ACAD_PROXY_OBJECT
  5
4FA7
102
{ACAD_REACTORS
330
4F86
102
}
330
4F86
100
AcDbProxyObject
 90
      499
 91
      509
 95
   983063
 70
     0
 93
      257
310
90E31272D3022203D2031272D3022000000000000000A100000000000000284000
 94
        0
1001
ACAD
1000
AcRTDxfName
1000
SCALE
1000
AcRTDxfName
1000
SCALE
1000
AcRTDxfName
1000
SCALE
  0
TABLESTYLE
  5
4F85
102
{ACAD_XDICTIONARY
360
51E7
102
}
102
{ACAD_REACTORS
330
4F84
102
}
330
4F84
100
AcDbTableStyle
  3
Standard
 70
     0
 71
     0
 40
1.5
 41
1.5
280
     0
281
     0
  7
Standard
140
4.5
170
     2
 62
     0
 63
     7
283
     0
274
    -2
284
     1
 64
     0
275
    -2
285
     1
 65
     0
276
    -2
286
     1
 66
     0
277
    -2
287
     1
 67
     0
278
    -2
288
     1
 68
     0
279
    -2
289
     1
 69
     0
  7
Standard
140
6.0
170
     5
 62
     0
 63
     7
283
     0
274
    -2
284
     1
 64
     0
275
    -2
285
     1
 65
     0
276
    -2
286
     1
 66
     0
277
    -2
287
     1
 67
     0
278
    -2
288
     1
 68
     0
279
    -2
289
     1
 69
     0
  7
Standard
140
4.5
170
     5
 62
     0
 63
     7
283
     0
274
    -2
284
     1
 64
     0
275
    -2
285
     1
 65
     0
276
    -2
286
     1
 66
     0
277
    -2
287
     1
 67
     0
278
    -2
288
     1
 68
     0
279
    -2
289
     1
 69
     0
  0
ACAD_PROXY_OBJECT
  5
4F78
102
{ACAD_REACTORS
330
4F72
102
}
330
4F72
100
AcDbProxyObject
 90
      499
 91
      507
 95
   983063
 70
     0
 93
      444
310
430C9915DA5C99599C985B59401049028333333333333E3BF0000000000000FB0107901411070040501600405405064090741402480A0340
 94
        0
1001
ACAD
1000
AcDbSavedByObjectVersion
1070
     0
1000
AcRTDxfName
1000
VISUALSTYLE
1000
AcRTDxfName
1000
VISUALSTYLE
1000
AcRTDxfName
1000
VISUALSTYLE
  0
ACAD_PROXY_OBJECT
  5
4F7A
102
{ACAD_REACTORS
330
4F72
102
}
330
4F72
100
AcDbProxyObject
 90
      499
 91
      507
 95
   983063
 70
     0
 93
      508
310
428CD108121A5919195B8010640502408333333333333E3BF0000000000000FB01079024090700405020000000000001110200405405064090740C02480A0340
 94
        0
1001
ACAD
1000
AcDbSavedByObjectVersion
1070
     0
1000
AcRTDxfName
1000
VISUALSTYLE
1000
AcRTDxfName
1000
VISUALSTYLE
1000
AcRTDxfName
1000
VISUALSTYLE
  0
ACAD_PROXY_OBJECT
  5
4F79
102
{ACAD_REACTORS
330
4F72
102
}
330
4F72
100
AcDbProxyObject
 90
      499
 91
      507
 95
   983063
 70
     0
 93
      444
310
430CD915DA5C99599C985B59401059028333333333333E3BF0000000000000FB0107901411070040501600405405064090741402480A0340
 94
        0
1001
ACAD
1000
AcDbSavedByObjectVersion
1070
     0
1000
AcRTDxfName
1000
VISUALSTYLE
1000
AcRTDxfName
1000
VISUALSTYLE
1000
AcRTDxfName
1000
VISUALSTYLE
  0
ACAD_PROXY_OBJECT
  5
4F77
102
{ACAD_REACTORS
330
4F72
102
}
330
4F72
100
AcDbProxyObject
 90
      499
 91
      507
 95
   983063
 70
     0
 93
      396
310
4190985CDA58C0107406404333333333333E3BF0000000000000FB0107A41107004050150841D405064090741402480A0354
 94
        0
1001
ACAD
1000
AcDbSavedByObjectVersion
1070
     0
1000
AcRTDxfName
1000
VISUALSTYLE
1000
AcRTDxfName
1000
VISUALSTYLE
1000
AcRTDxfName
1000
VISUALSTYLE
  0
ACAD_PROXY_OBJECT
  5
4F7E
102
{ACAD_REACTORS
330
4F72
102
}
330
4F72
100
AcDbProxyObject
 90
      499
 91
      507
 95
   983063
 70
     0
 93
      436
310
42509C9A59DA1D195B8010C409028333333333333E3BF0000000000000FB010790141107004050150841D405064090741402480A02995A
 94
        0
1001
ACAD
1000
AcDbSavedByObjectVersion
1070
     0
1000
AcRTDxfName
1000
VISUALSTYLE
1000
AcRTDxfName
1000
VISUALSTYLE
1000
AcRTDxfName
1000
VISUALSTYLE
  0
ACAD_PROXY_OBJECT
  5
4F82
102
{ACAD_REACTORS
330
4F72
102
}
330
4F72
100
AcDbProxyObject
 90
      499
 91
      507
 95
   983063
 70
     0
 93
      460
310
4310DBDB1BDC90DA185B99D9401104090240C333333333333E3BF0000000000000FB0108901411070040501508421405064090741402480A035E
 94
        0
1001
ACAD
1000
AcDbSavedByObjectVersion
1070
     0
1000
AcRTDxfName
1000
VISUALSTYLE
1000
AcRTDxfName
1000
VISUALSTYLE
1000
AcRTDxfName
1000
VISUALSTYLE
  0
ACAD_PROXY_OBJECT
  5
4F7B
102
{ACAD_REACTORS
330
4F72
102
}
330
4F72
100
AcDbProxyObject
 90
      499
 91
      507
 95
   983063
 70
     0
 93
      508
310
42D0DBDB98D95C1D1D585B0010940D028333333333333E3BF0000000000000FB0107902409070040501000000000000111010841D405064090740C02480A0340
 94
        0
1001
ACAD
1000
AcDbSavedByObjectVersion
1070
     0
1000
AcRTDxfName
1000
VISUALSTYLE
1000
AcRTDxfName
1000
VISUALSTYLE
1000
AcRTDxfName
1000
VISUALSTYLE
  0
ACAD_PROXY_OBJECT
  5
4F7D
102
{ACAD_REACTORS
330
4F72
102
}
330
4F72
100
AcDbProxyObject
 90
      499
 91
      507
 95
   983063
 70
     0
 93
      420
310
41111A5B4010B409028333333333333E3BF0000000000000FB010790141107004050150841D405064090741402480A02677FFFFFD2
 94
        0
1001
ACAD
1000
AcDbSavedByObjectVersion
1070
     0
1000
AcRTDxfName
1000
VISUALSTYLE
1000
AcRTDxfName
1000
VISUALSTYLE
1000
AcRTDxfName
1000
VISUALSTYLE
  0
ACAD_PROXY_OBJECT
  5
4F81
102
{ACAD_REACTORS
330
4F72
102
}
330
4F72
100
AcDbProxyObject
 90
      499
 91
      507
 95
   983063
 70
     0
 93
      452
310
43119858D95C185D1D195C9B8010F409028333333333333E3BF0000000000000FB010790141107004050150841D405064090741402480A0354
 94
        0
1001
ACAD
1000
AcDbSavedByObjectVersion
1070
     0
1000
AcRTDxfName
1000
VISUALSTYLE
1000
AcRTDxfName
1000
VISUALSTYLE
1000
AcRTDxfName
1000
VISUALSTYLE
  0
ACAD_PROXY_OBJECT
  5
4F73
102
{ACAD_REACTORS
330
4F72
102
}
330
4F72
100
AcDbProxyObject
 90
      499
 91
      507
 95
   983063
 70
     0
 93
      396
310
41519B185D00240901404333333333333E3BF0000000000000F9010740A41107004050150841D405064090741402480A1B58
 94
        0
1001
ACAD
1000
AcDbSavedByObjectVersion
1070
     0
1000
AcRTDxfName
1000
VISUALSTYLE
1000
AcRTDxfName
1000
VISUALSTYLE
1000
AcRTDxfName
1000
VISUALSTYLE
  0
ACAD_PROXY_OBJECT
  5
4F74
102
{ACAD_REACTORS
330
4F72
102
}
330
4F72
100
AcDbProxyObject
 90
      499
 91
      507
 95
   983063
 70
     0
 93
      484
310
43919B185D15DA5D1A115919D95CC010140901404333333333333E3BF0000000000000F9010740901411070040501600405405064090741402480A1B58
 94
        0
1001
ACAD
1000
AcDbSavedByObjectVersion
1070
     0
1000
AcRTDxfName
1000
VISUALSTYLE
1000
AcRTDxfName
1000
VISUALSTYLE
1000
AcRTDxfName
1000
VISUALSTYLE
  0
ACAD_PROXY_OBJECT
  5
4F75
102
{ACAD_REACTORS
330
4F72
102
}
330
4F72
100
AcDbProxyObject
 90
      499
 91
      507
 95
   983063
 70
     0
 93
      420
310
4211DBDD5C985D590010240902404333333333333E3BF0000000000000F9010740A411070040501641D405064090741402480A1B58
 94
        0
1001
ACAD
1000
AcDbSavedByObjectVersion
1070
     0
1000
AcRTDxfName
1000
VISUALSTYLE
1000
AcRTDxfName
1000
VISUALSTYLE
1000
AcRTDxfName
1000
VISUALSTYLE
  0
ACAD_PROXY_OBJECT
  5
4F76
102
{ACAD_REACTORS
330
4F72
102
}
330
4F72
100
AcDbProxyObject
 90
      499
 91
      507
 95
   983063
 70
     0
 93
      508
310
4451DBDD5C985D5915DA5D1A115919D95CC010340902404333333333333E3BF0000000000000F9010740901411070040501600405405064090741402480A1B50
 94
        0
1001
ACAD
1000
AcDbSavedByObjectVersion
1070
     0
1000
AcRTDxfName
1000
VISUALSTYLE
1000
AcRTDxfName
1000
VISUALSTYLE
1000
AcRTDxfName
1000
VISUALSTYLE
  0
ACAD_PROXY_OBJECT
  5
4F80
102
{ACAD_REACTORS
330
4F72
102
}
330
4F72
100
AcDbProxyObject
 90
      499
 91
      507
 95
   983063
 70
     0
 93
      452
310
43131A5B995C185D1D195C9B8010E409028333333333333E3BF0000000000000FB010790141107004050750841D405064090741402483A0353
 94
        0
1001
ACAD
1000
AcDbSavedByObjectVersion
1070
     0
1000
AcRTDxfName
1000
VISUALSTYLE
1000
AcRTDxfName
1000
VISUALSTYLE
1000
AcRTDxfName
1000
VISUALSTYLE
  0
ACAD_PROXY_OBJECT
  5
4F7C
102
{ACAD_REACTORS
330
4F72
102
}
330
4F72
100
AcDbProxyObject
 90
      499
 91
      507
 95
   983063
 70
     0
 93
      428
310
429499585B1A5CDD1A58C0108409028333333333333E3BF0000000000000FB01079019070040501508421405064090741402480A1B49
 94
        0
1001
ACAD
1000
AcDbSavedByObjectVersion
1070
     0
1000
AcRTDxfName
1000
VISUALSTYLE
1000
AcRTDxfName
1000
VISUALSTYLE
1000
AcRTDxfName
1000
VISUALSTYLE
  0
ACAD_PROXY_OBJECT
  5
4F7F
102
{ACAD_REACTORS
330
4F72
102
}
330
4F72
100
AcDbProxyObject
 90
      499
 91
      507
 95
   983063
 70
     0
 93
      420
310
42151A1A58DAD95B8010D409028333333333333E3BF0000000000000FB010790141107004050150C41D405064090741402480A0352
 94
        0
1001
ACAD
1000
AcDbSavedByObjectVersion
1070
     0
1000
AcRTDxfName
1000
VISUALSTYLE
1000
AcRTDxfName
1000
VISUALSTYLE
1000
AcRTDxfName
1000
VISUALSTYLE
  0
DICTIONARYVAR
  5
521F
102
{ACAD_REACTORS
330
3B
102
}
330
3B
100
DictionaryVariables
280
     0
  1
1:1
  0
DICTIONARYVAR
  5
526C
102
{ACAD_REACTORS
330
3B
102
}
330
3B
100
DictionaryVariables
280
     0
  1
STANDARD
  0
DICTIONARYVAR
  5
521E
102
{ACAD_REACTORS
330
3B
102
}
330
3B
100
DictionaryVariables
280
     0
  1
STANDARD
  0
DICTIONARYVAR
  5
3D
102
{ACAD_REACTORS
330
3B
102
}
330
3B
100
DictionaryVariables
280
     0
  1
2
  0
DICTIONARYVAR
  5
3C
102
{ACAD_REACTORS
330
3B
102
}
330
3B
100
DictionaryVariables
280
     0
  1
1
  0
DICTIONARYVAR
  5
5221
102
{ACAD_REACTORS
330
3B
102
}
330
3B
100
DictionaryVariables
280
     0
  1
0
  0
DICTIONARYVAR
  5
5673
102
{ACAD_REACTORS
330
3B
102
}
330
3B
100
DictionaryVariables
280
     0
  1

  0
DICTIONARYVAR
  5
5220
102
{ACAD_REACTORS
330
3B
102
}
330
3B
100
DictionaryVariables
280
     0
  1
127
  0
DICTIONARY
  5
5AB2
330
22
100
AcDbDictionary
280
     1
281
     1
  3
ACAD_XREC_ROUNDTRIP
360
5AB3
  0
DICTIONARY
  5
4FD3
330
4CC0
100
AcDbDictionary
280
     1
281
     1
  3
ACAD_XREC_ROUNDTRIP
360
5AB8
  3
ADSK_XREC_LAYOUTTHUMBNAIL
360
4FD4
  0
DICTIONARY
  5
4F63
330
4F62
100
AcDbDictionary
280
     1
281
     1
  3
ACAD_XREC_ROUNDTRIP
360
562A
  3
BUMPTILE
360
4F65
  3
DIFFUSETILE
360
4F64
  3
OPACITYTILE
360
4F68
  3
REFLECTIONTILE
360
4F67
  3
REFRACTIONTILE
360
4F69
  3
SPECULARTILE
360
4F66
  0
DICTIONARY
  5
4F5B
330
4F5A
100
AcDbDictionary
280
     1
281
     1
  3
ACAD_XREC_ROUNDTRIP
360
5629
  3
BUMPTILE
360
4F5D
  3
DIFFUSETILE
360
4F5C
  3
OPACITYTILE
360
4F60
  3
REFLECTIONTILE
360
4F5F
  3
REFRACTIONTILE
360
4F61
  3
SPECULARTILE
360
4F5E
  0
DICTIONARY
  5
4F6B
330
4F6A
100
AcDbDictionary
280
     1
281
     1
  3
ACAD_XREC_ROUNDTRIP
360
562B
  3
BUMPTILE
360
4F6D
  3
DIFFUSETILE
360
4F6C
  3
OPACITYTILE
360
4F70
  3
REFLECTIONTILE
360
4F6F
  3
REFRACTIONTILE
360
4F71
  3
SPECULARTILE
360
4F6E
  0
DICTIONARY
  5
5AB4
330
4C54
100
AcDbDictionary
280
     1
281
     1
  3
ACAD_XREC_ROUNDTRIP
360
5AB5
  0
DICTIONARY
  5
5AB6
330
4C55
100
AcDbDictionary
280
     1
281
     1
  3
ACAD_XREC_ROUNDTRIP
360
5AB7
  0
DICTIONARY
  5
51E7
330
4F85
100
AcDbDictionary
280
     1
281
     1
  3
ACAD_ROUNDTRIP_2008_TABLESTYLE_CELLSTYLEMAP
360
560D
  3
ACAD_XREC_ROUNDTRIP
360
562C
  0
XRECORD
  5
5AB3
102
{ACAD_REACTORS
330
5AB2
102
}
330
5AB2
100
AcDbXrecord
280
     1
102
SHADEPLOT
 70
     0
102
SHADEPLOTRESLEVEL
 70
     2
102
SHADEPLOTCUSTOMDPI
 70
   300
  0
XRECORD
  5
5AB8
102
{ACAD_REACTORS
330
4FD3
102
}
330
4FD3
100
AcDbXrecord
280
     1
102
SHADEPLOT
 70
     1
102
SHADEPLOTRESLEVEL
 70
     2
102
SHADEPLOTCUSTOMDPI
 70
   300
  0
XRECORD
  5
4FD4
102
{ACAD_REACTORS
330
4FD3
102
}
330
4FD3
100
AcDbXrecord
280
     1
310
28000000630000008C0000000100080000000000B0360000000000000000000000010000000000000000000000000000FFFFFF000000000000000000000000000000000000000000000000000000000000000000330000006600000099000000CC000000FF00000000330000333300006633000099330000CC330000FF3300
310
0000660000336600006666000099660000CC660000FF66000000990000339900006699000099990000CC990000FF99000000CC000033CC000066CC000099CC0000CCCC0000FFCC000000FF000033FF000066FF000099FF0000CCFF0000FFFF000000003300330033006600330099003300CC003300FF003300003333003333
310
33006633330099333300CC333300FF33330000663300336633006666330099663300CC663300FF66330000993300339933006699330099993300CC993300FF99330000CC330033CC330066CC330099CC3300CCCC3300FFCC330000FF330033FF330066FF330099FF3300CCFF3300FFFF330000006600330066006600660099
310
006600CC006600FF00660000336600333366006633660099336600CC336600FF33660000666600336666006666660099666600CC666600FF66660000996600339966006699660099996600CC996600FF99660000CC660033CC660066CC660099CC6600CCCC6600FFCC660000FF660033FF660066FF660099FF6600CCFF6600
310
FFFF660000009900330099006600990099009900CC009900FF00990000339900333399006633990099339900CC339900FF33990000669900336699006666990099669900CC669900FF66990000999900339999006699990099999900CC999900FF99990000CC990033CC990066CC990099CC9900CCCC9900FFCC990000FF99
310
0033FF990066FF990099FF9900CCFF9900FFFF99000000CC003300CC006600CC009900CC00CC00CC00FF00CC000033CC003333CC006633CC009933CC00CC33CC00FF33CC000066CC003366CC006666CC009966CC00CC66CC00FF66CC000099CC003399CC006699CC009999CC00CC99CC00FF99CC0000CCCC0033CCCC0066CC
310
CC0099CCCC00CCCCCC00FFCCCC0000FFCC0033FFCC0066FFCC0099FFCC00CCFFCC00FFFFCC000000FF003300FF006600FF009900FF00CC00FF00FF00FF000033FF003333FF006633FF009933FF00CC33FF00FF33FF000066FF003366FF006666FF009966FF00CC66FF00FF66FF000099FF003399FF006699FF009999FF00CC
310
99FF00FF99FF0000CCFF0033CCFF0066CCFF0099CCFF00CCCCFF00FFCCFF0000FFFF0033FFFF0066FFFF0099FFFF00CCFFFF00FFFFFF00000000000D0D0D001A1A1A00282828003535350043434300505050005D5D5D006B6B6B00787878008686860093939300A1A1A100AEAEAE00BBBBBB00C9C9C900D6D6D600E4E4E400
310
F1F1F100FFFFFF0000000000000000000000000000000000000000000000000000000000000000000000000000000000F5F5F5F5F5F5F5F5F5F5F5F5F5F5F5F5F5F5F5F5F5F5F5F5F5F5F5F5F5F5F5F5F5F5F5F5F5F5F5F5F5F5F5F5F5F5F5F5F5F5F5F5F5F5F5F5F5F5F5F5F5F5F5F5F5F5F5F5F5F5F5F5F5F5F5F5F5F5F5
310
F5F5F5F5F5F5F5F5F5F5F5F5F5F5F5F5F5F5F5EF00E2E2E2E2E2E2E2E2E2E2E2E2E2E2E2E2E2E2E2E2E2E2E2E2E2E2E2E2E2E2E2E2E2E2E2E2E2E2E2E2E2E2E2E2E2E2E2E2E2E2E2E2E2E2E2E2E2E2E2E2E2E2E2E2E2E2E2E2E2E2E2E2E2E2E2E2E2E2E2E2E2E2E2E2E2E2E2E2E2E2E2E2E2E2E2E2E2F5EF00E2E2E2E2E2E2
310
E2E2E2E2E2E2E2E2E2E2E2E2E2E2E2E2E2E2E2E2E2E2E2E2E2E2E2E2E2E2E2E2E2E2E2E2E2E2E2E2E2E2E2E2E2E2E2E2E2E2E2E2E2E2E2E2E2E2E2E2E2E2E2E2E2E2E2E2E2E2E2E2E2E2E2E2E2E2E2E2E2E2E2E2E2E2E2E2E2E2E2F5EF00E2F5F5F5F5F5F5F5F5E2E2E2E2E2E2E2E2F5F5F5F5F5F5F5F5F5F5F5F5F5F5F5E2
310
E2E2E2E2E2E2E2E2F5F5F5F5F5F5F5F5F5F5F5F5F5F5E2E2E2E2E2E2E2E2E2F5F5F5F5F5F5F5F5F5F5F5F5F5F5F5E2E2E2E2E2E2E2E2F5F5F5F5F5F5F5F5E2E2F5EF00E2F5E2E2E2E2E2E2E2E2E2E2E2E2E2E2E2E2E2E2E2E2E2E2E2E2E2E2F5F5E2E2E2E2E2E2E2E2E2E2E2E2E2E2E2E2E2E2E2E2E2E2E2E2E2E2E2E2E2E2
310
E2E2E2E2E2E2E2E2E2E2E2E2E2E2E2E2E2E2E2E2E2E2E2E2E2E2E2E2E2E2E2E2E2E2F5E2E2F5EF00E2F5E2E2E2E2E2F5F5F5F5F5F5F5F5F5F5F5F5F5F5F5F5F5F5F5F5F5F5F5F5F5F5F5F5F5F5F5F5F5F5F5F5F5F5F5F5F5F5F5F5F5F5F5F5F5F5F5F5F5F5F5F5F5F5F5F5F5F5F5F5F5F5F5F5F5F5F5F5F5F5F5F5F5F5F5F5
310
F5F5F5E2E2E2E2F5E2E2F5EF00E2F5E2E2E2E2E2F5F5F5F5F5F5F5F5F5F5F5F5F5F5F5F5F5F5F5F5F5F5F5F5F5F5F5F5F5F5F5F5F5F5F5F5F5F5F5F5F5F5F5F5F5F5F5F5F5F5F5F5F5F5F5F5F5F5F5F5F5F5F5F5F5F5F5F5F5F5F5F5F5F5F5F5F5F5F5F5F5F5F5F5E2E2E2F5E2E2F5EF00E2F5E2E2E2E2E2E2E2E2E2E2E2E2
310
E2E2E2E2E2E2E2E2E2E2E2E2E2E2E2E2E2E2E2E2E2E2E2E2E2E2E2E2E2E2E2E2E2E2E2E2E2E2E2E2E2E2E2E2E2E2E2E2E2E2E2E2E2E2E2E2E2E2E2E2E2E2E2E2E2E2E2E2E2E2E2E2E2E2E2E2E2E2E2E2F5E2E2F5EF00E2F5E2E2E2E2E2EAEAEAEAEAEAEAEAEAEAEAEAEAEAEAEAEAEAEAEAEAEAEAEAEAEAEAEAEAEAEAEAEAEA
310
EAEAEAEAEAEAEAEAEAEAEAEAEAEAEAEAEAEAEAEAEAEAEAEAEAEAEAEAEAEAEAEAEAEAEAEAEAEAEAEAEAEAEAEAEAEAEAEAEAEAE2E2E2F5E2E2F5EF00E2F5E2E2E2E2E2EAE2E2E2E2E2E2E2E2E2E2E2E2E2E2E2E2E2E2E2E2E2E2E2E2E2E2E2E2E2E2E2E2E2E2E2E2E2E2E2E2E2E2E2E2E2E2E2E2E2E2E2E2E2E2E2E2E2E2F5F5
310
F5F5F5F5F5F5F5F5F5F5F5F5E2E2E2E2E2E2E2E2E2E2EAE2E2E2F5E2E2F5EF00E2F5E2E2E2E2E2EAE2E2E2E2E2E2E2E2E2E2E2E2E2E2E2E2E2E2E2E2E2E2E2E2E2E2E2E2E2E2E2E2E2E2E2E2E2E2E2E2E2E2E2E2E2E2E2E2E2E2E2E2E2E2E2E2EFEFF5F5F5F5F5F5F5F5F5F5F5F5F5F5E2E2E2E2E2E2E2E2E2E2EAE2E2E2F5
310
E2E2F5EF00E2F5E2E2E2E2E2EAE2E2E2E2E2E2E2E2E2E2E2E2E2E2E2E2E2E2E2E2E2E2E2E2E2E2E2E2E2E2E2E2E2E2E2E2E2E2E2E2E2E2E2E2E2E2E2E2E2E2E2E2E2E2E2E2EFEFF5F5F5F5F5F5F5F5F5F5F5F5F5E2E2E2E2E2E2E2E2E2E2E2EAE2E2E2F5E2E2F5EF00E2E2E2E2E2E2E2EAE2E2E2E2E2E2E2E2E2E2E2E2E2E2
310
E2E2E2E2E2E2E2E2E2E2E2E2E2E2E2E2E2E2E2E2E2E2E2E2E2E2E2E2E2E2E2E2E2E2E2E2E2E2E2E2E2E2EFEFF5F5F5F5F5F5F5F5F5F5F5F5F5E2E2E2E2E2E2E2E2E2E2E2EAE2E2E2E2E2E2F5EF00E2E2E2E2E2E2E2EAE2E2E2E2E2E2E2E2E2E2E2E2E2E2E2E2E2E2E2E2E2E2E2E2E2E2E2E2E2E2E2E2E2E2E2E2E2E2E2E2E2
310
E2E2E2E2E2E2E2E2E2E2E2E2E2E2E2EFEFF5F5F5F5F5F5F5F5F5F5F5F5F5F5F5F5F5F5E2E2E2E2E2E2EAE2E2E2E2E2E2F5EF00E2E2E2E2E2E2E2EAE2E2E2E2E2E2E2E2E2E2E2E2E2E2E2E2E2E2E2E2E2E2E2E2E2E2E2E2E2E2E2E2E2E2E2E2E2E2E2E2E2E2E2E2E2E2E2E2E2E2E2E2E2E2E2E2E2EFF5F5F5F5F5F5F5F5F5F5
310
F5F5F5F5F5F5F5F5E2E2E2E2E2E2EAE2E2E2E2E2E2F5EF00E2E2E2E2E2E2E2EAE2E2E2E2E2E2E2E2E2E2E2E2E2E2E2E2E2E2E2E2E2E2E2E2E2E2E2E2E2E2E2E2E2E2E2E2E2E2E2E2E2E2E2E2E2E2E2E2E2E2E2E2E2E2E2E2E2EFE2E2E2E2E2E2E2E2E2E2E2E2E2E2E2E2E2E2E2E2E2E2E2E2EAE2E2E2E2E2E2F5EF00E2E2E2
310
E2E2E2E2EAE2E2E2E2E2E2E2E2E2E2E2E2E2E2E2E2E2E2E2E2E2E2E2E2E2E2E2E2E2E2E2E2E2E2E2E2E2E2E2E2E2E2E2E2E2E2E2E2E2E2E2E2E2E2E2E2E2EFE2E2E2E2E2E2E2E2E2E2E2E2E2E2E2E2E2E2E2E2E2E2E2E2EAE2E2E2E2E2E2F5EF00E2E2E2E2E2E2E2EAE2E2E2E2E2E2E2E2E2E2E2E2E2E2E2E2E2E2E2E2E2E2
310
E2E2E2E2E2E2E2E2E2E2E2E2E2E2E2E2E2E2E2E2E2E2E2E2E2E2E2E2E2E2E2E2E2E2E2EFE2E2E2E2E2E2E2E2E2E2E2E2E2E2E2E2E2E2E2E2E2E2E2E2EAE2E2E2E2E2E2F5EF00E2E2E2E2E2E2E2EAE2E2E2E2E2E2E2E2E2E2E2E2F5F5F5F5E2E2E2E2EFE2E2E2E2E2E2E2E2E2E2E2E2E2E2E2E2E2E2E2E2E2EFEFE2E2F5F5F5
310
F5F5E2E2E2E2E2E2EFE2E2E2E2E2F5F5F5F5F5E2E2E2EFE2E2E2E2E2E2E2E2E2E2EAE2E2E2E2E2E2F5EF00E2E2E2E2E2E2E2EAE2E2E2E2E2E2E2E2E2E2E2E2F5F5F5F5E2E2E2E2EFEFE2E2E2E2E2E2E2E2E2E2E2E2E2E2E2E2E2E2E2EFEFEFE2E2F5F5F5F5F5E2E2E2E2E2E2EFE2E2E2E2E2F5F5F5F5F5E2E2E2EFEFE2E2E2
310
E2E2E2E2E2E2EAE2E2E2E2E2E2F5EF00E2E2E2E2E2E2E2EAEFEFEFEFEFEFEFEFEFEFEFEFEFEFEFEFEFEFEFEFE2EFEFEFEFE2F5F5F5F5E2E2F5F5F5F5F5E2E2EFEFEFEFE2EFEFEFEFEFEFEFEFEFEFEFEFEFEFEFEFEFEFEFEFEFEFEFEFEFEFEFE2EFEFEFEFE2F5F5F5F5E2EAE2E2E2E2E2E2F5EF00E2E2E2E2E2E2E2EAEFEFEF
310
EFEFEFEFEFEFEFEFEFEFEFEFEFEFECECECE2EFEFEFEFDCF5F5F5F5E2E2F5F5F5F5F5E2EFEFEFEFEFECECECECEFEFEFEFEFEFEFEFEFEFEFEFEFEFEFEFEFEFEFEFEFECECECE2EFEFEFEFEFF5F5F5F5E2EAE2E2E2E2E2E2F5EF00E2F5E2E2E2E2E2EAF5F5F5F5E2E2E2EFE2E2E2E2E2EFEFE2ECECECECECEFEFEFE2EFEFE2E2E2
310
E2E2E2E2E2E2E2EFE2E2EFEFEFECECECECECE2EFE2E2E2E2EFEFEFEFEFEFE2E2E2E2E2EFE2ECECECECECEFE2EFE2EFEFE2E2E2E2EAE2E2E2F5E2E2F5EF00E2F5E2E2E2E2E2EAF5F5F5F5E2E2E2EFE2E2E2E2E2EFEFE2E2EFE2E2E2E2EFEFE2E2DCEFE2E2E2E2E2E2E2EFEFDCE2E2EFE2E2E2E2EFEFE2E2EFE2E2E2E2EFEFEF
310
EFEFEFE2E2E2E2E2EFE2E2EFE2E2E2E2E2EFE2E2DCEFE2E2E2EAE2E2E2F5E2E2F5EF00E2F5E2E2E2E2E2EAE2E2E2E2E2E2E2EFEFEFE2E2E2EFEFE2E2EFE2E2E2E2EFEFEFE2E2EFEFE2E2E2E2E2EFEFEFE2EFEFEFE2E2E2E2EFEFE2E2EFE2E2E2EFEFEFE2E2E2EFEFE2E2E2E2EFE2E2EFE2E2E2E2E2EFEFEFE2EFEFE2E2EAE2
310
E2E2F5E2E2F5EF00E2F5E2E2E2E2E2EAE2E2E2E2E2E2EFEFEFEFEFEFEFEFEFE2E2EFE2E2E2E2E2EFEFEFEFEFEFECE2E2E2E2ECEFEFEFE2EFEFE2E2E2E2EFEFE2E2EFEFEFEFEFEFEFE2E2E2EFEFEFEFEFEFEFE2E2EFE2E2E2E2E2EFEFEFEFEFEFECE2EAE2E2E2F5E2E2F5EF00E2F5E2E2E2E2E2EAE2E2E2E2E2E2EFEFEFEFEF
310
E2E2E2E2E2E2EFE2E2E2E2E2E2EFE2E2ECECECE2E2E2E2ECECECE2E2EFE2E2E2E2E2EFEFE2E2E2E2E2E2EFEFE2E2E2E2E2EFEFE2E2E2E2E2E2EFE2E2E2E2E2E2EFE2E2ECECECE2EAE2E2E2F5E2E2F5EF00E2F5E2E2E2E2E2EAE2E2E2E2E2E2E2E2E2EFEFE2E2E2E2E2E2EFE2E2E2E2E2E2EFECECECECECECE2E2ECECECECEC
310
E2EFE2E2E2E2E2EFEFE2E2E2E2E2E2EFEFEFE2E2E2EFEFEFE2E2E2E2E2E2EFE2E2E2E2E2E2EFECECECECECECEAE2E2E2F5E2E2F5EF00E2F5E2E2E2E2E2EAE2E2E2E2E2E2E2E2E2EFEFE2E2E2E2EFEFEFE2E2E2E2E2E2EFECECECECECECE2E2ECECECECECE2EFE2E2E2E2E2EFEFEFEFE2E2E2E2EFEFEFE2E2E2EFEFEFE2E2E2
310
E2EFEFEFE2E2E2E2E2E2EFECECECECECECEAE2E2E2F5E2E2F5EF00E2F5E2E2E2E2E2EAE2E2E2E2E2E2E2E2E2EFEFEFEFEFEFEFEFEFEFEFEFEFEFEFEFEFEFECECECE2E2E2E2ECECECEFEFEFEFEFEFEFEFEFEFEFEFEFEFEFEFEFEFEFEFEFEFEFEFEFEFEFEFEFEFEFEFEFEFEFEFEFEFEFEFEFECECECE2EAE2E2E2F5E2E2F5EF00
310
E2F5E2E2E2E2E2EAE2E2E2E2E2E2E2E2E2EFEFEFECECECECEFEFEFEFEFF5F5F5F5F5EFEFEFEFE2E2E2E2EFEFEFF5F5F5F5EFEFEFEFEFEFEFEFEFEFEFEFEFEFEFEFEFEFEFEFEFEFEFEFEFEFEFEFEFEFEFEFF5F5F5F5EFEFEFEFE2EAE2E2E2F5E2E2F5EF00E2F5E2E2E2E2E2EAE2E2E2E2E2E2E2E2EFEFE2E2EFECECEFEFEFEF
310
E2E2E2E2E2E2E2E2E2E2E2E2E2E2E2E2E2E2E2E2E2E2E2E2E2E2EFEFEFEFECECE2E2E2E2E2E2E2E2E2E2E2E2EFECECEFEFEFEFE2E2E2E2E2E2E2E2E2E2E2E2EAE2E2E2F5E2E2F5EF00E2F5E2E2E2E2E2EAE2E2E2E2E2E2E2E2EFEFE2E2E2E2E2E2E2E2E2E2E2E2E2E2E2E2E2E2E2E2E2E2E2E2E2E2E2E2E2E2E2E2E2E2E2E2
310
E2E2E2E2E2E2E2E2E2E2E2E2E2E2E2E2E2E2E2E2E2E2E2E2E2E2E2E2E2E2E2E2E2E2E2E2EAE2E2E2F5E2E2F5EF00E2F5E2E2E2E2E2EAE2E2E2E2E2E22828EC2828EFE2E2E2E2E2E2E2E2E2E2E2E2E2E2E2E2E2E2E2E2E2E2E2E2E2E2E2E2E2E2E2E2E2E2E2E2E2E2E2E2E2E2E2E2E2E2E2E2E2E2E2E2E2E2E2E2E2E2E2E2E2
310
E2E2E2E2E2E2E2E2E2EAE2E2E2F5E2E2F5EF00E2F5E2E2E2E2E2EAE2E2E2E2E2E2ECECECE2ECEFE2E2E2E2E2E2E2E2E2E2E2E2E2E2E2E2E2E2E2E2E2E2E2F5F5F5F5F5F5F5F5F5F5F5F5F5E2E2E2E2E2E2E2E2E2E2E2E2E2E2E2E2E2E2E2E2E2E2E2E2E2E2E2E2E2E2E2E2E2E2EAE2E2E2F5E2E2F5EF00E2F5E2E2E2E2E2EA
310
E2E2E2E2E2E228ECECE2ECE2E2E2E2E2E2E2E2E2E2E2E2E2E2E2E2E2E2E2E2E2E2E2E2F5F5F5F5F5F5F5F5F5F5F5F5F5E2E2E2E2E2E2E2E2E2E2E2E2E2E2E2E2E2E2E2E2E2E2E2E2E2E2E2E2E2E2E2E2E2E2EAE2E2E2F5E2E2F5EF00E2F5E2E2E2E2E2EAE2E2E2E2E2E2ECECECE2ECE2E2E2E2E2E2E2E2E2E2E2E2E2E2E2E2
310
E2E2E2E2E2E2E2E2F5F5F5F5F5F5F5F5F5F5F5F5F5E2E2E2E2E2E2E2E2E2E2E2E2E2E2E2E2E2E2E2E2E2E2E2E2E2E2E2E2E2E2E2E2E2E2EAE2E2E2F5E2E2F5EF00E2F5E2E2E2E2E2EAE2E2E2E2E2E2ECECECECECE2E2E2E2E2E2E2E2E2E2E2EFEFEFE2E2E2E2E2E2E2E2E2E2E2E2E2E2E2E2E2E2E2E2E2E2E2E2E2E2E2E2E2
310
E2E2E2E2E2E2E2E2E2E2E2E2E2E2E2E2E2E2E2E2E2E2E2E2E2E2E2E2EAE2E2E2F5E2E2F5EF00E2F5E2E2E2E2E2EAE2E2E2E2E2E228ECECE2ECE2E2E2E2E2E2E2E2E2E2E2EFEFEFE2E2E2E2E2E2E2E2E2E2E2E2E2E2E2E2E2E2E2E2E2E2E2E2E2E2E2E2E2E2E2E2E2E2E2E2E2E2E2E2E2E2E2E2E2E2E2E2E2E2E2E2E2E2E2E2
310
E2EAE2E2E2F5E2E2F5EF00E2E2E2E2E2E2E2EAE2E2E2E2E2E2ECECECE2ECE2E2E2E2E2E2E2E2E2E2E2EFEFE2E2E2E2E2E2E2E2E2E2E2E2E2E2E2E2E2E2E2E2E2E2E2E2E2E2E2E2E2E2E2E2E2E2E2E2E2E2E2E2E2E2E2E2E2E2E2E2E2E2E2E2E2E2E2E2E2E2EAE2E2E2E2E2E2F5EF00E2E2E2E2E2E2E2EAE2E2E2E2E2E228EC
310
ECE2ECE2E2E2E2E2E2E2E2E2E2E2EFEFEFE2E2E2E2E2E2E2E2E2E2E2E2E2E2E2E2E2E2E2E2E2E2E2E2E2E2E2E2E2E2E2E2E2E2E2E2E2E2E2E2E2E2E2E2E2E2E2E2E2E2E2E2E2E2E2E2E2EAE2E2E2E2E2E2F5EF00E2E2E2E2E2E2E2EAE2E2E2E2E2E2ECECECE2ECE2E2E2E2E2E2F5F5F5F5F5EFEFE2E2E2E2E2E2E2E2E2E2E2
310
E2E2E2E2E2E2E2E2E2E2E2E2E2E2E2E2E2E2E2E2E2E2E2E2E2E2E2E2E2E2E2E2E2E2E2E2E2E2E2E2E2E2E2E2E2E2E2EAE2E2E2E2E2E2F5EF00E2E2E2E2E2E2E2EAE2E2E2E2E2E228ECECECECE2E2E2E2E2E2F5F5F5F5F5EFEFE2E2E2E2E2E2E2E2E2E2E2E2E2E2E2E2E2E2E2E2E2E2E2E2E2E2E2E2E2E2E2E2E2E2E2E2E2E2
310
E2E2E2E2E2E2E2E2E2E2E2E2E2E2E2E2E2E2E2E2EAE2E2E2E2E2E2F5EF00E2E2E2E2E2E2E2EAE2E2E2E2E2E228ECECEC28E2E2E2E2E2E2E2E2E2E2E2EFEFE2E2E2E2EFE2E2E2E2E2E228282828282828282828282828E2282828E2E2E2E2E2E2E2E2E2E2E2E2E2E2E2E2E2E2E2E2E2E2E2E2E2E2E2E2E2E2EAE2E2E2E2E2E2
310
F5EF00E2E2E2E2E2E2E2EAE2E2E2E2E2E2ECE2ECEC28E2E2E2E2E2E2E2E2E2E2E2EFEFEFEFEFEFEFE2E2E2E2E2E228ECECECE2ECECECECECE2EC28E228E228E2E2E2E2E2E2E2E2E2E2E2E2E2E2E2E2E2E2E2E2E2E2E2E2E2E2E2E2E2E2EAE2E2E2E2E2E2F5EF00E2E2E2E2E2E2E2EAE2E2E2E2E2E2282828EC28E2E2E2E2E2
310
E2E2E2E2E2E2EFEFEFEFEFEFE2E2E2E2E2EFEF28ECECE2ECECECECE2E2ECEC282828E228E2E2E2E2E2E2E2E2E2E2E2E2E2E2E2E2E2E2E2E2E2E2E2E2E2E2E2E2E2E2EAE2E2E2E2E2E2F5EF00E2E2E2E2E2E2E2EAE2E2E2E2E2E2E2E228ECECE2E2E2E2E2E2E2E2E2E2E2EFEFE2E2EFEFEFEFEFEFEFEFEF28E2ECECECECECEC
310
ECECE2E2ECECE2E228E2E2E2E2E2E2E2E2E2E2E2E2E2E2E2E2E2E2E2E2E2E2E2E2E2E2E2E2E2E2EAE2E2E2E2E2E2F5EF00E2E2E2E2E2E2E2EAE2E2E2E2E2E2282828E2ECE2E2E2E2E2E2E2E2E2E2E2EFEFE2E2EFEFEFEFEFEFEFEFEF28ECECECECECECECECECECECE2E2ECEC28E2E2E2E2E2E2E2E2E2E2E2E2E2E2E2E2E2E2
310
E2E2E2E2E2E2E2E2E2E2E2E2EAE2E2E2E2E2E2F5EF00E2F5E2E2E2E2E2EAE2E2E2E2E2E22828282828E2E2E2E2E2E2E2E2E2E2E2E2E2EFE2E2EFEFF5ECEFEFE2E228282828282828282828282828ECEC2828E2E2E2E2E2E2E2E2E2E2E2E2E2E2E2E2E2E2E2E2E2E2E2E2E2E2E2E2E2E2EAE2E2E2F5E2E2F5EF00E2F5E2E2E2
310
E2E2EAE2E2E2E2E2E2E2E2E2E2E2E2E2E2E2E2E2E2E2E2F5F5F5F5F5EFE2EFEFF5ECECEFE2E2E2E2E2E2E2E2E2E2E2E2E2E2E2E2E2E2E2E2E2E2E2E2E2E2E2E2E2E2E2E2E2E2E2E2E2E2E2E2E2E2E2E2E2E2E2E2E2EAE2E2E2F5E2E2F5EF00E2F5E2E2E2E2E2EAE2E2E2E2E2E2E2E2E2E2E2E2E2E2E2E2E2E2E2E2F5F5F5F5
310
F5EFEFEFECECECECEFE2E2E2E2E2E2E2E2E2E2E2E2E2E2E2E2E2E2E2E2E2E2E2E2E2E2E2E2E2E2E2E2E2E2E2E2E2E2E2E2E2E2E2E2E2E2E2E2E2EAE2E2E2F5E2E2F5EF00E2F5E2E2E2E2E2EAE2E2E2E2E2E2E2E2E2E2E2E2E2E2E2E2E2E2E2E2E2E2E2E2E2E2EFEFECECECECEFE2E2E2E2E2E2E2E2E2E2E2E2E2E2E2E2E2E2
310
E2E2E2E2E2E2E2E2E2E2E2E2E2E2E2E2E2E2E2E2E2E2E2E2E2E2E2E2E2E2E2EAE2E2E2F5E2E2F5EF00E2F5E2E2E2E2E2EAE2E2E2E2E2E2E2E2E2E2E2E2E2E2E2E2E2E2E2E2E2E2E2E2E2E2E2EFECECECECEFE2E2E2E2E2E2E2E2E2E2E2E2E2E2E2E2E2E2E2E2E2E2E2E2E2E2E2E2E2E2E2E2E2E2E2E2E2E2E2E2E2E2E2E2E2
310
E2E2E2E2EAE2E2E2F5E2E2F5EF00E2F5E2E2E2E2E2EAE2E2E2E2E2E2E2E2E2E2E2E2E2E2E2E2E2E2E2E2E2E2E2E2E2E2E2E2E2F5ECE2E2E2E2E2E2E2E2E2E2E2E2E2E2E2E2E2E2E2E2E2E2E2E2E2E2E2E2E2E2E2E2E2E2E2E2E2E2E2E2E2E2E2E2E2E2E2E2E2E2E2EAE2E2E2F5E2E2F5EF00E2F5E2E2E2E2E2EAE2E2E2E2E2
310
E2E2E2E2E2E2E2E2E2E2E2E2E2E2E2E2E2E2E2E2E2E2E2E2F5ECECE2E2E2E2E2E2E2E2E2E2E2E2E2E2E2E2E2E2E2E2E2E2E2E2E2E2E2E2E2E2E2E2E2E2E2E2E2E2E2E2E2E2E2E2E2E2E2E2E2E2EAE2E2E2F5E2E2F5EF00E2F5E2E2E2E2E2EAE2E2E2E2E2E2E2E2E2E2E2E2E2E2E2E2E2E2E2E2E2E2E2E2E2E2E2EFECECECEF
310
EFE2E2E2E2E2E2E2E2E2E2E2E2E2E2E2E2E2E2E2E2E2E2E2E2E2E2E2E2E2E2E2E2E2E2E2E2E2E2E2E2E2E2E2E2E2E2E2E2E2EAE2E2E2F5E2E2F5EF00E2F5E2E2E2E2E2EAE2E2E2E2E2E2E2E2E2E2E2E2E2E2E2E2E2E2E2E2F5F5F5F5F5E2EFEFECECECEFEFE2E2E2E2E2E2E2E2E2E2E2E2E2E2E2E2E2E2E2E2E2E2E2E2E2E2
310
E2E2E2E2E2E2E2E2E2E2E2E2E2E2E2E2E2E2E2E2E2E2E2EAE2E2E2F5E2E2F5EF00E2F5E2E2E2E2E2EAE2E2E2E2E2E2E2E2E2E2E2E2E2E2E2E2E2E2E2E2F5F5F5F5F5EFEFEFECECECEFEFE2E2E2E2E2E2E2E2E2E2E2E2E2E2E2E2E2E2E2E2E2E2E2E2E2E2E2E2E2E2E2E2E2E2E2E2E2E2E2E2E2E2E2E2E2E2E2E2E2EAE2E2E2
310
F5E2E2F5EF00E2F5E2E2E2E2E2EAE2E2E2E2E2E2E2E2E2E2E2E2E2E2E2E2E2E2E2E2E2E2E2E2EFEFE2EFEFF5ECEFEFE2E2E2E2E2E2E2E2E2E2E2E2E2E2E2E2E2E2E2E2E2E2E2E2E2E2E2E2E2E2E2E2E2E2E2E2E2E2E2E2E2E2E2E2E2E2E2E2E2EAE2E2E2F5E2E2F5EF00E2F5E2E2E2E2E2EAE2E2E2E2E2E2E2E2E2E2E2E2E2
310
E2E2E2E2E2E2E2E2E2E2EFDCE2EFEFE2F5ECEFEFE2E2E2E2E2E2E2E2E2E2E2E2E2E2E2E2E2E2E2E2E2E2E2E2E2E2E2E2E2E2E2E2E2E2E2E2E2E2E2E2E2E2E2E2E2E2E2E2E2EAE2E2E2F5E2E2F5EF00E2F5E2E2E2E2E2EAE2E2E2E2E2E2E2E2E2E2E2E2E2E2E2E2E2E2E2E2E2E2EFEFE2E2EFEFEFEFEFEFEFE2E2E2E2E2E2E2
310
E2E2E2E2E2E2E2E2E2E2E2E2E2E2E2E2E2E2E2E2E2E2E2E2E2E2E2E2E2E2E2E2E2E2E2E2E2E2E2E2E2E2EAE2E2E2F5E2E2F5EF00E2F5E2E2E2E2E2EAE2E2E2E2E2E2E2E2E2E2E2E2E2E2E2E2E2E2E2E2E2E2EFEFEFEFEFEFEFEFEFEFF5F5F5F5F5F5F5F5F5F5F5F5F5F5E2E2E2E2E2E2E2E2E2E2E2E2E2E2E2E2E2E2E2E2E2
310
E2E2E2E2E2E2E2E2E2E2E2E2E2E2E2EAE2E2E2F5E2E2F5EF00E2F5E2E2E2E2E2EAE2E2E2E2E2E2E2E2E2E2E2E2E2E2E2E2E2E2E2E2E2E2EFEFE2E2E2E2E2E2E2EFF5F5F5F5F5F5F5F5F5F5F5F5F5F5E2E2E2E2E2E2E2E2E2E2E2E2E2E2E2E2E2E2E2E2E2E2E2E2E2E2E2E2E2E2E2E2E2E2E2E2EAE2E2E2F5E2E2F5EF00E2F5
310
E2E2E2E2E2EAE2E2E2E2E2E2E2E2E2E2E2E2EFEFEFEFEFEFEFEFEFEFEFEFEFEFE2E2E2E2E2EFF5F5F5F5F5F5F5F5F5F5F5F5F5E2E2E2E2E2E2E2E2E2E2E2E2E2E2E2E2E2E2E2E2E2E2E2E2E2E2E2E2E2E2E2E2E2E2E2E2E2EAE2E2E2F5E2E2F5EF00E2F5E2E2E2E2E2EAE2E2E2E2E2E2E2E2E2E2E2E2EFEFEFEFEFEFEFEFEF
310
EFEFEFEFEFE2E2E2E2E2EFF5F5F5F5F5F5F5F5F5F5F5F5F5F5F5F5F5F5F5F5F5F5E2E2E2E2E2E2E2E2E2E2E2E2E2E2E2E2E2E2E2E2E2E2E2E2E2E2E2E2EAE2E2E2F5E2E2F5EF00E2E2E2E2E2E2E2EAE2E2E2E2E2E2E2E2E2E2E2E2E2E2E2E2E2E2E2E2E2E2EFEFEFEFEFE2E2EFEFEFF5F5F5F5F5F5F5F5F5F5F5F5F5F5F5F5
310
F5F5F5F5F5F5E2E2E2E2E2E2E2E2E2E2E2E2E2E2E2E2E2E2E2E2E2E2E2E2E2E2E2E2EAE2E2E2E2E2E2F5EF00E2E2E2E2E2E2E2EAE2E2E2E2E2E2E2E2E2E2E2E2E2E2E2E2E2E2E2E2E2E2EFEFE2E2EFEFEFEFEFEFEFE2E2E2E2E2E2E2E2E2E2E2E2E2E2E2E2E2E2E2E2E2E2E2E2E2E2E2E2E2E2E2E2E2E2E2E2E2E2E2E2E2E2
310
E2E2E2E2E2E2E2EAE2E2E2E2E2E2F5EF00E2E2E2E2E2E2E2EAE2E2E2E2E2E2E2E2E2E2E2E2E2E2E2E2E2E2E2E2E2E2EFEFE2E2E2EFEFEFEFEFEFE2E2E2E2E2E2E2E2E2E2E2E2E2E2E2E2E2E2E2E2E2E2E2E2E2E2E2E2E2E2E2E2E2E2E2E2E2E2E2E2E2E2E2E2E2E2E2E2E2EAE2E2E2E2E2E2F5EF00E2E2E2E2E2E2E2EAE2E2
310
E2E2E2E2E2E2E2E2E2E2E2E2E2E2E2E2E2E2E2E2EFEFE2E2E2EFEFE2E2EFEFE2E2E2E2E2E2E2E2E2E2E2E2E2E2E2E2E2E2E2E2E2E2E2E2E2E2E2E2E2E2E2E2E2E2E2E2E2E2E2E2E2E2E2E2E2E2E2E2E2EAE2E2E2E2E2E2F5EF00E2E2E2E2E2E2E2EAE2E2E2E2E2E2E2E2E2E2E2E2E2E2E2E2E2E2E2E2E2E2EFEFE2E2E2EFEF
310
E2E2EFEFE2E2E2E2E2E2E2E2E2E2E2E2E2E2E2E2E2E2E2E2E2E2E2E2E2E2E2E2E2E2E2E2E2E2E2E2E2E2E2E2E2E2E2E2E2E2E2E2E2EAE2E2E2E2E2E2F5EF00E2E2E2E2E2E2E2EAE2E2E2E2E2E2E2E2E2E2E2E2E2E2E2E2E2F5F5F5F5F5EFEFE2E2E2EFEFE2E2EFEFECE2E2E2E2E2E2E2E2E2E2E2E2E2E2E2E2E2E2E2E2E2E2
310
E2E2E2E2E2E2E2E2E2E2E2E2E2E2E2E2E2E2E2E2E2E2E2E2E2E2EAE2E2E2E2E2E2F5EF00E2E2E2E2E2E2E2EAE2E2E2E2E2E2E2E2E2E2E2E2E2E2E2E2E2F5F5F5F5F5EFEFEFEFEFEFEFE2E2EFEFECE2E2E2E2E2E2E2E2E2E2E2E2E2E2E2E2E2E2E2E2E2E2E2E2E2E2E2E2E2E2E2E2E2E2E2E2E2E2E2E2E2E2E2E2E2E2E2E2EA
310
E2E2E2E2E2E2F5EF00E2E2E2E2E2E2E2EAE2E2E2E2E2E2E2E2E2E2E2E2E2E2E2E2E2E2E2E2E2E2EFEFE2E2E2E2E2E2E2EFEFEFE2E2E2E2E2E2E2E2E2E2E2E2E2E2E2E2E2E2E2E2E2E2E2E2E2E2E2E2E2E2E2E2E2E2E2E2E2E2E2E2E2E2E2E2E2E2E2E2EAE2E2E2E2E2E2F5EF00E2E2E2E2E2E2E2EAE2E2E2E2E2E2E2E2E2E2
310
E2E2E2E2E2E2E2E2E2E2E2E2EFEFE2E2E2E2E2E2EFEFE2EFE2E2E2E2E2E2E2E2E2E2E2E2E2E2E2E2E2E2E2E2E2E2E2E2E2E2E2E2E2E2E2E2E2E2E2E2E2E2E2E2E2E2E2E2E2E2E2E2EAE2E2E2E2E2E2F5EF00E2E2E2E2E2E2E2EAE2E2E2E2E2E2E2E2E2E2E2E2E2E2E2E2E2E2E2E2E2E2EFEFECEFEFEFEFEFEFEFEFEFE2E2E2
310
E2E2E2E2E2E2E2E2E2E2E2E2E2E2E2E2E2E2E2E2E2E2E2E2E2E2E2E2E2E2E2E2E2E2E2E2E2E2E2E2E2E2E2E2E2EAE2E2E2E2E2E2F5EF00E2F5E2E2E2E2E2EAE2E2E2E2E2E2E2E2E2E2E2E2E2E2E2E2E2E2E2E2E2E2EFECECEFEFEFEFEFEFEFEFEFE2E2E2E2E2E2E2E2E2E2E2E2E2E2E2E2E2E2E2E2E2E2E2E2E2E2E2E2E2E2
310
E2E2E2E2E2E2E2E2E2E2E2E2E2E2E2E2E2E2EAE2E2E2F5E2E2F5EF00E2F5E2E2E2E2E2EAE2E2E2E2E2E2E2E2E2E2E2E2E2E2E2E2E2E2E2E2E2E2EFECECE2E2E2E2E2E2E2EFE2E2E2E2E2E2E2E2E2E2E2E2E2E2E2E2E2E2E2F5F5E2E2E2E2E2E2E2E2E2E2E2E2E2E2E2E2E2E2E2E2E2E2E2E2E2E2E2E2EAE2E2E2F5E2E2F5EF
310
00E2F5E2E2E2E2E2EAE2E2E2E2E2E2E2E2E2E2E2E2E2E2E2E2E2E2E2E2E2E2EFECECE2E2E2E2E2E2E2EFE2F5F5F5F5F5F5F5F5F5F5F5F5F5E2E2E2E2E2F5F5E2E2E2E2E2E2E2E2E2E2E2E2E2E2E2E2E2E2E2E2E2E2E2E2E2E2E2E2EAE2E2E2F5E2E2F5EF00E2F5E2E2E2E2E2EAE2E2E2E2E2E2E2E2E2E2E2E2E2E2E2E2E2E2
310
E2E2E2EFEFEFEFE2E2E2E2E2E2EFEFE2F5F5F5F5F5F5F5F5F5F5F5F5F5E2E2E2E2E2F5F5ECECECECE2E2E2E2E2E2E2E2E2E2E2E2E2E2E2E2E2E2E2E2E2E2E2E2EAE2E2E2F5E2E2F5EF00E2F5E2E2E2E2E2EAE2E2E2E2E2E2E2E2E2E2E2E2E2E2E2E2E2F5F5F5F5F5EFEFEFE2E2E2E2E2E2EFEFE2F5E2E2E2E2E2E2E2E2E2E2
310
E2F5E2E2E2E2E2DCDCDCDCDCDCDCDCDCDCDCDCDCDCDCDCDCDCDCDCDCDCE2E2E2E2E2E2E2E2EAE2E2E2F5E2E2F5EF00E2F5E2E2E2E2E2EAE2E2E2E2E2E2E2E2E2E2E2E2E2E2E2E2E2F5F5F5F5F5EFEFEFEFEFEFEFE2E2EFEFE2F5F5F5F5F5F5F5F5F5F5F5F5F5E2E2E2E2E2DCDCDCDCDCDCDCDCDCDCDCDCDCDCDCDCDCDCDCDC
310
DCDCE2E2E2E2E2E2E2E2EAE2E2E2F5E2E2F5EF00E2F5E2E2E2E2E2EAE2E2E2E2E2E2E2E2E2E2E2E2E2E2E2E2E2E2E2E2E2E2EFEFE2E2EFEFEFEFEFEFEFE2E2E2E2E2E2E2E2E2E2E2E2E2E2E2E2E2E2E2DCE2E2E2E2ECE2E2E2E2DCDCE2E2E2E2E2E2E2E2E2DCE2E2E2E2E2E2E2E2EAE2E2E2F5E2E2F5EF00E2F5E2E2E2E2E2
310
EAE2E2E2E2E2E2E2E2E2E2E2E2E2E2E2E2E2E2E2E2E2E2E2EFDCE2EFEFE2E2E2EFEFE2E2E2E2E2E2E2E2E2E2E2E2E2E2E2E2E2E2E2DCE2E2E2E2ECE2E2E2E2DCDCE2E2E2E2E2E2E2E2E2DCE2E2E2E2E2E2E2E2EAE2E2E2F5E2E2F5EF00E2F5E2E2E2E2E2EAE2E2E2E2E2E2E2E2E2E2E2E2E2E2E2E2E2E2E2E2E2E2E2E2EFDC
310
E2EFEFF5ECEFEFE2E2E2E2E2E2E2E2E2E2E2E2E2E2E2E2E2E2E2DCE2E2E2E2ECE2E2E2E2DCDCE2E2E2E2E2E2E2E2E2DCE2E2E2E2E2E2E2E2EAE2E2E2F5E2E2F5EF00E2F5E2E2E2E2E2EAE2E2E2E2E2E2E2E2E2E2E2E2E2E2E2E2E2E2E2E2E2E2E2E2E2EFEFEFECECECECEFE2E2E2E2E2E2E2E2E2E2E2E2E2E2E2E2E2E2E2DC
310
E2E2E2E2ECE2E2E2E2DCDCE2E2E2E2E2E2E2E2E2DCE2E2E2E2E2E2E2E2EAE2E2E2F5E2E2F5EF00E2F5E2E2E2E2E2EAE2E2E2E2E2E2E2E2E2E2E2E2E2E2E2E2E2E2E2E2E2F5F5F5F5F5EFEFECECECECEFE2E2E2E2E2E2E2E2E2E2E2E2E2E2E2E2E2E2E2DCE2E2E2E2ECE2E2E2E2DCDCE2E2E2E2E2E2E2E2E2DCE2E2E2E2E2E2
310
E2E2EAE2E2E2F5E2E2F5EF00E2F5E2E2E2E2E2EAE2E2E2E2E2E2E2E2E2E2E2E2E2E2E2E2E2E2E2E2E2F5F5F5F5F5E2EFECECECECEFE2E2E2E2E2E2E2E2E2E2E2E2E2E2E2E2E2E2E2DCE2E2E2E2E2E2E2E2E2DCDCE2E2E2E2E2E2E2E2E2DCE2E2E2E2E2E2E2E2EAE2E2E2F5E2E2F5EF00E2F5E2E2E2E2E2EAE2E2E2E2E2E2E2
310
E2E2E2E2E2E2E2E2E2E2E2E2E2E2E2E2E2E2E2E2E2E2ECECECE2E2E2E2E2E2E2E2E2E2E2E2E2E2E2E2E2E2E2E2DCE2E2E2E2E2E2E2E2E2DCDCE2E2E2E2E2E2E2E2E2DCE2E2E2E2E2E2E2E2EAE2E2E2F5E2E2F5EF00E2F5E2E2E2E2E2EAE2E2E2E2E2E2E2E2E2E2E2E2E2E2E2E2E2E2E2E2E2E2E2E2E2E2E2E2E2F5ECE2E2E2
310
E2E2E2E2E2E2E2E2E2E2E2E2E2E2E2E2E2E2DCE2E2E2E2E2E2E2E2E2DCDCE2E2E2E2E2E2E2E2E2DCE2E2E2E2E2E2E2E2EAE2E2E2F5E2E2F5EF00E2F5E2E2E2E2E2EAE2E2E2E2E2E2E2E2E2E2E2E2E2E2E2E2E2E2E2E2E2F5F5F5F5F5E2EFECECECECEFE2E2E2E2E2E2E2E2E2E2E2E2E2E2E2E2E2E2E2DCE2E2E2E2E2E2E2E2
310
E2DCDCE2E2E2E2E2E2E2E2E2DCE2E2E2E2E2E2E2E2EAE2E2E2F5E2E2F5EF00E2F5E2E2E2E2E2EAE2E2E2E2E2E2E2E2E2E2E2E2E2E2E2E2E2E2E2E2E2F5F5F5F5F5EFEFECECECECEFE2E2E2E2E2E2E2E2E2E2E2E2E2E2E2E2E2E2E2DCDCDCDCDCDCDCDCDCDCDCDCDCDCDCDCDCDCDCDCDCDCE2E2E2E2E2E2E2E2EAE2E2E2F5E2
310
E2F5EF00E2F5E2E2E2E2E2EAE2E2E2E2E2E2E2E2E2E2E2E2E2E2E2E2E2E2F5F5F5F5E2E2E2EFEFEFECECECECEFE2E2E2E2E2E2E2E2E2E2E2E2E2E2E2E2F5F5E2DCDCDCDCDCF5DCDCDCDCDCDCF5F5DCDCF0DCDCDCDCDCE2E2E2E2E2E2E2E2EAE2E2E2F5E2E2F5EF00E2E2E2E2E2E2E2EAE2E2E2E2E2E2E2E2E2E2E2E2E2E2E2
310
E2E2E2F5F5F5F5E2E2E2EFEFEFEFF5ECECEFECECECECECE2E2E2E2E2E2E2E2E2E2E2F5F5E2DCE2E2E2E2F5F5E2E2E2DCDCF5F5E2E2F5E2E2E2DCDCE2E2E2E2E2E2E2E2EAE2E2E2E2E2E2F5EF00E2E2E2E2E2E2E2EAE2E2E2E2E2E2E2E2E2E2E2E2E2E2E2E2F5F5F5F5F5F5E2E2EFEFE2EFEFF5ECEFEFECECE2E2ECE2E2E2E2
310
E2E2E2E2E2E2E2E2ECE2DCE2E2E2F5E2F5E2E2E2DCDCECE2E2F5F5E2E2E2DCDCE2E2E2E2E2E2E2E2EAE2E2E2E2E2E2F5EF00E2E2E2E2E2E2E2EAE2E2E2E2E2E2E2E2E2E2E2E2E2E2E2E2F5F5F5F5F5F5EFEFE2E2EFEFEFEFEFEFEFECECE2E2ECE2E2ECECECE2E2E2E2E2E2E2ECE2DCE2E2E2F5E2F5E2E2E2DCDCECE2F5E2E2
310
F5E2E2DCDCE2E2E2E2E2E2E2E2EAE2E2E2E2E2E2F5EF00E2E2E2E2E2E2E2EAE2E2E2E2E2E2E2E2E2E2E2E2E2E2E2E2E2F5F5F5F5F5EFEFE2E2EFEFEFEFEFEFEFECECE2E2ECE2ECECECECECE2E2E2E2E2E2ECE2DCE2E2F5E2E2E2F5E2E2DCDCECE2F5E2E2F5E2E2DCDCE2E2E2E2E2E2E2E2EAE2E2E2E2E2E2F5EF00E2E2E2E2
310
E2E2E2EAE2E2E2E2E2E2E2E2E2E2E2E2E2E2E2E2E2F5F5F5F5F5EFEFEFEFEFEFEFE2E2EFEFECECE2E2ECECECE2E2ECE2ECE2E2E2E2E2ECE2DCE2F5E2E2E2E2E2F5E2DCDCECF5E2E2E2E2F5E2DCDCE2E2E2E2E2E2E2E2EAE2E2E2E2E2E2F5EF00E2E2E2E2E2E2E2EAE2E2E2E2E2E2E2E2E2E2E2E2E2E2E2E2E2E2E2E2E2EFEF
310
EFEFE2E2E2E2E2E2EFEFECECE2E2ECECECE2E2E2ECECE2E2E2E2E2ECECECECECE2E2ECE2E2ECECECECECF5E2E2E2E2E2F5DCDCE2E2E2E2E2E2E2E2EAE2E2E2E2E2E2F5EF00E2E2E2E2E2E2E2EAE2E2E2E2E2E2E2E2E2E2E2E2E2E2E2E2E2E2E2E2E2EFEFE2EFE2E2E2E2E2E2EFEFECECE2E2ECECECE2E2ECE2ECE2E2E2E2E2
310
E2E2DCE2F5E2E2ECE2E2F5E2DCDCF5E2E2E2E2E2E2F5DCDCE2E2E2E2E2E2E2E2EAE2E2E2E2E2E2F5EF00E2E2E2E2E2E2E2EAE2E2E2E2E2E2E2E2E2E2E2E2E2E2E2E2E2E2E2E2E2E2EFECECE2E2E2E2E2E2E2EFECECE2E2ECE2ECECECECECE2E2E2E2E2E2E2E2DCF5E2E2E2ECE2E2E2F5DCDCF5E2E2E2E2E2E2F5DCDCE2E2E2
310
E2E2E2E2E2EAE2E2E2E2E2E2F5EF00E2E2E2E2E2E2E2EAE2E2E2E2E2E2E2E2E2E2E2E2E2E2E2E2E2E2E2E2E2E2EFECECE2E2E2E2E2E2E2EFECECE2E2ECE2E2ECECECE2E2E2E2E2E2E2E2E2F5DCDCDCDCECDCDCDCDCF5DCDCDCDCDCDCDCDCDCDCDCE2E2E2E2E2E2E2E2EAE2E2E2E2E2E2F5EF00E2F5E2E2E2E2E2EAE2E2E2E2
310
E2E2E2E2E2E2E2E2E2E2E2E2E2E2E2E2E2E2EFECECEFEFEFEFEFEFEFEFECECE2E2ECE2E2E2E2E2E2E2E2E2E2E2E2E2E2F5F5DCDCDCECDCDCDCDCDCDCDCDCDCDCDCDCDCDCDCDCE2E2E2E2E2E2E2E2EAE2E2E2F5E2E2F5EF00E2F5E2E2E2E2E2EAE2E2E2E2E2E2E2E2E2E2E2E2E2E2E2E2F5F5F5F5F5F5EFEFECE2E2E2E2E2EF
310
EFE2ECECE2E2ECE2E2E2E2E2E2E2E2E2E2E2E2E2E2F5F5E2E2E2ECE2E2E2E2E2E2E2E2E2E2E2E2E2E2E2E2E2E2E2E2E2E2E2E2EAE2E2E2F5E2E2F5EF00E2F5E2E2E2E2E2EAE2E2E2E2E2E2E2E2E2E2E2E2E2E2E2E2F5F5F5F5F5F5EFEFE2E2E2E2E2E2EFEFE2ECECE2E2ECE2E2E2E2E2E2E2E2E2E2E2E2E2E2F5F5ECECECEC
310
E2E2E2E2E2E2E2E2E2E2E2E2E2E2E2E2E2E2E2E2E2E2E2E2EAE2E2E2F5E2E2F5EF00E2F5E2E2E2E2E2EAE2E2E2E2E2E2E2E2E2E2E2E2E2E2E2E2E2F5F5F5F5F5EFEFEFEFEFEFE2E2E2EFECECECE2E2ECE2E2E2E2E2E2E2E2E2E2E2E2E2E2E2E2E2E2E2E2E2E2E2E2E2E2E2E2E2E2E2E2E2E2E2E2E2E2E2E2E2E2E2E2EAE2E2
310
E2F5E2E2F5EF00E2F5E2E2E2E2E2EAE2E2E2E2E2E2E2E2E2E2E2E2E2E2E2E2E2F5F5F5F5F5EFEFEFEFEFEFEFE2E2EFECECECECECECE2E2E2E2E2E2E2E2E2E2E2E2E2E2E2E2E2E2E2E2E2E2E2E2E2E2E2E2E2E2E2E2E2E2E2E2E2E2E2E2E2E2E2E2EAE2E2E2F5E2E2F5EF00E2F5E2E2E2E2E2EAE2E2E2E2E2E2E2E2E2E2E2E2
310
E2E2E2E2E2F5F5F5F5F5EFEFE2E2E2EFEFE2E2EFECEFECECE2ECE2E2E2E2E2E2E2E2E2E2E2E2E2E2E2E2E2E2E2E2E2E2E2E2E2E2E2E2E2E2E2E2E2E2E2E2E2E2E2E2E2E2E2E2EAE2E2E2F5E2E2F5EF00E2F5E2E2E2E2E2EAE2E2E2E2E2E2E2E2E2E2E2E2E2E2E2E2E2E2E2E2E2E2EFEFE2E2E2EFEFE2E2EFEFE2E2ECECECEC
310
ECECE2E2E2E2E2E2E2E2E2E2E2E2E2E2E2E2E2E2E2E2E2E2E2E2E2E2E2E2E2E2E2E2E2E2E2E2E2E2E2E2E2EAE2E2E2F5E2E2F5EF00E2F5E2E2E2E2E2EAE2E2E2E2E2E2E2E2E2E2E2E2E2E2E2E2E2E2E2E2E2E2EFEFE2E2E2EFEFEFEFEFEFE2E228ECECECECECECECECEC282828ECECEC28E2E2E2E2E2E2E2E2E2E2E2E2E2E2
310
E2E2E2E2E2E2E2E2E2E2E2E2E2E2E2E2EAE2E2E2F5E2E2F5EF00E2F5E2E2E2E2E2EAE2E2E2E2E2E2E2E2E2E2E2E2E2E2E2E2E2E2E2E2E2E2EFEFE2E2E2EFEFEFEFEFEFEFEF28E2E2E2ECE2E2E2E2ECECECECECECEC28E2E2E2E2E2E2E2E2E2E2E2E2E2E2E2E2E2E2E2E2E2E2E2E2E2E2E2E2E2E2EAE2E2E2F5E2E2F5EF00E2
310
F5E2E2E2E2E2EAE2E2E2E2E2E2E2E2E2E2E2E2E2E2E2E2E2E2E2E2E2E2EFEFE2E2EFEFEFE2E2E2E2EFEF28ECECECECECECECECECECECE2ECE2E228E2E2E2E2E2E2E2E2E2E2E2E2E2E2E2E2E2E2E2E2E2E2E2E2E2E2E2E2E2E2EAE2E2E2F5E2E2F5EF00E2F5E2E2E2E2E2EAE2E2E2E2E2E2E2E2E2E2E2E2E2E2E2E2E2E2E2E2
310
E2E2EFEFEFEFEFEFEFE2E2E2E2E2E228E2ECECECECECECECECE2EC282828E228E2E2E2E2E2E2E2E2E2E2E2E2E2E2E2E2E2E2E2E2E2E2E2E2E2E2E2E2E2E2EAE2E2E2F5E2E2F5EF00E2F5E2E2E2E2E2EAE2E2E2E2E2E2E2E2E2E2E2E2E2E2E2E2E2E2E2E2E2E2EFEFE2E2EFEFEFE2E2E2E2E2E228ECECEC28ECEC28EC282828
310
28E2282828E2E2E2E2E2E2E2E2E2E2E2E2E2E2E2E2E2E2E2E2E2E2E2E2E2E2E2E2E2E2EAE2E2E2F5E2E2F5EF00E2F5E2E2E2E2E2EAE2E2E2E2E2E2E2E2E2E2E2E2E2E2E2E2E2F5F5F5F5F5EFEFE2E2E2E2EFE2E2E2E2E2E2EFEFEFEFEFE2E2E2E2E2E2E2E2E2E2E2E2E2E2E2E2E2E2E2E2E2E2E2E2E2E2E2E2E2E2E2E2E2E2
310
E2E2E2E2E2E2E2E2EAE2E2E2F5E2E2F5EF00E2F5E2E2E2E2E2EAE2E2E2E2E2E2E2E2E2E2E2E2E2E2E2E2E2F5F5F5F5F5EFEFE2E2E2E2E2E2E2E2E2E2E2E2E2E2E2E2E2E2E2E2E2E2E2E2E2E2E2E2E2E2E2E2E2E2E2E2E2E2E2E2E2E2E2E2E2E2E2E2E2E2E2E2E2E2E2E2E2E2EAE2E2E2F5E2E2F5EF00E2F5E2E2E2E2E2EAE2
310
E2E2E2E2E2E2E2E2E2E2E2E2E2E2E2E2E2E2E2E2E2EFEFEFE2E2E2E2E2E2E2E2E2E2E2E2E2E2E2E2E2E2E2E2E2E2E2E2E2E2E2E2E2E2E2E2E2E2E2E2E2E2E2E2E2E2E2E2E2E2E2E2E2E2E2E2E2E2E2E2E2EAE2E2E2F5E2E2F5EF00E2F5E2E2E2E2E2EAE2E2E2E2E2E2E2E2E2E2E2E2E2E2E2E2E2E2E2E2E2E2EFEFEFE2E2E2
310
E2E2E2E2E2E2E2E2E2E2E2E2E2E2E2E2E2E2E2E2E2E2E2E2E2E2E2E2E2E2E2E2E2E2E2E2E2E2E2E2E2E2E2E2E2E2E2E2E2E2E2E2E2E2EAE2E2E2F5E2E2F5EF00E2F5E2E2E2E2E2EAE2E2E2E2E2E2E2E2E2E2E2E2E2E2E2E2E2E2E2E2E2E2EFEFE2E2E2E2E2E2E2E2E2E2E2E2E2E2E2E2E2E2E2E2E2E2E2E2E2E2E2E2E2E2E2
310
E2E2E2E2E2E2E2E2E2E2E2E2E2E2E2E2E2E2E2E2E2E2E2E2E2E2E2EAE2E2E2F5E2E2F5EF00E2E2E2E2E2E2E2EAE2E2E2E2E2E2E2E2E2E2E2E2E2E2E2E2E2E2E2E2E2E2EFEFEFE2E2E2E2E2E2E2E2E2E2E2E2E2E2E2E2E2E2E2E2E2E2E2E2E2E2E2E2E2E2E2E2E2E2E2E2E2E2E2E2E2E2E2E2E2E2E2E2E2E2E2E2E2E2E2E2E2
310
EAE2E2E2E2E2E2F5EF00E2E2E2E2E2E2E2EAE2E2E2E2E2E2E2E2E2E2E2E2E2E2E2E2E2E2E2E2E2E2E2E2E2E2E2E2E2E2E2E2E2E2E2E2E2E2E2E2E2E2E2E2E2E2E2E2E2E2E2E2E2E2E2E2E2E2E2E2E2E2E2E2E2E2E2E2E2E2E2E2E2E2E2E2E2E2E2E2E2E2EAE2E2E2E2E2E2F5EF00E2E2E2E2E2E2E2EAEAEAEAEAEAEAEAEAEA
310
EAEAEAEAEAEAEAEAEAEAEAEAEAEAEAEAEAEAEAEAEAEAEAEAEAEAEAEAEAEAEAEAEAEAEAEAEAEAEAEAEAEAEAEAEAEAEAEAEAEAEAEAEAEAEAEAEAEAEAEAEAEAEAEAEAEAEAEAEAEAEAEAEAEAE2E2E2E2E2E2F5EF00E2E2E2E2E2E2E2E2E2E2E2E2E2F5F5F5F5F5F5F5F5F5F5F5F5F5F5F5F5F5F5F5F5F5F5F5F5F5F5F5F5F5F5F5
310
F5F5F5F5F5F5F5F5F5F5F5F5F5F5F5F5F5F5F5F5F5F5F5F5F5F5F5F5F5F5F5F5F5F5F5F5F5F5F5F5F5F5F5F5F5F5F5E2E2E2E2E2E2F5EF00E2E2E2E2E2E2E2E2E2E2E2E2E2F5E2E2E2E2E2E2E2E2E2E2E2E2E2E2E2E2E2E2E2E2E2E2E2E2E2E2E2E2E2E2E2E2E2E2E2E2E2E2E2E2E2E2E2E2E2E2E2E2E2E2E2E2E2E2F5E2F5
310
F5F5F5F5F5F5E2E2F5E2E2E2F5F5E2E2E2E2E2F5E2E2E2E2E2E2F5EF00E2E2E2E2E2E2E2E2E2E2E2E2ECECECE2E2E2E2E2E2E2E2E2E2E2E2E2E2E2E2E2E2E2E2E2E2E2E2E2E2E2E2E2E2E2E2E2E2E2E2E2E2E2E2E2E2E2E2E2E2E2E2E2E2E2E2E2F5E2F5F5F5F5F5F5F5E2E2F5E2E2E2F5F5E2E2E2E2E2F5E2E2E2E2E2E2F5
310
EF00E2E2E2E2E2E2E2E2E2E2E2E2ECECECECE2E2E2E2E2F5F5F5F5F5F5F5F5F5F5F5F5F5F5F5F5E2E2E2E2E2E2E2E2E2E2E2E2E2E2E2E2E2E2E2E2E2E2E2E2E2E2E2E2E2E2E2F5E2E2E2E2E2E2E2E2E2E2F5E2E2E2E2E2E2E2E2E2E2F5E2E2E2E2E2E2F5EF00E2E2E2E2E2E2E2E2E2E2E2ECECECECECE2E2E2E2E2F5F5F5F5
310
F5F5F5F5F5F5F5F5F5F5F5F5E2E2E2E2E2E2E2E2E2E2E2E2E2E2E2E2E2E2E2E2E2E2E2E2E2E2E2E2E2E2E2F5E2E2F5F5F5F5F5E2E2E2F5E2E2F5F5F5F5F5E2E2E2F5E2E2E2E2E2E2F5EF00E2E2E2E2E2E2E2E2E2E2E2ECECECECECECE2E2E2E2F5F5F5F5F5F5F5F5F5F5F5F5F5F5F5F5F5F5F5F5F5F5F5F5F5F5F5F5F5E2E2
310
E2E2E2E2E2E2E2E2E2E2E2E2E2E2E2E2F5E2E2E2E2E2E2E2E2E2E2F5E2E2E2E2E2E2E2E2E2E2F5E2E2E2E2E2E2F5EF00E2E2E2E2E2E2E2E2E2E2ECECECECECECECE2E2E2E2F5F5F5F5F5F5F5F5F5F5F5F5F5F5F5F5F5F5F5F5F5F5F5F5F5F5F5F5F5E2E2E2E2E2E2E2E2E2E2E2E2E2E2E2E2E2E2F5E2E2E2E2E2E2E2E2E2E2
310
F5E2E2E2E2E2E2E2E2E2E2F5E2E2E2E2E2E2F5EF00E2F5E2E2E2E2E2E2E2E2ECECECECECECECECE2E2E2F5F5F5F5F5F5F5F5F5F5F5F5F5F5F5F5F5F5F5F5F5F5F5F5F5F5F5F5F5E2E2E2E2E2E2E2E2E2E2E2E2E2E2E2E2E2E2F5F5F5F5F5F5F5F5F5F5F5F5F5F5F5F5F5F5F5F5F5F5F5E2E2E2F5E2E2F5EF00E2F5E2E2E2E2
310
E2E2E2ECECECECECECECECECE2E2E2F5F5F5F5F5F5F5F5F5F5F5F5F5F5F5F5F5F5F5F5F5F5F5F5F5F5E2E2E2E2E2E2E2E2E2E2E2E2E2E2E2E2E2E2E2E2E2F5E2E2E2E2E2E2E2E2E2E2E2E2E2E2E2E2E2E2E2E2E2F5E2E2E2F5E2E2F5EF00E2F5E2E2E2E2E2E2ECECECECECECECECECECECE2E2F5F5F5F5F5F5F5F5F5F5F5F5
310
F5F5F5F5F5F5F5F5F5F5F5F5F5F5E2E2E2E2E2E2E2E2E2E2E2E2E2E2E2E2E2E2E2E2E2F5E2F5F5F5F5F5F5F5F5E2F5F5F5F5F5F5F5E2E2E2E2F5E2E2E2F5E2E2F5EF00E2F5E2E2E2E2E2E2ECECECECECECECECECECECE2E2F5F5F5F5F5F5F5F5F5F5F5F5F5F5F5F5F5F5F5F5F5F5F5F5F5F5E2E2E2E2E2E2E2E2E2E2E2E2E2
310
E2E2E2E2E2E2E2E2F5E2F5F5F5F5F5F5F5F5E2F5F5F5F5F5F5F5E2E2E2E2F5E2E2E2F5E2E2F5EF00E2F5E2E2E2E2E2ECECECECECECECECECECECECECE2E2E2E2E2E2E2E2E2E2E2E2E2E2E2E2E2E2E2E2E2E2E2E2E2E2E2E2E2E2E2E2E2E2E2E2E2E2E2E2E2E2E2E2E2E2E2E2F5E2E2E2E2E2E2E2E2E2E2E2E2E2E2E2E2E2E2
310
E2E2E2F5E2E2E2F5E2E2F5EF00E2F5E2E2E2E2E2ECECECECECECF5ECECECECECECE2E2E2E2E2E2E2E2E2E2E2E2E2E2E2E2E2E2E2E2E2E2E2E2E2E2E2E2E2E2E2E2E2E2E2E2E2E2E2E2E2E2E2E2E2E2E2E2F5E2E2E2E2E2E2E2E2E2E2E2E2E2E2E2E2E2E2E2E2E2F5E2E2E2F5E2E2F5EF00E2F5E2E2E2E2E2E2E2E2E2E2E2F5
310
F5F5F5F5F5F5F5F5F5F5F5F5F5F5F5F5F5F5F5F5F5F5F5F5F5F5F5F5F5F5F5F5F5F5F5F5F5F5F5F5F5F5F5F5F5F5F5F5F5F5F5F5F5F5F5F5F5F5F5F5F5F5F5F5F5F5F5F5F5F5F5F5F5F5F5F5F5E2E2E2F5E2E2F5EF00E2F5E2E2E2E2E2E2E2E2E2E2E2E2E2E2E2E2E2E2E2E2E2E2E2E2E2E2E2E2E2E2E2E2E2E2E2E2E2E2E2
310
E2E2E2E2E2E2E2E2E2E2E2E2E2E2E2E2E2E2E2E2E2E2E2E2E2E2E2E2E2E2E2E2E2E2E2E2E2E2E2E2E2E2E2E2E2E2E2E2E2E2E2E2E2F5E2E2F5EF00E2F5F5F5F5F5F5F5F5E2E2E2E2E2E2E2E2F5F5F5F5F5F5F5F5F5F5F5F5F5F5F5E2E2E2E2E2E2E2E2E2F5F5F5F5F5F5F5F5F5F5F5F5F5F5E2E2E2E2E2E2E2E2E2F5F5F5F5
310
F5F5F5F5F5F5F5F5F5F5F5E2E2E2E2E2E2E2E2F5F5F5F5F5F5F5F5E2E2F5EF00E2E2E2E2E2E2E2E2E2E2E2E2E2E2E2E2E2E2E2E2E2E2E2E2E2E2E2E2E2E2E2E2E2E2E2E2E2E2E2E2E2E2E2E2E2E2E2E2E2E2E2E2E2E2E2E2E2E2E2E2E2E2E2E2E2E2E2E2E2E2E2E2E2E2E2E2E2E2E2E2E2E2E2E2E2E2E2E2E2E2E2E2E2E2E2
310
E2E2F5EF40E2E2E2E2E2E2E2E2E2E2E2E2E2E2E2E2E2E2E2E2E2E2E2E2E2E2E2E2E2E2E2E2E2E2E2E2E2E2E2E2E2E2E2E2E2E2E2E2E2E2E2E2E2E2E2E2E2E2E2E2E2E2E2E2E2E2E2E2E2E2E2E2E2E2E2E2E2E2E2E2E2E2E2E2E2E2E2E2E2E2E2E2E2E2E2E2E2F5EF0CF5F5F5F5F5F5F5F5F5F5F5F5F5F5F5F5F5F5F5F5F5F5
310
F5F5F5F5F5F5F5F5F5F5F5F5F5F5F5F5F5F5F5F5F5F5F5F5F5F5F5F5F5F5F5F5F5F5F5F5F5F5F5F5F5F5F5F5F5F5F5F5F5F5F5F5F5F5F5F5F5F5F5F5F5F5F5F5F5F5F5F5F5F5F5F5F5F5F5F5EF40
  0
XRECORD
  5
562A
102
{ACAD_REACTORS
330
4F63
102
}
330
4F63
100
AcDbXrecord
280
     1
102
MATERIAL
148
0.0
149
0.0
149
0.0
 93
        0
 94
      127
282
     0
 72
     0
 77
     0
171
     0
175
     0
179
     0
273
     0
  0
XRECORD
  5
4F65
102
{ACAD_REACTORS
330
4F63
102
}
330
4F63
100
AcDbXrecord
280
     1
270
     1
271
     1
  0
XRECORD
  5
4F64
102
{ACAD_REACTORS
330
4F63
102
}
330
4F63
100
AcDbXrecord
280
     1
270
     1
271
     1
  0
XRECORD
  5
4F68
102
{ACAD_REACTORS
330
4F63
102
}
330
4F63
100
AcDbXrecord
280
     1
270
     1
271
     1
  0
XRECORD
  5
4F67
102
{ACAD_REACTORS
330
4F63
102
}
330
4F63
100
AcDbXrecord
280
     1
270
     1
271
     1
  0
XRECORD
  5
4F69
102
{ACAD_REACTORS
330
4F63
102
}
330
4F63
100
AcDbXrecord
280
     1
270
     1
271
     1
  0
XRECORD
  5
4F66
102
{ACAD_REACTORS
330
4F63
102
}
330
4F63
100
AcDbXrecord
280
     1
270
     1
271
     1
  0
XRECORD
  5
5629
102
{ACAD_REACTORS
330
4F5B
102
}
330
4F5B
100
AcDbXrecord
280
     1
102
MATERIAL
148
0.0
149
0.0
149
0.0
 93
        0
 94
      127
282
     0
 72
     0
 77
     0
171
     0
175
     0
179
     0
273
     0
  0
XRECORD
  5
4F5D
102
{ACAD_REACTORS
330
4F5B
102
}
330
4F5B
100
AcDbXrecord
280
     1
270
     1
271
     1
  0
XRECORD
  5
4F5C
102
{ACAD_REACTORS
330
4F5B
102
}
330
4F5B
100
AcDbXrecord
280
     1
270
     1
271
     1
  0
XRECORD
  5
4F60
102
{ACAD_REACTORS
330
4F5B
102
}
330
4F5B
100
AcDbXrecord
280
     1
270
     1
271
     1
  0
XRECORD
  5
4F5F
102
{ACAD_REACTORS
330
4F5B
102
}
330
4F5B
100
AcDbXrecord
280
     1
270
     1
271
     1
  0
XRECORD
  5
4F61
102
{ACAD_REACTORS
330
4F5B
102
}
330
4F5B
100
AcDbXrecord
280
     1
270
     1
271
     1
  0
XRECORD
  5
4F5E
102
{ACAD_REACTORS
330
4F5B
102
}
330
4F5B
100
AcDbXrecord
280
     1
270
     1
271
     1
  0
XRECORD
  5
562B
102
{ACAD_REACTORS
330
4F6B
102
}
330
4F6B
100
AcDbXrecord
280
     1
102
MATERIAL
148
0.0
149
0.0
149
0.0
 93
        0
 94
      127
282
     0
 72
     0
 77
     0
171
     0
175
     0
179
     0
273
     0
  0
XRECORD
  5
4F6D
102
{ACAD_REACTORS
330
4F6B
102
}
330
4F6B
100
AcDbXrecord
280
     1
270
     1
271
     1
  0
XRECORD
  5
4F6C
102
{ACAD_REACTORS
330
4F6B
102
}
330
4F6B
100
AcDbXrecord
280
     1
270
     1
271
     1
  0
XRECORD
  5
4F70
102
{ACAD_REACTORS
330
4F6B
102
}
330
4F6B
100
AcDbXrecord
280
     1
270
     1
271
     1
  0
XRECORD
  5
4F6F
102
{ACAD_REACTORS
330
4F6B
102
}
330
4F6B
100
AcDbXrecord
280
     1
270
     1
271
     1
  0
XRECORD
  5
4F71
102
{ACAD_REACTORS
330
4F6B
102
}
330
4F6B
100
AcDbXrecord
280
     1
270
     1
271
     1
  0
XRECORD
  5
4F6E
102
{ACAD_REACTORS
330
4F6B
102
}
330
4F6B
100
AcDbXrecord
280
     1
270
     1
271
     1
  0
XRECORD
  5
5AB5
102
{ACAD_REACTORS
330
5AB4
102
}
330
5AB4
100
AcDbXrecord
280
     1
102
SHADEPLOT
 70
     0
102
SHADEPLOTRESLEVEL
 70
     2
102
SHADEPLOTCUSTOMDPI
 70
   300
  0
XRECORD
  5
5AB7
102
{ACAD_REACTORS
330
5AB6
102
}
330
5AB6
100
AcDbXrecord
280
     1
102
SHADEPLOT
 70
     0
102
SHADEPLOTRESLEVEL
 70
     2
102
SHADEPLOTCUSTOMDPI
 70
   300
  0
ACAD_PROXY_OBJECT
  5
560D
102
{ACAD_REACTORS
330
51E7
102
}
330
51E7
100
AcDbProxyObject
 90
      499
 91
      514
 95
   983063
 70
     0
 93
     5304
310
40D054060020000020000003200101A000080002A5058000000C10000000000000006101010000000000003E0FC000000000000F83F0000000000003E0FC000000000000F83F000000000000049000000000000001240419019018000000C1003FBFFFFFE0000000000003C8FD029018000000C1003FBFFFFFE00000000000
310
03C8FD049018000000C1003FBFFFFFE0000000000003C8FD089018000000C1003FBFFFFFE0000000000003C8FD109018000000C1003FBFFFFFE0000000000003C8FD209018000000C1003FBFFFFFE0000000000003C8FD01405075F5449544C450041501A8000000C800406800020000A94160000003040000000000000012
310
40404000000000000F83F0000000000003E0FC000000000000F83F0000000000003E0FC0000000000001240000000000000049010640640600000030400FEFFFFFF8000000000000F23F40A40600000030400FEFFFFFF8000000000000F23F41240600000030400FEFFFFFF8000000000000F23F42240600000030400FEFFF
310
FFF8000000000000F23F44240600000030400FEFFFFFF8000000000000F23F48240600000030400FEFFFFFF8000000000000F23F409014217D2115051115480105406A0000003200101A000080002A5028000000C10000000000000004901010000000000003E0FC000000000000F83F0000000000003E0FC000000000000F
310
83F000000000000049000000000000001240419019018000000C1003FBFFFFFE0000000000003C8FD029018000000C1003FBFFFFFE0000000000003C8FD049018000000C1003FBFFFFFE0000000000003C8FD089018000000C1003FBFFFFFE0000000000003C8FD109018000000C1003FBFFFFFE0000000000003C8FD20901
310
8000000C1003FBFFFFFE0000000000003C8FD03409065F444154410000
340
11
340
0
340
0
340
0
340
0
340
0
340
0
340
11
340
0
340
0
340
0
340
0
340
0
340
0
340
11
340
0
340
0
340
0
340
0
340
0
340
0
 94
        0
1001
ACAD
1000
AcRTDxfName
1000
CELLSTYLEMAP
1000
AcRTDxfName
1000
CELLSTYLEMAP
1000
AcRTDxfName
1000
CELLSTYLEMAP
  0
XRECORD
  5
562C
102
{ACAD_REACTORS
330
51E7
102
}
330
51E7
100
AcDbXrecord
280
     1
102
ACAD_ROUNDTRIP_PRE2007_TABLESTYLE
 90
      512
 91
        0
  1

 92
      512
 93
        0
  2

 94
      512
 95
        0
  3

  0
ENDSEC
  0
EOF
