  0
SECTION
  2
HEADER
  9
$ACADVER
  1
AC1015
  9
$ACADMAINTVER
 70
    20
  9
$DWGCODEPAGE
  3
ANSI_1252
  9
$INSBASE
 10
0.0
 20
0.0
 30
0.0
  9
$EXTMIN
 10
-0.0000008078504834
 20
0.0000001108869583
 30
0.0
  9
$EXTMAX
 10
353.9999991921495
 20
482.0000001108869
 30
0.0
  9
$LIMMIN
 10
0.0
 20
0.0
  9
$LIMMAX
 10
353.9999991921495
 20
482.0000001108869
  9
$ORTHOMODE
 70
     0
  9
$REGENMODE
 70
     1
  9
$FILLMODE
 70
     1
  9
$QTEXTMODE
 70
     0
  9
$MIRRTEXT
 70
     0
  9
$LTSCALE
 40
10.0
  9
$ATTMODE
 70
     1
  9
$TEXTSIZE
 40
5.0
  9
$TRACEWID
 40
1.0
  9
$TEXTSTYLE
  7
Arial-Bold
  9
$CLAYER
  8
APL Border
  9
$CELTYPE
  6
ByLayer
  9
$CECOLOR
 62
   256
  9
$CELTSCALE
 40
1.0
  9
$DISPSILH
 70
     0
  9
$DIMSCALE
 40
1.0
  9
$DIMASZ
 40
3.0
  9
$DIMEXO
 40
1.5
  9
$DIMDLI
 40
3.75
  9
$DIMRND
 40
0.0
  9
$DIMDLE
 40
0.0
  9
$DIMEXE
 40
1.5
  9
$DIMTP
 40
0.0
  9
$DIMTM
 40
0.0
  9
$DIMTXT
 40
2.5
  9
$DIMCEN
 40
-2.5
  9
$DIMTSZ
 40
0.0
  9
$DIMTOL
 70
     0
  9
$DIMLIM
 70
     0
  9
$DIMTIH
 70
     0
  9
$DIMTOH
 70
     0
  9
$DIMSE1
 70
     0
  9
$DIMSE2
 70
     0
  9
$DIMTAD
 70
     1
  9
$DIMZIN
 70
     1
  9
$DIMBLK
  1

  9
$DIMASO
 70
     1
  9
$DIMSHO
 70
     1
  9
$DIMPOST
  1

  9
$DIMAPOST
  1

  9
$DIMALT
 70
     0
  9
$DIMALTD
 70
     3
  9
$DIMALTF
 40
0.03937007874016
  9
$DIMLFAC
 40
2.0
  9
$DIMTOFL
 70
     1
  9
$DIMTVP
 40
0.0
  9
$DIMTIX
 70
     0
  9
$DIMSOXD
 70
     0
  9
$DIMSAH
 70
     0
  9
$DIMBLK1
  1

  9
$DIMBLK2
  1

  9
$DIMSTYLE
  2
Jase 01
  9
$DIMCLRD
 70
     9
  9
$DIMCLRE
 70
     9
  9
$DIMCLRT
 70
     7
  9
$DIMTFAC
 40
1.0
  9
$DIMGAP
 40
1.0
  9
$DIMJUST
 70
     0
  9
$DIMSD1
 70
     0
  9
$DIMSD2
 70
     0
  9
$DIMTOLJ
 70
     0
  9
$DIMTZIN
 70
     8
  9
$DIMALTZ
 70
     0
  9
$DIMALTTZ
 70
     0
  9
$DIMUPT
 70
     0
  9
$DIMDEC
 70
     0
  9
$DIMTDEC
 70
     0
  9
$DIMALTU
 70
     2
  9
$DIMALTTD
 70
     3
  9
$DIMTXSTY
  7
Arial-Regular
  9
$DIMAUNIT
 70
     0
  9
$DIMADEC
 70
     0
  9
$DIMALTRND
 40
0.0
  9
$DIMAZIN
 70
     0
  9
$DIMDSEP
 70
    46
  9
$DIMATFIT
 70
     0
  9
$DIMFRAC
 70
     0
  9
$DIMLDRBLK
  1
Dot
  9
$DIMLUNIT
 70
     2
  9
$DIMLWD
 70
     9
  9
$DIMLWE
 70
     9
  9
$DIMTMOVE
 70
     0
  9
$LUNITS
 70
     2
  9
$LUPREC
 70
     4
  9
$SKETCHINC
 40
1.0
  9
$FILLETRAD
 40
0.0
  9
$AUNITS
 70
     0
  9
$AUPREC
 70
     0
  9
$MENU
  1
.
  9
$ELEVATION
 40
0.0
  9
$PELEVATION
 40
0.0
  9
$THICKNESS
 40
0.0
  9
$LIMCHECK
 70
     0
  9
$CHAMFERA
 40
0.0
  9
$CHAMFERB
 40
0.0
  9
$CHAMFERC
 40
20.0
  9
$CHAMFERD
 40
0.0
  9
$SKPOLY
 70
     0
  9
$TDCREATE
 40
2452286.590325035
  9
$TDUCREATE
 40
2452286.090325035
  9
$TDUPDATE
 40
2455660.553984861
  9
$TDUUPDATE
 40
2455660.053984861
  9
$TDINDWG
 40
1.3684474653
  9
$TDUSRTIMER
 40
1.3684474653
  9
$USRTIMER
 70
     1
  9
$ANGBASE
 50
0.0
  9
$ANGDIR
 70
     0
  9
$PDMODE
 70
     3
  9
$PDSIZE
 40
3.0
  9
$PLINEWID
 40
0.0
  9
$SPLFRAME
 70
     0
  9
$SPLINETYPE
 70
     6
  9
$SPLINESEGS
 70
     8
  9
$HANDSEED
  5
5C7F
  9
$SURFTAB1
 70
     6
  9
$SURFTAB2
 70
     6
  9
$SURFTYPE
 70
     6
  9
$SURFU
 70
     6
  9
$SURFV
 70
     6
  9
$UCSBASE
  2

  9
$UCSNAME
  2

  9
$UCSORG
 10
0.0
 20
0.0
 30
0.0
  9
$UCSXDIR
 10
1.0
 20
0.0
 30
0.0
  9
$UCSYDIR
 10
0.0
 20
1.0
 30
0.0
  9
$UCSORTHOREF
  2

  9
$UCSORTHOVIEW
 70
     0
  9
$UCSORGTOP
 10
0.0
 20
0.0
 30
0.0
  9
$UCSORGBOTTOM
 10
0.0
 20
0.0
 30
0.0
  9
$UCSORGLEFT
 10
0.0
 20
0.0
 30
0.0
  9
$UCSORGRIGHT
 10
0.0
 20
0.0
 30
0.0
  9
$UCSORGFRONT
 10
0.0
 20
0.0
 30
0.0
  9
$UCSORGBACK
 10
0.0
 20
0.0
 30
0.0
  9
$PUCSBASE
  2

  9
$PUCSNAME
  2

  9
$PUCSORG
 10
0.0
 20
0.0
 30
0.0
  9
$PUCSXDIR
 10
1.0
 20
0.0
 30
0.0
  9
$PUCSYDIR
 10
0.0
 20
1.0
 30
0.0
  9
$PUCSORTHOREF
  2

  9
$PUCSORTHOVIEW
 70
     0
  9
$PUCSORGTOP
 10
0.0
 20
0.0
 30
0.0
  9
$PUCSORGBOTTOM
 10
0.0
 20
0.0
 30
0.0
  9
$PUCSORGLEFT
 10
0.0
 20
0.0
 30
0.0
  9
$PUCSORGRIGHT
 10
0.0
 20
0.0
 30
0.0
  9
$PUCSORGFRONT
 10
0.0
 20
0.0
 30
0.0
  9
$PUCSORGBACK
 10
0.0
 20
0.0
 30
0.0
  9
$USERI1
 70
     0
  9
$USERI2
 70
     0
  9
$USERI3
 70
     0
  9
$USERI4
 70
     0
  9
$USERI5
 70
     0
  9
$USERR1
 40
0.0
  9
$USERR2
 40
0.0
  9
$USERR3
 40
0.0
  9
$USERR4
 40
0.0
  9
$USERR5
 40
0.0
  9
$WORLDVIEW
 70
     1
  9
$SHADEDGE
 70
     3
  9
$SHADEDIF
 70
    70
  9
$TILEMODE
 70
     0
  9
$MAXACTVP
 70
    64
  9
$PINSBASE
 10
0.0
 20
0.0
 30
0.0
  9
$PLIMCHECK
 70
     0
  9
$PEXTMIN
 10
11.46014251777035
 20
3.285575844812797
 30
-0.0015258207003583
  9
$PEXTMAX
 10
189.6073672775216
 20
282.2033753668244
 30
0.0000000349246037
  9
$PLIMMIN
 10
-5.027083396911621
 20
-5.408084392547607
  9
$PLIMMAX
 10
204.8615732192993
 20
291.6449246406555
  9
$UNITMODE
 70
     0
  9
$VISRETAIN
 70
     1
  9
$PLINEGEN
 70
     0
  9
$PSLTSCALE
 70
     1
  9
$TREEDEPTH
 70
  3020
  9
$CMLSTYLE
  2
Standard
  9
$CMLJUST
 70
     0
  9
$CMLSCALE
 40
20.0
  9
$PROXYGRAPHICS
 70
     1
  9
$MEASUREMENT
 70
     1
  9
$CELWEIGHT
370
    -1
  9
$ENDCAPS
280
     0
  9
$JOINSTYLE
280
     0
  9
$LWDISPLAY
290
     0
  9
$INSUNITS
 70
     4
  9
$HYPERLINKBASE
  1

  9
$STYLESHEET
  1
A4 Specifier Manual.ctb
  9
$XEDIT
290
     1
  9
$CEPSNTYPE
380
     0
  9
$PSTYLEMODE
290
     1
  9
$FINGERPRINTGUID
  2
{D079D194-C9C2-11D5-B123-005004D48FB5}
  9
$VERSIONGUID
  2
{92196B7A-5A04-4000-86D9-400D501678BC}
  9
$EXTNAMES
290
     1
  9
$PSVPSCALE
 40
0.0
  9
$OLESTARTUP
290
     0
  0
ENDSEC
  0
SECTION
  2
CLASSES
  0
CLASS
  1
ACDBDICTIONARYWDFLT
  2
AcDbDictionaryWithDefault
  3
ObjectDBX Classes
 90
        0
280
     0
281
     0
  0
CLASS
  1
ACDBPLACEHOLDER
  2
AcDbPlaceHolder
  3
ObjectDBX Classes
 90
        0
280
     0
281
     0
  0
CLASS
  1
LAYOUT
  2
AcDbLayout
  3
ObjectDBX Classes
 90
        0
280
     0
281
     0
  0
CLASS
  1
DICTIONARYVAR
  2
AcDbDictionaryVar
  3
ObjectDBX Classes
 90
        0
280
     0
281
     0
  0
CLASS
  1
PLOTSETTINGS
  2
AcDbPlotSettings
  3
ObjectDBX Classes
 90
        0
280
     0
281
     0
  0
CLASS
  1
DIMASSOC
  2
AcDbDimAssoc
  3
"AcDbDimAssoc|Product Desc:     AcDim ARX App For Dimension|Company:          Autodesk, Inc.|WEB Address:      www.autodesk.com"
 90
    32768
280
     0
281
     0
  0
CLASS
  1
MATERIAL
  2
AcDbMaterial
  3
ObjectDBX Classes
 90
        0
280
     0
281
     0
  0
CLASS
  1
VISUALSTYLE
  2
AcDbVisualStyle
  3
ObjectDBX Classes
 90
     4095
280
     0
281
     0
  0
CLASS
  1
TABLESTYLE
  2
AcDbTableStyle
  3
ObjectDBX Classes
 90
     2047
280
     0
281
     0
  0
CLASS
  1
SCALE
  2
AcDbScale
  3
ObjectDBX Classes
 90
     1153
280
     0
281
     0
  0
CLASS
  1
MLEADERSTYLE
  2
AcDbMLeaderStyle
  3
ACDB_MLEADERSTYLE_CLASS
 90
     4095
280
     0
281
     0
  0
CLASS
  1
EXACTERMXREFMAP
  2
ExAcTermXrefMap
  3
EXAC_SERVICE
 90
    33793
280
     0
281
     0
  0
CLASS
  1
NPOCOLLECTION
  2
AcDbImpNonPersistentObjectsCollection
  3
ObjectDBX Classes
 90
    33921
280
     0
281
     0
  0
CLASS
  1
EXACXREFPANELOBJECT
  2
ExAcXREFPanelObject
  3
EXAC_ESW
 90
    33793
280
     0
281
     0
  0
CLASS
  1
CELLSTYLEMAP
  2
AcDbCellStyleMap
  3
ObjectDBX Classes
 90
     1152
280
     0
281
     0
  0
CLASS
  1
SORTENTSTABLE
  2
AcDbSortentsTable
  3
ObjectDBX Classes
 90
        0
280
     0
281
     0
  0
ENDSEC
  0
SECTION
  2
TABLES
  0
TABLE
  2
VPORT
  5
8
102
{ACAD_XDICTIONARY
360
52E6
102
}
330
0
100
AcDbSymbolTable
 70
     1
  0
VPORT
  5
54B2
330
8
100
AcDbSymbolTableRecord
100
AcDbViewportTableRecord
  2
*Active
 70
     0
 10
0.0
 20
0.0
 11
1.0
 21
1.0
 12
177.0000000163699
 22
241.0000011776872
 13
0.0
 23
0.0
 14
10.0
 24
10.0
 15
2.0
 25
2.0
 16
0.0
 26
0.0
 36
1.0
 17
0.0
 27
0.0
 37
0.0
 40
486.0631380441587
 41
2.243016759776536
 42
50.0
 43
0.0
 44
0.0
 50
0.0
 51
0.0
 71
     0
 72
 20000
 73
     1
 74
     3
 75
     0
 76
     0
 77
     0
 78
     0
281
     0
 65
     1
110
0.0
120
0.0
130
0.0
111
1.0
121
0.0
131
0.0
112
0.0
122
1.0
132
0.0
 79
     0
146
0.0
  0
ENDTAB
  0
TABLE
  2
LTYPE
  5
5
330
0
100
AcDbSymbolTable
 70
     3
  0
LTYPE
  5
14
330
5
100
AcDbSymbolTableRecord
100
AcDbLinetypeTableRecord
  2
ByBlock
 70
     0
  3

 72
    65
 73
     0
 40
0.0
  0
LTYPE
  5
15
330
5
100
AcDbSymbolTableRecord
100
AcDbLinetypeTableRecord
  2
ByLayer
 70
     0
  3

 72
    65
 73
     0
 40
0.0
  0
LTYPE
  5
16
330
5
100
AcDbSymbolTableRecord
100
AcDbLinetypeTableRecord
  2
Continuous
 70
     0
  3
Solid line
 72
    65
 73
     0
 40
0.0
  0
LTYPE
  5
1123
330
5
100
AcDbSymbolTableRecord
100
AcDbLinetypeTableRecord
  2
DASHED
 70
     0
  3
_ _ _ _ _ _ _ _ _ _ _ _ _ _ _ _
 72
    65
 73
     2
 40
0.2
 49
0.1
 74
     0
 49
-0.1
 74
     0
  0
LTYPE
  5
1124
330
5
100
AcDbSymbolTableRecord
100
AcDbLinetypeTableRecord
  2
CENTER
 70
     0
  3
___ _ ___ _ ___ _ ___ _ ___ _ ___ _ ___ _ ___ _
 72
    65
 73
     4
 40
0.95
 49
0.625
 74
     0
 49
-0.125
 74
     0
 49
0.075
 74
     0
 49
-0.125
 74
     0
  0
ENDTAB
  0
TABLE
  2
LAYER
  5
2
102
{ACAD_XDICTIONARY
360
5190
102
}
330
0
100
AcDbSymbolTable
 70
     6
  0
LAYER
  5
10
102
{ACAD_XDICTIONARY
360
51BC
102
}
330
2
100
AcDbSymbolTableRecord
100
AcDbLayerTableRecord
  2
0
 70
     4
 62
     7
  6
Continuous
290
     0
370
    -3
390
F
  0
LAYER
  5
2B
102
{ACAD_XDICTIONARY
360
51BE
102
}
330
2
100
AcDbSymbolTableRecord
100
AcDbLayerTableRecord
  2
APL Joinery
 70
     0
 62
     2
  6
Continuous
370
    -3
390
F
  0
LAYER
  5
75
102
{ACAD_XDICTIONARY
360
51C0
102
}
330
2
100
AcDbSymbolTableRecord
100
AcDbLayerTableRecord
  2
APL Notes
 70
     0
 62
     7
  6
Continuous
370
    -3
390
F
  0
LAYER
  5
40D8
102
{ACAD_XDICTIONARY
360
51C2
102
}
330
2
100
AcDbSymbolTableRecord
100
AcDbLayerTableRecord
  2
APL Border
 70
     0
 62
     7
  6
Continuous
370
    -3
390
F
  0
LAYER
  5
517A
102
{ACAD_XDICTIONARY
360
51C8
102
}
330
2
100
AcDbSymbolTableRecord
100
AcDbLayerTableRecord
  2
APL Hatch
 70
     0
 62
   253
  6
Continuous
370
    -3
390
F
  0
ENDTAB
  0
TABLE
  2
STYLE
  5
3
330
0
100
AcDbSymbolTable
 70
     5
  0
STYLE
  5
11
330
3
100
AcDbSymbolTableRecord
100
AcDbTextStyleTableRecord
  2
Standard
 70
     0
 40
0.0
 41
1.0
 50
0.0
 71
     0
 42
3.0
  3
txt.shx
  4

  0
STYLE
  5
4CD1
330
3
100
AcDbSymbolTableRecord
100
AcDbTextStyleTableRecord
  2
Arial-Bold
 70
     0
 40
0.0
 41
1.0
 50
0.0
 71
     0
 42
5.0
  3
ARIALBD.TTF
  4

1001
ACAD
1000
Arial
1071
 33554466
  0
STYLE
  5
4E65
330
3
100
AcDbSymbolTableRecord
100
AcDbTextStyleTableRecord
  2
Arial-Regular
 70
     0
 40
0.0
 41
1.0
 50
0.0
 71
     0
 42
2.5
  3
ARIAL.TTF
  4

1001
ACAD
1000
Arial
1071
       34
  0
ENDTAB
  0
TABLE
  2
VIEW
  5
6
330
0
100
AcDbSymbolTable
 70
     0
  0
ENDTAB
  0
TABLE
  2
UCS
  5
7
330
0
100
AcDbSymbolTable
 70
     0
  0
ENDTAB
  0
TABLE
  2
APPID
  5
9
330
0
100
AcDbSymbolTable
 70
    10
  0
APPID
  5
12
330
9
100
AcDbSymbolTableRecord
100
AcDbRegAppTableRecord
  2
ACAD
 70
     0
  0
APPID
  5
511A
330
9
100
AcDbSymbolTableRecord
100
AcDbRegAppTableRecord
  2
DCO15
 70
     0
  0
APPID
  5
5172
330
9
100
AcDbSymbolTableRecord
100
AcDbRegAppTableRecord
  2
ACAD_MLEADERVER
 70
     0
  0
APPID
  5
532D
330
9
100
AcDbSymbolTableRecord
100
AcDbRegAppTableRecord
  2
ACAD_PSEXT
 70
     0
  0
APPID
  5
541B
330
9
100
AcDbSymbolTableRecord
100
AcDbRegAppTableRecord
  2
ACAD_EXEMPT_FROM_CAD_STANDARDS
 70
     0
  0
APPID
  5
55F4
330
9
100
AcDbSymbolTableRecord
100
AcDbRegAppTableRecord
  2
ACAUTHENVIRON
 70
     0
  0
APPID
  5
55F5
330
9
100
AcDbSymbolTableRecord
100
AcDbRegAppTableRecord
  2
AcDbDynamicBlockTrueName
 70
     0
  0
APPID
  5
55F6
330
9
100
AcDbSymbolTableRecord
100
AcDbRegAppTableRecord
  2
AcDbDynamicBlockGUID
 70
     0
  0
APPID
  5
55F7
330
9
100
AcDbSymbolTableRecord
100
AcDbRegAppTableRecord
  2
AcDbBlockRepETag
 70
     0
  0
APPID
  5
55F8
330
9
100
AcDbSymbolTableRecord
100
AcDbRegAppTableRecord
  2
AcDbBlockRepBTag
 70
     0
  0
ENDTAB
  0
TABLE
  2
DIMSTYLE
  5
A
330
0
100
AcDbSymbolTable
 70
     3
100
AcDbDimStyleTable
 71
     1
340
36E9
  0
DIMSTYLE
105
36E9
330
A
100
AcDbSymbolTableRecord
100
AcDbDimStyleTableRecord
  2
Jase 01
 70
     0
 41
3.0
 42
1.5
 43
3.75
 44
1.5
 73
     0
 74
     0
 77
     1
 78
     1
140
2.5
141
-2.5
143
0.03937007874016
144
2.0
147
1.0
171
     3
172
     1
176
     9
177
     9
178
     7
271
     0
272
     0
274
     3
283
     0
284
     8
289
     0
340
4E65
341
36E4
371
     9
372
     9
  0
DIMSTYLE
105
3DF4
330
A
100
AcDbSymbolTableRecord
100
AcDbDimStyleTableRecord
  2
ISO-25
 70
     0
 41
4.0
 42
0.625
 43
3.75
 44
1.25
 73
     0
 74
     0
 77
     1
 78
     8
140
2.5
141
2.5
143
0.03937007874016
147
0.625
171
     3
172
     1
271
     2
272
     2
274
     3
278
    44
283
     0
284
     8
340
11
  0
ENDTAB
  0
TABLE
  2
BLOCK_RECORD
  5
1
330
0
100
AcDbSymbolTable
 70
    22
  0
BLOCK_RECORD
  5
1F
102
{ACAD_XDICTIONARY
360
53E6
102
}
330
1
100
AcDbSymbolTableRecord
100
AcDbBlockTableRecord
  2
*Model_Space
340
22
  0
BLOCK_RECORD
  5
4ED0
330
1
100
AcDbSymbolTableRecord
100
AcDbBlockTableRecord
  2
*Paper_Space
340
4ED1
  0
BLOCK_RECORD
  5
36E4
330
1
100
AcDbSymbolTableRecord
100
AcDbBlockTableRecord
  2
_Dot
340
0
  0
BLOCK_RECORD
  5
37BC
102
{ACAD_XDICTIONARY
360
583B
102
}
330
1
100
AcDbSymbolTableRecord
100
AcDbBlockTableRecord
  2
08481
340
0
102
{BLKREFS
331
4AFC
331
4B13
102
}
1001
ACAD
1000
DesignCenter Data
1002
{
1070
     1
1070
     4
1002
}
  0
BLOCK_RECORD
  5
37C6
330
1
100
AcDbSymbolTableRecord
100
AcDbBlockTableRecord
  2
08660
340
0
102
{BLKREFS
331
50D5
331
50DB
331
50E2
331
50E9
331
50F0
331
50F7
102
}
1001
ACAD
1000
DesignCenter Data
1002
{
1070
     1
1070
     4
1002
}
  0
BLOCK_RECORD
  5
387B
102
{ACAD_XDICTIONARY
360
5844
102
}
330
1
100
AcDbSymbolTableRecord
100
AcDbBlockTableRecord
  2
01284
340
0
102
{BLKREFS
331
4AFE
102
}
1001
ACAD
1000
DesignCenter Data
1002
{
1070
     1
1070
     4
1002
}
  0
BLOCK_RECORD
  5
3881
102
{ACAD_XDICTIONARY
360
584A
102
}
330
1
100
AcDbSymbolTableRecord
100
AcDbBlockTableRecord
  2
08482
340
0
102
{BLKREFS
331
4B08
331
4B0E
102
}
1001
ACAD
1000
DesignCenter Data
1002
{
1070
     1
1070
     4
1002
}
  0
BLOCK_RECORD
  5
3D64
330
1
100
AcDbSymbolTableRecord
100
AcDbBlockTableRecord
  2
9010313
340
0
102
{BLKREFS
331
50D6
331
50DC
331
50E3
331
50EA
331
50F1
331
50F8
102
}
1001
ACAD
1000
DesignCenter Data
1002
{
1070
     1
1070
     4
1002
}
  0
BLOCK_RECORD
  5
3F23
330
1
100
AcDbSymbolTableRecord
100
AcDbBlockTableRecord
  2
6Glass
340
0
102
{BLKREFS
331
50D8
331
50DE
331
50E5
331
50EC
331
50F3
331
50FA
102
}
  0
BLOCK_RECORD
  5
3F2D
330
1
100
AcDbSymbolTableRecord
100
AcDbBlockTableRecord
  2
9010240l
340
0
102
{BLKREFS
331
50DA
331
50E0
331
50E7
331
50EE
331
50F5
331
50FC
102
}
1001
ACAD
1000
DesignCenter Data
1002
{
1070
     1
1070
     4
1002
}
  0
BLOCK_RECORD
  5
3F5C
330
1
100
AcDbSymbolTableRecord
100
AcDbBlockTableRecord
  2
9010312r
340
0
102
{BLKREFS
331
50D9
331
50DF
331
50E6
331
50ED
331
50F4
331
50FB
102
}
1001
ACAD
1000
DesignCenter Data
1002
{
1070
     1
1070
     4
1002
}
  0
BLOCK_RECORD
  5
3FA8
330
1
100
AcDbSymbolTableRecord
100
AcDbBlockTableRecord
  2
a4 specifiers manual
340
0
102
{BLKREFS
331
4CF1
102
}
1001
ACAD
1000
DesignCenter Data
1002
{
1070
     1
1070
     4
1002
}
  0
BLOCK_RECORD
  5
4EDB
330
1
100
AcDbSymbolTableRecord
100
AcDbBlockTableRecord
  2
vantage a4 SM border
340
0
102
{BLKREFS
331
4EDF
102
}
1001
ACAD
1000
DesignCenter Data
1002
{
1070
     1
1070
     4
1002
}
  0
BLOCK_RECORD
  5
50C9
330
1
100
AcDbSymbolTableRecord
100
AcDbBlockTableRecord
  2
9010640-4.0mm
340
0
102
{BLKREFS
331
50D4
331
50E1
331
50E8
331
50EF
331
50F6
331
50FD
102
}
1001
ACAD
1000
DesignCenter Data
1002
{
1070
     1
1070
     4
1002
}
  0
BLOCK_RECORD
  5
5658
102
{ACAD_XDICTIONARY
360
5662
102
}
330
1
100
AcDbSymbolTableRecord
100
AcDbBlockTableRecord
  2
vantage a4 SM attributes (4)
340
0
102
{BLKREFS
331
5665
102
}
1001
ACAD
1000
DesignCenter Data
1002
{
1070
     1
1070
     4
1002
}
  0
BLOCK_RECORD
  5
586F
102
{ACAD_XDICTIONARY
360
5870
102
}
330
1
100
AcDbSymbolTableRecord
100
AcDbBlockTableRecord
  2
vantage black & white logo
340
0
310
2800000020000000200000000100080000000000000400000000000000000000000000000000000000000000000080000080000000808000800000008000800080800000C0C0C000C0DCC000F0CAA6000020400000206000002080000020A0000020C0000020E00000400000004020000040400000406000004080000040A0
310
000040C0000040E00000600000006020000060400000606000006080000060A0000060C0000060E00000800000008020000080400000806000008080000080A0000080C0000080E00000A0000000A0200000A0400000A0600000A0800000A0A00000A0C00000A0E00000C0000000C0200000C0400000C0600000C0800000C0
310
A00000C0C00000C0E00000E0000000E0200000E0400000E0600000E0800000E0A00000E0C00000E0E00040000000400020004000400040006000400080004000A0004000C0004000E00040200000402020004020400040206000402080004020A0004020C0004020E000404000004040200040404000404060004040800040
310
40A0004040C0004040E00040600000406020004060400040606000406080004060A0004060C0004060E00040800000408020004080400040806000408080004080A0004080C0004080E00040A0000040A0200040A0400040A0600040A0800040A0A00040A0C00040A0E00040C0000040C0200040C0400040C0600040C08000
310
40C0A00040C0C00040C0E00040E0000040E0200040E0400040E0600040E0800040E0A00040E0C00040E0E00080000000800020008000400080006000800080008000A0008000C0008000E00080200000802020008020400080206000802080008020A0008020C0008020E00080400000804020008040400080406000804080
310
008040A0008040C0008040E00080600000806020008060400080606000806080008060A0008060C0008060E00080800000808020008080400080806000808080008080A0008080C0008080E00080A0000080A0200080A0400080A0600080A0800080A0A00080A0C00080A0E00080C0000080C0200080C0400080C0600080C0
310
800080C0A00080C0C00080C0E00080E0000080E0200080E0400080E0600080E0800080E0A00080E0C00080E0E000C0000000C0002000C0004000C0006000C0008000C000A000C000C000C000E000C0200000C0202000C0204000C0206000C0208000C020A000C020C000C020E000C0400000C0402000C0404000C0406000C0
310
408000C040A000C040C000C040E000C0600000C0602000C0604000C0606000C0608000C060A000C060C000C060E000C0800000C0802000C0804000C0806000C0808000C080A000C080C000C080E000C0A00000C0A02000C0A04000C0A06000C0A08000C0A0A000C0A0C000C0A0E000C0C00000C0C02000C0C04000C0C06000
310
C0C08000C0C0A000F0FBFF00A4A0A000808080000000FF0000FF000000FFFF00FF000000FF00FF00FFFF0000FFFFFF0000000000000000000000000000000000000000000000000000000000000000000000000000000000000000000000000000000000000000000000000000000000000000000000000000000000000000
310
0000000000000000000000000000000000000000000000000000000000000000A4A40000000000000000000000000000000000000000000000000000000000A400000700000000000000000000000000000000000000000000000000000000A4000707000000000000000000000000000000000000000000000000000000A4
310
00A4A407070000000000000000000000000000000000000000000000000000A400A400A40700000000000000000000000000000000000000000000000000A400A4A400A407070000000000000000000000000000000000000000000000A40700A4000000A4070000000000000000000000000000000000000000000000A400
310
A4A4000000A40707000000000000000000000000000000000000000000A400A4A4000000A4A4A400070000000000000000000000000000000000000000A400A400000000A400A4070700000000000000000000000000000000000000A400A4A4000000A4A40000A40007000000000000000000000000000000000000A400A4
310
A4A4A4A4A4A4A4A4A407070000000000000000000000000000000000A400A4A4A4A4A4A4A4A4A4A4A4A40007000000000000000000000000000000A40000A4A4A4A4A4A4A4A4A4A4A4A40700070000000000000000000000000000A400A4A400A4A4A4A4A4A4A4A4A4A4A4070700000000000000000000000000A400A4A4A4
310
A4A4A4A4A4A4A4A4A4A4A4A4070007000000000000000000000000A400A4A4A4A4A4A4A4A4A4A4A4A4A4A4A4A407070000000000000000000000A400A4A400A4A4A4A4A4A4A4A4A4A4A4A4A4A4070007000000000000000000A40700A4A400A4A4A4A4A4A4A4A4A4A4A4A4A400A40707000000000000000000A400A4A4A4A4
310
A4A4A4A4A4A4A4A4A4A4A4A4A4A4A407000700000000000000A400A4A4A4A4A4A4A4A4A4A4A4A4A4A4A4A4A4A4A4A4A4070007000000000000A400A4A4A4A4A4A4A4A4A4A4A4A4A4A4A4A4A4A4A4A4A40700070000000000A400A4A400A4A4A4A4A4A4A4A4A4A4A4A4A4A4A4A4A4A4A40007000700000000A400A4A4A400A4
310
A4A4A4A4A4A4A4A4A4A4A4A4A4A4A4A4A4000700070000000700A4A4A4A4A4A4A4A4A4A4A4A4A4A4A4A4A4A4A4A4A4A4A4A4A40700070000A407A4A4A4A4A4A4A4A4A4A4A4A4A4A4A4A4A4A4A4A4A4A4A4A4A4A407A40000000000000000000000000000000000000000000000000000000000000000000000000000000000
310
0000000000000000000000000000000000000000000000000000000000000000000000000000000000000000000000000000000000000000
102
{BLKREFS
331
586D
102
}
1001
AcDbDynamicBlockGUID
1000
{7D04BC3F-8AE2-40EA-A482-CE6E620AF154}
1001
AcDbBlockRepETag
1070
     1
1071
      907
1001
ACAD
1000
DesignCenter Data
1002
{
1070
     1
1070
     4
1002
}
  0
ENDTAB
  0
ENDSEC
  0
SECTION
  2
BLOCKS
  0
BLOCK
  5
20
330
1F
100
AcDbEntity
  8
0
100
AcDbBlockBegin
  2
*Model_Space
 70
     0
 10
0.0
 20
0.0
 30
0.0
  3
*Model_Space
  1

  0
ENDBLK
  5
21
330
1F
100
AcDbEntity
  8
0
100
AcDbBlockEnd
  0
BLOCK
  5
4ED2
330
4ED0
100
AcDbEntity
 67
     1
  8
0
100
AcDbBlockBegin
  2
*Paper_Space
 70
     0
 10
0.0
 20
0.0
 30
0.0
  3
*Paper_Space
  1

  0
ENDBLK
  5
4ED3
330
4ED0
100
AcDbEntity
 67
     1
  8
0
100
AcDbBlockEnd
  0
BLOCK
  5
36E7
330
36E4
100
AcDbEntity
  8
0
100
AcDbBlockBegin
  2
_Dot
 70
     0
 10
0.0
 20
0.0
 30
0.0
  3
_Dot
  1

  0
LWPOLYLINE
  5
36E5
330
36E4
100
AcDbEntity
  8
0
  6
ByBlock
 62
     0
100
AcDbPolyline
 90
        2
 70
     1
 43
0.5
 10
-0.25
 20
0.0
 42
1.0
 10
0.25
 20
0.0
 42
1.0
  0
LINE
  5
36E6
330
36E4
100
AcDbEntity
  8
0
  6
ByBlock
 62
     0
370
    -2
100
AcDbLine
 10
-0.5
 20
0.0
 30
0.0
 11
-1.0
 21
0.0
 31
0.0
  0
ENDBLK
  5
36E8
330
36E4
100
AcDbEntity
  8
0
100
AcDbBlockEnd
  0
BLOCK
  5
37BD
330
37BC
100
AcDbEntity
  8
0
100
AcDbBlockBegin
  2
08481
 70
     0
 10
-151.2929200073383
 20
-99.83836310574231
 30
0.0
  3
08481
  1
08481.dwg
  0
LWPOLYLINE
  5
5838
102
{ACAD_REACTORS
330
583A
102
}
330
37BC
100
AcDbEntity
  8
APL Joinery
100
AcDbPolyline
 90
       24
 70
     1
 43
0.0
 10
-155.7929200073382
 20
43.36163689425776
 10
-155.7929200073382
 20
45.16163689425775
 10
-177.2929200073382
 20
45.16163689425775
 10
-198.7929200073383
 20
45.16163689425775
 10
-198.7929200073383
 20
43.36163689425776
 42
-0.4142135623730951
 10
-198.9929200073382
 20
43.16163689425775
 10
-200.0429200073383
 20
43.16163689425775
 10
-200.0429200073383
 20
41.36163689425775
 42
-0.4142135623730951
 10
-200.2429200073382
 20
41.16163689425775
 10
-200.7929200073383
 20
41.16163689425775
 10
-200.7929200073383
 20
-30.33836310574225
 10
-200.2429200073382
 20
-30.33836310574225
 42
-0.4142135623730951
 10
-200.0429200073383
 20
-30.53836310574224
 10
-200.0429200073383
 20
-32.33836310574225
 10
-177.2929200073382
 20
-32.33836310574225
 10
-154.5429200073382
 20
-32.33836310574225
 10
-154.5429200073382
 20
-30.53836310574224
 42
-0.4142135623730951
 10
-154.3429200073383
 20
-30.33836310574225
 10
-153.7929200073382
 20
-30.33836310574225
 10
-153.7929200073382
 20
41.16163689425775
 10
-154.3429200073383
 20
41.16163689425775
 42
-0.4142135623730951
 10
-154.5429200073382
 20
41.36163689425775
 10
-154.5429200073382
 20
43.16163689425775
 10
-155.5929200073383
 20
43.16163689425775
 42
-0.4142135623730951
  0
LWPOLYLINE
  5
5839
102
{ACAD_REACTORS
330
583A
102
}
330
37BC
100
AcDbEntity
  8
APL Joinery
100
AcDbPolyline
 90
       92
 70
     1
 43
0.0
 10
-151.2929200073383
 20
-99.6383631057423
 10
-151.2929200073383
 20
-94.03836310574231
 42
0.4142135623731159
 10
-151.4929200073383
 20
-93.83836310574229
 10
-153.3429200073382
 20
-93.83836310574229
 42
0.9999999999999998
 10
-153.3429200073382
 20
-94.83836310574231
 10
-152.5929200073382
 20
-94.83836310574231
 10
-152.5929200073382
 20
-96.33836310574231
 10
-158.0929200073382
 20
-96.33836310574231
 10
-158.0929200073382
 20
-94.83836310574231
 10
-157.3429200073382
 20
-94.83836310574231
 42
0.9999999999999998
 10
-157.3429200073382
 20
-93.83836310574229
 10
-159.1929200073382
 20
-93.83836310574229
 42
0.4142135623730951
 10
-159.3929200073382
 20
-94.03836310574229
 10
-159.3929200073382
 20
-96.8383631057423
 10
-175.2929200073382
 20
-96.8383631057423
 10
-175.2929200073382
 20
-81.98836310574227
 10
-175.5429200073382
 20
-81.98836310574227
 10
-175.5429200073382
 20
-74.23836310574228
 10
-175.9429200073382
 20
-73.8383631057423
 10
-175.5429200073382
 20
-73.43836310574232
 10
-175.5429200073382
 20
-65.68836310574226
 10
-175.2929200073382
 20
-65.68836310574226
 10
-175.2929200073382
 20
-36.83836310574225
 42
-0.4142135623730951
 10
-173.2929200073382
 20
-34.83836310574225
 10
-154.2929200073382
 20
-34.83836310574225
 42
-0.4142135623730951
 10
-153.7929200073382
 20
-35.33836310574225
 10
-153.7929200073382
 20
-40.33836310574224
 42
-0.4142135623730951
 10
-154.2929200073382
 20
-40.83836310574224
 10
-159.1929200073382
 20
-40.83836310574224
 42
0.4142135623731054
 10
-159.3929200073382
 20
-41.03836310574225
 10
-159.3929200073382
 20
-45.63836310574224
 42
0.4142135623731054
 10
-159.1929200073382
 20
-45.83836310574224
 10
-157.3429200073382
 20
-45.83836310574224
 42
0.9999999999999998
 10
-157.3429200073382
 20
-44.83836310574225
 10
-158.0929200073382
 20
-44.83836310574225
 10
-158.0929200073382
 20
-43.33836310574224
 10
-152.5929200073382
 20
-43.33836310574224
 10
-152.5929200073382
 20
-44.83836310574225
 10
-153.3429200073382
 20
-44.83836310574225
 42
0.9999999999999998
 10
-153.3429200073382
 20
-45.83836310574224
 10
-151.4929200073383
 20
-45.83836310574224
 42
0.4142135623731054
 10
-151.2929200073383
 20
-45.63836310574224
 10
-151.2929200073383
 20
49.96163689425776
 42
0.4142135623731054
 10
-151.4929200073383
 20
50.16163689425776
 10
-177.2929200073382
 20
50.16163689425775
 10
-203.0929200073383
 20
50.16163689425776
 42
0.4142135623731054
 10
-203.2929200073382
 20
49.96163689425776
 10
-203.2929200073383
 20
-45.63836310574224
 42
0.4142135623731054
 10
-203.0929200073383
 20
-45.83836310574223
 10
-201.2429200073383
 20
-45.83836310574224
 42
0.9999999999999998
 10
-201.2429200073383
 20
-44.83836310574225
 10
-201.9929200073383
 20
-44.83836310574225
 10
-201.9929200073383
 20
-43.33836310574224
 10
-196.4929200073383
 20
-43.33836310574224
 10
-196.4929200073383
 20
-44.83836310574225
 10
-197.2429200073383
 20
-44.83836310574225
 42
0.9999999999999998
 10
-197.2429200073383
 20
-45.83836310574224
 10
-195.3929200073382
 20
-45.83836310574224
 42
0.4142135623731054
 10
-195.1929200073383
 20
-45.63836310574224
 10
-195.1929200073382
 20
-41.03836310574224
 42
0.4142135623731054
 10
-195.3929200073382
 20
-40.83836310574224
 10
-200.2929200073383
 20
-40.83836310574224
 42
-0.4142135623730951
 10
-200.7929200073383
 20
-40.33836310574224
 10
-200.7929200073383
 20
-35.33836310574225
 42
-0.4142135623730951
 10
-200.2929200073383
 20
-34.83836310574225
 10
-181.2929200073383
 20
-34.83836310574225
 42
-0.4142135623730951
 10
-179.2929200073382
 20
-36.83836310574225
 10
-179.2929200073382
 20
-65.68836310574226
 10
-179.0429200073383
 20
-65.68836310574226
 10
-179.0429200073383
 20
-73.43836310574232
 10
-178.6429200073382
 20
-73.8383631057423
 10
-179.0429200073383
 20
-74.23836310574228
 10
-179.0429200073383
 20
-81.98836310574227
 10
-179.2929200073382
 20
-81.98836310574227
 10
-179.2929200073382
 20
-96.8383631057423
 10
-195.1929200073382
 20
-96.8383631057423
 10
-195.1929200073382
 20
-94.03836310574231
 42
0.4142135623731159
 10
-195.3929200073382
 20
-93.83836310574229
 10
-197.2429200073383
 20
-93.83836310574229
 42
0.9999999999999998
 10
-197.2429200073383
 20
-94.83836310574231
 10
-196.4929200073383
 20
-94.83836310574231
 10
-196.4929200073383
 20
-96.33836310574231
 10
-201.9929200073383
 20
-96.33836310574231
 10
-201.9929200073383
 20
-94.83836310574231
 10
-201.2429200073383
 20
-94.83836310574231
 42
0.9999999999999998
 10
-201.2429200073383
 20
-93.83836310574229
 10
-203.0929200073383
 20
-93.83836310574229
 42
0.4142135623730951
 10
-203.2929200073383
 20
-94.03836310574229
 10
-203.2929200073383
 20
-99.6383631057423
 42
0.4142135623731159
 10
-203.0929200073383
 20
-99.83836310574231
 10
-177.2929200073382
 20
-99.83836310574231
 10
-151.4929200073383
 20
-99.83836310574231
 42
0.4142135623731159
  0
HATCH
  5
583A
330
37BC
100
AcDbEntity
  8
APL Hatch
100
AcDbHatch
 10
0.0
 20
0.0
 30
0.0
210
0.0
220
0.0
230
1.0
  2
SOLID
 70
     1
 71
     1
 91
        2
 92
        1
 93
       92
 72
     1
 10
-151.2929200073383
 20
-99.6383631057423
 11
-151.2929200073383
 21
-94.03836310574231
 72
     2
 10
-151.4929200073383
 20
-94.03836310574229
 40
0.1999999999999886
 50
359.9999999999959
 51
450.0
 73
     1
 72
     1
 10
-151.4929200073383
 20
-93.83836310574229
 11
-153.3429200073382
 21
-93.83836310574229
 72
     2
 10
-153.3429200073382
 20
-94.3383631057423
 40
0.5
 50
90.0
 51
270.0
 73
     1
 72
     1
 10
-153.3429200073382
 20
-94.83836310574231
 11
-152.5929200073382
 21
-94.83836310574231
 72
     1
 10
-152.5929200073382
 20
-94.83836310574231
 11
-152.5929200073382
 21
-96.33836310574231
 72
     1
 10
-152.5929200073382
 20
-96.33836310574231
 11
-158.0929200073382
 21
-96.33836310574231
 72
     1
 10
-158.0929200073382
 20
-96.33836310574231
 11
-158.0929200073382
 21
-94.83836310574231
 72
     1
 10
-158.0929200073382
 20
-94.83836310574231
 11
-157.3429200073382
 21
-94.83836310574231
 72
     2
 10
-157.3429200073382
 20
-94.3383631057423
 40
0.5
 50
270.0
 51
450.0
 73
     1
 72
     1
 10
-157.3429200073382
 20
-93.83836310574229
 11
-159.1929200073382
 21
-93.83836310574229
 72
     2
 10
-159.1929200073382
 20
-94.03836310574229
 40
0.2000000000000028
 50
90.0
 51
180.0
 73
     1
 72
     1
 10
-159.3929200073382
 20
-94.03836310574229
 11
-159.3929200073382
 21
-96.8383631057423
 72
     1
 10
-159.3929200073382
 20
-96.8383631057423
 11
-175.2929200073382
 21
-96.8383631057423
 72
     1
 10
-175.2929200073382
 20
-96.8383631057423
 11
-175.2929200073382
 21
-81.98836310574227
 72
     1
 10
-175.2929200073382
 20
-81.98836310574227
 11
-175.5429200073382
 21
-81.98836310574227
 72
     1
 10
-175.5429200073382
 20
-81.98836310574227
 11
-175.5429200073382
 21
-74.23836310574228
 72
     1
 10
-175.5429200073382
 20
-74.23836310574228
 11
-175.9429200073382
 21
-73.8383631057423
 72
     1
 10
-175.9429200073382
 20
-73.8383631057423
 11
-175.5429200073382
 21
-73.43836310574232
 72
     1
 10
-175.5429200073382
 20
-73.43836310574232
 11
-175.5429200073382
 21
-65.68836310574226
 72
     1
 10
-175.5429200073382
 20
-65.68836310574226
 11
-175.2929200073382
 21
-65.68836310574226
 72
     1
 10
-175.2929200073382
 20
-65.68836310574226
 11
-175.2929200073382
 21
-36.83836310574225
 72
     2
 10
-173.2929200073382
 20
-36.83836310574225
 40
2.0
 50
180.0
 51
270.0
 73
     0
 72
     1
 10
-173.2929200073382
 20
-34.83836310574225
 11
-154.2929200073382
 21
-34.83836310574225
 72
     2
 10
-154.2929200073382
 20
-35.33836310574225
 40
0.5
 50
270.0
 51
360.0
 73
     0
 72
     1
 10
-153.7929200073382
 20
-35.33836310574225
 11
-153.7929200073382
 21
-40.33836310574224
 72
     2
 10
-154.2929200073382
 20
-40.33836310574224
 40
0.5
 50
360.0
 51
450.0
 73
     0
 72
     1
 10
-154.2929200073382
 20
-40.83836310574224
 11
-159.1929200073382
 21
-40.83836310574224
 72
     2
 10
-159.1929200073382
 20
-41.03836310574223
 40
0.1999999999999886
 50
90.0
 51
180.000000000004
 73
     1
 72
     1
 10
-159.3929200073382
 20
-41.03836310574225
 11
-159.3929200073382
 21
-45.63836310574224
 72
     2
 10
-159.1929200073382
 20
-45.63836310574226
 40
0.1999999999999886
 50
179.9999999999959
 51
270.0
 73
     1
 72
     1
 10
-159.1929200073382
 20
-45.83836310574224
 11
-157.3429200073382
 21
-45.83836310574224
 72
     2
 10
-157.3429200073382
 20
-45.33836310574224
 40
0.5
 50
270.0
 51
450.0
 73
     1
 72
     1
 10
-157.3429200073382
 20
-44.83836310574225
 11
-158.0929200073382
 21
-44.83836310574225
 72
     1
 10
-158.0929200073382
 20
-44.83836310574225
 11
-158.0929200073382
 21
-43.33836310574224
 72
     1
 10
-158.0929200073382
 20
-43.33836310574224
 11
-152.5929200073382
 21
-43.33836310574224
 72
     1
 10
-152.5929200073382
 20
-43.33836310574224
 11
-152.5929200073382
 21
-44.83836310574225
 72
     1
 10
-152.5929200073382
 20
-44.83836310574225
 11
-153.3429200073382
 21
-44.83836310574225
 72
     2
 10
-153.3429200073382
 20
-45.33836310574224
 40
0.5
 50
90.0
 51
270.0
 73
     1
 72
     1
 10
-153.3429200073382
 20
-45.83836310574224
 11
-151.4929200073383
 21
-45.83836310574224
 72
     2
 10
-151.4929200073383
 20
-45.63836310574226
 40
0.1999999999999886
 50
270.0
 51
360.0000000000041
 73
     1
 72
     1
 10
-151.2929200073383
 20
-45.63836310574224
 11
-151.2929200073383
 21
49.96163689425775
 72
     2
 10
-151.4929200073383
 20
49.96163689425777
 40
0.1999999999999886
 50
359.999999999998
 51
450.0
 73
     1
 72
     1
 10
-151.4929200073383
 20
50.16163689425776
 11
-177.2929200073382
 21
50.16163689425775
 72
     1
 10
-177.2929200073382
 20
50.16163689425775
 11
-203.0929200073383
 21
50.16163689425776
 72
     2
 10
-203.0929200073383
 20
49.96163689425777
 40
0.1999999999999957
 50
90.0
 51
180.000000000002
 73
     1
 72
     1
 10
-203.2929200073382
 20
49.96163689425776
 11
-203.2929200073383
 21
-45.63836310574223
 72
     2
 10
-203.0929200073383
 20
-45.63836310574225
 40
0.1999999999999886
 50
179.9999999999979
 51
270.0
 73
     1
 72
     1
 10
-203.0929200073383
 20
-45.83836310574223
 11
-201.2429200073383
 21
-45.83836310574224
 72
     2
 10
-201.2429200073383
 20
-45.33836310574224
 40
0.5
 50
270.0
 51
450.0
 73
     1
 72
     1
 10
-201.2429200073383
 20
-44.83836310574225
 11
-201.9929200073383
 21
-44.83836310574225
 72
     1
 10
-201.9929200073383
 20
-44.83836310574225
 11
-201.9929200073383
 21
-43.33836310574224
 72
     1
 10
-201.9929200073383
 20
-43.33836310574224
 11
-196.4929200073383
 21
-43.33836310574224
 72
     1
 10
-196.4929200073383
 20
-43.33836310574224
 11
-196.4929200073383
 21
-44.83836310574225
 72
     1
 10
-196.4929200073383
 20
-44.83836310574225
 11
-197.2429200073383
 21
-44.83836310574225
 72
     2
 10
-197.2429200073383
 20
-45.33836310574224
 40
0.5
 50
90.0
 51
270.0
 73
     1
 72
     1
 10
-197.2429200073383
 20
-45.83836310574224
 11
-195.3929200073382
 21
-45.83836310574224
 72
     2
 10
-195.3929200073382
 20
-45.63836310574226
 40
0.1999999999999886
 50
270.0
 51
360.0000000000041
 73
     1
 72
     1
 10
-195.1929200073383
 20
-45.63836310574224
 11
-195.1929200073382
 21
-41.03836310574224
 72
     2
 10
-195.3929200073382
 20
-41.03836310574223
 40
0.1999999999999886
 50
359.999999999998
 51
450.0
 73
     1
 72
     1
 10
-195.3929200073382
 20
-40.83836310574224
 11
-200.2929200073383
 21
-40.83836310574224
 72
     2
 10
-200.2929200073383
 20
-40.33836310574224
 40
0.5
 50
90.0
 51
180.0
 73
     0
 72
     1
 10
-200.7929200073383
 20
-40.33836310574224
 11
-200.7929200073383
 21
-35.33836310574225
 72
     2
 10
-200.2929200073383
 20
-35.33836310574225
 40
0.5
 50
180.0
 51
270.0
 73
     0
 72
     1
 10
-200.2929200073383
 20
-34.83836310574225
 11
-181.2929200073383
 21
-34.83836310574225
 72
     2
 10
-181.2929200073383
 20
-36.83836310574225
 40
2.0
 50
270.0
 51
360.0
 73
     0
 72
     1
 10
-179.2929200073382
 20
-36.83836310574225
 11
-179.2929200073382
 21
-65.68836310574226
 72
     1
 10
-179.2929200073382
 20
-65.68836310574226
 11
-179.0429200073383
 21
-65.68836310574226
 72
     1
 10
-179.0429200073383
 20
-65.68836310574226
 11
-179.0429200073383
 21
-73.43836310574232
 72
     1
 10
-179.0429200073383
 20
-73.43836310574232
 11
-178.6429200073382
 21
-73.8383631057423
 72
     1
 10
-178.6429200073382
 20
-73.8383631057423
 11
-179.0429200073383
 21
-74.23836310574228
 72
     1
 10
-179.0429200073383
 20
-74.23836310574228
 11
-179.0429200073383
 21
-81.98836310574227
 72
     1
 10
-179.0429200073383
 20
-81.98836310574227
 11
-179.2929200073382
 21
-81.98836310574227
 72
     1
 10
-179.2929200073382
 20
-81.98836310574227
 11
-179.2929200073382
 21
-96.8383631057423
 72
     1
 10
-179.2929200073382
 20
-96.8383631057423
 11
-195.1929200073382
 21
-96.8383631057423
 72
     1
 10
-195.1929200073382
 20
-96.8383631057423
 11
-195.1929200073382
 21
-94.03836310574231
 72
     2
 10
-195.3929200073382
 20
-94.03836310574229
 40
0.1999999999999886
 50
359.9999999999959
 51
450.0
 73
     1
 72
     1
 10
-195.3929200073382
 20
-93.83836310574229
 11
-197.2429200073383
 21
-93.83836310574229
 72
     2
 10
-197.2429200073383
 20
-94.3383631057423
 40
0.5
 50
90.0
 51
270.0
 73
     1
 72
     1
 10
-197.2429200073383
 20
-94.83836310574231
 11
-196.4929200073383
 21
-94.83836310574231
 72
     1
 10
-196.4929200073383
 20
-94.83836310574231
 11
-196.4929200073383
 21
-96.33836310574231
 72
     1
 10
-196.4929200073383
 20
-96.33836310574231
 11
-201.9929200073383
 21
-96.33836310574231
 72
     1
 10
-201.9929200073383
 20
-96.33836310574231
 11
-201.9929200073383
 21
-94.83836310574231
 72
     1
 10
-201.9929200073383
 20
-94.83836310574231
 11
-201.2429200073383
 21
-94.83836310574231
 72
     2
 10
-201.2429200073383
 20
-94.3383631057423
 40
0.5
 50
270.0
 51
450.0
 73
     1
 72
     1
 10
-201.2429200073383
 20
-93.83836310574229
 11
-203.0929200073383
 21
-93.83836310574229
 72
     2
 10
-203.0929200073383
 20
-94.03836310574229
 40
0.2000000000000028
 50
90.0
 51
180.0
 73
     1
 72
     1
 10
-203.2929200073383
 20
-94.03836310574229
 11
-203.2929200073383
 21
-99.6383631057423
 72
     2
 10
-203.0929200073383
 20
-99.63836310574231
 40
0.1999999999999886
 50
179.9999999999959
 51
270.0
 73
     1
 72
     1
 10
-203.0929200073383
 20
-99.83836310574231
 11
-177.2929200073382
 21
-99.83836310574231
 72
     1
 10
-177.2929200073382
 20
-99.83836310574231
 11
-151.4929200073383
 21
-99.83836310574231
 72
     2
 10
-151.4929200073383
 20
-99.63836310574231
 40
0.1999999999999886
 50
270.0
 51
360.0000000000041
 73
     1
 97
        1
330
5839
 92
       16
 93
       24
 72
     1
 10
-155.7929200073382
 20
43.36163689425776
 11
-155.7929200073382
 21
45.16163689425775
 72
     1
 10
-155.7929200073382
 20
45.16163689425775
 11
-177.2929200073382
 21
45.16163689425775
 72
     1
 10
-177.2929200073382
 20
45.16163689425775
 11
-198.7929200073383
 21
45.16163689425775
 72
     1
 10
-198.7929200073383
 20
45.16163689425775
 11
-198.7929200073383
 21
43.36163689425776
 72
     2
 10
-198.9929200073382
 20
43.36163689425775
 40
0.1999999999999886
 50
359.999999999998
 51
450.0
 73
     0
 72
     1
 10
-198.9929200073382
 20
43.16163689425775
 11
-200.0429200073383
 21
43.16163689425775
 72
     1
 10
-200.0429200073383
 20
43.16163689425775
 11
-200.0429200073383
 21
41.36163689425775
 72
     2
 10
-200.2429200073382
 20
41.36163689425774
 40
0.1999999999999886
 50
359.999999999998
 51
450.0
 73
     0
 72
     1
 10
-200.2429200073382
 20
41.16163689425775
 11
-200.7929200073383
 21
41.16163689425775
 72
     1
 10
-200.7929200073383
 20
41.16163689425775
 11
-200.7929200073383
 21
-30.33836310574225
 72
     1
 10
-200.7929200073383
 20
-30.33836310574225
 11
-200.2429200073382
 21
-30.33836310574225
 72
     2
 10
-200.2429200073382
 20
-30.53836310574224
 40
0.1999999999999957
 50
270.0
 51
360.000000000001
 73
     0
 72
     1
 10
-200.0429200073383
 20
-30.53836310574224
 11
-200.0429200073383
 21
-32.33836310574225
 72
     1
 10
-200.0429200073383
 20
-32.33836310574225
 11
-177.2929200073382
 21
-32.33836310574225
 72
     1
 10
-177.2929200073382
 20
-32.33836310574225
 11
-154.5429200073382
 21
-32.33836310574225
 72
     1
 10
-154.5429200073382
 20
-32.33836310574225
 11
-154.5429200073382
 21
-30.53836310574224
 72
     2
 10
-154.3429200073383
 20
-30.53836310574224
 40
0.1999999999999886
 50
179.999999999999
 51
270.0
 73
     0
 72
     1
 10
-154.3429200073383
 20
-30.33836310574225
 11
-153.7929200073382
 21
-30.33836310574225
 72
     1
 10
-153.7929200073382
 20
-30.33836310574225
 11
-153.7929200073382
 21
41.16163689425775
 72
     1
 10
-153.7929200073382
 20
41.16163689425775
 11
-154.3429200073383
 21
41.16163689425775
 72
     2
 10
-154.3429200073383
 20
41.36163689425774
 40
0.1999999999999957
 50
90.0
 51
180.000000000002
 73
     0
 72
     1
 10
-154.5429200073382
 20
41.36163689425775
 11
-154.5429200073382
 21
43.16163689425775
 72
     1
 10
-154.5429200073382
 20
43.16163689425775
 11
-155.5929200073383
 21
43.16163689425775
 72
     2
 10
-155.5929200073383
 20
43.36163689425775
 40
0.1999999999999957
 50
90.0
 51
180.000000000002
 73
     0
 97
        1
330
5838
 75
     0
 76
     1
 98
        1
 10
0.0
 20
0.0
  0
ENDBLK
  5
37BE
330
37BC
100
AcDbEntity
  8
0
100
AcDbBlockEnd
  0
BLOCK
  5
37C7
330
37C6
100
AcDbEntity
  8
0
100
AcDbBlockBegin
  2
08660
 70
     0
 10
516.9473710167038
 20
45.34699620304292
 30
0.0
  3
08660
  1
08660.dwg
  0
LWPOLYLINE
  5
583E
102
{ACAD_REACTORS
330
583F
102
}
330
37C6
100
AcDbEntity
  8
APL Joinery
  6
Continuous
100
AcDbPolyline
 90
       72
 70
     1
 43
0.0
 10
484.6112599055929
 20
48.51742318880534
 42
-0.9999999999999998
 10
483.3834821278149
 20
47.34159933788406
 42
-0.2831268300466856
 10
482.6003989190873
 20
50.98032953637624
 42
0.5176380902049781
 10
482.1289943982965
 20
51.64699620304287
 10
479.6473710167037
 20
51.64699620304287
 42
0.4142135623730951
 10
478.6473710167038
 20
50.64699620304287
 10
478.6473710167037
 20
45.5469962030429
 42
-0.4142135623731784
 10
478.4473710167037
 20
45.34699620304292
 10
477.1473710167037
 20
45.34699620304286
 42
-0.4142135623730617
 10
476.9473710167037
 20
45.5469962030429
 10
476.9473710167038
 20
78.14699620304293
 42
-0.4142135623729951
 10
477.1473710167038
 20
78.34699620304292
 10
479.0473710167037
 20
78.34699620304298
 42
-0.4142135623730284
 10
479.2473710167037
 20
78.14699620304293
 10
479.2473710167037
 20
76.34699620304292
 10
480.4473710167037
 20
76.34699620304292
 42
-0.4142135623730951
 10
480.9473710167037
 20
75.84699620304292
 10
480.9473710167037
 20
74.29699620304297
 42
-0.9999999999999998
 10
479.9473710167037
 20
74.29699620304297
 10
479.9473710167037
 20
75.04699620304297
 10
478.4473710167037
 20
75.04699620304297
 10
478.4473710167037
 20
69.54699620304296
 10
479.9473710167037
 20
69.54699620304296
 10
479.9473710167037
 20
70.29699620304296
 42
-0.9999999999999998
 10
480.9473710167037
 20
70.29699620304296
 10
480.9473710167037
 20
68.74699620304278
 42
-0.4142135623730951
 10
480.4473710167037
 20
68.24699620304278
 10
478.6473710167038
 20
68.24699620304278
 10
478.6473710167036
 20
54.84699620304292
 42
0.4142135623730951
 10
480.1473710167035
 20
53.34699620304292
 10
493.7473710167036
 20
53.34699620304269
 42
0.4142135623730617
 10
495.2473710167037
 20
54.84699620304252
 10
495.2473710167039
 20
68.24699620304278
 10
493.4473710167037
 20
68.24699620304278
 42
-0.4142135623730951
 10
492.9473710167037
 20
68.74699620304278
 10
492.9473710167037
 20
70.29699620304296
 42
-0.9999999999999998
 10
493.9473710167037
 20
70.29699620304296
 10
493.9473710167037
 20
69.54699620304296
 10
495.4473710167037
 20
69.54699620304296
 10
495.4473710167037
 20
75.04699620304297
 10
493.9473710167037
 20
75.04699620304297
 10
493.9473710167037
 20
74.29699620304297
 42
-0.9999999999999998
 10
492.9473710167037
 20
74.29699620304297
 10
492.9473710167037
 20
75.84699620304292
 42
-0.4142135623730951
 10
493.4473710167037
 20
76.34699620304292
 10
494.6473710167038
 20
76.34699620304292
 10
494.6473710167038
 20
78.14699620304295
 42
-0.4142135623729619
 10
494.8473710167038
 20
78.34699620304292
 10
516.7473710167037
 20
78.34699620304292
 42
-0.4142135623730118
 10
516.9473710167038
 20
78.14699620304293
 10
516.9473710167038
 20
45.5469962030429
 42
-0.4142135623731784
 10
516.7473710167039
 20
45.34699620304292
 10
515.4473710167037
 20
45.34699620304292
 42
-0.4142135623730951
 10
515.2473710167036
 20
45.5469962030429
 10
515.2473710167036
 20
75.14699620304288
 42
0.4142135623730951
 10
513.7473710167037
 20
76.64699620304287
 10
511.7657476351107
 20
76.64699620304289
 42
0.5176380902051509
 10
511.2943431143198
 20
75.98032953637619
 42
-0.283126830046668
 10
510.5112599055927
 20
72.34159933788382
 42
-0.9999999999999998
 10
509.2834821278149
 20
73.51742318880487
 42
2.342299969075846
 10
506.6112599055926
 20
73.51742318880479
 42
-0.9999999999999195
 10
505.3834821278148
 20
72.34159933788352
 42
-0.2831268300466856
 10
504.6003989190873
 20
75.98032953637598
 42
0.5176380902052591
 10
504.1289943982962
 20
76.64699620304287
 10
498.447371016704
 20
76.64699620304287
 42
0.4142135623730951
 10
496.9473710167039
 20
75.14699620304288
 10
496.9473710167037
 20
51.84699620304284
 42
-0.4142135623729619
 10
496.7473710167037
 20
51.64699620304287
 10
489.765747635111
 20
51.64699620304288
 42
0.5176380902050029
 10
489.2943431143202
 20
50.98032953637609
 42
-0.2831268300466195
 10
488.5112599055926
 20
47.34159933788421
 42
-1.0
 10
487.2834821278149
 20
48.51742318880529
 42
2.342299969075783
  0
HATCH
  5
583F
330
37C6
100
AcDbEntity
  8
APL Hatch
100
AcDbHatch
 10
0.0
 20
0.0
 30
0.0
210
0.0
220
0.0
230
1.0
  2
SOLID
 70
     1
 71
     1
 91
        1
 92
        1
 93
       72
 72
     2
 10
483.9973710167038
 20
47.9295112633447
 40
0.8500000000001165
 50
316.2382573073222
 51
496.2382573073222
 73
     0
 72
     2
 10
485.9473710167034
 20
49.79699620304296
 40
3.549999999999784
 50
136.2382573073167
 51
199.4712206344911
 73
     0
 72
     2
 10
482.1289943982963
 20
51.14699620304293
 40
0.4999999999999206
 50
340.5287793655038
 51
449.999999999987
 73
     1
 72
     1
 10
482.1289943982965
 20
51.64699620304287
 11
479.6473710167037
 21
51.64699620304287
 72
     2
 10
479.6473710167037
 20
50.64699620304287
 40
1.0
 50
90.0
 51
180.0
 73
     1
 72
     1
 10
478.6473710167038
 20
50.64699620304287
 11
478.6473710167037
 21
45.5469962030429
 72
     2
 10
478.4473710167037
 20
45.54699620304285
 40
0.1999999999999318
 50
359.9999999999837
 51
450.0
 73
     0
 72
     1
 10
478.4473710167037
 20
45.34699620304292
 11
477.1473710167037
 21
45.34699620304286
 72
     2
 10
477.1473710167038
 20
45.54699620304289
 40
0.2000000000000313
 50
90.00000000001628
 51
180.000000000004
 73
     0
 72
     1
 10
476.9473710167037
 20
45.5469962030429
 11
476.9473710167038
 21
78.14699620304293
 72
     2
 10
477.1473710167038
 20
78.1469962030429
 40
0.1999999999999886
 50
180.0000000000081
 51
270.0
 73
     0
 72
     1
 10
477.1473710167038
 20
78.34699620304292
 11
479.0473710167037
 21
78.34699620304298
 72
     2
 10
479.0473710167036
 20
78.14699620304293
 40
0.2000000000000455
 50
270.0000000000163
 51
360.0
 73
     0
 72
     1
 10
479.2473710167037
 20
78.14699620304293
 11
479.2473710167037
 21
76.34699620304292
 72
     1
 10
479.2473710167037
 20
76.34699620304292
 11
480.4473710167037
 21
76.34699620304292
 72
     2
 10
480.4473710167037
 20
75.84699620304292
 40
0.5
 50
270.0
 51
360.0
 73
     0
 72
     1
 10
480.9473710167037
 20
75.84699620304292
 11
480.9473710167037
 21
74.29699620304297
 72
     2
 10
480.4473710167037
 20
74.29699620304297
 40
0.5
 50
360.0
 51
540.0
 73
     0
 72
     1
 10
479.9473710167037
 20
74.29699620304297
 11
479.9473710167037
 21
75.04699620304297
 72
     1
 10
479.9473710167037
 20
75.04699620304297
 11
478.4473710167037
 21
75.04699620304297
 72
     1
 10
478.4473710167037
 20
75.04699620304297
 11
478.4473710167037
 21
69.54699620304296
 72
     1
 10
478.4473710167037
 20
69.54699620304296
 11
479.9473710167037
 21
69.54699620304296
 72
     1
 10
479.9473710167037
 20
69.54699620304296
 11
479.9473710167037
 21
70.29699620304296
 72
     2
 10
480.4473710167037
 20
70.29699620304296
 40
0.5
 50
180.0
 51
360.0
 73
     0
 72
     1
 10
480.9473710167037
 20
70.29699620304296
 11
480.9473710167037
 21
68.74699620304278
 72
     2
 10
480.4473710167037
 20
68.74699620304278
 40
0.5
 50
360.0
 51
450.0
 73
     0
 72
     1
 10
480.4473710167037
 20
68.24699620304278
 11
478.6473710167038
 21
68.24699620304278
 72
     1
 10
478.6473710167038
 20
68.24699620304278
 11
478.6473710167036
 21
54.84699620304292
 72
     2
 10
480.1473710167035
 20
54.84699620304292
 40
1.5
 50
180.0
 51
270.0
 73
     1
 72
     1
 10
480.1473710167035
 20
53.34699620304292
 11
493.7473710167036
 21
53.34699620304269
 72
     2
 10
493.7473710167036
 20
54.84699620304269
 40
1.5
 50
270.0
 51
359.9999999999935
 73
     1
 72
     1
 10
495.2473710167037
 20
54.84699620304252
 11
495.2473710167039
 21
68.24699620304278
 72
     1
 10
495.2473710167039
 20
68.24699620304278
 11
493.4473710167037
 21
68.24699620304278
 72
     2
 10
493.4473710167037
 20
68.74699620304278
 40
0.5
 50
90.0
 51
180.0
 73
     0
 72
     1
 10
492.9473710167037
 20
68.74699620304278
 11
492.9473710167037
 21
70.29699620304296
 72
     2
 10
493.4473710167037
 20
70.29699620304296
 40
0.5
 50
180.0
 51
360.0
 73
     0
 72
     1
 10
493.9473710167037
 20
70.29699620304296
 11
493.9473710167037
 21
69.54699620304296
 72
     1
 10
493.9473710167037
 20
69.54699620304296
 11
495.4473710167037
 21
69.54699620304296
 72
     1
 10
495.4473710167037
 20
69.54699620304296
 11
495.4473710167037
 21
75.04699620304297
 72
     1
 10
495.4473710167037
 20
75.04699620304297
 11
493.9473710167037
 21
75.04699620304297
 72
     1
 10
493.9473710167037
 20
75.04699620304297
 11
493.9473710167037
 21
74.29699620304297
 72
     2
 10
493.4473710167037
 20
74.29699620304297
 40
0.5
 50
360.0
 51
540.0
 73
     0
 72
     1
 10
492.9473710167037
 20
74.29699620304297
 11
492.9473710167037
 21
75.84699620304292
 72
     2
 10
493.4473710167037
 20
75.84699620304292
 40
0.5
 50
180.0
 51
270.0
 73
     0
 72
     1
 10
493.4473710167037
 20
76.34699620304292
 11
494.6473710167038
 21
76.34699620304292
 72
     1
 10
494.6473710167038
 20
76.34699620304292
 11
494.6473710167038
 21
78.14699620304295
 72
     2
 10
494.8473710167038
 20
78.14699620304287
 40
0.2000000000000455
 50
180.0000000000244
 51
270.0
 73
     0
 72
     1
 10
494.8473710167038
 20
78.34699620304292
 11
516.7473710167037
 21
78.34699620304292
 72
     2
 10
516.7473710167037
 20
78.14699620304287
 40
0.2000000000000455
 50
270.0
 51
359.9999999999837
 73
     0
 72
     1
 10
516.9473710167038
 20
78.14699620304293
 11
516.9473710167038
 21
45.5469962030429
 72
     2
 10
516.7473710167039
 20
45.54699620304285
 40
0.1999999999999318
 50
359.9999999999837
 51
450.0
 73
     0
 72
     1
 10
516.7473710167039
 20
45.34699620304292
 11
515.4473710167037
 21
45.34699620304292
 72
     2
 10
515.4473710167037
 20
45.54699620304293
 40
0.200000000000017
 50
90.0
 51
179.9999999999918
 73
     0
 72
     1
 10
515.2473710167036
 20
45.5469962030429
 11
515.2473710167036
 21
75.14699620304288
 72
     2
 10
513.7473710167037
 20
75.14699620304288
 40
1.5
 50
0.0
 51
90.0
 73
     1
 72
     1
 10
513.7473710167037
 20
76.64699620304287
 11
511.7657476351107
 21
76.64699620304289
 72
     2
 10
511.7657476351107
 20
76.14699620304299
 40
0.4999999999999006
 50
90.0
 51
199.4712206345107
 73
     1
 72
     2
 10
507.9473710167035
 20
74.79699620304254
 40
3.550000000000069
 50
340.5287793655042
 51
403.7617426926749
 73
     0
 72
     2
 10
509.8973710167038
 20
72.92951126334435
 40
0.8500000000000017
 50
43.76174269267523
 51
223.7617426926772
 73
     0
 72
     2
 10
507.9473710167037
 20
74.79699620304242
 40
1.849999999999959
 50
316.2382573073265
 51
583.761742692679
 73
     1
 72
     2
 10
505.9973710167037
 20
72.92951126334421
 40
0.8500000000000312
 50
316.2382573073227
 51
496.2382573073118
 73
     0
 72
     2
 10
507.9473710167037
 20
74.79699620304256
 40
3.550000000000042
 50
136.2382573073177
 51
199.4712206344919
 73
     0
 72
     2
 10
504.1289943982964
 20
76.14699620304287
 40
0.4999999999999917
 50
340.5287793654808
 51
450.000000000013
 73
     1
 72
     1
 10
504.1289943982962
 20
76.64699620304287
 11
498.447371016704
 21
76.64699620304287
 72
     2
 10
498.447371016704
 20
75.14699620304288
 40
1.5
 50
90.0
 51
180.0
 73
     1
 72
     1
 10
496.9473710167039
 20
75.14699620304288
 11
496.9473710167037
 21
51.84699620304284
 72
     2
 10
496.7473710167037
 20
51.84699620304293
 40
0.2000000000000455
 50
0.0000000000244267
 51
90.0
 73
     0
 72
     1
 10
496.7473710167037
 20
51.64699620304287
 11
489.765747635111
 21
51.64699620304288
 72
     2
 10
489.7657476351112
 20
51.14699620304289
 40
0.4999999999999929
 50
90.00000000002605
 51
199.4712206345063
 73
     1
 72
     2
 10
485.9473710167035
 20
49.79699620304318
 40
3.550000000000199
 50
340.5287793655177
 51
403.7617426926784
 73
     0
 72
     2
 10
487.8973710167038
 20
47.92951126334474
 40
0.8499999999999655
 50
43.76174269267823
 51
223.7617426926813
 73
     0
 72
     2
 10
485.9473710167039
 20
49.79699620304277
 40
1.849999999999782
 50
316.2382573073246
 51
583.7617426926745
 73
     1
 97
        1
330
583E
 75
     0
 76
     1
 98
        1
 10
0.0
 20
0.0
  0
ENDBLK
  5
37C8
330
37C6
100
AcDbEntity
  8
0
100
AcDbBlockEnd
  0
BLOCK
  5
387C
330
387B
100
AcDbEntity
  8
0
 62
     9
100
AcDbBlockBegin
  2
01284
 70
     0
 10
-2197.626704661111
 20
-737.6324090091075
 30
0.0
  3
01284
  1
01284.dwg
  0
LWPOLYLINE
  5
5841
102
{ACAD_REACTORS
330
5843
102
}
330
387B
100
AcDbEntity
  8
APL Joinery
100
AcDbPolyline
 90
        4
 70
     1
 43
0.0
 10
-2050.626704661111
 20
-690.6324090091075
 10
-2194.626704661111
 20
-690.6324090091075
 10
-2194.626704661111
 20
-734.6324090091075
 10
-2050.626704661111
 20
-734.6324090091075
  0
LWPOLYLINE
  5
5842
102
{ACAD_REACTORS
330
5843
102
}
330
387B
100
AcDbEntity
  8
APL Joinery
100
AcDbPolyline
 90
        8
 70
     1
 43
0.0
 10
-2047.876704661111
 20
-737.6324090091075
 42
0.4142135623730964
 10
-2047.626704661111
 20
-737.3824090091074
 10
-2047.626704661111
 20
-687.8824090091074
 42
0.4142135623730951
 10
-2047.876704661111
 20
-687.6324090091075
 10
-2197.376704661111
 20
-687.6324090091074
 42
0.4142135623730951
 10
-2197.626704661111
 20
-687.8824090091073
 10
-2197.626704661111
 20
-737.3824090091074
 42
0.4142135623730951
 10
-2197.376704661111
 20
-737.6324090091075
  0
HATCH
  5
5843
330
387B
100
AcDbEntity
  8
APL Hatch
100
AcDbHatch
 10
0.0
 20
0.0
 30
0.0
210
0.0
220
0.0
230
1.0
  2
SOLID
 70
     1
 71
     1
 91
        2
 92
        1
 93
        8
 72
     2
 10
-2047.876704661111
 20
-737.3824090091074
 40
0.25
 50
270.0
 51
360.0
 73
     1
 72
     1
 10
-2047.626704661111
 20
-737.3824090091074
 11
-2047.626704661111
 21
-687.8824090091074
 72
     2
 10
-2047.876704661111
 20
-687.8824090091074
 40
0.25
 50
0.0
 51
90.0
 73
     1
 72
     1
 10
-2047.876704661111
 20
-687.6324090091075
 11
-2197.376704661111
 21
-687.6324090091074
 72
     2
 10
-2197.376704661111
 20
-687.8824090091073
 40
0.25
 50
90.0
 51
180.0
 73
     1
 72
     1
 10
-2197.626704661111
 20
-687.8824090091073
 11
-2197.626704661111
 21
-737.3824090091074
 72
     2
 10
-2197.376704661111
 20
-737.3824090091074
 40
0.25
 50
180.0
 51
270.0
 73
     1
 72
     1
 10
-2197.376704661111
 20
-737.6324090091075
 11
-2047.876704661111
 21
-737.6324090091075
 97
        1
330
5842
 92
       16
 93
        4
 72
     1
 10
-2050.626704661111
 20
-690.6324090091075
 11
-2194.626704661111
 21
-690.6324090091075
 72
     1
 10
-2194.626704661111
 20
-690.6324090091075
 11
-2194.626704661111
 21
-734.6324090091075
 72
     1
 10
-2194.626704661111
 20
-734.6324090091075
 11
-2050.626704661111
 21
-734.6324090091075
 72
     1
 10
-2050.626704661111
 20
-734.6324090091075
 11
-2050.626704661111
 21
-690.6324090091075
 97
        1
330
5841
 75
     0
 76
     1
 98
        1
 10
0.0
 20
0.0
  0
ENDBLK
  5
387D
330
387B
100
AcDbEntity
  8
0
 62
     9
100
AcDbBlockEnd
  0
BLOCK
  5
3882
330
3881
100
AcDbEntity
  8
0
 62
     9
100
AcDbBlockBegin
  2
08482
 70
     0
 10
-104.0970831426087
 20
-106.6810495959745
 30
0.0
  3
08482
  1
08482.dwg
  0
LWPOLYLINE
  5
5847
102
{ACAD_REACTORS
330
5849
102
}
330
3881
100
AcDbEntity
  8
APL Joinery
100
AcDbPolyline
 90
       54
 70
     1
 43
0.0
 10
-61.56154923667648
 20
-88.18104959597462
 10
-35.26865601786304
 20
-88.18104959597429
 42
-0.1989123673796567
 10
-34.91510262726971
 20
-88.32749620538095
 10
-17.41510262726936
 20
-105.8274962053813
 42
-0.6681786379192428
 10
-17.76865601786269
 20
-106.6810495959745
 10
-104.0970831426087
 20
-106.6810495959745
 10
-104.0970831426086
 20
-100.6810495959746
 10
-102.0470831426087
 20
-100.6810495959746
 42
-0.9999999999999998
 10
-102.0470831426087
 20
-101.6810495959746
 10
-102.7970831426087
 20
-101.6810495959746
 10
-102.7970831426087
 20
-103.1810495959746
 10
-97.2970831426087
 20
-103.1810495959746
 10
-97.2970831426087
 20
-101.6810495959746
 10
-98.04708314260871
 20
-101.6810495959746
 42
-0.9999999999999998
 10
-98.04708314260871
 20
-100.6810495959746
 10
-95.99708314260874
 20
-100.6810495959746
 10
-95.99708314260874
 20
-103.6810495959746
 10
-81.09708314260876
 20
-103.6810495959746
 10
-81.09708314260876
 20
-88.8310495959746
 10
-80.59708314260879
 20
-88.8310495959746
 10
-80.59708314260879
 20
-81.0810495959746
 10
-80.19708314260871
 20
-80.68104959597462
 10
-80.59708314260879
 20
-80.28104959597465
 10
-80.59708314260879
 20
-73.08104959597449
 10
-80.19708314260871
 20
-72.68104959597451
 10
-80.59708314260879
 20
-72.28104959597454
 10
-80.59708314260879
 20
-64.53104959597453
 10
-81.09708314260888
 20
-64.53104959597453
 10
-81.09708314260888
 20
-53.09526315834762
 42
0.1989123673796724
 10
-81.38997636142244
 20
-52.38815637716107
 10
-83.3041899237954
 20
-50.473942814788
 42
0.1989123673796711
 10
-84.01129670498198
 20
-50.18104959597451
 10
-95.99708314260885
 20
-50.18104959597451
 10
-95.99708314260885
 20
-52.68104959597462
 10
-98.04708314260881
 20
-52.68104959597451
 42
-0.9999999999999998
 10
-98.04708314260881
 20
-51.68104959597451
 10
-97.29708314260882
 20
-51.68104959597463
 10
-97.29708314260882
 20
-50.18104959597462
 10
-102.7970831426088
 20
-50.18104959597451
 10
-102.7970831426088
 20
-51.68104959597451
 10
-102.0470831426088
 20
-51.68104959597463
 42
-0.9999999999999998
 10
-102.0470831426088
 20
-52.68104959597462
 10
-104.0970831426089
 20
-52.68104959597462
 10
-104.0970831426089
 20
-46.68104959597451
 10
-76.76865601786246
 20
-46.68104959597451
 42
-0.1989123673796175
 10
-76.41510262726924
 20
-46.82749620538129
 10
-61.70799584608353
 20
-61.53460298656701
 42
-0.1989123673796436
 10
-61.56154923667682
 20
-61.88815637716027
 10
-61.5615492366766
 20
-72.28104959597454
 10
-61.96154923667669
 20
-72.68104959597451
 10
-61.5615492366766
 20
-73.08104959597449
 10
-61.5615492366766
 20
-80.28104959597454
 10
-61.96154923667669
 20
-80.68104959597452
 10
-61.5615492366766
 20
-81.0810495959746
  0
LWPOLYLINE
  5
5848
102
{ACAD_REACTORS
330
5849
102
}
330
3881
100
AcDbEntity
  8
APL Joinery
100
AcDbPolyline
 90
       16
 70
     1
 43
0.0
 10
-64.06154923667682
 20
-62.92369028309315
 42
0.1989123673796436
 10
-64.20799584608349
 20
-62.57013689249982
 10
-74.18286958023569
 20
-52.59526315834764
 42
0.6681786379192931
 10
-77.5970831426088
 20
-54.00947672072073
 10
-77.5970831426088
 20
-103.6810495959745
 10
-27.92551026735502
 20
-103.6810495959746
 42
0.6681786379193034
 10
-26.5112967049819
 20
-100.2668360336015
 10
-35.9506365332023
 20
-90.82749620538102
 42
0.1989123673796671
 10
-36.30418992379558
 20
-90.68104959597429
 10
-64.06154923667637
 20
-90.68104959597462
 10
-64.0615492366766
 20
-81.0810495959746
 10
-63.66154923667662
 20
-80.68104959597462
 10
-64.06154923667648
 20
-80.28104959597465
 10
-64.0615492366766
 20
-73.08104959597449
 10
-63.66154923667662
 20
-72.68104959597451
 10
-64.0615492366766
 20
-72.28104959597454
  0
HATCH
  5
5849
330
3881
100
AcDbEntity
  8
APL Hatch
100
AcDbHatch
 10
0.0
 20
0.0
 30
0.0
210
0.0
220
0.0
230
1.0
  2
SOLID
 70
     1
 71
     1
 91
        2
 92
        1
 93
       54
 72
     1
 10
-61.56154923667648
 20
-88.18104959597462
 11
-35.26865601786304
 21
-88.18104959597429
 72
     2
 10
-35.26865601786294
 20
-88.68104959597433
 40
0.5000000000000427
 50
269.9999999999886
 51
314.9999999999885
 73
     0
 72
     1
 10
-34.91510262726971
 20
-88.32749620538095
 11
-17.41510262726936
 21
-105.8274962053813
 72
     2
 10
-17.76865601786269
 20
-106.1810495959745
 40
0.4999999999999991
 50
315.0000000000086
 51
450.0000000000004
 73
     0
 72
     1
 10
-17.76865601786269
 20
-106.6810495959745
 11
-104.0970831426087
 21
-106.6810495959745
 72
     1
 10
-104.0970831426087
 20
-106.6810495959745
 11
-104.0970831426086
 21
-100.6810495959746
 72
     1
 10
-104.0970831426086
 20
-100.6810495959746
 11
-102.0470831426087
 21
-100.6810495959746
 72
     2
 10
-102.0470831426087
 20
-101.1810495959746
 40
0.5
 50
270.0
 51
450.0
 73
     0
 72
     1
 10
-102.0470831426087
 20
-101.6810495959746
 11
-102.7970831426087
 21
-101.6810495959746
 72
     1
 10
-102.7970831426087
 20
-101.6810495959746
 11
-102.7970831426087
 21
-103.1810495959746
 72
     1
 10
-102.7970831426087
 20
-103.1810495959746
 11
-97.2970831426087
 21
-103.1810495959746
 72
     1
 10
-97.2970831426087
 20
-103.1810495959746
 11
-97.2970831426087
 21
-101.6810495959746
 72
     1
 10
-97.2970831426087
 20
-101.6810495959746
 11
-98.04708314260871
 21
-101.6810495959746
 72
     2
 10
-98.04708314260871
 20
-101.1810495959746
 40
0.5
 50
90.0
 51
270.0
 73
     0
 72
     1
 10
-98.04708314260871
 20
-100.6810495959746
 11
-95.99708314260874
 21
-100.6810495959746
 72
     1
 10
-95.99708314260874
 20
-100.6810495959746
 11
-95.99708314260874
 21
-103.6810495959746
 72
     1
 10
-95.99708314260874
 20
-103.6810495959746
 11
-81.09708314260876
 21
-103.6810495959746
 72
     1
 10
-81.09708314260876
 20
-103.6810495959746
 11
-81.09708314260876
 21
-88.8310495959746
 72
     1
 10
-81.09708314260876
 20
-88.8310495959746
 11
-80.59708314260879
 21
-88.8310495959746
 72
     1
 10
-80.59708314260879
 20
-88.8310495959746
 11
-80.59708314260879
 21
-81.0810495959746
 72
     1
 10
-80.59708314260879
 20
-81.0810495959746
 11
-80.19708314260871
 21
-80.68104959597462
 72
     1
 10
-80.19708314260871
 20
-80.68104959597462
 11
-80.59708314260879
 21
-80.28104959597465
 72
     1
 10
-80.59708314260879
 20
-80.28104959597465
 11
-80.59708314260879
 21
-73.08104959597449
 72
     1
 10
-80.59708314260879
 20
-73.08104959597449
 11
-80.19708314260871
 21
-72.68104959597451
 72
     1
 10
-80.19708314260871
 20
-72.68104959597451
 11
-80.59708314260879
 21
-72.28104959597454
 72
     1
 10
-80.59708314260879
 20
-72.28104959597454
 11
-80.59708314260879
 21
-64.53104959597453
 72
     1
 10
-80.59708314260879
 20
-64.53104959597453
 11
-81.09708314260888
 21
-64.53104959597453
 72
     1
 10
-81.09708314260888
 20
-64.53104959597453
 11
-81.09708314260888
 21
-53.09526315834762
 72
     2
 10
-82.09708314260888
 20
-53.09526315834772
 40
1.0
 50
0.0000000000056996
 51
45.00000000000865
 73
     1
 72
     1
 10
-81.38997636142244
 20
-52.38815637716107
 11
-83.3041899237954
 21
-50.473942814788
 72
     2
 10
-84.01129670498198
 20
-51.18104959597451
 40
0.999999999999998
 50
44.99999999999712
 51
90.0
 73
     1
 72
     1
 10
-84.01129670498198
 20
-50.18104959597451
 11
-95.99708314260885
 21
-50.18104959597451
 72
     1
 10
-95.99708314260885
 20
-50.18104959597451
 11
-95.99708314260885
 21
-52.68104959597462
 72
     1
 10
-95.99708314260885
 20
-52.68104959597462
 11
-98.04708314260881
 21
-52.68104959597451
 72
     2
 10
-98.04708314260881
 20
-52.18104959597451
 40
0.5
 50
90.0
 51
270.0
 73
     0
 72
     1
 10
-98.04708314260881
 20
-51.68104959597451
 11
-97.29708314260882
 21
-51.68104959597463
 72
     1
 10
-97.29708314260882
 20
-51.68104959597463
 11
-97.29708314260882
 21
-50.18104959597462
 72
     1
 10
-97.29708314260882
 20
-50.18104959597462
 11
-102.7970831426088
 21
-50.18104959597451
 72
     1
 10
-102.7970831426088
 20
-50.18104959597451
 11
-102.7970831426088
 21
-51.68104959597451
 72
     1
 10
-102.7970831426088
 20
-51.68104959597451
 11
-102.0470831426088
 21
-51.68104959597463
 72
     2
 10
-102.0470831426088
 20
-52.18104959597463
 40
0.5
 50
270.0
 51
450.0
 73
     0
 72
     1
 10
-102.0470831426088
 20
-52.68104959597462
 11
-104.0970831426089
 21
-52.68104959597462
 72
     1
 10
-104.0970831426089
 20
-52.68104959597462
 11
-104.0970831426089
 21
-46.68104959597451
 72
     1
 10
-104.0970831426089
 20
-46.68104959597451
 11
-76.76865601786246
 21
-46.68104959597451
 72
     2
 10
-76.7686560178626
 20
-47.18104959597456
 40
0.5000000000000569
 50
270.0000000000147
 51
315.0000000000058
 73
     0
 72
     1
 10
-76.41510262726924
 20
-46.82749620538129
 11
-61.70799584608353
 21
-61.53460298656701
 72
     2
 10
-62.06154923667682
 20
-61.88815637716027
 40
0.4999999999999991
 50
315.0000000000029
 51
360.0
 73
     0
 72
     1
 10
-61.56154923667682
 20
-61.88815637716027
 11
-61.5615492366766
 21
-72.28104959597454
 72
     1
 10
-61.5615492366766
 20
-72.28104959597454
 11
-61.96154923667669
 21
-72.68104959597451
 72
     1
 10
-61.96154923667669
 20
-72.68104959597451
 11
-61.5615492366766
 21
-73.08104959597449
 72
     1
 10
-61.5615492366766
 20
-73.08104959597449
 11
-61.5615492366766
 21
-80.28104959597454
 72
     1
 10
-61.5615492366766
 20
-80.28104959597454
 11
-61.96154923667669
 21
-80.68104959597452
 72
     1
 10
-61.96154923667669
 20
-80.68104959597452
 11
-61.5615492366766
 21
-81.0810495959746
 72
     1
 10
-61.5615492366766
 20
-81.0810495959746
 11
-61.56154923667648
 21
-88.18104959597462
 97
        1
330
5847
 92
       16
 93
       16
 72
     2
 10
-64.56154923667689
 20
-62.92369028309306
 40
0.5000000000000711
 50
359.9999999999902
 51
404.9999999999873
 73
     1
 72
     1
 10
-64.20799584608349
 20
-62.57013689249982
 11
-74.18286958023569
 21
-52.59526315834764
 72
     2
 10
-75.59708314260878
 20
-54.00947672072075
 40
2.000000000000011
 50
45.00000000000043
 51
179.9999999999992
 73
     1
 72
     1
 10
-77.5970831426088
 20
-54.00947672072073
 11
-77.5970831426088
 21
-103.6810495959745
 72
     1
 10
-77.5970831426088
 20
-103.6810495959745
 11
-27.92551026735502
 21
-103.6810495959746
 72
     2
 10
-27.925510267355
 20
-101.6810495959746
 40
2.0
 50
269.9999999999994
 51
405.0000000000001
 73
     1
 72
     1
 10
-26.5112967049819
 20
-100.2668360336015
 11
-35.9506365332023
 21
-90.82749620538102
 72
     2
 10
-36.30418992379558
 20
-91.18104959597429
 40
0.4999999999999991
 50
44.99999999999827
 51
90.0
 73
     1
 72
     1
 10
-36.30418992379558
 20
-90.68104959597429
 11
-64.06154923667637
 21
-90.68104959597462
 72
     1
 10
-64.06154923667637
 20
-90.68104959597462
 11
-64.0615492366766
 21
-81.0810495959746
 72
     1
 10
-64.0615492366766
 20
-81.0810495959746
 11
-63.66154923667662
 21
-80.68104959597462
 72
     1
 10
-63.66154923667662
 20
-80.68104959597462
 11
-64.06154923667648
 21
-80.28104959597465
 72
     1
 10
-64.06154923667648
 20
-80.28104959597465
 11
-64.0615492366766
 21
-73.08104959597449
 72
     1
 10
-64.0615492366766
 20
-73.08104959597449
 11
-63.66154923667662
 21
-72.68104959597451
 72
     1
 10
-63.66154923667662
 20
-72.68104959597451
 11
-64.0615492366766
 21
-72.28104959597454
 72
     1
 10
-64.0615492366766
 20
-72.28104959597454
 11
-64.06154923667682
 21
-62.92369028309315
 97
        1
330
5848
 75
     0
 76
     1
 98
        1
 10
0.0
 20
0.0
  0
ENDBLK
  5
3883
330
3881
100
AcDbEntity
  8
0
 62
     9
100
AcDbBlockEnd
  0
BLOCK
  5
3D65
330
3D64
100
AcDbEntity
  8
0
100
AcDbBlockBegin
  2
9010313
 70
     0
 10
-675.4603067194629
 20
111.7498037176867
 30
0.0
  3
9010313
  1
9010313.dwg
  0
LWPOLYLINE
  5
584D
330
3D64
100
AcDbEntity
  8
APL Joinery
 62
   252
100
AcDbPolyline
 90
        3
 70
     0
 43
0.0
 10
-669.1067533293214
 20
111.3962503271353
 10
-670.4603067194518
 20
110.0426969365393
 10
-668.9742314614108
 20
105.7784147030849
  0
LWPOLYLINE
  5
584E
330
3D64
100
AcDbEntity
  8
APL Joinery
 62
   252
100
AcDbPolyline
 90
        2
 70
     0
 43
0.0
 10
668.9742314614083
 20
105.7784147030768
 42
0.7665651043313928
 10
669.3732550137603
 20
105.5065447845577
210
0.0
220
0.0
230
-1.0
  0
LWPOLYLINE
  5
584F
330
3D64
100
AcDbEntity
  8
APL Joinery
 62
   252
100
AcDbPolyline
 90
        2
 70
     0
 43
0.0
 10
-669.3732550135989
 20
105.5065447844161
 42
0.0813324331127827
 10
-672.9603067196076
 20
107.6941485228225
  0
LWPOLYLINE
  5
5850
330
3D64
100
AcDbEntity
  8
APL Joinery
 62
   252
100
AcDbPolyline
 90
        3
 70
     0
 43
0.0
 10
-668.9742314615694
 20
117.7211927329366
 10
-670.4603067189889
 20
113.4569104989208
 10
-669.1067533288585
 20
112.1033571083247
  0
LWPOLYLINE
  5
5851
330
3D64
100
AcDbEntity
  8
APL Joinery
 62
   252
100
AcDbPolyline
 90
        2
 70
     0
 43
0.0
 10
669.1067533288587
 20
112.1033571083242
 42
0.4142135625636002
 10
669.1067533290886
 20
111.3962503269077
210
0.0
220
0.0
230
-1.0
  0
LWPOLYLINE
  5
5852
330
3D64
100
AcDbEntity
  8
APL Joinery
 62
   252
100
AcDbPolyline
 90
        4
 70
     0
 43
0.0
 10
-672.9603067189889
 20
107.6941485228166
 10
-672.9603067194518
 20
110.4998037177314
 10
-674.2603067192655
 20
110.4998037180108
 42
0.4142135623730951
 10
-674.4603067192656
 20
110.2998037180108
  0
LWPOLYLINE
  5
5853
330
3D64
100
AcDbEntity
  8
APL Joinery
 62
   252
100
AcDbPolyline
 90
        4
 70
     0
 43
0.0
 10
674.4603067194519
 20
109.7498037177309
 42
0.7807764063960539
 10
674.930894954702
 20
109.6321566588247
 42
0.2500000000110582
 10
674.9308949547436
 20
113.867450776559
 42
0.7807764063960541
 10
674.4603067194519
 20
113.7498037177309
210
0.0
220
0.0
230
-1.0
  0
LWPOLYLINE
  5
5854
330
3D64
100
AcDbEntity
  8
APL Joinery
 62
   252
100
AcDbPolyline
 90
        3
 70
     0
 43
0.0
 10
-674.4603067194518
 20
113.7498037177314
 10
-674.4603067188027
 20
113.1998037179149
 42
0.4142135616875204
 10
-674.2603067192708
 20
112.9998037179149
  0
LWPOLYLINE
  5
5855
330
3D64
100
AcDbEntity
  8
APL Joinery
 62
   252
100
AcDbPolyline
 90
        3
 70
     0
 43
0.0
 10
-674.2603067192655
 20
112.9998037177314
 10
-672.9603067194518
 20
112.9998037177314
 10
-672.9603067197195
 20
115.8054589127799
  0
LWPOLYLINE
  5
5856
330
3D64
100
AcDbEntity
  8
APL Joinery
 62
   252
100
AcDbPolyline
 90
        2
 70
     0
 43
0.0
 10
-674.4603067194518
 20
110.2998037180108
 10
-674.4603067194518
 20
109.7498037177314
  0
LWPOLYLINE
  5
5857
330
3D64
100
AcDbEntity
  8
APL Joinery
 62
   252
100
AcDbPolyline
 90
        2
 70
     0
 43
0.0
 10
-672.9603067200705
 20
115.8054589126376
 42
0.0813324331127827
 10
-669.3732550140619
 20
117.993062651044
  0
LWPOLYLINE
  5
5858
330
3D64
100
AcDbEntity
  8
APL Joinery
 62
   252
100
AcDbPolyline
 90
        2
 70
     0
 43
0.0
 10
669.3732550139576
 20
117.9930626512002
 42
0.7665651046927385
 10
668.9742314613977
 20
117.7211927328813
210
0.0
220
0.0
230
-1.0
  0
ENDBLK
  5
3D66
330
3D64
100
AcDbEntity
  8
0
100
AcDbBlockEnd
  0
BLOCK
  5
3F24
330
3F23
100
AcDbEntity
  8
0
100
AcDbBlockBegin
  2
6Glass
 70
     0
 10
101.8368839708302
 20
399.4111348733001
 30
0.0
  3
6Glass
  1
6Glass.dwg
  0
LINE
  5
4F15
330
3F23
100
AcDbEntity
  8
APL Joinery
 62
     7
100
AcDbLine
 10
95.33688397083029
 20
412.4111348732999
 30
0.0
 11
95.33688397083029
 21
392.4111348733
 31
0.0
  0
LINE
  5
4F16
330
3F23
100
AcDbEntity
  8
APL Joinery
 62
     7
100
AcDbLine
 10
89.33688397083029
 20
412.4111348732999
 30
0.0
 11
95.33688397083029
 21
412.4111348732999
 31
0.0
  0
LINE
  5
4F17
330
3F23
100
AcDbEntity
  8
APL Joinery
 62
     8
100
AcDbLine
 10
93.33688397083028
 20
412.4111348732999
 30
0.0
 11
93.33688397083028
 21
392.4111348733
 31
0.0
  0
LINE
  5
4F18
330
3F23
100
AcDbEntity
  8
APL Joinery
 62
     7
100
AcDbLine
 10
89.33688397083029
 20
412.4111348732999
 30
0.0
 11
89.33688397083029
 21
392.4111348733
 31
0.0
  0
LINE
  5
4F19
330
3F23
100
AcDbEntity
  8
APL Joinery
 62
     8
100
AcDbLine
 10
91.33688397083028
 20
412.4111348732999
 30
0.0
 11
91.33688397083028
 21
392.4111348733
 31
0.0
  0
ENDBLK
  5
3F25
330
3F23
100
AcDbEntity
  8
0
100
AcDbBlockEnd
  0
BLOCK
  5
3F2E
330
3F2D
100
AcDbEntity
  8
0
100
AcDbBlockBegin
  2
9010240l
 70
     0
 10
121.7743665915091
 20
318.4609762649906
 30
0.0
  3
9010240l
  1
9010240l.dwg
  0
LWPOLYLINE
  5
585B
330
3F2D
100
AcDbEntity
  8
APL Joinery
  6
Continuous
 62
   252
100
AcDbPolyline
 90
       30
 70
   129
 43
0.0
 10
125.4743665915089
 20
314.4561557475136
 42
-0.2835524870706119
 10
125.639679738777
 20
314.7242218805875
 42
0.0902645523985048
 10
127.3754845981152
 20
316.3445044937532
 42
0.161319204780224
 10
127.4743665871533
 20
316.6430079967175
 10
127.4743665871533
 20
317.3876867032266
 42
0.7182204474982408
 10
127.1151731138881
 20
317.5087546100796
 42
-0.1023621877757452
 10
125.7724514164482
 20
316.3391728353994
 42
-0.5736819561067553
 10
125.4743665915088
 20
316.5134696142469
 10
125.4743665915089
 20
317.4272819212232
 42
-0.2007459679516776
 10
125.6233155046325
 20
317.7833200293
 10
127.3629395678818
 20
319.4985772006699
 42
0.1718314268301038
 10
127.4743665871533
 20
319.8132373961948
 10
127.4743665871533
 20
321.0651669139914
 42
0.4607623830565128
 10
127.1854567012142
 20
321.3121203929631
 10
121.9854567055696
 20
320.4579297439622
 42
0.39414290722904
 10
121.7753179169858
 20
320.1891873293035
 10
121.9265167932934
 20
318.4609762649903
 10
123.4743665871533
 20
318.4609762649903
 10
123.4743665871533
 20
315.5609762649902
 10
122.9743665871533
 20
315.5609762649902
 42
0.5486826681767499
 10
122.7478103958356
 20
315.2052772007768
 10
124.4491917600105
 20
311.5585232326624
 42
0.5205046449868776
 10
125.12771125539
 20
311.4389506414458
 10
125.4743665915089
 20
311.7856059775647
 42
0.0847796409423414
 10
127.3739886902729
 20
313.5798636206071
 42
0.1626006128156405
 10
127.4743665871533
 20
313.880366823083
 10
127.4743665871533
 20
314.5348039882088
 42
0.6868018179313476
 10
127.1259119882316
 20
314.668823509395
 42
-0.0728137603887277
 10
125.7781723137974
 20
313.554024525722
 42
-0.5847457288354972
 10
125.4743665915089
 20
313.7249758989839
  0
ENDBLK
  5
3F2F
330
3F2D
100
AcDbEntity
  8
0
100
AcDbBlockEnd
  0
BLOCK
  5
3F5D
330
3F5C
100
AcDbEntity
  8
0
100
AcDbBlockBegin
  2
9010312r
 70
     0
 10
399.4634067278245
 20
339.4121540145172
 30
0.0
  3
9010312r
  1
9010312r.dwg
  0
LWPOLYLINE
  5
585E
330
3F5C
100
AcDbEntity
  8
APL Joinery
  6
Continuous
 62
   252
100
AcDbPolyline
 90
       28
 70
   128
 43
0.0
 10
395.7634067278242
 20
336.2999919725366
 10
395.7634067278242
 20
343.1621540145172
 42
-0.7673269879789622
 10
396.2299130787703
 20
343.2871540145172
 10
396.7850145808851
 20
342.3256900094965
 10
399.2931562636775
 20
341.6536354710895
 42
-0.3626955242591878
 10
399.4775957926651
 20
341.3914870691883
 10
399.3134067278246
 20
339.4121540145172
 10
397.7634067278242
 20
339.4121540145172
 10
397.7634067278242
 20
336.5121540145171
 10
399.0135696498364
 20
336.5121540145171
 10
399.2752560951169
 20
337.3376963843301
 42
-0.6640183420487276
 10
399.7341578851304
 20
337.3798010733406
 42
-0.250000000000001
 10
399.7341578851305
 20
333.1445069556935
 42
-0.6640183420487097
 10
399.2752560951171
 20
333.1866116447042
 10
399.0135696498364
 20
334.0121540145171
 10
397.4635696498362
 20
334.0121540145171
 10
397.1898787608678
 20
334.2858449034854
 42
0.6681785464135807
 10
396.7631020655712
 20
334.1090682714504
 10
396.7631016544432
 20
332.4843569389277
 10
396.2607415896308
 20
329.0715154000631
 42
-0.9294717386060577
 10
395.7634067278242
 20
329.1079223518048
 10
395.7634067278242
 20
334.5749919747145
 42
-0.3563939586926081
 10
396.5634067278242
 20
335.5547878718279
 42
0.3563939586925715
 10
396.7634067278242
 20
335.7997368461061
 10
396.7634067278242
 20
339.3871540145172
 42
0.9999999999999998
 10
396.7134067278242
 20
339.3871540145172
 10
396.7134067278242
 20
336.2999919725366
 42
-0.9999999999999998
 10
395.76340673218
 20
336.2999919725366
  0
ENDBLK
  5
3F5E
330
3F5C
100
AcDbEntity
  8
0
100
AcDbBlockEnd
  0
BLOCK
  5
3FAD
330
3FA8
100
AcDbEntity
  8
0
100
AcDbBlockBegin
  2
a4 specifiers manual
 70
     0
 10
0.0
 20
0.0
 30
0.0
  3
a4 specifiers manual
  1

  0
LINE
  5
4CED
330
3FA8
100
AcDbEntity
  8
0
100
AcDbLine
 10
-0.0000008078504834
 20
0.0000001108869583
 30
0.0
 11
353.9999991921495
 21
0.0000001108869583
 31
0.0
  0
LINE
  5
4CEE
330
3FA8
100
AcDbEntity
  8
0
100
AcDbLine
 10
353.9999991921495
 20
482.0000001108869
 30
0.0
 11
-0.0000008078504834
 21
482.0000001108869
 31
0.0
  0
LINE
  5
4CEF
330
3FA8
100
AcDbEntity
  8
0
100
AcDbLine
 10
-0.0000008078504834
 20
482.0000001108869
 30
0.0
 11
-0.0000008078504834
 21
0.0000001108869583
 31
0.0
  0
LINE
  5
4CF0
330
3FA8
100
AcDbEntity
  8
0
100
AcDbLine
 10
353.9999991921495
 20
0.0000001108869583
 30
0.0
 11
353.9999991921495
 21
482.0000001108869
 31
0.0
  0
ENDBLK
  5
3FAE
330
3FA8
100
AcDbEntity
  8
0
100
AcDbBlockEnd
  0
BLOCK
  5
4EDC
330
4EDB
100
AcDbEntity
  8
0
100
AcDbBlockBegin
  2
vantage a4 SM border
 70
     0
 10
0.0
 20
0.0
 30
0.0
  3
vantage a4 SM border
  1
vantage a4 SM border.dwg
  0
TEXT
  5
5861
330
4EDB
100
AcDbEntity
  8
APL Border
100
AcDbText
 10
11.59500000000003
 20
3.979818213543524
 30
0.0
 40
1.5
  1
VANTAGE SPECIFIER'S GUIDE 2011:1     ARCHITECTURAL PROFILES LTD. NB. TECHNICAL SPECIFICATIONS SUBJECT TO CHANGE WITHOUT NOTICE.
 41
1.175568529931163
  7
Arial-Regular
 72
     5
 11
189.595
 21
3.979818213543524
 31
0.0
100
AcDbText
  0
LINE
  5
5862
330
4EDB
100
AcDbEntity
  8
APL Border
100
AcDbLine
 10
11.59500000000003
 20
6.189999999999997
 30
0.0
 11
189.595
 21
6.189999999999997
 31
0.0
  0
MTEXT
  5
5863
330
4EDB
100
AcDbEntity
  8
APL Border
100
AcDbMText
 10
57.55102029361978
 20
3.879818213543526
 30
0.0
 40
1.5
 41
0.0
 71
     8
 72
     5
  1
{\fCommercialPi BT|b0|i0|c2|p18;a}
  7
Arial-Regular
 73
     1
 44
1.0
1001
ACAD
1000
MTEXTBEGIN
1070
    73
1070
     1
1070
    44
1040
1.0
1070
    74
1070
     0
1000
MTEXTEND
  0
LINE
  5
5864
330
4EDB
100
AcDbEntity
  8
APL Border
100
AcDbLine
 10
189.595
 20
268.19
 30
0.0
 11
142.595
 21
268.19
 31
0.0
  0
LINE
  5
5865
330
4EDB
100
AcDbEntity
  8
APL Border
100
AcDbLine
 10
189.595
 20
282.19
 30
0.0
 11
189.595
 21
254.19
 31
0.0
  0
LINE
  5
5866
330
4EDB
100
AcDbEntity
  8
APL Border
100
AcDbLine
 10
166.095
 20
268.19
 30
0.0
 11
166.095
 21
254.19
 31
0.0
  0
LINE
  5
5867
330
4EDB
100
AcDbEntity
  8
APL Border
100
AcDbLine
 10
189.595
 20
254.19
 30
0.0
 11
24.99473224900737
 21
254.19
 31
0.0
  0
LINE
  5
5868
330
4EDB
100
AcDbEntity
  8
APL Border
100
AcDbLine
 10
189.595
 20
282.19
 30
0.0
 11
24.99473224900737
 21
282.19
 31
0.0
  0
LINE
  5
5869
330
4EDB
100
AcDbEntity
  8
APL Border
100
AcDbLine
 10
142.595
 20
282.19
 30
0.0
 11
142.595
 21
254.19
 31
0.0
  0
TEXT
  5
586A
330
4EDB
100
AcDbEntity
  8
APL Border
100
AcDbText
 10
147.845
 20
273.69
 30
0.0
 40
2.5
  1
CAD REF.
  7
Arial-Regular
100
AcDbText
  0
TEXT
  5
586B
330
4EDB
100
AcDbEntity
  8
APL Border
100
AcDbText
 10
149.6877694406548
 20
262.19
 30
0.0
 40
2.5
  1
DATE
  7
Arial-Regular
 72
     1
 11
154.345
 21
262.19
 31
0.0
100
AcDbText
  0
TEXT
  5
586C
330
4EDB
100
AcDbEntity
  8
APL Border
100
AcDbText
 10
172.1185334242838
 20
262.19
 30
0.0
 40
2.5
  1
SCALE
  7
Arial-Regular
 72
     1
 11
177.845
 21
262.19
 31
0.0
100
AcDbText
  0
INSERT
  5
586D
102
{ACAD_XDICTIONARY
360
586E
102
}
330
4EDB
100
AcDbEntity
  8
APL Border
100
AcDbBlockReference
  2
vantage black & white logo
 10
24.99473224900737
 20
256.19
 30
0.0
 41
0.5
 42
0.5
 43
0.5
  0
LINE
  5
58B2
330
4EDB
100
AcDbEntity
  8
APL Border
100
AcDbLine
 10
24.99473224900737
 20
256.19
 30
0.0
 11
24.99473224900737
 21
254.19
 31
0.0
  0
LINE
  5
58B3
330
4EDB
100
AcDbEntity
  8
APL Border
100
AcDbLine
 10
24.99473224900716
 20
279.6304177948761
 30
0.0
 11
24.99473224900737
 21
282.19
 31
0.0
  0
ENDBLK
  5
4EDD
330
4EDB
100
AcDbEntity
  8
0
100
AcDbBlockEnd
  0
BLOCK
  5
50CC
330
50C9
100
AcDbEntity
  8
0
100
AcDbBlockBegin
  2
9010640-4.0mm
 70
     0
 10
0.0
 20
0.0
 30
0.0
  3
9010640-4.0mm
  1

  0
LWPOLYLINE
  5
52A5
330
50C9
100
AcDbEntity
  8
APL Joinery
  6
Continuous
 62
   252
100
AcDbPolyline
 90
       31
 70
     1
 43
0.0
 10
-0.8139497167703098
 20
1.991682506038387
 42
0.3403258786703072
 10
-1.0
 20
1.75
 10
-1.0
 20
0.5
 42
0.4142135623730951
 10
-0.5
 20
0.0
 10
0.0
 20
0.0
 10
0.0
 20
-2.800000000000068
 10
-0.75
 20
-2.800000000000068
 10
-0.75
 20
-4.300000000000068
 10
0.0
 20
-5.59903810567664
 10
0.0
 20
-7.915063509461219
 10
1.313645432245152
 20
-9.228708941706372
 42
0.3394542588633334
 10
1.917198822838372
 20
-9.308168253005305
 10
3.058739999999886
 20
-8.649099147080164
 42
0.2679491924311231
 10
3.999999999999772
 20
-7.018789003947858
 10
4.0
 20
-5.656569399281806
 42
1.000000000000056
 10
2.999999999999772
 20
-5.656569399281806
 10
3.0
 20
-6.923271935262619
 42
-1.000000000000056
 10
2.5
 20
-6.923271935262619
 10
2.5
 20
-4.44228667107086
 10
3.058739999999886
 20
-4.119697981663762
 42
0.2679491924311231
 10
3.999999999999772
 20
-2.489387838531456
 10
4.0
 20
-1.127168233865404
 42
1.000000000000056
 10
2.999999999999772
 20
-1.127168233865404
 10
3.0
 20
-2.393870769846216
 42
-1.000000000000056
 10
2.5
 20
-2.393870769846216
 10
2.5
 20
0.0871185546729976
 10
3.065999999999831
 20
0.413898807034343
 42
0.2679491924311231
 10
4.0
 20
2.031634261303679
 10
4.0
 20
2.787106045300333
 42
0.4815336371225567
 10
3.694402200131662
 20
3.030845423837831
 10
-0.2200604956661323
 20
2.13794287005868
 42
0.0086021038167174
  0
LWPOLYLINE
  5
52A6
330
50C9
100
AcDbEntity
  8
APL Joinery
  6
Continuous
 62
   252
100
AcDbPolyline
 90
        2
 70
     0
 43
0.0
 10
0.0
 20
-2.800000000000068
 10
0.0
 20
-5.59903810567664
  0
ENDBLK
  5
50CD
330
50C9
100
AcDbEntity
  8
0
100
AcDbBlockEnd
  0
BLOCK
  5
5663
330
5658
100
AcDbEntity
  8
0
100
AcDbBlockBegin
  2
vantage a4 SM attributes (4)
 70
     2
 10
0.0
 20
0.0
 30
0.0
  3
vantage a4 SM attributes (4)
  1

  0
ATTDEF
  5
5659
330
5658
100
AcDbEntity
  8
APL Border
100
AcDbText
 10
41.78979785863009
 20
276.19
 30
0.0
 40
3.5
  1
DRAWING TITLE LINE 1
  7
Arial-Bold
100
AcDbAttributeDefinition
  3
Drawing Title Line 1
  2
DRAWINGTITLE_1
 70
     0
1001
AcDbBlockRepETag
1070
     1
1071
        0
1005
0
  0
ATTDEF
  5
565A
330
5658
100
AcDbEntity
  8
APL Border
100
AcDbText
 10
41.78979785863009
 20
270.19
 30
0.0
 40
3.5
  1
DRAWING TITLE LINE 2
  7
Arial-Bold
100
AcDbAttributeDefinition
  3
Drawing Title Line 2
  2
DRAWINGTITLE_2
 70
     0
1001
AcDbBlockRepETag
1070
     1
1071
        1
1005
0
  0
ATTDEF
  5
565B
330
5658
100
AcDbEntity
  8
APL Border
100
AcDbText
 10
41.78979785863009
 20
264.19
 30
0.0
 40
3.5
  1
DRAWING TITLE LINE 3
  7
Arial-Bold
100
AcDbAttributeDefinition
  3
Drawing Title Line 3
  2
DRAWINGTITLE_3
 70
     0
1001
AcDbBlockRepETag
1070
     1
1071
        2
1005
0
  0
ATTDEF
  5
565C
330
5658
100
AcDbEntity
  8
APL Border
100
AcDbText
 10
41.78979785863009
 20
258.19
 30
0.0
 40
3.0
  1
CROSS SECTION
  7
Arial-Regular
100
AcDbAttributeDefinition
  3
Drawing Title Line 4
  2
DRAWINGTITLE_4
 70
     0
1001
AcDbBlockRepETag
1070
     1
1071
        3
1005
0
  0
ATTDEF
  5
565D
330
5658
100
AcDbEntity
  8
APL Border
100
AcDbText
 10
165.845
 20
273.69
 30
0.0
 40
2.5
  1
AW123-456
  7
Arial-Regular
100
AcDbAttributeDefinition
  3
CAD Reference
  2
AW12-0
 70
     0
1001
AcDbBlockRepETag
1070
     1
1071
        4
1005
0
  0
ATTDEF
  5
565E
330
5658
100
AcDbEntity
  8
APL Border
100
AcDbText
 10
147.5475920873124
 20
257.1899999999999
 30
0.0
 40
2.5
  1
25.07.08
  7
Arial-Regular
 72
     1
 11
154.345
 21
257.1899999999999
 31
0.0
100
AcDbAttributeDefinition
  3
Date
  2
25.07.08
 70
     0
1001
AcDbBlockRepETag
1070
     1
1071
        5
1005
0
  0
ATTDEF
  5
565F
330
5658
100
AcDbEntity
  8
APL Border
100
AcDbText
 10
175.4174761255116
 20
257.1899999999999
 30
0.0
 40
2.5
  1
1:2
  7
Arial-Regular
 72
     1
 11
177.845
 21
257.1899999999999
 31
0.0
100
AcDbAttributeDefinition
  3
Scale
  2
1:2
 70
     0
1001
AcDbBlockRepETag
1070
     1
1071
        6
1005
0
  0
ATTDEF
  5
5660
330
5658
100
AcDbEntity
  8
APL Border
100
AcDbText
 10
189.595
 20
1.189999999999997
 30
0.0
 40
3.75
  1

  7
Arial-Bold
 72
     2
 11
189.595
 21
1.189999999999997
 31
0.0
100
AcDbAttributeDefinition
  3
Page Number (Right)
  2
1.2.34
 70
     0
1001
AcDbBlockRepETag
1070
     1
1071
        7
1005
0
  0
ATTDEF
  5
5661
330
5658
100
AcDbEntity
  8
APL Border
100
AcDbText
 10
11.59500000000003
 20
1.189999999999997
 30
0.0
 40
3.75
  1

  7
Arial-Bold
100
AcDbAttributeDefinition
  3
Page Number (Left)
  2
1.2.34
 70
     0
1001
AcDbBlockRepETag
1070
     1
1071
        8
1005
0
  0
ENDBLK
  5
5664
330
5658
100
AcDbEntity
  8
0
100
AcDbBlockEnd
  0
BLOCK
  5
5872
330
586F
100
AcDbEntity
  8
0
 62
     9
100
AcDbBlockBegin
  2
vantage black & white logo
 70
     0
 10
0.0
 20
0.0
 30
0.0
  3
vantage black & white logo
  1

  0
SPLINE
  5
5873
102
{ACAD_REACTORS
330
58A3
102
}
330
586F
100
AcDbEntity
  8
APL Border
 62
     8
100
AcDbSpline
210
0.0
220
0.0
230
1.0
 70
     8
 71
     3
 72
    16
 73
    12
 74
    10
 42
0.0000000001
 43
0.0000000001
 44
0.0000000001
 40
0.0
 40
0.0
 40
0.0
 40
0.0
 40
0.1978277931646383
 40
0.361463118001824
 40
0.5540499897785108
 40
0.7796220130725381
 40
0.979106605438038
 40
1.222151590302332
 40
1.40748727220097
 40
1.607226525619232
 40
1.815049166761618
 40
1.815049166761618
 40
1.815049166761618
 40
1.815049166761618
 10
-6.679452083611295
 20
24.89125032803118
 30
0.0
 10
-6.685371732996674
 20
24.82559351525051
 30
0.0
 10
-6.696187882184245
 20
24.70562798418881
 30
0.0
 10
-6.721757155054659
 20
24.52229576436942
 30
0.0
 10
-6.768469983285688
 20
24.33480615160983
 30
0.0
 10
-6.86071972339088
 20
24.14153771241002
 30
0.0
 10
-7.051789745146238
 20
24.01851519430105
 30
0.0
 10
-7.233921808197289
 20
23.91285203345822
 30
0.0
 10
-7.443451931375125
 20
23.87675735439051
 30
0.0
 10
-7.641222718647389
 20
23.88093312949101
 30
0.0
 10
-7.776581895343343
 20
23.89281010788354
 30
0.0
 10
-7.845603808282817
 20
23.89886637823479
 30
0.0
 11
-6.679452083611295
 21
24.89125032803118
 31
0.0
 11
-6.698967886443824
 21
24.69438750983487
 31
0.0
 11
-6.7229873764864
 21
24.53252465544059
 31
0.0
 11
-6.771947617386814
 21
24.34626516442952
 31
0.0
 11
-6.880972027936735
 21
24.14879006322128
 31
0.0
 11
-7.039699899396197
 21
24.02796140183178
 31
0.0
 11
-7.25666078222261
 21
23.91842218515177
 31
0.0
 11
-7.438645676318543
 21
23.88333923622035
 31
0.0
 11
-7.638384704687155
 21
23.88303939885124
 31
0.0
 11
-7.845603808282817
 21
23.89886637823479
 31
0.0
1001
AcDbBlockRepETag
1070
     1
1071
      590
1005
5873
  0
SPLINE
  5
5874
102
{ACAD_REACTORS
330
58A3
102
}
330
586F
100
AcDbEntity
  8
APL Border
 62
     8
100
AcDbSpline
210
0.0
220
0.0
230
1.0
 70
     8
 71
     3
 72
    11
 73
     7
 74
     5
 42
0.0000000001
 43
0.0000000001
 44
0.0000000001
 40
0.0
 40
0.0
 40
0.0
 40
0.0
 40
0.0680840587483313
 40
0.1752723045973904
 40
0.2784233367375334
 40
0.4826852714337078
 40
0.4826852714337078
 40
0.4826852714337078
 40
0.4826852714337078
 10
-7.465264214605014
 20
24.80065518845331
 30
0.0
 10
-7.468646137215252
 20
24.77808681972154
 30
0.0
 10
-7.47735239504952
 20
24.719987903891
 30
0.0
 10
-7.524447891091254
 20
24.63752792323728
 30
0.0
 10
-7.635129760920157
 20
24.54333837224584
 30
0.0
 10
-7.743266182308203
 20
24.55714977626708
 30
0.0
 10
-7.815117916056323
 20
24.56632682606847
 30
0.0
 11
-7.465264214605014
 21
24.80065518845331
 31
0.0
 11
-7.478569823577657
 21
24.73388393846117
 31
0.0
 11
-7.530473398252325
 21
24.64010046985295
 31
0.0
 11
-7.611072397370236
 21
24.57572705319073
 31
0.0
 11
-7.815117916056323
 21
24.56632682606847
 31
0.0
1001
AcDbBlockRepETag
1070
     1
1071
      593
1005
5874
  0
SPLINE
  5
5875
102
{ACAD_REACTORS
330
58A3
102
}
330
586F
100
AcDbEntity
  8
APL Border
 62
     8
100
AcDbSpline
210
0.0
220
0.0
230
1.0
 70
     8
 71
     3
 72
    20
 73
    16
 74
     0
 42
0.0000000001
 43
0.0000000001
 40
0.0
 40
0.0
 40
0.0
 40
0.0
 40
0.1774120264923274
 40
0.3258093286713144
 40
0.4834060703451958
 40
0.6311237014699663
 40
0.811161917566129
 40
0.9605198197290178
 40
1.289502400757101
 40
1.459697744220917
 40
1.604754171475458
 40
1.794797311213428
 40
2.030760379210173
 40
2.301729078160567
 40
2.393267743077617
 40
2.393267743077617
 40
2.393267743077617
 40
2.393267743077617
 10
5.780015564168593
 20
26.87985997284487
 30
0.0
 10
5.839056126904296
 20
26.87337384475878
 30
0.0
 10
5.947481505327601
 20
26.86146235781404
 30
0.0
 10
6.098807931884806
 20
26.80185114122353
 30
0.0
 10
6.227972759762906
 20
26.72168911843352
 30
0.0
 10
6.347510602881385
 20
26.61140356622764
 30
0.0
 10
6.442310149474394
 20
26.48207375794227
 30
0.0
 10
6.536759215535255
 20
26.28338234239492
 30
0.0
 10
6.578465181725675
 20
26.06469589684353
 30
0.0
 10
6.553150099427256
 20
25.85079503063701
 30
0.0
 10
6.524121382020268
 20
25.68499989147718
 30
0.0
 10
6.464236525716046
 20
25.50199988960434
 30
0.0
 10
6.327150620479812
 20
25.31187331731421
 30
0.0
 10
6.179477266233362
 20
25.17172660684537
 30
0.0
 10
6.072729148555964
 20
25.11631253421805
 30
0.0
 10
6.045077525535504
 20
25.10350570839811
 30
0.0
1001
AcDbBlockRepETag
1070
     1
1071
      594
1005
5875
  0
SPLINE
  5
5876
102
{ACAD_REACTORS
330
58A3
102
}
330
586F
100
AcDbEntity
  8
APL Border
 62
     8
100
AcDbSpline
210
0.0
220
0.0
230
1.0
 70
     8
 71
     3
 72
    17
 73
    13
 74
    11
 42
0.0000000001
 43
0.0000000001
 44
0.0000000001
 40
0.0
 40
0.0
 40
0.0
 40
0.0
 40
0.0975027714782739
 40
0.2117924486065133
 40
0.317678689712162
 40
0.4843960423119905
 40
0.5983164751676271
 40
0.7475672999664091
 40
0.8854036234346642
 40
1.040732215041493
 40
1.197661337444246
 40
1.243973057737614
 40
1.243973057737614
 40
1.243973057737614
 40
1.243973057737614
 10
5.580769717272147
 20
26.18861664944085
 30
0.0
 10
5.613502616848285
 20
26.1875961553427
 30
0.0
 10
5.684603990133519
 20
26.18537947021098
 30
0.0
 10
5.781919321100519
 20
26.1258482190374
 30
0.0
 10
5.832561030472812
 20
26.0011917111029
 30
0.0
 10
5.820388894698232
 20
25.86817511516085
 30
0.0
 10
5.765298612935113
 20
25.7349784962169
 30
0.0
 10
5.67725421213275
 20
25.62965962372396
 30
0.0
 10
5.546675458142082
 20
25.55725132865025
 30
0.0
 10
5.401760839408257
 20
25.51345804330555
 30
0.0
 10
5.281860155064943
 20
25.50729075876586
 30
0.0
 10
5.21427201805345
 20
25.50302975767877
 30
0.0
 10
5.198870965514487
 20
25.50205881951548
 30
0.0
 11
5.580769717272147
 21
26.18861664944085
 31
0.0
 11
5.67764963039707
 21
26.17761333726443
 31
0.0
 11
5.774085473546278
 21
26.11627608549865
 31
0.0
 11
5.81791994770495
 21
26.01988918322082
 31
0.0
 11
5.809153052873227
 21
25.85340249542595
 31
0.0
 11
5.765318578714499
 21
25.74825305939683
 31
0.0
 11
5.668882735565347
 21
25.63434108961652
 31
0.0
 11
5.55010046754208
 21
25.56441523695462
 31
0.0
 11
5.401316428353624
 21
25.51980267086244
 31
0.0
 11
5.245093480229996
 21
25.50493189624708
 31
0.0
 11
5.198870965514487
 21
25.50205881951548
 31
0.0
1001
AcDbBlockRepETag
1070
     1
1071
      595
1005
5876
  0
SPLINE
  5
5877
102
{ACAD_REACTORS
330
58AD
330
58AE
102
}
330
586F
100
AcDbEntity
  8
APL Border
 62
     8
100
AcDbSpline
210
0.0
220
0.0
230
1.0
 70
     8
 71
     3
 72
    25
 73
    21
 74
     0
 42
0.0000000001
 43
0.0000000001
 40
0.0289432764998855
 40
0.0289432764998855
 40
0.0289432764998855
 40
0.0289432764998855
 40
0.7134165119202287
 40
1.411731005087882
 40
2.041147618059464
 40
3.036171077105474
 40
3.957911241576911
 40
4.83592253147705
 40
5.676684481733094
 40
6.271141751551381
 40
6.974058201941041
 40
7.825808739104269
 40
8.5265481701528
 40
9.125733480364379
 40
9.891766509798275
 40
10.6767880070383
 40
11.66821110410527
 40
12.42950909475574
 40
13.09855121203093
 40
13.70132750762923
 40
13.70132750762923
 40
13.70132750762923
 40
13.70132750762923
 10
13.141643811855
 20
43.40554077871886
 30
0.0
 10
12.91988216430481
 20
43.459256627421
 30
0.0
 10
12.47168844867874
 20
43.5669624691983
 30
0.0
 10
11.80600758681791
 20
43.66484839798013
 30
0.0
 10
11.02988777388427
 20
43.6649333207477
 30
0.0
 10
10.1361516270939
 20
43.55263717791944
 30
0.0
 10
9.306733533720876
 20
43.19741938393827
 30
0.0
 10
8.599762003673276
 20
42.45478219212527
 30
0.0
 10
8.236440109363229
 20
41.77191325718488
 30
0.0
 10
8.073464067873601
 20
41.07996170309042
 30
0.0
 10
8.007035995439764
 20
40.3638923215899
 30
0.0
 10
7.98103501985804
 20
39.60493317412716
 30
0.0
 10
8.107710769833204
 20
38.92055182387923
 30
0.0
 10
8.442098079777224
 20
38.21445924826959
 30
0.0
 10
9.036296716232907
 20
37.66873436641545
 30
0.0
 10
9.909689132144507
 20
37.42421376773082
 30
0.0
 10
10.75775873959412
 20
37.35554609345542
 30
0.0
 10
11.56487972715851
 20
37.38454149767491
 30
0.0
 10
12.23983007222788
 20
37.44815687239099
 30
0.0
 10
12.66077873273661
 20
37.49837935861893
 30
0.0
 10
12.86026661033734
 20
37.52234731786496
 30
0.0
1001
AcDbBlockRepETag
1070
     1
1071
      596
1005
5877
  0
SPLINE
  5
5878
102
{ACAD_REACTORS
330
58AD
330
58AE
102
}
330
586F
100
AcDbEntity
  8
APL Border
 62
     8
100
AcDbSpline
210
0.0
220
0.0
230
1.0
 70
     8
 71
     3
 72
    19
 73
    15
 74
     0
 42
0.0000000001
 43
0.0000000001
 40
1.529304964685563
 40
1.529304964685563
 40
1.529304964685563
 40
1.529304965389289
 40
2.032016958536417
 40
2.556791262130423
 40
2.964493033520332
 40
3.465275586793771
 40
4.160836826595903
 40
4.71800698457321
 40
5.304510401169525
 40
5.733359288828643
 40
6.099728421126306
 40
6.422629926283571
 40
6.722447272622213
 40
6.957123473755099
 40
6.957123473755099
 40
6.957123473755099
 40
6.957123473755099
 10
11.64369617822672
 20
42.03297741382947
 30
0.0
 10
11.47589856643677
 20
42.04574754506741
 30
0.0
 10
11.13485165915975
 20
42.01473204050012
 30
0.0
 10
10.65553906793815
 20
41.91613810684326
 30
0.0
 10
10.23036575101369
 20
41.67654609785123
 30
0.0
 10
9.854221329784113
 20
41.27113304911427
 30
0.0
 10
9.717431528044755
 20
40.66388266631498
 30
0.0
 10
9.641062203095145
 20
40.05806431643046
 30
0.0
 10
9.716968816830743
 20
39.48770259248511
 30
0.0
 10
10.00680770225198
 20
39.09661486818469
 30
0.0
 10
10.3797311442331
 20
38.98358798973799
 30
0.0
 10
10.70216182646531
 20
38.92661434152812
 30
0.0
 10
10.99026249243499
 20
38.92783484269152
 30
0.0
 10
11.24302802126629
 20
38.95177692242413
 30
0.0
 10
11.33360452536307
 20
38.96406177273881
 30
0.0
1001
AcDbBlockRepETag
1070
     1
1071
      597
1005
5878
  0
LWPOLYLINE
  5
5879
102
{ACAD_REACTORS
330
58AA
102
}
330
586F
100
AcDbEntity
  8
APL Border
 62
     8
100
AcDbPolyline
 90
       12
 70
     1
 43
0.0
 10
14.13627631352983
 20
43.61979184908029
 10
18.38986203356285
 20
43.61979184908029
 10
18.21321428445671
 20
41.9726305274507
 10
15.84058876400877
 20
41.9726305274507
 10
15.75340373709809
 20
41.15966911198297
 10
17.71732334684157
 20
41.15966911198297
 10
17.56969663746741
 20
39.57967635988449
 10
15.58395939694927
 20
39.57967635988449
 10
15.5052467299167
 20
38.84571591422678
 10
17.87787225036464
 20
38.84571591422678
 10
17.72077299807506
 20
37.38083558975206
 10
13.46718727804204
 20
37.38083558975206
1001
AcDbBlockRepETag
1070
     1
1071
      599
1005
5879
  0
LWPOLYLINE
  5
587A
102
{ACAD_REACTORS
330
58AD
330
58AE
102
}
330
586F
100
AcDbEntity
  8
APL Border
 62
     8
100
AcDbPolyline
 90
        2
 70
     0
 43
0.0
 10
13.141643811855
 20
43.40554077871887
 10
13.141643811855
 20
41.76981947766621
1001
AcDbBlockRepETag
1070
     1
1071
      600
1005
587A
  0
LWPOLYLINE
  5
587B
102
{ACAD_REACTORS
330
58AD
330
58AE
102
}
330
586F
100
AcDbEntity
  8
APL Border
 62
     8
100
AcDbPolyline
 90
        6
 70
     0
 43
0.0
 10
11.33358781659778
 20
38.96390597096916
 10
11.39962533929804
 20
39.57967635988449
 10
10.96889270630695
 20
39.57967635988449
 10
11.12639005748273
 20
41.04826877857415
 10
13.23839963312048
 20
41.04826877857415
 10
12.86026661033734
 20
37.52234731786496
1001
AcDbBlockRepETag
1070
     1
1071
      601
1005
587B
  0
LWPOLYLINE
  5
587C
102
{ACAD_REACTORS
330
58A7
102
}
330
586F
100
AcDbEntity
  8
APL Border
 62
     8
100
AcDbPolyline
 90
        8
 70
     1
 43
0.0
 10
3.105743226874893
 20
43.61998313276061
 10
2.929095477768755
 20
41.97282181113101
 10
1.466301152475638
 20
41.97282181113101
 10
0.9741138955425029
 20
37.38339558452146
 10
-0.867968570535281
 20
37.38102687343238
 10
-0.3755272841536326
 20
41.97282181113101
 10
-1.891167362926863
 20
41.97282181113101
 10
-1.725754035154749
 20
43.61998313276061
1001
AcDbBlockRepETag
1070
     1
1071
      604
1005
587C
  0
LWPOLYLINE
  5
587D
102
{ACAD_REACTORS
330
58A6
102
}
330
586F
100
AcDbEntity
  8
APL Border
 62
     8
100
AcDbPolyline
 90
       10
 70
     1
 43
0.0
 10
-4.228474015381578
 20
40.14164596649268
 10
-3.855464624526035
 20
43.61979184908029
 10
-2.181839912298443
 20
43.61979184908029
 10
-2.850928947786229
 20
37.38083558975206
 10
-5.032306754624556
 20
37.38083558975206
 10
-6.131920885667284
 20
40.6246666384634
 10
-6.479801476178323
 20
37.38083558975206
 10
-8.135186891292875
 20
37.38083558975206
 10
-7.466097855805088
 20
43.61979184908029
 10
-5.40751765387219
 20
43.61979184908029
1001
AcDbBlockRepETag
1070
     1
1071
      605
1005
587D
  0
LWPOLYLINE
  5
587E
102
{ACAD_REACTORS
330
58AD
102
}
330
586F
100
AcDbEntity
  8
APL Border
  6
Continuous
 62
     8
100
AcDbPolyline
 90
        8
 70
     1
 43
0.0
 10
-8.449177928734428
 20
37.38083558975206
 10
-9.847253547555595
 20
43.61979184908029
 10
-12.02298966350147
 20
43.61979184908029
 10
-14.82679588919473
 20
37.38083558975206
 10
-12.95240022532295
 20
37.38083558975206
 10
-12.35252874042399
 20
38.71565392391761
 10
-10.64639685172309
 20
38.71565392391761
 10
-10.34727999772013
 20
37.38083558975206
1001
AcDbBlockRepETag
1070
     1
1071
      606
1005
587E
  0
LWPOLYLINE
  5
587F
330
586F
100
AcDbEntity
  8
APL Border
  6
Continuous
 62
     8
100
AcDbPolyline
 90
        7
 70
     1
 43
0.0
 10
-18.99614352503855
 20
43.61979184908029
 10
-17.7875751270476
 20
37.38083558975206
 10
-15.77022638070494
 20
37.38083558975206
 10
-12.96642015501169
 20
43.61979184908029
 10
-14.7664201550117
 20
43.61979184908029
 10
-16.54136876356097
 20
39.42215966960597
 10
-17.19614352503853
 20
43.61979184908029
1001
AcDbBlockRepETag
1070
     1
1071
      608
1005
587F
  0
LWPOLYLINE
  5
5880
102
{ACAD_REACTORS
330
58B0
102
}
330
586F
100
AcDbEntity
  8
APL Border
  6
Continuous
 62
     8
100
AcDbPolyline
 90
        4
 70
     1
 43
0.0
 10
16.33779773177886
 20
35.29789574745093
 10
-16.33747952551644
 20
35.29789574745093
 10
-12.98884796421711
 20
29.49789574745094
 10
12.98916617047902
 20
29.49789574745094
1001
AcDbBlockRepETag
1070
     1
1071
      609
1005
5880
  0
LWPOLYLINE
  5
5881
102
{ACAD_REACTORS
330
58A3
102
}
330
586F
100
AcDbEntity
  8
APL Border
 62
     8
100
AcDbPolyline
 90
        9
 70
     1
 43
0.0
 10
7.455500104221528
 20
25.00957443408062
 10
6.800478684667126
 20
26.87985997284487
 10
7.607536311785906
 20
26.87985997284487
 10
7.963471882016364
 20
25.86355557445326
 10
8.538893993587493
 20
26.87985997284487
 10
9.414203966725494
 20
26.87985997284487
 10
8.232331174709315
 20
25.00957443408062
 10
8.120338037129926
 20
23.87985997284487
 10
7.343506966642138
 20
23.87985997284487
1001
AcDbBlockRepETag
1070
     1
1071
      611
1005
5881
  0
LWPOLYLINE
  5
5882
102
{ACAD_REACTORS
330
58A3
102
}
330
586F
100
AcDbEntity
  8
APL Border
 62
     8
100
AcDbPolyline
 90
        4
 70
     1
 43
0.0
 10
12.20974330707307
 20
28.14789574745094
 10
8.850698786449385
 20
22.32985997284487
 10
-8.850380580188158
 20
22.32985997284487
 10
-12.20942510081127
 20
28.14789574745094
1001
AcDbBlockRepETag
1070
     1
1071
      613
1005
5882
  0
LWPOLYLINE
  5
5883
102
{ACAD_REACTORS
330
58A3
102
}
330
586F
100
AcDbEntity
  8
APL Border
 62
     8
100
AcDbPolyline
 90
        6
 70
     0
 43
0.0
 10
5.580769717272147
 20
26.18861664944085
 10
5.137953374950967
 20
26.18861664944085
 10
4.909077041159065
 20
23.87985997284487
 10
4.132245970671277
 20
23.87985997284487
 10
4.429648034880159
 20
26.87985997284487
 10
5.793677369303878
 20
26.87985997284487
1001
AcDbBlockRepETag
1070
     1
1071
      614
1005
5883
  0
LWPOLYLINE
  5
5884
102
{ACAD_REACTORS
330
58B0
102
}
330
586F
100
AcDbEntity
  8
APL Border
  6
Continuous
 62
     8
100
AcDbPolyline
 90
        4
 70
     1
 43
0.0
 10
1.119422795136273
 20
34.02289574745092
 10
0.3425917246484857
 20
34.02289574745092
 10
0.0451896604396041
 20
31.02289574745093
 10
0.8220207309273916
 20
31.02289574745093
1001
AcDbBlockRepETag
1070
     1
1071
      620
1005
5884
  0
LWPOLYLINE
  5
5885
102
{ACAD_REACTORS
330
58A3
102
}
330
586F
100
AcDbEntity
  8
APL Border
 62
     8
100
AcDbPolyline
 90
        4
 70
     0
 43
0.0
 10
6.045077525535504
 20
25.1035057083981
 10
6.339444173005233
 20
23.87985997284487
 10
5.532386545886623
 20
23.87985997284487
 10
5.142141867913778
 20
25.50205881951548
1001
AcDbBlockRepETag
1070
     1
1071
      621
1005
5885
  0
LWPOLYLINE
  5
5886
102
{ACAD_REACTORS
330
58A4
102
}
330
586F
100
AcDbEntity
  8
APL Border
 62
     8
100
AcDbPolyline
 90
        4
 70
     1
 43
0.0
 10
0.0001591031300165
 20
7.000275566930961
 10
3.563095122801513
 20
13.17146177711931
 10
-0.9450856774407441
 20
20.97985997284487
 10
-8.070957716782203
 20
20.97985997284487
1001
AcDbBlockRepETag
1070
     1
1071
      622
1005
5886
  0
LWPOLYLINE
  5
5887
102
{ACAD_REACTORS
330
58A8
102
}
330
586F
100
AcDbEntity
  8
APL Border
 62
     8
100
AcDbPolyline
 90
        3
 70
     1
 43
0.0
 10
0.8484489512626112
 20
20.97985997284487
 10
4.459862437153191
 20
14.72470832814346
 10
8.071275923043373
 20
20.97985997284487
1001
AcDbBlockRepETag
1070
     1
1071
      623
1005
5887
  0
LWPOLYLINE
  5
5888
102
{ACAD_REACTORS
330
58A3
102
}
330
586F
100
AcDbEntity
  8
APL Border
 62
     8
100
AcDbPolyline
 90
        4
 70
     0
 43
0.0
 10
-7.465264214605014
 20
24.80065518845331
 10
-7.259144283007998
 20
26.87985997284487
 10
-6.48231321252021
 20
26.87985997284487
 10
-6.679452083611295
 20
24.89125032803118
1001
AcDbBlockRepETag
1070
     1
1071
      626
1005
5888
  0
LWPOLYLINE
  5
5889
102
{ACAD_REACTORS
330
58A3
102
}
330
586F
100
AcDbEntity
  8
APL Border
 62
     8
100
AcDbPolyline
 90
        4
 70
     0
 43
0.0
 10
-7.845603808282817
 20
23.89886637823479
 10
-8.399876560405061
 20
23.98304774476413
 10
-8.399876560405061
 20
24.64579492155148
 10
-7.81511791605564
 20
24.56632682606838
1001
AcDbBlockRepETag
1070
     1
1071
      627
1005
5889
  0
LWPOLYLINE
  5
588A
102
{ACAD_REACTORS
330
58B0
102
}
330
586F
100
AcDbEntity
  8
APL Border
  6
Continuous
 62
     8
100
AcDbPolyline
 90
        6
 70
     1
 43
0.0
 10
-7.549934049473819
 20
34.02289574745092
 10
-8.326765119961606
 20
34.02289574745092
 10
-8.624167184170488
 20
31.02289574745093
 10
-6.770246795158442
 20
31.02289574745093
 10
-6.700109532938455
 20
31.73039516316516
 10
-7.777198851462713
 20
31.73039516316516
1001
AcDbBlockRepETag
1070
     1
1071
      628
1005
588A
  0
LWPOLYLINE
  5
588B
102
{ACAD_REACTORS
330
58B0
102
}
330
586F
100
AcDbEntity
  8
APL Border
  6
Continuous
 62
     8
100
AcDbPolyline
 90
        3
 70
     1
 43
0.0
 10
-10.14693849009504
 20
33.12550842600547
 10
-10.00044093617224
 20
32.51653621849665
 10
-10.45444607654239
 20
32.51653621849665
1001
AcDbBlockRepETag
1070
     1
1071
      629
1005
588B
  0
LWPOLYLINE
  5
588C
102
{ACAD_REACTORS
330
58B0
102
}
330
586F
100
AcDbEntity
  8
APL Border
  6
Continuous
 62
     8
100
AcDbPolyline
 90
        8
 70
     1
 43
0.0
 10
-8.834065309397374
 20
31.02289574745093
 10
-9.555761072109191
 20
34.02289574745092
 10
-10.50084997043805
 20
34.02289574745092
 10
-12.01573480092304
 20
31.02289574745093
 10
-11.20867717380426
 20
31.02289574745093
 10
-10.74455961985978
 20
31.94201027933759
 10
-9.862229957552528
 20
31.94201027933759
 10
-9.641122936515984
 20
31.02289574745093
1001
AcDbBlockRepETag
1070
     1
1071
      630
1005
588C
  0
LWPOLYLINE
  5
588D
102
{ACAD_REACTORS
330
58A9
102
}
330
586F
100
AcDbEntity
  8
APL Border
 62
     8
100
AcDbPolyline
 90
        3
 70
     1
 43
0.0
 10
0.0000000003145431
 20
4.000000000000009
 10
23.60256143704041
 20
44.88083558975217
 10
-23.60256142783933
 20
44.88083558975206
1001
AcDbBlockRepETag
1070
     1
1071
      631
1005
588D
  0
LWPOLYLINE
  5
588E
102
{ACAD_REACTORS
330
58A9
102
}
330
586F
100
AcDbEntity
  8
APL Border
 62
     8
100
AcDbPolyline
 90
        3
 70
     1
 43
0.0
 10
27.06666305249243
 20
46.88083558975206
 10
-27.06666304266244
 20
46.88083558975206
 10
-0.0000000000000284
 20
0.0000000000000238
1001
AcDbBlockRepETag
1070
     1
1071
      703
1005
588E
  0
LWPOLYLINE
  5
588F
102
{ACAD_REACTORS
330
58AD
330
58AF
102
}
330
586F
100
AcDbEntity
  8
APL Border
  6
Continuous
 62
     8
100
AcDbPolyline
 90
        8
 70
     1
 43
0.0
 10
7.980630193374565
 20
37.38083558975206
 10
6.582554574553398
 20
43.61979184908029
 10
4.406818458607517
 20
43.61979184908029
 10
1.603012232914267
 20
37.38083558975206
 10
3.477407896786047
 20
37.38083558975206
 10
4.077279381685002
 20
38.71565392391761
 10
5.783411270385897
 20
38.71565392391761
 10
6.082528124388858
 20
37.38083558975206
1001
AcDbBlockRepETag
1070
     1
1071
      760
1005
588F
  0
LWPOLYLINE
  5
5890
102
{ACAD_REACTORS
330
58AD
330
58AF
102
}
330
586F
100
AcDbEntity
  8
APL Border
  6
Continuous
 62
     8
100
AcDbPolyline
 90
        3
 70
     1
 43
0.0
 10
5.206046831612667
 20
41.69367581194667
 10
5.552066120962537
 20
40.14955389030274
 10
4.512113667606024
 20
40.14955389030274
1001
AcDbBlockRepETag
1070
     1
1071
      761
1005
5890
  0
LWPOLYLINE
  5
5891
102
{ACAD_REACTORS
330
58B0
102
}
330
586F
100
AcDbEntity
  8
APL Border
  6
Continuous
 62
     8
100
AcDbPolyline
 90
        4
 70
     1
 43
0.0
 10
5.615530392135354
 20
34.02289574745092
 10
4.838699321647567
 20
34.02289574745092
 10
4.541297257438685
 20
31.02289574745093
 10
5.318128327926473
 20
31.02289574745093
1001
AcDbBlockRepETag
1070
     1
1071
      785
1005
5891
  0
LWPOLYLINE
  5
5892
102
{ACAD_REACTORS
330
58B0
102
}
330
586F
100
AcDbEntity
  8
APL Border
 62
     8
100
AcDbPolyline
 90
       13
 70
     0
 43
0.0
 10
-5.535628094882099
 20
32.1870929174454
 10
-5.353790768486447
 20
34.02289574745092
 10
-6.130425112774389
 20
34.0248801943346
 10
-6.333826921263238
 20
31.9730940808461
 42
0.1695250701542156
 10
-6.106840682758871
 20
31.39301551086222
 42
0.0826087127293405
 10
-5.813961912619959
 20
31.13108995311734
 42
0.1017056431856583
 10
-5.510404689928634
 20
31.02488019433462
 10
-4.760057203160528
 20
31.0248801943346
 42
0.1918846087154957
 10
-4.136172756560569
 20
31.41919793838074
 42
0.1021851328841131
 10
-3.889225876952792
 20
31.97309408084612
 10
-3.685824068463887
 20
34.0248801943346
 10
-4.462655138951674
 20
34.0248801943346
 10
-4.65073703420694
 20
32.12763147393075
1001
AcDbBlockRepETag
1070
     1
1071
      866
1005
5892
  0
SPLINE
  5
5893
102
{ACAD_REACTORS
330
58B0
102
}
330
586F
100
AcDbEntity
  8
APL Border
 62
     8
100
AcDbSpline
210
0.0
220
0.0
230
1.0
 70
     8
 71
     3
 72
    24
 73
    20
 74
    18
 42
0.0000000001
 43
0.0000000001
 44
0.0000000001
 40
0.0
 40
0.0
 40
0.0
 40
0.0
 40
0.1612668085855933
 40
0.2532303870616441
 40
0.3214574742553387
 40
0.4101806452459026
 40
0.5031588697521256
 40
0.5664511009171887
 40
0.624871878778038
 40
0.6731644290699905
 40
0.7797386132933425
 40
0.9206747739903356
 40
1.025058962643435
 40
1.116412352300609
 40
1.212929457806147
 40
1.276240530363035
 40
1.339961572016457
 40
1.386280507025952
 40
1.435584820291647
 40
1.435584820291647
 40
1.435584820291647
 40
1.435584820291647
 10
-5.535628094882099
 20
32.1870929174454
 30
0.0
 10
-5.53213414748617
 20
32.13312332644234
 30
0.0
 10
-5.526647751003197
 20
32.04837718097616
 30
0.0
 10
-5.488860432547518
 20
31.94683424540268
 30
0.0
 10
-5.447171648840961
 20
31.8753242559261
 30
0.0
 10
-5.395818187958767
 20
31.80737001333622
 30
0.0
 10
-5.320761662408248
 20
31.77062767698265
 30
0.0
 10
-5.254477128417399
 20
31.74466351916423
 30
0.0
 10
-5.200112096792143
 20
31.72723210184819
 30
0.0
 10
-5.128888988289486
 20
31.72198763189771
 30
0.0
 10
-5.030042811850907
 20
31.72786870372271
 30
0.0
 10
-4.915707066470194
 20
31.75812586881066
 30
0.0
 10
-4.815771266393483
 20
31.81405298527761
 30
0.0
 10
-4.754740567305573
 20
31.89193427605802
 30
0.0
 10
-4.714673995441981
 20
31.96546823314959
 30
0.0
 10
-4.683526695854578
 20
32.03313813212702
 30
0.0
 10
-4.662006183068958
 20
32.08703079743258
 30
0.0
 10
-4.651792807669443
 20
32.13930455656534
 30
0.0
 10
-4.647206914869654
 20
32.17083533130903
 30
0.0
 10
-4.644842382192905
 20
32.1870929174454
 30
0.0
 11
-5.535628094882099
 21
32.1870929174454
 31
0.0
 11
-5.515298846223288
 21
32.02711258990369
 31
0.0
 11
-5.483433995220536
 21
31.94084596230824
 31
0.0
 11
-5.44947766231354
 21
31.88166908437061
 31
0.0
 11
-5.392321718875223
 21
31.8138089399536
 31
0.0
 11
-5.311535231450477
 21
31.76778184269665
 31
0.0
 11
-5.252609732475718
 21
31.74468006578604
 31
0.0
 11
-5.196420818688864
 21
31.72868652792477
 31
0.0
 11
-5.148347479287053
 21
31.72409039341204
 31
0.0
 11
-5.041949649235618
 21
31.73021889267523
 31
0.0
 11
-4.906104524581394
 21
31.76775692005663
 31
0.0
 11
-4.816802280674096
 21
31.82180475140893
 31
0.0
 11
-4.758009512288197
 21
31.89172507883507
 31
0.0
 11
-4.710553499371997
 21
31.97576958188711
 31
0.0
 11
-4.684063009443377
 21
32.03327215445256
 31
0.0
 11
-4.662061522518769
 21
32.09307437617135
 31
0.0
 11
-4.652346246099511
 21
32.13836297456555
 31
0.0
 11
-4.644842382192905
 21
32.1870929174454
 31
0.0
1001
AcDbBlockRepETag
1070
     1
1071
      827
1005
5893
  0
LWPOLYLINE
  5
5894
102
{ACAD_REACTORS
330
58B0
102
}
330
586F
100
AcDbEntity
  8
APL Border
 62
     8
100
AcDbPolyline
 90
       13
 70
     0
 43
0.0
 10
6.787553510813182
 20
32.18510847056172
 10
6.969390837208834
 20
34.02091130056725
 10
6.192756492920892
 20
34.02289574745092
 10
5.989354684432043
 20
31.97110963396243
 42
0.1695250701542156
 10
6.21634092293641
 20
31.39103106397854
 42
0.0826087127293405
 10
6.509219693075323
 20
31.12910550623367
 42
0.1017056431856583
 10
6.812776915766647
 20
31.02289574745094
 10
7.563124402534754
 20
31.02289574745093
 42
0.1918846087154957
 10
8.187008849134713
 20
31.41721349149707
 42
0.1021851328841131
 10
8.433955728742489
 20
31.97110963396244
 10
8.637357537231395
 20
34.02289574745092
 10
7.860526466743607
 20
34.02289574745092
 10
7.672444571488341
 20
32.12564702704707
1001
AcDbBlockRepETag
1070
     1
1071
      837
1005
5894
  0
LWPOLYLINE
  5
5895
102
{ACAD_REACTORS
330
58B0
102
}
330
586F
100
AcDbEntity
  8
APL Border
  6
Continuous
 62
     8
100
AcDbPolyline
 90
       13
 70
     1
 43
0.0
 10
-1.295012624591635
 20
34.02807364104484
 10
-0.1975458970834154
 20
34.0280551402308
 10
-0.4949479612922972
 20
31.0280551402308
 10
-1.115886909891884
 20
31.0280551402308
 10
-0.9222174129992311
 20
32.98166797820307
 10
-1.611942464131544
 20
31.0280551402308
 10
-2.344230471214956
 20
31.0280551402308
 10
-2.63016252924163
 20
32.98166797820306
 10
-2.823832026134283
 20
31.0280551402308
 10
-3.44477097473387
 20
31.0280551402308
 10
-3.147349004861581
 20
34.02825593571061
 10
-2.047349004861558
 20
34.02825593571061
 10
-1.8272453185659
 20
32.52441131541936
1001
AcDbBlockRepETag
1070
     1
1071
      867
1005
5895
  0
LWPOLYLINE
  5
5896
102
{ACAD_REACTORS
330
58B0
102
}
330
586F
100
AcDbEntity
  8
APL Border
  6
Continuous
 62
     8
100
AcDbPolyline
 90
       10
 70
     1
 43
0.0
 10
1.724974710806094
 20
34.02289574745092
 10
1.427552740933805
 20
31.02269495197112
 10
2.048491689533392
 20
31.02269495197112
 10
2.231899581960561
 20
32.87279534971117
 10
3.051434648859952
 20
31.02269495197112
 10
3.902826396438257
 20
31.02269495197112
 10
4.200228460647139
 20
34.02269495197112
 10
3.580266230192904
 20
34.02269495197112
 10
3.395920304875374
 20
32.17298478610545
 10
2.576558098165463
 20
34.02269495197112
1001
AcDbBlockRepETag
1070
     1
1071
      616
1005
5896
  0
LWPOLYLINE
  5
5897
102
{ACAD_REACTORS
330
58B0
102
}
330
586F
100
AcDbEntity
  8
APL Border
  6
Continuous
 62
     8
100
AcDbPolyline
 90
       13
 70
     1
 43
0.0
 10
11.01183437133605
 20
34.02271345278515
 10
12.10930109884427
 20
34.02269495197111
 10
11.81189903463539
 20
31.02269495197111
 10
11.1909600860358
 20
31.02269495197111
 10
11.38462958292845
 20
32.97630778994339
 10
10.69490453179614
 20
31.02269495197111
 10
9.962616524712728
 20
31.02269495197111
 10
9.676684466686054
 20
32.97630778994338
 10
9.483014969793401
 20
31.02269495197111
 10
8.862076021193814
 20
31.02269495197111
 10
9.159497991066103
 20
34.02289574745092
 10
10.25949799106612
 20
34.02289574745092
 10
10.47960167736178
 20
32.51905112715967
1001
AcDbBlockRepETag
1070
     1
1071
      847
1005
5897
  0
SPLINE
  5
5898
102
{ACAD_REACTORS
330
58B0
102
}
330
586F
100
AcDbEntity
  8
APL Border
 62
     8
100
AcDbSpline
210
0.0
220
0.0
230
1.0
 70
     8
 71
     3
 72
    24
 73
    20
 74
    18
 42
0.0000000001
 43
0.0000000001
 44
0.0000000001
 40
0.0
 40
0.0
 40
0.0
 40
0.0
 40
0.1612668085856004
 40
0.2532303870616512
 40
0.3214574742553458
 40
0.4101806452458731
 40
0.5031588697521455
 40
0.5664511009172086
 40
0.6248718787780579
 40
0.6731644290699537
 40
0.7797386132933625
 40
0.9206747739903555
 40
1.025058962643406
 40
1.116412352300617
 40
1.212929457806155
 40
1.276240530363043
 40
1.339961572016455
 40
1.386280507025956
 40
1.435584820291643
 40
1.435584820291643
 40
1.435584820291643
 40
1.435584820291643
 10
6.787553510813182
 20
32.18510847056172
 30
0.0
 10
6.791047458209138
 20
32.13113887955867
 30
0.0
 10
6.796533854692151
 20
32.04639273409249
 30
0.0
 10
6.834321173147815
 20
31.94484979851901
 30
0.0
 10
6.876009956854381
 20
31.87333980904243
 30
0.0
 10
6.927363417736518
 20
31.80538556645249
 30
0.0
 10
7.002419943287081
 20
31.76864323009899
 30
0.0
 10
7.068704477277941
 20
31.74267907228054
 30
0.0
 10
7.123069508903178
 20
31.72524765496453
 30
0.0
 10
7.194292617405833
 20
31.72000318501402
 30
0.0
 10
7.293138793844411
 20
31.72588425683905
 30
0.0
 10
7.407474539225143
 20
31.75614142192696
 30
0.0
 10
7.507410339301799
 20
31.81206853839397
 30
0.0
 10
7.568441038389779
 20
31.88994982917432
 30
0.0
 10
7.608507610253345
 20
31.96348378626594
 30
0.0
 10
7.639654909840773
 20
32.03115368524333
 30
0.0
 10
7.661175422626328
 20
32.08504635054892
 30
0.0
 10
7.671388798025919
 20
32.13732010968165
 30
0.0
 10
7.675974690825655
 20
32.16885088442535
 30
0.0
 10
7.678339223502376
 20
32.18510847056172
 30
0.0
 11
6.787553510813182
 21
32.18510847056172
 31
0.0
 11
6.80788275947205
 21
32.02512814302002
 31
0.0
 11
6.839747610474802
 21
31.93886151542456
 31
0.0
 11
6.873703943381798
 21
31.87968463748693
 31
0.0
 11
6.930859886820059
 21
31.81182449306993
 31
0.0
 11
7.011646374244861
 21
31.76579739581298
 31
0.0
 11
7.07057187321962
 21
31.74269561890237
 31
0.0
 11
7.126760787006475
 21
31.72670208104109
 31
0.0
 11
7.174834126408228
 21
31.72210594652836
 31
0.0
 11
7.28123195645972
 21
31.72823444579155
 31
0.0
 11
7.417077081113944
 21
31.76577247317295
 31
0.0
 11
7.506379325021185
 21
31.81982030452526
 31
0.0
 11
7.565172093407142
 21
31.88974063195139
 31
0.0
 11
7.612628106323342
 21
31.97378513500343
 31
0.0
 11
7.639118596251961
 21
32.03128770756889
 31
0.0
 11
7.661120083176541
 21
32.09108992928768
 31
0.0
 11
7.670835359595827
 21
32.13637852768188
 31
0.0
 11
7.678339223502376
 21
32.18510847056172
 31
0.0
1001
AcDbBlockRepETag
1070
     1
1071
      848
1005
5898
  0
LWPOLYLINE
  5
5899
102
{ACAD_REACTORS
330
58A3
102
}
330
586F
100
AcDbEntity
  8
APL Border
  6
Continuous
 62
     8
100
AcDbPolyline
 90
        4
 70
     1
 43
0.0
 10
-1.87552020613694
 20
26.87985997284487
 10
-2.652351276624727
 20
26.87985997284487
 10
-2.949753340833609
 20
23.87985997284487
 10
-2.172922270345821
 20
23.87985997284487
1001
AcDbBlockRepETag
1070
     1
1071
      851
1005
5899
  0
LWPOLYLINE
  5
589A
102
{ACAD_REACTORS
330
58A3
102
}
330
586F
100
AcDbEntity
  8
APL Border
  6
Continuous
 62
     8
100
AcDbPolyline
 90
       10
 70
     1
 43
0.0
 10
-1.269968290467119
 20
26.87985997284487
 10
-1.567390260339408
 20
23.87965917736506
 10
-0.9464513117398212
 20
23.87965917736506
 10
-0.7630434193126519
 20
25.72975957510511
 10
0.0564916475867392
 20
23.87965917736506
 10
0.9078833951650437
 20
23.87965917736506
 10
1.205285459373925
 20
26.87965917736506
 10
0.5853232289196911
 20
26.87965917736506
 10
0.4009773036021614
 20
25.0299490114994
 10
-0.41838490310775
 20
26.87965917736506
1001
AcDbBlockRepETag
1070
     1
1071
      852
1005
589A
  0
LWPOLYLINE
  5
589B
102
{ACAD_REACTORS
330
58A3
102
}
330
586F
100
AcDbEntity
  8
APL Border
 62
     8
100
AcDbPolyline
 90
       13
 70
     0
 43
0.0
 10
1.882971499788112
 20
26.87985997284487
 10
3.847979515363789
 20
26.87985997284487
 10
3.788499102522024
 20
26.27985997284487
 10
2.600322157434135
 20
26.27985997284487
 10
2.540562294183217
 20
25.67704105755032
 10
3.542578834455781
 20
25.67704105755032
 10
3.476410183919
 20
25.07985997284487
 10
2.474393643646379
 20
25.07985997284487
 10
2.421932428393546
 20
24.48037956726917
 10
3.610109373481435
 20
24.48037956726917
 10
3.550577451154907
 20
23.87985997284487
 10
1.58556943557923
 20
23.87985997284487
 10
1.882971499788112
 20
26.87985997284487
1001
AcDbBlockRepETag
1070
     1
1071
      864
1005
589B
  0
LINE
  5
589C
102
{ACAD_REACTORS
330
58A3
102
}
330
586F
100
AcDbEntity
  8
APL Border
 62
     8
100
AcDbLine
 10
5.198870965514487
 20
25.50205881951548
 30
0.0
 11
5.142141867913778
 21
25.50205881951548
 31
0.0
1001
AcDbBlockRepETag
1070
     1
1071
      865
1005
589C
  0
SPLINE
  5
589D
102
{ACAD_REACTORS
330
58A3
102
}
330
586F
100
AcDbEntity
  8
APL Border
 62
     8
100
AcDbSpline
210
0.0
220
0.0
230
1.0
 70
     8
 71
     3
 72
    25
 73
    21
 74
     0
 42
0.0000000001
 43
0.0000000001
 40
0.0
 40
0.0
 40
0.0
 40
0.0
 40
0.3463130802699203
 40
0.6043703055549736
 40
0.8524756959462802
 40
1.099102870182333
 40
1.318598063912852
 40
1.521064627602771
 40
1.694788988362445
 40
1.912615757663666
 40
2.142780600046976
 40
2.483378398179008
 40
2.873129106540456
 40
3.09179617846886
 40
3.322387155839943
 40
3.509181810940893
 40
3.69147909649244
 40
3.927844502409028
 40
4.143063657146388
 40
4.406491840702669
 40
4.406491840702669
 40
4.406491840702669
 40
4.406491840702669
 10
-5.114032196843737
 20
23.8798599728377
 30
0.0
 10
-5.228982970363915
 20
23.89503832123493
 30
0.0
 10
-5.429589987754155
 20
23.92152690506636
 30
0.0
 10
-5.693675021857103
 20
24.03567408988205
 30
0.0
 10
-5.892941488864977
 20
24.19306688135278
 30
0.0
 10
-6.036314150572081
 20
24.38541826526996
 30
0.0
 10
-6.137502326421099
 20
24.58575647986304
 30
0.0
 10
-6.184089306330008
 20
24.77995730666768
 30
0.0
 10
-6.209030826709039
 20
24.97670983726675
 30
0.0
 10
-6.206060891535827
 20
25.18442176502657
 30
0.0
 10
-6.186178297010457
 20
25.44676950423098
 30
0.0
 10
-6.128537036390639
 20
25.76177491648128
 30
0.0
 10
-6.024273636684796
 20
26.06592307272473
 30
0.0
 10
-5.858617591962229
 20
26.29271170654482
 30
0.0
 10
-5.725334295882049
 20
26.45803039682342
 30
0.0
 10
-5.575727893531166
 20
26.59168695454355
 30
0.0
 10
-5.409633372236157
 20
26.70740493083671
 30
0.0
 10
-5.217340570729675
 20
26.79721770551459
 30
0.0
 10
-4.988026372094168
 20
26.86731869684436
 30
0.0
 10
-4.849424991220388
 20
26.87777876054341
 30
0.0
 10
-4.7645039250757
 20
26.87985997283595
 30
0.0
1001
AcDbBlockRepETag
1070
     1
1071
      875
1005
589D
  0
ELLIPSE
  5
589E
102
{ACAD_REACTORS
330
58A2
330
58A3
102
}
330
586F
100
AcDbEntity
  8
APL Border
 62
     8
100
AcDbEllipse
 10
-4.728528852722632
 20
25.3825150979867
 30
0.0
 11
-0.2732326585474372
 21
-0.8283682112856686
 31
0.0
210
0.0
220
0.0
230
-1.0
 40
0.767138872147242
 41
0.0
 42
6.283185307179586
1001
AcDbBlockRepETag
1070
     1
1071
      876
1005
589E
  0
SPLINE
  5
589F
102
{ACAD_REACTORS
330
58A3
102
}
330
586F
100
AcDbEntity
  8
APL Border
 62
     8
100
AcDbSpline
210
0.0
220
0.0
230
1.0
 70
     8
 71
     3
 72
    26
 73
    22
 74
     0
 42
0.0000000001
 43
0.0000000001
 40
4.60284491300692
 40
4.60284491300692
 40
4.60284491300692
 40
4.60284491300692
 40
4.695921259854779
 40
4.963507654731998
 40
5.182979392648435
 40
5.397234555269768
 40
5.619529682274728
 40
5.869260387557257
 40
6.093250787730498
 40
6.263427758207029
 40
6.582064557968705
 40
6.800458868269094
 40
7.179401531729983
 40
7.575889850719137
 40
7.787844664578662
 40
8.01909420716162
 40
8.205730502580088
 40
8.387453763945252
 40
8.621856230932909
 40
8.833419194479944
 40
8.988019761194074
 40
8.988019761194074
 40
8.988019761194074
 40
8.988019761194074
 10
-4.486699891621668
 20
26.8798599728377
 30
0.0
 10
-4.440001835107608
 20
26.87954742494388
 30
0.0
 10
-4.335540249228728
 20
26.87475925711838
 30
0.0
 10
-4.164200665084621
 20
26.85307202884131
 30
0.0
 10
-3.96932086400659
 20
26.77880589501945
 30
0.0
 10
-3.766465201232762
 20
26.6658847706859
 30
0.0
 10
-3.60114437794968
 20
26.50570040783856
 30
0.0
 10
-3.471205788265336
 20
26.31143584383913
 30
0.0
 10
-3.381388817883674
 20
26.11392472080339
 30
0.0
 10
-3.317144182132551
 20
25.88552622199355
 30
0.0
 10
-3.281793375658168
 20
25.65006475492956
 30
0.0
 10
-3.30137826591374
 20
25.34538614523087
 30
0.0
 10
-3.327064239225308
 20
25.0112478652753
 30
0.0
 10
-3.471288581215731
 20
24.71021445059323
 30
0.0
 10
-3.60460091530777
 20
24.4641890220082
 30
0.0
 10
-3.737092402415015
 20
24.29954990084814
 30
0.0
 10
-3.882945983371143
 20
24.16225529150343
 30
0.0
 10
-4.046861838463826
 20
24.04508050911121
 30
0.0
 10
-4.233796525969012
 20
23.94884265716423
 30
0.0
 10
-4.427631511903911
 20
23.89220734010023
 30
0.0
 10
-4.549580407823555
 20
23.882511578974
 30
0.0
 10
-4.601116794093542
 20
23.87985997285202
 30
0.0
1001
AcDbBlockRepETag
1070
     1
1071
      877
1005
589F
  0
LWPOLYLINE
  5
58A0
102
{ACAD_REACTORS
330
58A3
102
}
330
586F
100
AcDbEntity
  8
APL Border
 62
     8
100
AcDbPolyline
 90
        2
 70
     0
 43
0.0
 10
-4.764503925211641
 20
26.8798599728377
 10
-4.486699891621924
 20
26.8798599728377
1001
AcDbBlockRepETag
1070
     1
1071
      878
1005
58A0
  0
LWPOLYLINE
  5
58A1
102
{ACAD_REACTORS
330
58A3
102
}
330
586F
100
AcDbEntity
  8
APL Border
 62
     8
100
AcDbPolyline
 90
        2
 70
     0
 43
0.0
 10
-5.114032196843737
 20
23.8798599728377
 10
-4.601116794093513
 20
23.87985997285202
1001
AcDbBlockRepETag
1070
     1
1071
      879
1005
58A1
  0
HATCH
  5
58A2
330
586F
100
AcDbEntity
  8
APL Border
 62
     8
100
AcDbHatch
 10
0.0
 20
0.0
 30
0.0
210
0.0
220
0.0
230
1.0
  2
SOLID
 70
     1
 71
     1
 91
        1
 92
        5
 93
        1
 72
     3
 10
-4.728528852722632
 20
25.3825150979867
 11
-0.2732326585474372
 21
-0.8283682112856686
 40
0.767138872147242
 50
0.0
 51
360.0
 73
     0
 97
        1
330
589E
 75
     0
 76
     1
 47
0.0172809346375552
 98
        1
 10
-4.520972790815363
 20
25.15086651129009
1001
ACAD
1010
0.0
1020
0.0
1030
0.0
1001
AcDbBlockRepETag
1070
     1
1071
      880
1005
58A2
  0
HATCH
  5
58A3
330
586F
100
AcDbEntity
  8
APL Border
 62
     8
100
AcDbHatch
 10
0.0
 20
0.0
 30
0.0
210
0.0
220
0.0
230
1.0
  2
SOLID
 70
     1
 71
     1
 91
        9
 92
        7
 72
     0
 73
     1
 93
        4
 10
-12.20942510081127
 20
28.14789574745095
 10
-8.85038058018816
 20
22.32985997284487
 10
8.850698786449385
 20
22.32985997284487
 10
12.20974330707306
 20
28.14789574745094
 97
        1
330
5882
 92
       20
 93
        4
 72
     4
 94
        3
 73
     0
 74
     0
 95
       25
 96
       21
 40
0.0
 40
0.0
 40
0.0
 40
0.0
 40
0.3463130802699203
 40
0.6043703055549736
 40
0.8524756959462802
 40
1.099102870182333
 40
1.318598063912852
 40
1.521064627602771
 40
1.694788988362445
 40
1.912615757663666
 40
2.142780600046976
 40
2.483378398179008
 40
2.873129106540456
 40
3.09179617846886
 40
3.322387155839943
 40
3.509181810940893
 40
3.69147909649244
 40
3.927844502409028
 40
4.143063657146388
 40
4.406491840702669
 40
4.406491840702669
 40
4.406491840702669
 40
4.406491840702669
 10
-5.114032196843737
 20
23.8798599728377
 10
-5.228982970363915
 20
23.89503832123493
 10
-5.429589987754155
 20
23.92152690506636
 10
-5.693675021857103
 20
24.03567408988205
 10
-5.892941488864977
 20
24.19306688135278
 10
-6.036314150572081
 20
24.38541826526996
 10
-6.137502326421099
 20
24.58575647986304
 10
-6.184089306330008
 20
24.77995730666768
 10
-6.209030826709039
 20
24.97670983726675
 10
-6.206060891535827
 20
25.18442176502657
 10
-6.186178297010457
 20
25.44676950423098
 10
-6.128537036390639
 20
25.76177491648128
 10
-6.024273636684796
 20
26.06592307272473
 10
-5.858617591962229
 20
26.29271170654482
 10
-5.725334295882049
 20
26.45803039682342
 10
-5.575727893531166
 20
26.59168695454355
 10
-5.409633372236157
 20
26.70740493083671
 10
-5.217340570729675
 20
26.79721770551459
 10
-4.988026372094168
 20
26.86731869684436
 10
-4.849424991220388
 20
26.87777876054341
 10
-4.7645039250757
 20
26.87985997283595
 72
     1
 10
-4.764503925020689
 20
26.87985997283771
 11
-4.486699891621347
 21
26.8798599728377
 72
     4
 94
        3
 73
     0
 74
     0
 95
       26
 96
       22
 40
4.60284491300692
 40
4.60284491300692
 40
4.60284491300692
 40
4.60284491300692
 40
4.695921259854779
 40
4.963507654731998
 40
5.182979392648435
 40
5.397234555269768
 40
5.619529682274728
 40
5.869260387557257
 40
6.093250787730498
 40
6.263427758207029
 40
6.582064557968705
 40
6.800458868269094
 40
7.179401531729983
 40
7.575889850719137
 40
7.787844664578662
 40
8.01909420716162
 40
8.205730502580088
 40
8.387453763945252
 40
8.621856230932909
 40
8.833419194479944
 40
8.988019761194074
 40
8.988019761194074
 40
8.988019761194074
 40
8.988019761194074
 10
-4.486699891621668
 20
26.8798599728377
 10
-4.440001835107608
 20
26.87954742494388
 10
-4.335540249228728
 20
26.87475925711838
 10
-4.164200665084621
 20
26.85307202884131
 10
-3.96932086400659
 20
26.77880589501945
 10
-3.766465201232762
 20
26.6658847706859
 10
-3.60114437794968
 20
26.50570040783856
 10
-3.471205788265336
 20
26.31143584383913
 10
-3.381388817883674
 20
26.11392472080339
 10
-3.317144182132551
 20
25.88552622199355
 10
-3.281793375658168
 20
25.65006475492956
 10
-3.30137826591374
 20
25.34538614523087
 10
-3.327064239225308
 20
25.0112478652753
 10
-3.471288581215731
 20
24.71021445059323
 10
-3.60460091530777
 20
24.4641890220082
 10
-3.737092402415015
 20
24.29954990084814
 10
-3.882945983371143
 20
24.16225529150343
 10
-4.046861838463826
 20
24.04508050911121
 10
-4.233796525969012
 20
23.94884265716423
 10
-4.427631511903911
 20
23.89220734010023
 10
-4.549580407823555
 20
23.882511578974
 10
-4.601116794093542
 20
23.87985997285202
 72
     1
 10
-4.601116794093525
 20
23.87985997285202
 11
-5.114032196843729
 21
23.8798599728377
 97
        4
330
589D
330
58A0
330
589F
330
58A1
 92
        4
 93
        1
 72
     3
 10
-4.728528852722632
 20
25.3825150979867
 11
-0.2732326585474372
 21
-0.8283682112856686
 40
0.767138872147242
 50
0.0
 51
360.0
 73
     0
 97
        1
330
589E
 92
       20
 93
        8
 72
     1
 10
-6.482313212520211
 20
26.87985997284487
 11
-6.679452083611267
 21
24.89125032803125
 72
     4
 94
        3
 73
     0
 74
     0
 95
       16
 96
       12
 40
0.0
 40
0.0
 40
0.0
 40
0.0
 40
0.1978277931646383
 40
0.361463118001824
 40
0.5540499897785108
 40
0.7796220130725381
 40
0.979106605438038
 40
1.222151590302332
 40
1.40748727220097
 40
1.607226525619232
 40
1.815049166761618
 40
1.815049166761618
 40
1.815049166761618
 40
1.815049166761618
 10
-6.679452083611295
 20
24.89125032803118
 10
-6.685371732996685
 20
24.82559351525052
 10
-6.696187882184318
 20
24.70562798418881
 10
-6.721757155054632
 20
24.52229576436942
 10
-6.768469983285655
 20
24.33480615160982
 10
-6.860719723390843
 20
24.14153771241002
 10
-7.051789745146265
 20
24.01851519430106
 10
-7.233921808197266
 20
23.91285203345821
 10
-7.443451931375136
 20
23.87675735439051
 10
-7.641222718647384
 20
23.88093312949101
 10
-7.776581895343355
 20
23.89281010788354
 10
-7.845603808282817
 20
23.89886637823479
 72
     1
 10
-7.845603808282787
 20
23.89886637823479
 11
-8.399876560405061
 21
23.98304774476413
 72
     1
 10
-8.399876560405061
 20
23.98304774476413
 11
-8.399876560405061
 21
24.64579492155148
 72
     1
 10
-8.399876560405061
 20
24.64579492155148
 11
-7.815117916056302
 21
24.56632682606845
 72
     4
 94
        3
 73
     0
 74
     0
 95
       11
 96
        7
 40
0.0
 40
0.0
 40
0.0
 40
0.0
 40
0.2042619346961744
 40
0.3074129668363174
 40
0.4146012126853764
 40
0.4826852714337078
 40
0.4826852714337078
 40
0.4826852714337078
 40
0.4826852714337078
 10
-7.815117916056323
 20
24.56632682606847
 10
-7.743266182308218
 20
24.55714977626708
 10
-7.635129760920136
 20
24.54333837224583
 10
-7.524447891091284
 20
24.63752792323729
 10
-7.477352395049535
 20
24.71998790389099
 10
-7.468646137215245
 20
24.77808681972154
 10
-7.465264214605014
 20
24.80065518845331
 72
     1
 10
-7.465264214605014
 20
24.80065518845333
 11
-7.259144283007996
 21
26.87985997284487
 72
     1
 10
-7.259144283007996
 20
26.87985997284487
 11
-6.482313212520211
 21
26.87985997284487
 97
        4
330
5888
330
5873
330
5889
330
5874
 92
       22
 72
     0
 73
     1
 93
        4
 10
-2.652351276624725
 20
26.87985997284486
 10
-1.87552020613694
 20
26.87985997284486
 10
-2.172922270345821
 20
23.87985997284487
 10
-2.949753340833609
 20
23.87985997284487
 97
        1
330
5899
 92
       22
 72
     0
 73
     1
 93
       10
 10
-1.269968290467114
 20
26.87985997284487
 10
-0.4183849031077484
 20
26.87965917736506
 10
0.4009773036021615
 20
25.0299490114994
 10
0.5853232289196909
 20
26.87965917736506
 10
1.205285459373925
 20
26.87965917736506
 10
0.9078833951650439
 20
23.87965917736506
 10
0.056491647586738
 20
23.87965917736506
 10
-0.7630434193126518
 20
25.72975957510511
 10
-0.946451311739821
 20
23.87965917736506
 10
-1.567390260339408
 20
23.87965917736506
 97
        1
330
589A
 92
       22
 72
     0
 73
     1
 93
       12
 10
1.882971499788112
 20
26.87985997284486
 10
3.847979515363789
 20
26.87985997284486
 10
3.788499102522024
 20
26.27985997284486
 10
2.600322157434135
 20
26.27985997284487
 10
2.540562294183218
 20
25.67704105755032
 10
3.542578834455781
 20
25.67704105755032
 10
3.476410183919
 20
25.07985997284487
 10
2.47439364364638
 20
25.07985997284487
 10
2.421932428393546
 20
24.48037956726917
 10
3.610109373481436
 20
24.48037956726917
 10
3.550577451154907
 20
23.87985997284487
 10
1.585569435579231
 20
23.87985997284487
 97
        1
330
589B
 92
       20
 93
       11
 72
     1
 10
4.429648034880159
 20
26.87985997284486
 11
5.780015564168562
 21
26.87985997284487
 72
     4
 94
        3
 73
     0
 74
     0
 95
       20
 96
       16
 40
0.0
 40
0.0
 40
0.0
 40
0.0
 40
0.1774120264923274
 40
0.3258093286713144
 40
0.4834060703451958
 40
0.6311237014699663
 40
0.811161917566129
 40
0.9605198197290178
 40
1.289502400757101
 40
1.459697744220917
 40
1.604754171475458
 40
1.794797311213428
 40
2.030760379210173
 40
2.301729078160567
 40
2.393267743077617
 40
2.393267743077617
 40
2.393267743077617
 40
2.393267743077617
 10
5.780015564168593
 20
26.87985997284487
 10
5.839056126904296
 20
26.87337384475878
 10
5.947481505327601
 20
26.86146235781404
 10
6.098807931884806
 20
26.80185114122353
 10
6.227972759762906
 20
26.72168911843352
 10
6.347510602881385
 20
26.61140356622764
 10
6.442310149474394
 20
26.48207375794227
 10
6.536759215535255
 20
26.28338234239492
 10
6.578465181725675
 20
26.06469589684353
 10
6.553150099427256
 20
25.85079503063701
 10
6.524121382020268
 20
25.68499989147718
 10
6.464236525716046
 20
25.50199988960434
 10
6.327150620479812
 20
25.31187331731421
 10
6.179477266233362
 20
25.17172660684537
 10
6.072729148555964
 20
25.11631253421805
 10
6.045077525535504
 20
25.10350570839811
 72
     1
 10
6.045077525535502
 20
25.1035057083981
 11
6.339444173005232
 21
23.87985997284487
 72
     1
 10
6.339444173005232
 20
23.87985997284487
 11
5.532386545886621
 21
23.87985997284487
 72
     1
 10
5.532386545886621
 20
23.87985997284487
 11
5.142141867913776
 21
25.50205881951548
 72
     1
 10
5.142141867913776
 20
25.50205881951548
 11
5.19887096551445
 21
25.50205881951548
 72
     4
 94
        3
 73
     0
 74
     0
 95
       17
 96
       13
 40
0.0
 40
0.0
 40
0.0
 40
0.0
 40
0.0463117202933683
 40
0.2032408426961212
 40
0.3585694343029505
 40
0.4964057577712057
 40
0.6456565825699876
 40
0.7595770154256244
 40
0.9262943680254526
 40
1.032180609131101
 40
1.14647028625934
 40
1.243973057737614
 40
1.243973057737614
 40
1.243973057737614
 40
1.243973057737614
 10
5.198870965514487
 20
25.50205881951548
 10
5.214272018053407
 20
25.50302975767877
 10
5.28186015506489
 20
25.50729075876586
 10
5.40176083940824
 20
25.51345804330556
 10
5.546675458142118
 20
25.55725132865025
 10
5.67725421213268
 20
25.62965962372397
 10
5.765298612935083
 20
25.7349784962169
 10
5.820388894698254
 20
25.86817511516085
 10
5.832561030472788
 20
26.0011917111029
 10
5.781919321100474
 20
26.1258482190374
 10
5.684603990133524
 20
26.18537947021099
 10
5.613502616848251
 20
26.1875961553427
 10
5.580769717272147
 20
26.18861664944085
 72
     1
 10
5.580769717272125
 20
26.18861664944085
 11
5.137953374950967
 21
26.18861664944085
 72
     1
 10
5.137953374950967
 20
26.18861664944085
 11
4.909077041159065
 21
23.87985997284487
 72
     1
 10
4.909077041159065
 20
23.87985997284487
 11
4.132245970671278
 21
23.87985997284487
 72
     1
 10
4.132245970671278
 20
23.87985997284487
 11
4.429648034880159
 21
26.87985997284486
 97
        5
330
5883
330
5875
330
5885
330
589C
330
5876
 92
       22
 72
     0
 73
     1
 93
        9
 10
6.800478684667179
 20
26.87985997284487
 10
7.607536311785904
 20
26.87985997284487
 10
7.963471882016363
 20
25.86355557445326
 10
8.538893993587493
 20
26.87985997284487
 10
9.414203966725493
 20
26.87985997284487
 10
8.232331174709315
 20
25.00957443408062
 10
8.120338037129924
 20
23.87985997284486
 10
7.343506966642139
 20
23.87985997284486
 10
7.455500104221528
 20
25.00957443408062
 97
        1
330
5881
 75
     0
 76
     1
 47
0.0276408434878157
 98
        9
 10
-5.110068937762804
 20
27.30829258594788
 10
-5.110068937762804
 20
27.30829258594788
 10
-5.110068937762804
 20
27.30829258594788
 10
-5.110068937762804
 20
27.30829258594788
 10
-5.110068937762804
 20
27.30829258594788
 10
-5.110068937762804
 20
27.30829258594788
 10
-5.110068937762804
 20
27.30829258594788
 10
-5.110068937762804
 20
27.30829258594788
 10
-5.110068937762804
 20
27.30829258594788
1001
ACAD
1010
0.0
1020
0.0
1030
0.0
1001
AcDbBlockRepETag
1070
     1
1071
      881
1005
58A3
  0
HATCH
  5
58A4
330
586F
100
AcDbEntity
  8
APL Border
 62
     8
100
AcDbHatch
 10
0.0
 20
0.0
 30
0.0
210
0.0
220
0.0
230
1.0
  2
SOLID
 70
     1
 71
     1
 91
        1
 92
        7
 72
     0
 73
     1
 93
        4
 10
0.0001591031300169
 20
7.000275566930961
 10
3.563095122801513
 20
13.17146177711931
 10
-0.9450856774407473
 20
20.97985997284487
 10
-8.070957716782199
 20
20.97985997284487
 97
        1
330
5886
 75
     0
 76
     1
 47
0.0707162833847576
 98
        3
 10
-2.675438732228172
 20
16.47794635472378
 10
6.312751868664321
 20
42.28939048605213
 10
-9.894301834166896
 20
39.60217176706084
1001
ACAD
1010
0.0
1020
0.0
1030
0.0
1001
AcDbBlockRepETag
1070
     1
1071
      883
1005
58A4
  0
HATCH
  5
58A5
330
586F
100
AcDbEntity
  8
APL Border
 62
     8
100
AcDbHatch
 10
0.0
 20
0.0
 30
0.0
210
0.0
220
0.0
230
1.0
  2
SOLID
 70
     1
 71
     0
 91
        1
 92
        7
 72
     0
 73
     1
 93
        7
 10
-12.96642015501169
 20
43.61979184908029
 10
-14.7664201550117
 20
43.61979184908029
 10
-16.54136876356097
 20
39.42215966960598
 10
-17.19614352503853
 20
43.61979184908029
 10
-18.99614352503854
 20
43.61979184908029
 10
-17.7875751270476
 20
37.38083558975206
 10
-15.77022638070493
 20
37.38083558975206
 97
        0
 75
     0
 76
     1
 47
0.0707162833847576
 98
        3
 10
6.249678794057444
 20
42.28939048605213
 10
-9.957374908773772
 20
39.60217176706084
 10
-16.39773218462096
 20
38.68285940442952
1001
ACAD
1010
0.0
1020
0.0
1030
0.0
1001
AcDbBlockRepETag
1070
     1
1071
      884
1005
58A5
  0
HATCH
  5
58A6
330
586F
100
AcDbEntity
  8
APL Border
 62
     8
100
AcDbHatch
 10
0.0
 20
0.0
 30
0.0
210
0.0
220
0.0
230
1.0
  2
SOLID
 70
     1
 71
     1
 91
        1
 92
        7
 72
     0
 73
     1
 93
       10
 10
-2.850928947786229
 20
37.38083558975206
 10
-2.181839912298442
 20
43.6197918490803
 10
-3.855464624526036
 20
43.61979184908029
 10
-4.228474015381578
 20
40.14164596649268
 10
-5.40751765387219
 20
43.61979184908029
 10
-7.466097855805088
 20
43.61979184908029
 10
-8.135186891292875
 20
37.38083558975206
 10
-6.479801476178323
 20
37.38083558975206
 10
-6.131920885667285
 20
40.6246666384634
 10
-5.032306754624555
 20
37.38083558975206
 97
        1
330
587D
 75
     0
 76
     1
 47
0.0707162833847576
 98
        3
 10
6.312751868664321
 20
42.28939048605213
 10
-5.364819983741796
 20
40.80434854252457
 10
-9.894301834166896
 20
39.60217176706084
1001
ACAD
1010
0.0
1020
0.0
1030
0.0
1001
AcDbBlockRepETag
1070
     1
1071
      886
1005
58A6
  0
HATCH
  5
58A7
330
586F
100
AcDbEntity
  8
APL Border
 62
     8
100
AcDbHatch
 10
0.0
 20
0.0
 30
0.0
210
0.0
220
0.0
230
1.0
  2
SOLID
 70
     1
 71
     1
 91
        1
 92
        7
 72
     0
 73
     1
 93
        8
 10
2.929095477768755
 20
41.97282181113101
 10
3.105743226874893
 20
43.6199831327606
 10
-1.725754035154748
 20
43.61998313276061
 10
-1.891167362926863
 20
41.97282181113101
 10
-0.3755272841536335
 20
41.97282181113101
 10
-0.8679685705352806
 20
37.38102687343239
 10
0.9741138955425025
 20
37.38339558452146
 10
1.466301152475638
 20
41.97282181113101
 97
        1
330
587C
 75
     0
 76
     1
 47
0.0707162833847576
 98
        3
 10
6.461508006627583
 20
42.28958176973246
 10
0.3042431306128051
 20
42.36029787294049
 10
-9.745545696203633
 20
39.60236305074117
1001
ACAD
1010
0.0
1020
0.0
1030
0.0
1001
AcDbBlockRepETag
1070
     1
1071
      887
1005
58A7
  0
HATCH
  5
58A8
330
586F
100
AcDbEntity
  8
APL Border
 62
     8
100
AcDbHatch
 10
0.0
 20
0.0
 30
0.0
210
0.0
220
0.0
230
1.0
  2
SOLID
 70
     1
 71
     1
 91
        1
 92
        7
 72
     0
 73
     1
 93
        3
 10
8.071275923043375
 20
20.97985997284487
 10
0.8484489512626126
 20
20.97985997284487
 10
4.459862437153192
 20
14.72470832814346
 97
        1
330
5887
 75
     0
 76
     1
 47
0.0707162833847576
 98
        3
 10
4.897289869501349
 20
18.17513736310713
 10
6.312751868664321
 20
42.28939048605213
 10
-9.894301834166896
 20
39.60217176706084
1001
ACAD
1010
0.0
1020
0.0
1030
0.0
1001
AcDbBlockRepETag
1070
     1
1071
      891
1005
58A8
  0
HATCH
  5
58A9
330
586F
100
AcDbEntity
  8
APL Border
 62
     8
100
AcDbHatch
 10
0.0
 20
0.0
 30
0.0
210
0.0
220
0.0
230
1.0
  2
SOLID
 70
     1
 71
     1
 91
        2
 92
       16
 93
        3
 72
     1
 10
0.0000000003145431
 20
4.000000000000009
 11
23.60256143704041
 21
44.88083558975217
 72
     1
 10
23.60256143704041
 20
44.88083558975217
 11
-23.60256142783933
 21
44.88083558975206
 72
     1
 10
-23.60256142783933
 20
44.88083558975206
 11
0.0000000003145431
 21
4.000000000000007
 97
        1
330
588D
 92
        1
 93
        3
 72
     1
 10
27.06666305249243
 20
46.88083558975206
 11
-27.06666304266244
 21
46.88083558975206
 72
     1
 10
-27.06666304266244
 20
46.88083558975206
 11
-0.0000000000000284
 21
0.0000000000000213
 72
     1
 10
-0.0000000000000284
 20
0.0000000000000238
 11
27.06666305249243
 21
46.88083558975206
 97
        1
330
588E
 75
     0
 76
     1
 98
        1
 10
-236.5641112216887
 20
1.231020082252661
1001
ACAD
1010
0.0
1020
0.0
1030
0.0
1001
AcDbBlockRepETag
1070
     1
1071
      892
1005
58A9
  0
HATCH
  5
58AA
330
586F
100
AcDbEntity
  8
APL Border
 62
     8
100
AcDbHatch
 10
0.0
 20
0.0
 30
0.0
210
0.0
220
0.0
230
1.0
  2
SOLID
 70
     1
 71
     1
 91
        1
 92
        7
 72
     0
 73
     1
 93
       12
 10
15.84058876400877
 20
41.9726305274507
 10
18.21321428445671
 20
41.9726305274507
 10
18.38986203356285
 20
43.61979184908029
 10
14.13627631352983
 20
43.61979184908029
 10
13.46718727804204
 20
37.38083558975206
 10
17.72077299807506
 20
37.38083558975207
 10
17.87787225036464
 20
38.84571591422678
 10
15.50524672991671
 20
38.84571591422678
 10
15.58395939694927
 20
39.5796763598845
 10
17.56969663746741
 20
39.57967635988449
 10
17.71732334684157
 20
41.15966911198297
 10
15.75340373709809
 20
41.15966911198297
 97
        1
330
5879
 75
     0
 76
     1
 47
0.0265225354961204
 98
        1
 10
15.74642260871314
 20
42.54140343148856
1001
ACAD
1010
0.0
1020
0.0
1030
0.0
1001
AcDbBlockRepETag
1070
     1
1071
      895
1005
58AA
  0
SPLINE
  5
58AB
102
{ACAD_REACTORS
330
58AD
330
58AE
102
}
330
586F
100
AcDbEntity
  8
APL Border
 62
     8
100
AcDbSpline
210
0.0
220
0.0
230
1.0
 70
     8
 71
     3
 72
    12
 73
     8
 74
     0
 42
0.0000000001
 43
0.0000000001
 40
0.0
 40
0.0
 40
0.0
 40
0.0
 40
0.6153828260925694
 40
0.6153828260925694
 40
1.184895113366773
 40
1.184895113366773
 40
1.406874102447421
 40
1.406874102447421
 40
1.406874102447421
 40
1.406874102447421
 10
13.141643811855
 20
41.76981947766621
 30
0.0
 10
12.65093549588437
 20
41.90084145687704
 30
0.0
 10
12.40139116615246
 20
41.94113120867605
 30
0.0
 10
12.08548087756223
 20
41.99544455363318
 30
0.0
 10
11.92864742837253
 20
42.01465504085827
 30
0.0
 10
11.75444086026641
 20
42.02973960983341
 30
0.0
 10
11.75444086026641
 20
42.02973960983341
 30
0.0
 10
11.64369617822672
 20
42.03297741382947
 30
0.0
1001
AcDbBlockRepETag
1070
     1
1071
      898
1005
58AB
  0
LWPOLYLINE
  5
58AC
102
{ACAD_REACTORS
330
58AD
102
}
330
586F
100
AcDbEntity
  8
APL Border
  6
Continuous
 62
     8
100
AcDbPolyline
 90
        3
 70
     1
 43
0.0
 10
-11.22376129049633
 20
41.69367581194667
 10
-10.87774200114645
 20
40.14955389030274
 10
-11.91769445450297
 20
40.14955389030274
1001
AcDbBlockRepETag
1070
     1
1071
      902
1005
58AC
  0
HATCH
  5
58AD
330
586F
100
AcDbEntity
  8
APL Border
 62
     8
100
AcDbHatch
 10
0.0
 20
0.0
 30
0.0
210
0.0
220
0.0
230
1.0
  2
SOLID
 70
     1
 71
     1
 91
        2
 92
        7
 72
     0
 73
     1
 93
        8
 10
-9.847253547555595
 20
43.61979184908029
 10
-12.02298966350147
 20
43.61979184908029
 10
-14.82679588919472
 20
37.38083558975206
 10
-12.95240022532295
 20
37.38083558975206
 10
-12.352528740424
 20
38.71565392391761
 10
-10.64639685172309
 20
38.71565392391761
 10
-10.34727999772013
 20
37.38083558975206
 10
-8.449177928734428
 20
37.38083558975207
 97
        1
330
587E
 92
       22
 72
     0
 73
     1
 93
        3
 10
-11.22376129049633
 20
41.69367581194668
 10
-10.87774200114645
 20
40.14955389030274
 10
-11.91769445450297
 20
40.14955389030274
 97
        1
330
58AC
 75
     0
 76
     1
 47
0.0464409783890934
 98
        3
 10
-10.7866676671747
 20
42.18285929720354
 10
-10.7866676671747
 20
42.18285929720354
 10
4.318789658947025
 20
41.34692151769582
1001
ACAD
1010
0.0
1020
0.0
1030
0.0
1001
AcDbBlockRepETag
1070
     1
1071
      903
1005
58AD
  0
HATCH
  5
58AE
330
586F
100
AcDbEntity
  8
APL Border
 62
     8
100
AcDbHatch
 10
0.0
 20
0.0
 30
0.0
210
0.0
220
0.0
230
1.0
  2
SOLID
 70
     1
 71
     1
 91
        1
 92
        5
 93
        9
 72
     4
 94
        3
 73
     0
 74
     0
 95
       25
 96
       21
 40
0.0289432764998855
 40
0.0289432764998855
 40
0.0289432764998855
 40
0.0289432764998855
 40
0.7134165119202287
 40
1.411731005087882
 40
2.041147618059464
 40
3.036171077105474
 40
3.957911241576911
 40
4.83592253147705
 40
5.676684481733094
 40
6.271141751551381
 40
6.974058201941041
 40
7.825808739104269
 40
8.5265481701528
 40
9.125733480364379
 40
9.891766509798275
 40
10.6767880070383
 40
11.66821110410527
 40
12.42950909475574
 40
13.09855121203093
 40
13.70132750762923
 40
13.70132750762923
 40
13.70132750762923
 40
13.70132750762923
 10
13.141643811855
 20
43.40554077871886
 10
12.91988216430481
 20
43.459256627421
 10
12.47168844867874
 20
43.5669624691983
 10
11.80600758681791
 20
43.66484839798013
 10
11.02988777388427
 20
43.6649333207477
 10
10.1361516270939
 20
43.55263717791944
 10
9.306733533720876
 20
43.19741938393827
 10
8.599762003673276
 20
42.45478219212527
 10
8.236440109363229
 20
41.77191325718488
 10
8.073464067873601
 20
41.07996170309042
 10
8.007035995439764
 20
40.3638923215899
 10
7.98103501985804
 20
39.60493317412716
 10
8.107710769833204
 20
38.92055182387923
 10
8.442098079777224
 20
38.21445924826959
 10
9.036296716232907
 20
37.66873436641545
 10
9.909689132144507
 20
37.42421376773082
 10
10.75775873959412
 20
37.35554609345542
 10
11.56487972715851
 20
37.38454149767491
 10
12.23983007222788
 20
37.44815687239099
 10
12.66077873273661
 20
37.49837935861893
 10
12.86026661033734
 20
37.52234731786496
 72
     1
 10
12.86026661033734
 20
37.52234731786496
 11
13.23839963312048
 21
41.04826877857415
 72
     1
 10
13.23839963312048
 20
41.04826877857415
 11
11.12639005748273
 21
41.04826877857415
 72
     1
 10
11.12639005748273
 20
41.04826877857415
 11
10.96889270630695
 21
39.57967635988449
 72
     1
 10
10.96889270630695
 20
39.57967635988449
 11
11.39962533929804
 21
39.57967635988449
 72
     1
 10
11.39962533929804
 20
39.57967635988449
 11
11.33360452536307
 21
38.96406177273883
 72
     4
 94
        3
 73
     0
 74
     0
 95
       19
 96
       15
 40
1.529304964685562
 40
1.529304964685562
 40
1.529304964685562
 40
1.529304964685562
 40
1.763981165818448
 40
2.06379851215709
 40
2.386700017314354
 40
2.753069149612017
 40
3.181918037271135
 40
3.768421453867451
 40
4.325591611844758
 40
5.021152851646889
 40
5.521935404920329
 40
5.929637176310238
 40
6.454411479904243
 40
6.957123473051371
 40
6.957123473755098
 40
6.957123473755098
 40
6.957123473755098
 10
11.33360452536307
 20
38.96406177273881
 10
11.24302802126629
 20
38.95177692242413
 10
10.99026249243499
 20
38.92783484269152
 10
10.70216182646531
 20
38.92661434152812
 10
10.3797311442331
 20
38.98358798973799
 10
10.00680770225198
 20
39.09661486818469
 10
9.716968816830743
 20
39.48770259248511
 10
9.641062203095145
 20
40.05806431643046
 10
9.717431528044755
 20
40.66388266631498
 10
9.854221329784113
 20
41.27113304911427
 10
10.23036575101369
 20
41.67654609785123
 10
10.65553906793815
 20
41.91613810684326
 10
11.13485165915975
 20
42.01473204050012
 10
11.47589856643677
 20
42.04574754506741
 10
11.64369617822672
 20
42.03297741382947
 72
     4
 94
        3
 73
     0
 74
     0
 95
       12
 96
        8
 40
0.0
 40
0.0
 40
0.0
 40
0.0
 40
0.2219789890806476
 40
0.2219789890806476
 40
0.7914912763548521
 40
0.7914912763548521
 40
1.406874102447421
 40
1.406874102447421
 40
1.406874102447421
 40
1.406874102447421
 10
11.64369617822672
 20
42.03297741382947
 10
11.75444086026641
 20
42.02973960983341
 10
11.75444086026641
 20
42.02973960983341
 10
11.92864742837253
 20
42.01465504085827
 10
12.08548087756223
 20
41.99544455363318
 10
12.40139116615246
 20
41.94113120867605
 10
12.65093549588437
 20
41.90084145687704
 10
13.141643811855
 20
41.76981947766621
 72
     1
 10
13.14164381185501
 20
41.76981947766621
 11
13.141643811855
 21
43.40554077871886
 97
        5
330
5877
330
587B
330
5878
330
58AB
330
587A
 75
     0
 76
     1
 47
0.0464409783890934
 98
        3
 10
-10.7866676671747
 20
42.18285929720354
 10
4.318789658947025
 20
41.34692151769582
 10
10.26801654887663
 20
42.50794595375691
1001
ACAD
1010
0.0
1020
0.0
1030
0.0
1001
AcDbBlockRepETag
1070
     1
1071
      904
1005
58AE
  0
HATCH
  5
58AF
330
586F
100
AcDbEntity
  8
APL Border
 62
     8
100
AcDbHatch
 10
0.0
 20
0.0
 30
0.0
210
0.0
220
0.0
230
1.0
  2
SOLID
 70
     1
 71
     1
 91
        2
 92
        7
 72
     0
 73
     1
 93
        8
 10
6.582554574553399
 20
43.61979184908029
 10
4.406818458607519
 20
43.6197918490803
 10
1.603012232914266
 20
37.38083558975206
 10
3.477407896786048
 20
37.38083558975206
 10
4.077279381684999
 20
38.71565392391761
 10
5.783411270385895
 20
38.71565392391761
 10
6.082528124388858
 20
37.38083558975206
 10
7.980630193374566
 20
37.38083558975207
 97
        1
330
588F
 92
       22
 72
     0
 73
     1
 93
        3
 10
5.206046831612668
 20
41.69367581194667
 10
5.552066120962536
 20
40.14955389030274
 10
4.512113667606024
 20
40.14955389030274
 97
        1
330
5890
 75
     0
 76
     1
 47
0.0464409783890934
 98
        3
 10
-10.7866676671747
 20
42.18285929720354
 10
4.318789658947025
 20
41.34692151769582
 10
4.318789658947025
 20
41.34692151769582
1001
ACAD
1010
0.0
1020
0.0
1030
0.0
1001
AcDbBlockRepETag
1070
     1
1071
      905
1005
58AF
  0
HATCH
  5
58B0
330
586F
100
AcDbEntity
  8
APL Border
 62
     8
100
AcDbHatch
 10
0.0
 20
0.0
 30
0.0
210
0.0
220
0.0
230
1.0
  2
SOLID
 70
     1
 71
     1
 91
       11
 92
        7
 72
     0
 73
     1
 93
        4
 10
-16.33747952551644
 20
35.29789574745092
 10
-12.98884796421712
 20
29.49789574745095
 10
12.98916617047902
 20
29.49789574745094
 10
16.33779773177886
 20
35.29789574745093
 97
        1
330
5880
 92
       22
 72
     0
 73
     1
 93
        8
 10
-10.50084997043805
 20
34.02289574745092
 10
-9.555761072109191
 20
34.02289574745092
 10
-8.834065309397374
 20
31.02289574745093
 10
-9.641122936515984
 20
31.02289574745093
 10
-9.86222995755253
 20
31.94201027933759
 10
-10.74455961985978
 20
31.94201027933758
 10
-11.20867717380426
 20
31.02289574745093
 10
-12.01573480092304
 20
31.02289574745093
 97
        1
330
588C
 92
        6
 72
     0
 73
     1
 93
        3
 10
-10.14693849009504
 20
33.12550842600547
 10
-10.00044093617224
 20
32.51653621849666
 10
-10.45444607654239
 20
32.51653621849665
 97
        1
330
588B
 92
       22
 72
     0
 73
     1
 93
        6
 10
-8.326765119961606
 20
34.02289574745092
 10
-7.549934049473819
 20
34.02289574745092
 10
-7.777198851462713
 20
31.73039516316516
 10
-6.700109532938454
 20
31.73039516316516
 10
-6.770246795158442
 20
31.02289574745093
 10
-8.624167184170486
 20
31.02289574745092
 97
        1
330
588A
 92
       20
 93
       13
 72
     1
 10
-6.13042511277439
 20
34.02488019433461
 11
-5.353790768486449
 21
34.02289574745093
 72
     1
 10
-5.353790768486449
 20
34.02289574745093
 11
-5.5356280948821
 21
32.18709291744541
 72
     4
 94
        3
 73
     0
 74
     0
 95
       24
 96
       20
 40
0.0
 40
0.0
 40
0.0
 40
0.0
 40
0.1612668085855933
 40
0.2532303870616441
 40
0.3214574742553387
 40
0.4101806452459026
 40
0.5031588697521256
 40
0.5664511009171887
 40
0.624871878778038
 40
0.6731644290699905
 40
0.7797386132933425
 40
0.9206747739903356
 40
1.025058962643435
 40
1.116412352300609
 40
1.212929457806147
 40
1.276240530363035
 40
1.339961572016457
 40
1.386280507025952
 40
1.435584820291647
 40
1.435584820291647
 40
1.435584820291647
 40
1.435584820291647
 10
-5.535628094882099
 20
32.1870929174454
 10
-5.53213414748617
 20
32.13312332644234
 10
-5.526647751003197
 20
32.04837718097616
 10
-5.488860432547518
 20
31.94683424540268
 10
-5.447171648840961
 20
31.8753242559261
 10
-5.395818187958767
 20
31.80737001333622
 10
-5.320761662408248
 20
31.77062767698265
 10
-5.254477128417399
 20
31.74466351916423
 10
-5.200112096792143
 20
31.72723210184819
 10
-5.128888988289486
 20
31.72198763189771
 10
-5.030042811850907
 20
31.72786870372271
 10
-4.915707066470194
 20
31.75812586881066
 10
-4.815771266393483
 20
31.81405298527762
 10
-4.754740567305573
 20
31.89193427605802
 10
-4.71467399544198
 20
31.96546823314959
 10
-4.683526695854578
 20
32.03313813212702
 10
-4.662006183068958
 20
32.08703079743258
 10
-4.651792807669443
 20
32.13930455656534
 10
-4.647206914869654
 20
32.17083533130903
 10
-4.644842382192905
 20
32.1870929174454
 72
     1
 10
-4.644842382192908
 20
32.18709291744538
 11
-4.462655138951674
 21
34.0248801943346
 72
     1
 10
-4.462655138951674
 20
34.0248801943346
 11
-3.685824068463886
 21
34.0248801943346
 72
     1
 10
-3.685824068463886
 20
34.0248801943346
 11
-3.889225876952792
 21
31.97309408084612
 72
     2
 10
-5.35367831607159
 20
32.29400281725688
 40
1.499200908332752
 50
12.35998596222624
 51
34.57361697223234
 73
     0
 72
     2
 10
-4.942942423735221
 20
32.00494866311196
 40
0.9969860617863467
 50
34.29038331790704
 51
79.42991665428312
 73
     0
 72
     1
 10
-4.760057203160528
 20
31.0248801943346
 11
-5.510404689928634
 21
31.02488019433462
 72
     2
 10
-5.403812384664131
 20
31.8164328281441
 40
0.7986973717449786
 50
97.66944495435136
 51
120.898786067779
 73
     0
 72
     2
 10
-5.173141343771899
 20
32.14234761068797
 40
1.197202176515717
 50
122.3618931068037
 51
141.2515245137382
 73
     0
 72
     2
 10
-5.389471681131198
 20
32.00817328375058
 40
0.9450065449727091
 50
139.3862736078239
 51
177.8726579657922
 73
     0
 72
     1
 10
-6.333826921263238
 20
31.9730940808461
 11
-6.13042511277439
 21
34.02488019433461
 97
        2
330
5892
330
5893
 92
       22
 72
     0
 73
     1
 93
       13
 10
-3.14734900486158
 20
34.02825593571061
 10
-2.047349004861559
 20
34.02825593571061
 10
-1.827245318565901
 20
32.52441131541936
 10
-1.295012624591634
 20
34.02807364104484
 10
-0.1975458970834157
 20
34.0280551402308
 10
-0.4949479612922965
 20
31.0280551402308
 10
-1.115886909891883
 20
31.02805514023081
 10
-0.9222174129992312
 20
32.98166797820307
 10
-1.611942464131546
 20
31.02805514023081
 10
-2.344230471214956
 20
31.0280551402308
 10
-2.630162529241629
 20
32.98166797820306
 10
-2.823832026134283
 20
31.02805514023081
 10
-3.444770974733871
 20
31.0280551402308
 97
        1
330
5895
 92
       22
 72
     0
 73
     1
 93
        4
 10
0.342591724648486
 20
34.02289574745092
 10
1.119422795136273
 20
34.02289574745092
 10
0.822020730927392
 20
31.02289574745093
 10
0.045189660439604
 20
31.02289574745093
 97
        1
330
5884
 92
       22
 72
     0
 73
     1
 93
       10
 10
1.724974710806094
 20
34.02289574745093
 10
2.57655809816546
 20
34.02269495197112
 10
3.395920304875375
 20
32.17298478610545
 10
3.580266230192904
 20
34.02269495197112
 10
4.200228460647139
 20
34.02269495197112
 10
3.902826396438257
 20
31.02269495197112
 10
3.051434648859951
 20
31.02269495197112
 10
2.231899581960561
 20
32.87279534971117
 10
2.048491689533392
 20
31.02269495197111
 10
1.427552740933804
 20
31.02269495197111
 97
        1
330
5896
 92
       22
 72
     0
 73
     1
 93
        4
 10
4.838699321647566
 20
34.02289574745092
 10
5.615530392135354
 20
34.02289574745092
 10
5.318128327926473
 20
31.02289574745093
 10
4.541297257438685
 20
31.02289574745093
 97
        1
330
5891
 92
       20
 93
       13
 72
     1
 10
6.192756492920892
 20
34.02289574745092
 11
6.969390837208833
 21
34.02091130056725
 72
     1
 10
6.969390837208833
 20
34.02091130056725
 11
6.787553510813181
 21
32.18510847056173
 72
     4
 94
        3
 73
     0
 74
     0
 95
       24
 96
       20
 40
0.0
 40
0.0
 40
0.0
 40
0.0
 40
0.1612668085856004
 40
0.2532303870616512
 40
0.3214574742553458
 40
0.4101806452458731
 40
0.5031588697521455
 40
0.5664511009172086
 40
0.6248718787780579
 40
0.6731644290699537
 40
0.7797386132933625
 40
0.9206747739903555
 40
1.025058962643406
 40
1.116412352300617
 40
1.212929457806155
 40
1.276240530363043
 40
1.339961572016455
 40
1.386280507025956
 40
1.435584820291643
 40
1.435584820291643
 40
1.435584820291643
 40
1.435584820291643
 10
6.787553510813182
 20
32.18510847056172
 10
6.791047458209138
 20
32.13113887955868
 10
6.796533854692151
 20
32.04639273409249
 10
6.834321173147815
 20
31.944849798519
 10
6.876009956854381
 20
31.87333980904244
 10
6.927363417736517
 20
31.80538556645249
 10
7.002419943287081
 20
31.76864323009899
 10
7.068704477277941
 20
31.74267907228055
 10
7.123069508903178
 20
31.72524765496452
 10
7.194292617405833
 20
31.72000318501404
 10
7.293138793844411
 20
31.72588425683904
 10
7.407474539225143
 20
31.75614142192696
 10
7.507410339301799
 20
31.81206853839398
 10
7.568441038389779
 20
31.88994982917431
 10
7.608507610253345
 20
31.96348378626593
 10
7.639654909840775
 20
32.03115368524333
 10
7.661175422626328
 20
32.08504635054892
 10
7.671388798025919
 20
32.13732010968165
 10
7.675974690825655
 20
32.16885088442535
 10
7.678339223502376
 20
32.18510847056172
 72
     1
 10
7.678339223502373
 20
32.1851084705617
 11
7.860526466743608
 21
34.02289574745092
 72
     1
 10
7.860526466743608
 20
34.02289574745092
 11
8.637357537231395
 21
34.02289574745092
 72
     1
 10
8.637357537231395
 20
34.02289574745092
 11
8.433955728742489
 21
31.97110963396244
 72
     2
 10
6.969503289623695
 20
32.29201837037321
 40
1.499200908332751
 50
12.35998596222655
 51
34.57361697220028
 73
     0
 72
     2
 10
7.38023918196006
 20
32.00296421622829
 40
0.9969860617863467
 50
34.2903833178587
 51
79.42991665428322
 73
     0
 72
     1
 10
7.563124402534754
 20
31.02289574745093
 11
6.812776915766647
 21
31.02289574745094
 72
     2
 10
6.919369221031151
 20
31.81444838126043
 40
0.7986973717449786
 50
97.66944495435136
 51
120.898786067779
 73
     0
 72
     2
 10
7.150040261923383
 20
32.14036316380429
 40
1.197202176515717
 50
122.3618931068037
 51
141.2515245137382
 73
     0
 72
     2
 10
6.933709924564084
 20
32.0061888368669
 40
0.9450065449727091
 50
139.3862736078239
 51
177.8726579657922
 73
     0
 72
     1
 10
5.989354684432043
 20
31.97110963396243
 11
6.192756492920892
 21
34.02289574745092
 97
        2
330
5894
330
5898
 92
       22
 72
     0
 73
     1
 93
       13
 10
9.159497991066102
 20
34.02289574745092
 10
10.25949799106612
 20
34.02289574745092
 10
10.47960167736178
 20
32.51905112715967
 10
11.01183437133604
 20
34.02271345278515
 10
12.10930109884427
 20
34.02269495197111
 10
11.81189903463539
 20
31.02269495197112
 10
11.1909600860358
 20
31.02269495197111
 10
11.38462958292845
 20
32.97630778994339
 10
10.69490453179614
 20
31.02269495197111
 10
9.962616524712728
 20
31.02269495197112
 10
9.676684466686056
 20
32.97630778994339
 10
9.4830149697934
 20
31.02269495197111
 10
8.862076021193814
 20
31.02269495197111
 97
        1
330
5897
 75
     0
 76
     1
 47
0.0356978143457059
 98
       11
 10
-12.74387987022192
 20
34.13164800304253
 10
-12.74387987022192
 20
34.13164800304253
 10
-12.74387987022192
 20
34.13164800304253
 10
-12.74387987022192
 20
34.13164800304253
 10
-12.74387987022192
 20
34.13164800304253
 10
-12.74387987022192
 20
34.13164800304253
 10
-12.74387987022192
 20
34.13164800304253
 10
-12.74387987022192
 20
34.13164800304253
 10
-12.74387987022192
 20
34.13164800304253
 10
-12.74387987022192
 20
34.13164800304253
 10
-12.74387987022192
 20
34.13164800304253
1001
ACAD
1010
0.0
1020
0.0
1030
0.0
1001
AcDbBlockRepETag
1070
     1
1071
      906
1005
58B0
  0
ENDBLK
  5
58B1
330
586F
100
AcDbEntity
  8
0
 62
     9
100
AcDbBlockEnd
  0
ENDSEC
  0
SECTION
  2
ENTITIES
  0
INSERT
  5
4AFC
330
1F
100
AcDbEntity
  8
APL Joinery
100
AcDbBlockReference
  2
08481
 10
86.71623869206962
 20
286.5379308553934
 30
0.0
  0
LINE
  5
4AFD
330
1F
100
AcDbEntity
  8
APL Joinery
  6
CENTER
 62
     9
100
AcDbLine
 10
60.71623869206951
 20
447.7124922431062
 30
0.0
 11
60.71623869206951
 21
274.983600383579
 31
0.0
  0
INSERT
  5
4AFE
330
1F
100
AcDbEntity
  8
APL Joinery
  6
CENTER
 62
     9
100
AcDbBlockReference
  2
01284
 10
197.6068713407864
 20
251.1825917960664
 30
0.0
 41
0.9999999999999277
 43
2.0
 50
44.99999999999539
  0
LINE
  5
4AFF
330
1F
100
AcDbEntity
  8
APL Joinery
  6
CENTER
 62
     9
100
AcDbLine
 10
169.697949737368
 20
258.6290092519755
 30
0.0
 11
347.606871340786
 21
436.5379308553934
 31
0.0
  0
INSERT
  5
4B08
330
1F
100
AcDbEntity
  8
APL Joinery
  6
CENTER
 62
     9
100
AcDbBlockReference
  2
08482
 10
134.7159983755263
 20
346.5379308553936
 30
0.0
 41
-1.0
 43
2.0
 50
180.0
  0
INSERT
  5
4B0E
330
1F
100
AcDbEntity
  8
APL Joinery
  6
CENTER
 62
     9
100
AcDbBlockReference
  2
08482
 10
257.606871340786
 20
223.6470578901337
 30
0.0
 43
2.0
 50
90.0
  0
LINE
  5
4B12
330
1F
100
AcDbEntity
  8
APL Joinery
  6
CENTER
 62
     9
100
AcDbLine
 10
351.2353443364091
 20
154.6472982066772
 30
0.0
 11
186.0525408689713
 21
154.6472982066769
 31
0.0
  0
INSERT
  5
4B13
330
1F
100
AcDbEntity
  8
APL Joinery
100
AcDbBlockReference
  2
08481
 10
197.606871340786
 20
180.647298206677
 30
0.0
 41
-1.0
 50
270.0
  0
LINE
  5
4B1C
330
1F
100
AcDbEntity
  8
APL Joinery
 62
     9
100
AcDbLine
 10
7.556101879720699
 20
286.5379308553934
 30
0.0
 11
162.0444255002726
 21
286.5379308553936
 31
0.0
  0
LINE
  5
4B1D
330
1F
100
AcDbEntity
  8
APL Joinery
 62
     9
100
AcDbLine
 10
197.606871340786
 20
91.57628670827307
 30
0.0
 11
197.606871340786
 21
250.97548501488
 31
0.0
  0
LINE
  5
4B27
102
{ACAD_REACTORS
330
4CDC
102
}
330
1F
100
AcDbEntity
  8
APL Joinery
  6
DASHED
 62
     8
100
AcDbLine
 10
82.46623869206974
 20
309.6529308553934
 30
0.0
 11
38.96623869206974
 21
309.6529308553934
 31
0.0
  0
LINE
  5
4B28
102
{ACAD_REACTORS
330
4CDC
102
}
330
1F
100
AcDbEntity
  8
APL Joinery
  6
DASHED
 62
     8
100
AcDbLine
 10
82.46623869206974
 20
315.4229308553933
 30
0.0
 11
38.96623869206974
 21
315.4229308553933
 31
0.0
  0
LINE
  5
4B29
102
{ACAD_REACTORS
330
4CDC
102
}
330
1F
100
AcDbEntity
  8
APL Joinery
  6
DASHED
 62
     8
100
AcDbLine
 10
62.46623869206974
 20
304.5979308553935
 30
0.0
 11
82.46623869206974
 21
304.5979308553935
 31
0.0
  0
LINE
  5
4B2A
102
{ACAD_REACTORS
330
4CDC
102
}
330
1F
100
AcDbEntity
  8
APL Joinery
  6
DASHED
 62
     8
100
AcDbLine
 10
62.46623869206974
 20
320.4779308553934
 30
0.0
 11
82.46623869206974
 21
320.4779308553934
 31
0.0
  0
LINE
  5
4B2B
102
{ACAD_REACTORS
330
4CDC
102
}
330
1F
100
AcDbEntity
  8
APL Joinery
  6
DASHED
 62
     8
100
AcDbLine
 10
38.96623869206974
 20
304.5979308553935
 30
0.0
 11
38.96623869206974
 21
320.4779308553934
 31
0.0
  0
LINE
  5
4B2C
102
{ACAD_REACTORS
330
4CDC
102
}
330
1F
100
AcDbEntity
  8
APL Joinery
  6
DASHED
 62
     8
100
AcDbLine
 10
58.96623869206973
 20
320.4779308553934
 30
0.0
 11
58.96623869206973
 21
304.5979308553935
 31
0.0
  0
LINE
  5
4B2D
102
{ACAD_REACTORS
330
4CDC
102
}
330
1F
100
AcDbEntity
  8
APL Joinery
  6
DASHED
 62
     8
100
AcDbLine
 10
62.46623869206974
 20
320.4779308553934
 30
0.0
 11
62.46623869206974
 21
304.5979308553935
 31
0.0
  0
ELLIPSE
  5
4B2E
102
{ACAD_REACTORS
330
4CDC
102
}
330
1F
100
AcDbEntity
  8
APL Joinery
  6
DASHED
 62
     8
100
AcDbEllipse
 10
33.9264486920697
 20
316.8679308553935
 30
0.0
 11
-1.032524392956375
 21
1.032524392956375
 31
0.0
210
0.0
220
0.0
230
0.9999999999999998
 40
0.9999999999999998
 41
-0.9298588406312918
 42
2.500655167426188
  0
LINE
  5
4B2F
102
{ACAD_REACTORS
330
4CDC
102
}
330
1F
100
AcDbEntity
  8
APL Joinery
  6
DASHED
 62
     8
100
AcDbLine
 10
37.46623869206974
 20
305.5379308553934
 30
0.0
 11
37.46623869206974
 21
319.5379308553934
 31
0.0
  0
LINE
  5
4B30
102
{ACAD_REACTORS
330
4CDC
102
}
330
1F
100
AcDbEntity
  8
APL Joinery
  6
DASHED
 62
     8
100
AcDbLine
 10
58.96623869206973
 20
304.5979308553935
 30
0.0
 11
38.96623869206974
 21
304.5979308553935
 31
0.0
  0
ELLIPSE
  5
4B31
102
{ACAD_REACTORS
330
4CDC
102
}
330
1F
100
AcDbEntity
  8
APL Joinery
  6
DASHED
 62
     8
100
AcDbEllipse
 10
33.9264486920697
 20
308.2079308553935
 30
0.0
 11
-1.032524392956375
 21
1.032524392956375
 31
0.0
210
0.0
220
0.0
230
0.9999999999999998
 40
0.9999999999999998
 41
-0.9298588406312918
 42
2.500655167426188
  0
ELLIPSE
  5
4B32
102
{ACAD_REACTORS
330
4CDC
102
}
330
1F
100
AcDbEntity
  8
APL Joinery
  6
DASHED
 62
     8
100
AcDbEllipse
 10
36.42052869206975
 20
312.5379308553934
 30
0.0
 11
-2.796105273778176
 21
2.796105273778176
 31
0.0
210
0.0
220
0.0
230
1.0
 40
0.9999999999999795
 41
-0.0323202182401079
 42
1.603116545035003
  0
LINE
  5
4B33
102
{ACAD_REACTORS
330
4CDC
102
}
330
1F
100
AcDbEntity
  8
APL Joinery
  6
DASHED
 62
     8
100
AcDbLine
 10
32.46623869206974
 20
315.4229308553933
 30
0.0
 11
32.46623869206974
 21
316.8679308553935
 31
0.0
  0
LINE
  5
4B34
102
{ACAD_REACTORS
330
4CDC
102
}
330
1F
100
AcDbEntity
  8
APL Joinery
  6
DASHED
 62
     8
100
AcDbLine
 10
32.46623869206974
 20
308.2079308553935
 30
0.0
 11
32.46623869206974
 21
316.8679308553935
 31
0.0
  0
LINE
  5
4B35
102
{ACAD_REACTORS
330
4CDC
102
}
330
1F
100
AcDbEntity
  8
APL Joinery
  6
DASHED
 62
     8
100
AcDbLine
 10
38.96623869206974
 20
305.5379308553934
 30
0.0
 11
37.46623869206974
 21
305.5379308553934
 31
0.0
  0
LINE
  5
4B36
102
{ACAD_REACTORS
330
4CDC
102
}
330
1F
100
AcDbEntity
  8
APL Joinery
  6
DASHED
 62
     8
100
AcDbLine
 10
37.46623869206974
 20
315.4229308553933
 30
0.0
 11
33.71623869206974
 21
315.4229308553933
 31
0.0
  0
LINE
  5
4B37
102
{ACAD_REACTORS
330
4CDC
102
}
330
1F
100
AcDbEntity
  8
APL Joinery
  6
DASHED
 62
     8
100
AcDbLine
 10
37.46623869206974
 20
309.6529308553934
 30
0.0
 11
33.71623869206974
 21
309.6529308553934
 31
0.0
  0
LINE
  5
4B38
102
{ACAD_REACTORS
330
4CDC
102
}
330
1F
100
AcDbEntity
  8
APL Joinery
  6
DASHED
 62
     8
100
AcDbLine
 10
37.46623869206974
 20
306.7629308553935
 30
0.0
 11
34.13665869206977
 21
306.7629308553935
 31
0.0
  0
LINE
  5
4B39
102
{ACAD_REACTORS
330
4CDC
102
}
330
1F
100
AcDbEntity
  8
APL Joinery
  6
DASHED
 62
     8
100
AcDbLine
 10
58.96623869206973
 20
320.4779308553934
 30
0.0
 11
38.96623869206974
 21
320.4779308553934
 31
0.0
  0
LINE
  5
4B3A
102
{ACAD_REACTORS
330
4CDC
102
}
330
1F
100
AcDbEntity
  8
APL Joinery
  6
DASHED
 62
     8
100
AcDbLine
 10
37.46623869206974
 20
318.3129308553934
 30
0.0
 11
33.71623869206974
 21
318.3129308553934
 31
0.0
  0
LINE
  5
4B3B
102
{ACAD_REACTORS
330
4CDC
102
}
330
1F
100
AcDbEntity
  8
APL Joinery
  6
DASHED
 62
     8
100
AcDbLine
 10
38.96623869206974
 20
319.5379308553934
 30
0.0
 11
37.46623869206974
 21
319.5379308553934
 31
0.0
  0
LINE
  5
4B3C
102
{ACAD_REACTORS
330
4CDC
102
}
330
1F
100
AcDbEntity
  8
APL Joinery
  6
DASHED
 62
     8
100
AcDbLine
 10
82.46623869206974
 20
304.5979308553935
 30
0.0
 11
82.46623869206974
 21
320.4779308553934
 31
0.0
  0
LINE
  5
4B3D
102
{ACAD_REACTORS
330
4CDC
102
}
330
1F
100
AcDbEntity
  8
APL Joinery
  6
DASHED
 62
     8
100
AcDbLine
 10
83.96623869206974
 20
305.5379308553934
 30
0.0
 11
83.96623869206974
 21
319.5379308553934
 31
0.0
  0
ELLIPSE
  5
4B3E
102
{ACAD_REACTORS
330
4CDC
102
}
330
1F
100
AcDbEntity
  8
APL Joinery
  6
DASHED
 62
     8
100
AcDbEllipse
 10
87.50602869206977
 20
316.8679308553935
 30
0.0
 11
1.032524392956393
 21
1.032524392956392
 31
0.0
210
0.0
220
0.0
230
1.0
 40
1.0
 41
3.782530139753442
 42
7.213044147810833
  0
LINE
  5
4B3F
102
{ACAD_REACTORS
330
4CDC
102
}
330
1F
100
AcDbEntity
  8
APL Joinery
  6
DASHED
 62
     8
100
AcDbLine
 10
82.46623869206974
 20
305.5379308553934
 30
0.0
 11
83.96623869206974
 21
305.5379308553934
 31
0.0
  0
LINE
  5
4B40
102
{ACAD_REACTORS
330
4CDC
102
}
330
1F
100
AcDbEntity
  8
APL Joinery
  6
DASHED
 62
     8
100
AcDbLine
 10
90.96623869206974
 20
314.4229308553934
 30
0.0
 11
88.96623869206974
 21
314.4229308553934
 31
0.0
  0
LINE
  5
4B41
102
{ACAD_REACTORS
330
4CDC
102
}
330
1F
100
AcDbEntity
  8
APL Joinery
  6
DASHED
 62
     8
100
AcDbLine
 10
90.96623869206974
 20
315.4229308553933
 30
0.0
 11
88.96623869206974
 21
315.4229308553933
 31
0.0
  0
LINE
  5
4B42
102
{ACAD_REACTORS
330
4CDC
102
}
330
1F
100
AcDbEntity
  8
APL Joinery
  6
DASHED
 62
     8
100
AcDbLine
 10
90.96623869206974
 20
310.6529308553934
 30
0.0
 11
88.96623869206974
 21
310.6529308553934
 31
0.0
  0
LINE
  5
4B43
102
{ACAD_REACTORS
330
4CDC
102
}
330
1F
100
AcDbEntity
  8
APL Joinery
  6
DASHED
 62
     8
100
AcDbLine
 10
90.96623869206974
 20
309.6529308553934
 30
0.0
 11
88.96623869206974
 21
309.6529308553934
 31
0.0
  0
LINE
  5
4B44
102
{ACAD_REACTORS
330
4CDC
102
}
330
1F
100
AcDbEntity
  8
APL Joinery
  6
DASHED
 62
     8
100
AcDbLine
 10
88.96623869206974
 20
315.4229308553933
 30
0.0
 11
88.96623869206974
 21
316.8679308553935
 31
0.0
  0
LINE
  5
4B45
102
{ACAD_REACTORS
330
4CDC
102
}
330
1F
100
AcDbEntity
  8
APL Joinery
  6
DASHED
 62
     8
100
AcDbLine
 10
88.96623869206974
 20
308.2079308553935
 30
0.0
 11
88.96623869206974
 21
316.8679308553935
 31
0.0
  0
ELLIPSE
  5
4B46
102
{ACAD_REACTORS
330
4CDC
102
}
330
1F
100
AcDbEntity
  8
APL Joinery
  6
DASHED
 62
     8
100
AcDbEllipse
 10
85.01194869206983
 20
312.5379308553934
 30
0.0
 11
2.796105273778176
 21
2.796105273778176
 31
0.0
210
0.0
220
0.0
230
1.0
 40
1.0
 41
4.680068762144562
 42
6.315505525419713
  0
LINE
  5
4B47
102
{ACAD_REACTORS
330
4CDC
102
}
330
1F
100
AcDbEntity
  8
APL Joinery
  6
DASHED
 62
     8
100
AcDbLine
 10
83.96623869206974
 20
306.7629308553935
 30
0.0
 11
87.29581869206981
 21
306.7629308553935
 31
0.0
  0
LINE
  5
4B48
102
{ACAD_REACTORS
330
4CDC
102
}
330
1F
100
AcDbEntity
  8
APL Joinery
  6
DASHED
 62
     8
100
AcDbLine
 10
83.96623869206974
 20
315.4229308553933
 30
0.0
 11
87.71623869206974
 21
315.4229308553933
 31
0.0
  0
LINE
  5
4B49
102
{ACAD_REACTORS
330
4CDC
102
}
330
1F
100
AcDbEntity
  8
APL Joinery
  6
DASHED
 62
     8
100
AcDbLine
 10
88.96623869206974
 20
309.6529308553934
 30
0.0
 11
83.96623869206974
 21
309.6529308553934
 31
0.0
  0
ELLIPSE
  5
4B4A
102
{ACAD_REACTORS
330
4CDC
102
}
330
1F
100
AcDbEntity
  8
APL Joinery
  6
DASHED
 62
     8
100
AcDbEllipse
 10
87.50602869206977
 20
308.2079308553935
 30
0.0
 11
1.032524392956393
 21
1.032524392956392
 31
0.0
210
0.0
220
0.0
230
1.0
 40
1.0
 41
3.782530139753442
 42
7.213044147810833
  0
LINE
  5
4B4B
102
{ACAD_REACTORS
330
4CDC
102
}
330
1F
100
AcDbEntity
  8
APL Joinery
  6
DASHED
 62
     8
100
AcDbLine
 10
90.96623869206974
 20
315.4229308553933
 30
0.0
 11
91.96623869206973
 21
314.4229308553934
 31
0.0
  0
LINE
  5
4B4C
102
{ACAD_REACTORS
330
4CDC
102
}
330
1F
100
AcDbEntity
  8
APL Joinery
  6
DASHED
 62
     8
100
AcDbLine
 10
90.96623869206974
 20
309.6529308553934
 30
0.0
 11
91.96623869206973
 21
310.6529308553934
 31
0.0
  0
LINE
  5
4B4D
102
{ACAD_REACTORS
330
4CDC
102
}
330
1F
100
AcDbEntity
  8
APL Joinery
  6
DASHED
 62
     8
100
AcDbLine
 10
91.96623869206973
 20
310.6529308553934
 30
0.0
 11
91.96623869206973
 21
314.4229308553934
 31
0.0
  0
LINE
  5
4B4E
102
{ACAD_REACTORS
330
4CDC
102
}
330
1F
100
AcDbEntity
  8
APL Joinery
  6
DASHED
 62
     8
100
AcDbLine
 10
90.96623869206974
 20
309.6529308553934
 30
0.0
 11
90.96623869206974
 21
315.4229308553933
 31
0.0
  0
LINE
  5
4B4F
102
{ACAD_REACTORS
330
4CDC
102
}
330
1F
100
AcDbEntity
  8
APL Joinery
  6
DASHED
 62
     8
100
AcDbLine
 10
82.46623869206974
 20
319.5379308553934
 30
0.0
 11
83.96623869206974
 21
319.5379308553934
 31
0.0
  0
LINE
  5
4B50
102
{ACAD_REACTORS
330
4CDC
102
}
330
1F
100
AcDbEntity
  8
APL Joinery
  6
DASHED
 62
     8
100
AcDbLine
 10
83.96623869206974
 20
318.3129308553934
 30
0.0
 11
87.71623869206974
 21
318.3129308553934
 31
0.0
  0
LINE
  5
4B51
102
{ACAD_REACTORS
330
4CE4
102
}
330
1F
100
AcDbEntity
  8
APL Joinery
  6
DASHED
 62
     8
100
AcDbLine
 10
220.721871340786
 20
132.8972982066769
 30
0.0
 11
220.721871340786
 21
176.397298206677
 31
0.0
  0
LINE
  5
4B52
102
{ACAD_REACTORS
330
4CE4
102
}
330
1F
100
AcDbEntity
  8
APL Joinery
  6
DASHED
 62
     8
100
AcDbLine
 10
226.491871340786
 20
132.8972982066769
 30
0.0
 11
226.491871340786
 21
176.397298206677
 31
0.0
  0
LINE
  5
4B53
102
{ACAD_REACTORS
330
4CE4
102
}
330
1F
100
AcDbEntity
  8
APL Joinery
  6
DASHED
 62
     8
100
AcDbLine
 10
231.546871340786
 20
156.3972982066769
 30
0.0
 11
215.6668713407861
 21
156.3972982066769
 31
0.0
  0
LINE
  5
4B54
102
{ACAD_REACTORS
330
4CE4
102
}
330
1F
100
AcDbEntity
  8
APL Joinery
  6
DASHED
 62
     8
100
AcDbLine
 10
215.6668713407861
 20
176.397298206677
 30
0.0
 11
231.546871340786
 21
176.397298206677
 31
0.0
  0
LINE
  5
4B55
102
{ACAD_REACTORS
330
4CE4
102
}
330
1F
100
AcDbEntity
  8
APL Joinery
  6
DASHED
 62
     8
100
AcDbLine
 10
216.606871340786
 20
177.8972982066769
 30
0.0
 11
230.606871340786
 21
177.8972982066769
 31
0.0
  0
ELLIPSE
  5
4B56
102
{ACAD_REACTORS
330
4CE4
102
}
330
1F
100
AcDbEntity
  8
APL Joinery
  6
DASHED
 62
     8
100
AcDbEllipse
 10
219.2768713407861
 20
181.437088206677
 30
0.0
 11
1.032524392956396
 21
-1.032524392956396
 31
0.0
210
0.0
220
0.0
230
1.0
 40
1.0
 41
0.6409374861636104
 42
4.071451494221078
  0
LINE
  5
4B57
102
{ACAD_REACTORS
330
4CE4
102
}
330
1F
100
AcDbEntity
  8
APL Joinery
  6
DASHED
 62
     8
100
AcDbLine
 10
219.2768713407861
 20
182.8972982066769
 30
0.0
 11
227.9368713407861
 21
182.8972982066769
 31
0.0
  0
LINE
  5
4B58
102
{ACAD_REACTORS
330
4CE4
102
}
330
1F
100
AcDbEntity
  8
APL Joinery
  6
DASHED
 62
     8
100
AcDbLine
 10
215.6668713407861
 20
156.3972982066769
 30
0.0
 11
215.6668713407861
 21
176.397298206677
 31
0.0
  0
LINE
  5
4B59
102
{ACAD_REACTORS
330
4CE4
102
}
330
1F
100
AcDbEntity
  8
APL Joinery
  6
DASHED
 62
     8
100
AcDbLine
 10
217.831871340786
 20
177.8972982066769
 30
0.0
 11
217.831871340786
 21
181.226878206677
 31
0.0
  0
LINE
  5
4B5A
102
{ACAD_REACTORS
330
4CE4
102
}
330
1F
100
AcDbEntity
  8
APL Joinery
  6
DASHED
 62
     8
100
AcDbLine
 10
216.606871340786
 20
176.397298206677
 30
0.0
 11
216.606871340786
 21
177.8972982066769
 31
0.0
  0
LINE
  5
4B5B
102
{ACAD_REACTORS
330
4CE4
102
}
330
1F
100
AcDbEntity
  8
APL Joinery
  6
DASHED
 62
     8
100
AcDbLine
 10
231.546871340786
 20
156.3972982066769
 30
0.0
 11
231.546871340786
 21
176.397298206677
 31
0.0
  0
LINE
  5
4B5C
102
{ACAD_REACTORS
330
4CE4
102
}
330
1F
100
AcDbEntity
  8
APL Joinery
  6
DASHED
 62
     8
100
AcDbLine
 10
226.491871340786
 20
177.8972982066769
 30
0.0
 11
226.491871340786
 21
181.647298206677
 31
0.0
  0
LINE
  5
4B5D
102
{ACAD_REACTORS
330
4CE4
102
}
330
1F
100
AcDbEntity
  8
APL Joinery
  6
DASHED
 62
     8
100
AcDbLine
 10
220.721871340786
 20
177.8972982066769
 30
0.0
 11
220.721871340786
 21
181.647298206677
 31
0.0
  0
LINE
  5
4B5E
102
{ACAD_REACTORS
330
4CE4
102
}
330
1F
100
AcDbEntity
  8
APL Joinery
  6
DASHED
 62
     8
100
AcDbLine
 10
229.381871340786
 20
177.8972982066769
 30
0.0
 11
229.381871340786
 21
181.647298206677
 31
0.0
  0
ELLIPSE
  5
4B5F
102
{ACAD_REACTORS
330
4CE4
102
}
330
1F
100
AcDbEntity
  8
APL Joinery
  6
DASHED
 62
     8
100
AcDbEllipse
 10
227.9368713407861
 20
181.437088206677
 30
0.0
 11
1.032524392956396
 21
-1.032524392956396
 31
0.0
210
0.0
220
0.0
230
1.0
 40
1.0
 41
0.6409374861636104
 42
4.071451494221078
  0
ELLIPSE
  5
4B60
102
{ACAD_REACTORS
330
4CE4
102
}
330
1F
100
AcDbEntity
  8
APL Joinery
  6
DASHED
 62
     8
100
AcDbEllipse
 10
223.606871340786
 20
178.943008206677
 30
0.0
 11
2.796105273778159
 21
2.796105273778158
 31
0.0
210
0.0
220
0.0
230
0.9999999999999998
 40
0.9999999999999953
 41
-0.0323202182401021
 42
1.603116545035013
  0
LINE
  5
4B61
102
{ACAD_REACTORS
330
4CE4
102
}
330
1F
100
AcDbEntity
  8
APL Joinery
  6
DASHED
 62
     8
100
AcDbLine
 10
226.491871340786
 20
182.8972982066769
 30
0.0
 11
227.9368713407861
 21
182.8972982066769
 31
0.0
  0
LINE
  5
4B62
102
{ACAD_REACTORS
330
4CE4
102
}
330
1F
100
AcDbEntity
  8
APL Joinery
  6
DASHED
 62
     8
100
AcDbLine
 10
230.606871340786
 20
176.397298206677
 30
0.0
 11
230.606871340786
 21
177.8972982066769
 31
0.0
  0
LINE
  5
4B63
102
{ACAD_REACTORS
330
4CE4
102
}
330
1F
100
AcDbEntity
  8
APL Joinery
  6
DASHED
 62
     8
100
AcDbLine
 10
219.2768713407861
 20
126.397298206677
 30
0.0
 11
227.9368713407861
 21
126.397298206677
 31
0.0
  0
ELLIPSE
  5
4B64
102
{ACAD_REACTORS
330
4CE4
102
}
330
1F
100
AcDbEntity
  8
APL Joinery
  6
DASHED
 62
     8
100
AcDbEllipse
 10
219.2768713407861
 20
127.8575082066771
 30
0.0
 11
1.032524392956412
 21
-1.032524392956413
 31
0.0
210
0.0
220
0.0
230
1.0
 40
0.9999999999999998
 41
3.782530139753442
 42
7.213044147810833
  0
LINE
  5
4B65
102
{ACAD_REACTORS
330
4CE4
102
}
330
1F
100
AcDbEntity
  8
APL Joinery
  6
DASHED
 62
     8
100
AcDbLine
 10
215.6668713407861
 20
132.8972982066769
 30
0.0
 11
231.546871340786
 21
132.8972982066769
 31
0.0
  0
LINE
  5
4B66
102
{ACAD_REACTORS
330
4CE4
102
}
330
1F
100
AcDbEntity
  8
APL Joinery
  6
DASHED
 62
     8
100
AcDbLine
 10
216.606871340786
 20
131.3972982066769
 30
0.0
 11
230.606871340786
 21
131.3972982066769
 31
0.0
  0
LINE
  5
4B67
102
{ACAD_REACTORS
330
4CE4
102
}
330
1F
100
AcDbEntity
  8
APL Joinery
  6
DASHED
 62
     8
100
AcDbLine
 10
231.546871340786
 20
152.8972982066769
 30
0.0
 11
215.6668713407861
 21
152.8972982066769
 31
0.0
  0
LINE
  5
4B68
102
{ACAD_REACTORS
330
4CE4
102
}
330
1F
100
AcDbEntity
  8
APL Joinery
  6
DASHED
 62
     8
100
AcDbLine
 10
215.6668713407861
 20
152.8972982066769
 30
0.0
 11
215.6668713407861
 21
132.8972982066769
 31
0.0
  0
LINE
  5
4B69
102
{ACAD_REACTORS
330
4CE4
102
}
330
1F
100
AcDbEntity
  8
APL Joinery
  6
DASHED
 62
     8
100
AcDbLine
 10
216.606871340786
 20
132.8972982066769
 30
0.0
 11
216.606871340786
 21
131.3972982066769
 31
0.0
  0
LINE
  5
4B6A
102
{ACAD_REACTORS
330
4CE4
102
}
330
1F
100
AcDbEntity
  8
APL Joinery
  6
DASHED
 62
     8
100
AcDbLine
 10
217.831871340786
 20
131.3972982066769
 30
0.0
 11
217.831871340786
 21
128.0677182066771
 31
0.0
  0
LINE
  5
4B6B
102
{ACAD_REACTORS
330
4CE4
102
}
330
1F
100
AcDbEntity
  8
APL Joinery
  6
DASHED
 62
     8
100
AcDbLine
 10
226.491871340786
 20
124.3972982066769
 30
0.0
 11
225.491871340786
 21
123.3972982066769
 31
0.0
  0
LINE
  5
4B6C
102
{ACAD_REACTORS
330
4CE4
102
}
330
1F
100
AcDbEntity
  8
APL Joinery
  6
DASHED
 62
     8
100
AcDbLine
 10
220.721871340786
 20
124.3972982066769
 30
0.0
 11
221.721871340786
 21
123.3972982066769
 31
0.0
  0
LINE
  5
4B6D
102
{ACAD_REACTORS
330
4CE4
102
}
330
1F
100
AcDbEntity
  8
APL Joinery
  6
DASHED
 62
     8
100
AcDbLine
 10
231.546871340786
 20
152.8972982066769
 30
0.0
 11
231.546871340786
 21
132.8972982066769
 31
0.0
  0
LINE
  5
4B6E
102
{ACAD_REACTORS
330
4CE4
102
}
330
1F
100
AcDbEntity
  8
APL Joinery
  6
DASHED
 62
     8
100
AcDbLine
 10
230.606871340786
 20
132.8972982066769
 30
0.0
 11
230.606871340786
 21
131.3972982066769
 31
0.0
  0
ELLIPSE
  5
4B6F
102
{ACAD_REACTORS
330
4CE4
102
}
330
1F
100
AcDbEntity
  8
APL Joinery
  6
DASHED
 62
     8
100
AcDbEllipse
 10
227.9368713407861
 20
127.8575082066771
 30
0.0
 11
1.032524392956412
 21
-1.032524392956413
 31
0.0
210
0.0
220
0.0
230
1.0
 40
0.9999999999999998
 41
3.782530139753442
 42
7.213044147810833
  0
LINE
  5
4B70
102
{ACAD_REACTORS
330
4CE4
102
}
330
1F
100
AcDbEntity
  8
APL Joinery
  6
DASHED
 62
     8
100
AcDbLine
 10
225.491871340786
 20
124.3972982066769
 30
0.0
 11
225.491871340786
 21
126.397298206677
 31
0.0
  0
LINE
  5
4B71
102
{ACAD_REACTORS
330
4CE4
102
}
330
1F
100
AcDbEntity
  8
APL Joinery
  6
DASHED
 62
     8
100
AcDbLine
 10
226.491871340786
 20
124.3972982066769
 30
0.0
 11
226.491871340786
 21
126.397298206677
 31
0.0
  0
LINE
  5
4B72
102
{ACAD_REACTORS
330
4CE4
102
}
330
1F
100
AcDbEntity
  8
APL Joinery
  6
DASHED
 62
     8
100
AcDbLine
 10
221.721871340786
 20
124.3972982066769
 30
0.0
 11
221.721871340786
 21
126.397298206677
 31
0.0
  0
LINE
  5
4B73
102
{ACAD_REACTORS
330
4CE4
102
}
330
1F
100
AcDbEntity
  8
APL Joinery
  6
DASHED
 62
     8
100
AcDbLine
 10
220.721871340786
 20
124.3972982066769
 30
0.0
 11
220.721871340786
 21
126.397298206677
 31
0.0
  0
LINE
  5
4B74
102
{ACAD_REACTORS
330
4CE4
102
}
330
1F
100
AcDbEntity
  8
APL Joinery
  6
DASHED
 62
     8
100
AcDbLine
 10
226.491871340786
 20
126.397298206677
 30
0.0
 11
227.9368713407861
 21
126.397298206677
 31
0.0
  0
ELLIPSE
  5
4B75
102
{ACAD_REACTORS
330
4CE4
102
}
330
1F
100
AcDbEntity
  8
APL Joinery
  6
DASHED
 62
     8
100
AcDbEllipse
 10
223.606871340786
 20
130.3515882066771
 30
0.0
 11
2.796105273778162
 21
-2.796105273778163
 31
0.0
210
0.0
220
0.0
230
1.0
 40
0.9999999999999948
 41
4.680068762144571
 42
6.315505525419708
  0
LINE
  5
4B76
102
{ACAD_REACTORS
330
4CE4
102
}
330
1F
100
AcDbEntity
  8
APL Joinery
  6
DASHED
 62
     8
100
AcDbLine
 10
220.721871340786
 20
124.3972982066769
 30
0.0
 11
226.491871340786
 21
124.3972982066769
 31
0.0
  0
LINE
  5
4B77
102
{ACAD_REACTORS
330
4CE4
102
}
330
1F
100
AcDbEntity
  8
APL Joinery
  6
DASHED
 62
     8
100
AcDbLine
 10
226.491871340786
 20
131.3972982066769
 30
0.0
 11
226.491871340786
 21
127.6472982066769
 31
0.0
  0
LINE
  5
4B78
102
{ACAD_REACTORS
330
4CE4
102
}
330
1F
100
AcDbEntity
  8
APL Joinery
  6
DASHED
 62
     8
100
AcDbLine
 10
220.721871340786
 20
126.397298206677
 30
0.0
 11
220.721871340786
 21
131.3972982066769
 31
0.0
  0
LINE
  5
4B79
102
{ACAD_REACTORS
330
4CE4
102
}
330
1F
100
AcDbEntity
  8
APL Joinery
  6
DASHED
 62
     8
100
AcDbLine
 10
229.381871340786
 20
131.3972982066769
 30
0.0
 11
229.381871340786
 21
127.6472982066769
 31
0.0
  0
LINE
  5
4B7A
102
{ACAD_REACTORS
330
4CE4
102
}
330
1F
100
AcDbEntity
  8
APL Joinery
  6
DASHED
 62
     8
100
AcDbLine
 10
221.721871340786
 20
123.3972982066769
 30
0.0
 11
225.491871340786
 21
123.3972982066769
 31
0.0
  0
LINE
  5
4BA5
102
{ACAD_REACTORS
330
4CDD
102
}
330
1F
100
AcDbEntity
  8
APL Joinery
  6
DASHED
 62
     8
100
AcDbLine
 10
169.8659983755265
 20
315.4229308553936
 30
0.0
 11
138.7432314225603
 21
315.4229308553936
 31
0.0
  0
LINE
  5
4BA6
102
{ACAD_REACTORS
330
4CDD
102
}
330
1F
100
AcDbEntity
  8
APL Joinery
  6
DASHED
 62
     8
100
AcDbLine
 10
169.8659983755265
 20
309.6529308553934
 30
0.0
 11
138.7432314225603
 21
309.6529308553936
 31
0.0
  0
LINE
  5
4BA7
102
{ACAD_REACTORS
330
4CDD
102
}
330
1F
100
AcDbEntity
  8
APL Joinery
  6
DASHED
 62
     8
100
AcDbLine
 10
158.2159983755264
 20
320.4779308553934
 30
0.0
 11
138.2159983755264
 21
320.4779308553934
 31
0.0
  0
LINE
  5
4BA8
102
{ACAD_REACTORS
330
4CDD
102
}
330
1F
100
AcDbEntity
  8
APL Joinery
  6
DASHED
 62
     8
100
AcDbLine
 10
158.2159983755264
 20
304.5979308553935
 30
0.0
 11
138.2159983755264
 21
304.5979308553935
 31
0.0
  0
LINE
  5
4BA9
102
{ACAD_REACTORS
330
4CDD
102
}
330
1F
100
AcDbEntity
  8
APL Joinery
  6
DASHED
 62
     8
100
AcDbLine
 10
131.7159983755264
 20
308.2079308553935
 30
0.0
 11
131.7159983755264
 21
316.8679308553935
 31
0.0
  0
ELLIPSE
  5
4BAA
102
{ACAD_REACTORS
330
4CDD
102
}
330
1F
100
AcDbEntity
  8
APL Joinery
  6
DASHED
 62
     8
100
AcDbEllipse
 10
133.1762083755263
 20
308.2079308553935
 30
0.0
 11
1.032524392956396
 21
1.032524392956396
 31
0.0
210
0.0
220
0.0
230
1.0
 40
1.0
 41
0.6409374861636104
 42
4.071451494221078
  0
LINE
  5
4BAB
102
{ACAD_REACTORS
330
4CDD
102
}
330
1F
100
AcDbEntity
  8
APL Joinery
  6
DASHED
 62
     8
100
AcDbLine
 10
136.7159983755264
 20
305.5379308553934
 30
0.0
 11
136.7159983755264
 21
319.5379308553934
 31
0.0
  0
LINE
  5
4BAC
102
{ACAD_REACTORS
330
4CDD
102
}
330
1F
100
AcDbEntity
  8
APL Joinery
  6
DASHED
 62
     8
100
AcDbLine
 10
138.2159983755264
 20
304.5979308553935
 30
0.0
 11
138.2159983755264
 21
320.4779308553934
 31
0.0
  0
LINE
  5
4BAD
102
{ACAD_REACTORS
330
4CDD
102
}
330
1F
100
AcDbEntity
  8
APL Joinery
  6
DASHED
 62
     8
100
AcDbLine
 10
136.7159983755264
 20
306.7629308553935
 30
0.0
 11
133.3864183755263
 21
306.7629308553935
 31
0.0
  0
LINE
  5
4BAE
102
{ACAD_REACTORS
330
4CDD
102
}
330
1F
100
AcDbEntity
  8
APL Joinery
  6
DASHED
 62
     8
100
AcDbLine
 10
138.2159983755264
 20
305.5379308553934
 30
0.0
 11
136.7159983755264
 21
305.5379308553934
 31
0.0
  0
LINE
  5
4BAF
102
{ACAD_REACTORS
330
4CDD
102
}
330
1F
100
AcDbEntity
  8
APL Joinery
  6
DASHED
 62
     8
100
AcDbLine
 10
136.7159983755264
 20
318.3129308553934
 30
0.0
 11
132.9659983755264
 21
318.3129308553934
 31
0.0
  0
LINE
  5
4BB0
102
{ACAD_REACTORS
330
4CDD
102
}
330
1F
100
AcDbEntity
  8
APL Joinery
  6
DASHED
 62
     8
100
AcDbLine
 10
136.7159983755264
 20
309.6529308553934
 30
0.0
 11
132.9659983755264
 21
309.6529308553934
 31
0.0
  0
LINE
  5
4BB1
102
{ACAD_REACTORS
330
4CDD
102
}
330
1F
100
AcDbEntity
  8
APL Joinery
  6
DASHED
 62
     8
100
AcDbLine
 10
136.7159983755264
 20
315.4229308553933
 30
0.0
 11
132.9659983755264
 21
315.4229308553933
 31
0.0
  0
LINE
  5
4BB2
102
{ACAD_REACTORS
330
4CDD
102
}
330
1F
100
AcDbEntity
  8
APL Joinery
  6
DASHED
 62
     8
100
AcDbLine
 10
131.7159983755264
 20
315.4229308553933
 30
0.0
 11
131.7159983755264
 21
316.8679308553935
 31
0.0
  0
ELLIPSE
  5
4BB3
102
{ACAD_REACTORS
330
4CDD
102
}
330
1F
100
AcDbEntity
  8
APL Joinery
  6
DASHED
 62
     8
100
AcDbEllipse
 10
135.6702883755263
 20
312.5379308553934
 30
0.0
 11
-2.796105273778158
 21
2.796105273778158
 31
0.0
210
0.0
220
0.0
230
1.0
 40
0.9999999999999953
 41
-0.0323202182401021
 42
1.603116545035013
  0
ELLIPSE
  5
4BB4
102
{ACAD_REACTORS
330
4CDD
102
}
330
1F
100
AcDbEntity
  8
APL Joinery
  6
DASHED
 62
     8
100
AcDbEllipse
 10
133.1762083755263
 20
316.8679308553935
 30
0.0
 11
1.032524392956396
 21
1.032524392956396
 31
0.0
210
0.0
220
0.0
230
1.0
 40
1.0
 41
0.6409374861636104
 42
4.071451494221078
  0
LINE
  5
4BB5
102
{ACAD_REACTORS
330
4CDD
102
}
330
1F
100
AcDbEntity
  8
APL Joinery
  6
DASHED
 62
     8
100
AcDbLine
 10
138.2159983755264
 20
319.5379308553934
 30
0.0
 11
136.7159983755264
 21
319.5379308553934
 31
0.0
  0
LINE
  5
4BB6
102
{ACAD_REACTORS
330
4CDD
102
}
330
1F
100
AcDbEntity
  8
APL Joinery
 62
     8
100
AcDbLine
 10
157.4659983755264
 20
307.2379308553934
 30
0.0
 11
157.4659983755264
 21
317.8379308553936
 31
0.0
  0
LINE
  5
4BB7
102
{ACAD_REACTORS
330
4CDD
102
}
330
1F
100
AcDbEntity
  8
APL Joinery
 62
     8
100
AcDbLine
 10
158.2159983755264
 20
317.8379308553936
 30
0.0
 11
158.2159983755264
 21
307.2379308553936
 31
0.0
  0
LINE
  5
4BB8
102
{ACAD_REACTORS
330
4CDD
102
}
330
1F
100
AcDbEntity
  8
APL Joinery
  6
DASHED
 62
     8
100
AcDbLine
 10
158.2159983755264
 20
320.4779308553934
 30
0.0
 11
158.2159983755264
 21
304.5979308553935
 31
0.0
  0
LINE
  5
4BB9
102
{ACAD_REACTORS
330
4CDD
102
}
330
1F
100
AcDbEntity
  8
APL Joinery
 62
     8
100
AcDbLine
 10
158.2159983755264
 20
307.2379308553936
 30
0.0
 11
157.4659983755264
 21
307.2379308553934
 31
0.0
  0
LINE
  5
4BBA
102
{ACAD_REACTORS
330
4CDD
102
}
330
1F
100
AcDbEntity
  8
APL Joinery
 62
     8
100
AcDbLine
 10
157.4659983755264
 20
317.8379308553936
 30
0.0
 11
158.2159983755264
 21
317.8379308553936
 31
0.0
  0
LINE
  5
4BBB
102
{ACAD_REACTORS
330
4CDD
102
}
330
1F
100
AcDbEntity
  8
APL Joinery
 62
     8
100
AcDbLine
 10
169.8659983755265
 20
316.7879308553934
 30
0.0
 11
169.8659983755265
 21
308.2879308553934
 31
0.0
  0
LINE
  5
4BBC
102
{ACAD_REACTORS
330
4CDD
102
}
330
1F
100
AcDbEntity
  8
APL Joinery
 62
     8
100
AcDbLine
 10
162.7159983755264
 20
307.7879308553936
 30
0.0
 11
162.7159983755264
 21
317.2879308553934
 31
0.0
  0
LINE
  5
4BBD
102
{ACAD_REACTORS
330
4CDD
102
}
330
1F
100
AcDbEntity
  8
APL Joinery
 62
     8
100
AcDbLine
 10
161.2159983755264
 20
317.2879308553934
 30
0.0
 11
161.2159983755264
 21
307.7879308553934
 31
0.0
  0
LINE
  5
4BBE
102
{ACAD_REACTORS
330
4CDD
102
}
330
1F
100
AcDbEntity
  8
APL Joinery
 62
     8
100
AcDbLine
 10
169.3659983755265
 20
307.7879308553934
 30
0.0
 11
162.7159983755264
 21
307.7879308553938
 31
0.0
  0
ELLIPSE
  5
4BBF
102
{ACAD_REACTORS
330
4CDD
102
}
330
1F
100
AcDbEntity
  8
APL Joinery
 62
     8
100
AcDbEllipse
 10
161.9659983755264
 20
308.0242944917572
 30
0.0
 11
-0.5560430597512398
 21
0.5560430597512398
 31
0.0
210
0.0
220
0.0
230
1.0
 40
0.9999999999999172
 41
1.090696820188048
 42
3.621692160196798
  0
LINE
  5
4BC0
102
{ACAD_REACTORS
330
4CDD
102
}
330
1F
100
AcDbEntity
  8
APL Joinery
 62
     8
100
AcDbLine
 10
169.8659983755265
 20
308.2879308553934
 30
0.0
 11
169.3659983755265
 21
307.7879308553934
 31
0.0
  0
LINE
  5
4BC1
102
{ACAD_REACTORS
330
4CDD
102
}
330
1F
100
AcDbEntity
  8
APL Joinery
 62
     8
100
AcDbLine
 10
162.7159983755264
 20
317.2879308553934
 30
0.0
 11
169.3659983755265
 21
317.2879308553934
 31
0.0
  0
ELLIPSE
  5
4BC2
102
{ACAD_REACTORS
330
4CDD
102
}
330
1F
100
AcDbEntity
  8
APL Joinery
 62
     8
100
AcDbEllipse
 10
161.9659983755264
 20
317.0515672190299
 30
0.0
 11
0.5560430597512241
 21
0.5560430597512239
 31
0.0
210
0.0
220
0.0
230
1.0
 40
0.9999999999999998
 41
5.803085800572614
 42
8.334081140581455
  0
LINE
  5
4BC3
102
{ACAD_REACTORS
330
4CDD
102
}
330
1F
100
AcDbEntity
  8
APL Joinery
 62
     8
100
AcDbLine
 10
171.8659983755265
 20
309.6529308553934
 30
0.0
 11
171.8659983755265
 21
315.4229308553933
 31
0.0
  0
LINE
  5
4BC4
102
{ACAD_REACTORS
330
4CDD
102
}
330
1F
100
AcDbEntity
  8
APL Joinery
 62
     8
100
AcDbLine
 10
169.3659983755265
 20
317.2879308553934
 30
0.0
 11
169.8659983755265
 21
316.7879308553934
 31
0.0
  0
LINE
  5
4BC5
102
{ACAD_REACTORS
330
4CDD
102
}
330
1F
100
AcDbEntity
  8
APL Joinery
  6
DASHED
 62
     8
100
AcDbLine
 10
172.8659983755265
 20
310.6529308553934
 30
0.0
 11
172.8659983755265
 21
314.4229308553934
 31
0.0
  0
LINE
  5
4BC6
102
{ACAD_REACTORS
330
4CDD
102
}
330
1F
100
AcDbEntity
  8
APL Joinery
  6
DASHED
 62
     8
100
AcDbLine
 10
171.8659983755265
 20
309.6529308553934
 30
0.0
 11
172.8659983755265
 21
310.6529308553934
 31
0.0
  0
LINE
  5
4BC7
102
{ACAD_REACTORS
330
4CDD
102
}
330
1F
100
AcDbEntity
  8
APL Joinery
  6
DASHED
 62
     8
100
AcDbLine
 10
171.8659983755265
 20
315.4229308553933
 30
0.0
 11
172.8659983755265
 21
314.4229308553934
 31
0.0
  0
LINE
  5
4BC8
102
{ACAD_REACTORS
330
4CDD
102
}
330
1F
100
AcDbEntity
  8
APL Joinery
  6
DASHED
 62
     8
100
AcDbLine
 10
171.8659983755265
 20
309.6529308553934
 30
0.0
 11
169.8659983755265
 21
309.6529308553934
 31
0.0
  0
LINE
  5
4BC9
102
{ACAD_REACTORS
330
4CDD
102
}
330
1F
100
AcDbEntity
  8
APL Joinery
  6
DASHED
 62
     8
100
AcDbLine
 10
171.8659983755265
 20
315.4229308553933
 30
0.0
 11
169.8659983755265
 21
315.4229308553933
 31
0.0
  0
LINE
  5
4BCA
102
{ACAD_REACTORS
330
4CDE
102
}
330
1F
100
AcDbEntity
  8
APL Joinery
  6
DASHED
 62
     8
100
AcDbLine
 10
215.7406555920036
 20
247.0732736389159
 30
0.0
 11
215.7406555920033
 21
227.0732736389159
 31
0.0
  0
LINE
  5
4BCB
102
{ACAD_REACTORS
330
4CDE
102
}
330
1F
100
AcDbEntity
  8
APL Joinery
  6
DASHED
 62
     8
100
AcDbLine
 10
231.6206555920035
 20
247.0732736389157
 30
0.0
 11
231.6206555920033
 21
227.0732736389157
 31
0.0
  0
LINE
  5
4BCC
102
{ACAD_REACTORS
330
4CDE
102
}
330
1F
100
AcDbEntity
  8
APL Joinery
  6
DASHED
 62
     8
100
AcDbLine
 10
226.5656555920036
 20
258.7232736389158
 30
0.0
 11
226.5656555920034
 21
227.6005066859497
 31
0.0
  0
LINE
  5
4BCD
102
{ACAD_REACTORS
330
4CDE
102
}
330
1F
100
AcDbEntity
  8
APL Joinery
  6
DASHED
 62
     8
100
AcDbLine
 10
220.7956555920036
 20
258.723273638916
 30
0.0
 11
220.7956555920034
 21
227.6005066859497
 31
0.0
  0
LINE
  5
4BCE
102
{ACAD_REACTORS
330
4CDE
102
}
330
1F
100
AcDbEntity
  8
APL Joinery
  6
DASHED
 62
     8
100
AcDbLine
 10
219.3506555920032
 20
220.5732736389159
 30
0.0
 11
228.0106555920033
 21
220.5732736389157
 31
0.0
  0
ELLIPSE
  5
4BCF
102
{ACAD_REACTORS
330
4CDE
102
}
330
1F
100
AcDbEntity
  8
APL Joinery
  6
DASHED
 62
     8
100
AcDbEllipse
 10
223.6806555920033
 20
224.5275636389158
 30
0.0
 11
2.796105273778135
 21
-2.796105273778182
 31
0.0
210
0.0
220
0.0
230
-1.0
 40
0.9999999999999953
 41
-0.0323202182401021
 42
1.603116545035013
  0
LINE
  5
4BD0
102
{ACAD_REACTORS
330
4CDE
102
}
330
1F
100
AcDbEntity
  8
APL Joinery
  6
DASHED
 62
     8
100
AcDbLine
 10
215.7406555920033
 20
227.0732736389159
 30
0.0
 11
231.6206555920033
 21
227.0732736389157
 31
0.0
  0
LINE
  5
4BD1
102
{ACAD_REACTORS
330
4CDE
102
}
330
1F
100
AcDbEntity
  8
APL Joinery
  6
DASHED
 62
     8
100
AcDbLine
 10
216.6806555920033
 20
225.5732736389159
 30
0.0
 11
230.6806555920033
 21
225.5732736389157
 31
0.0
  0
LINE
  5
4BD2
102
{ACAD_REACTORS
330
4CDE
102
}
330
1F
100
AcDbEntity
  8
APL Joinery
  6
DASHED
 62
     8
100
AcDbLine
 10
220.7956555920033
 20
225.5732736389159
 30
0.0
 11
220.7956555920033
 21
221.8232736389159
 31
0.0
  0
LINE
  5
4BD3
102
{ACAD_REACTORS
330
4CDE
102
}
330
1F
100
AcDbEntity
  8
APL Joinery
  6
DASHED
 62
     8
100
AcDbLine
 10
217.9056555920033
 20
225.5732736389159
 30
0.0
 11
217.9056555920033
 21
222.2436936389158
 31
0.0
  0
LINE
  5
4BD4
102
{ACAD_REACTORS
330
4CDE
102
}
330
1F
100
AcDbEntity
  8
APL Joinery
  6
DASHED
 62
     8
100
AcDbLine
 10
216.6806555920033
 20
227.0732736389159
 30
0.0
 11
216.6806555920033
 21
225.5732736389159
 31
0.0
  0
ELLIPSE
  5
4BD5
102
{ACAD_REACTORS
330
4CDE
102
}
330
1F
100
AcDbEntity
  8
APL Joinery
  6
DASHED
 62
     8
100
AcDbEllipse
 10
219.3506555920034
 20
222.0334836389156
 30
0.0
 11
1.032524392956404
 21
1.032524392956387
 31
0.0
210
0.0
220
0.0
230
-0.9999999999999998
 40
1.0
 41
0.6409374861636104
 42
4.071451494221078
  0
LINE
  5
4BD6
102
{ACAD_REACTORS
330
4CDE
102
}
330
1F
100
AcDbEntity
  8
APL Joinery
  6
DASHED
 62
     8
100
AcDbLine
 10
226.5656555920032
 20
220.5732736389157
 30
0.0
 11
228.0106555920033
 21
220.5732736389157
 31
0.0
  0
LINE
  5
4BD7
102
{ACAD_REACTORS
330
4CDE
102
}
330
1F
100
AcDbEntity
  8
APL Joinery
  6
DASHED
 62
     8
100
AcDbLine
 10
226.5656555920033
 20
225.5732736389157
 30
0.0
 11
226.5656555920033
 21
221.8232736389157
 31
0.0
  0
LINE
  5
4BD8
102
{ACAD_REACTORS
330
4CDE
102
}
330
1F
100
AcDbEntity
  8
APL Joinery
  6
DASHED
 62
     8
100
AcDbLine
 10
229.4556555920033
 20
225.5732736389157
 30
0.0
 11
229.4556555920033
 21
221.8232736389157
 31
0.0
  0
LINE
  5
4BD9
102
{ACAD_REACTORS
330
4CDE
102
}
330
1F
100
AcDbEntity
  8
APL Joinery
  6
DASHED
 62
     8
100
AcDbLine
 10
230.6806555920033
 20
227.0732736389157
 30
0.0
 11
230.6806555920033
 21
225.5732736389157
 31
0.0
  0
ELLIPSE
  5
4BDA
102
{ACAD_REACTORS
330
4CDE
102
}
330
1F
100
AcDbEntity
  8
APL Joinery
  6
DASHED
 62
     8
100
AcDbEllipse
 10
228.0106555920033
 20
222.0334836389156
 30
0.0
 11
1.032524392956404
 21
1.032524392956387
 31
0.0
210
0.0
220
0.0
230
-0.9999999999999998
 40
1.0
 41
0.6409374861636104
 42
4.071451494221078
  0
LINE
  5
4BDB
102
{ACAD_REACTORS
330
4CDE
102
}
330
1F
100
AcDbEntity
  8
APL Joinery
 62
     8
100
AcDbLine
 10
218.3806555920035
 20
246.3232736389159
 30
0.0
 11
228.9806555920036
 21
246.3232736389159
 31
0.0
  0
LINE
  5
4BDC
102
{ACAD_REACTORS
330
4CDE
102
}
330
1F
100
AcDbEntity
  8
APL Joinery
  6
DASHED
 62
     8
100
AcDbLine
 10
231.6206555920035
 20
247.0732736389157
 30
0.0
 11
215.7406555920036
 21
247.0732736389159
 31
0.0
  0
LINE
  5
4BDD
102
{ACAD_REACTORS
330
4CDE
102
}
330
1F
100
AcDbEntity
  8
APL Joinery
 62
     8
100
AcDbLine
 10
220.7956555920036
 20
260.723273638916
 30
0.0
 11
226.5656555920036
 21
260.7232736389158
 31
0.0
  0
LINE
  5
4BDE
102
{ACAD_REACTORS
330
4CDE
102
}
330
1F
100
AcDbEntity
  8
APL Joinery
  6
DASHED
 62
     8
100
AcDbLine
 10
226.5656555920036
 20
260.7232736389158
 30
0.0
 11
225.5656555920036
 21
261.7232736389158
 31
0.0
  0
LINE
  5
4BDF
102
{ACAD_REACTORS
330
4CDE
102
}
330
1F
100
AcDbEntity
  8
APL Joinery
 62
     8
100
AcDbLine
 10
227.9306555920036
 20
258.7232736389158
 30
0.0
 11
219.4306555920036
 21
258.723273638916
 31
0.0
  0
LINE
  5
4BE0
102
{ACAD_REACTORS
330
4CDE
102
}
330
1F
100
AcDbEntity
  8
APL Joinery
 62
     8
100
AcDbLine
 10
228.9806555920036
 20
247.0732736389159
 30
0.0
 11
218.3806555920035
 21
247.0732736389159
 31
0.0
  0
LINE
  5
4BE1
102
{ACAD_REACTORS
330
4CDE
102
}
330
1F
100
AcDbEntity
  8
APL Joinery
 62
     8
100
AcDbLine
 10
218.9306555920036
 20
251.5732736389159
 30
0.0
 11
228.4306555920036
 21
251.5732736389159
 31
0.0
  0
LINE
  5
4BE2
102
{ACAD_REACTORS
330
4CDE
102
}
330
1F
100
AcDbEntity
  8
APL Joinery
 62
     8
100
AcDbLine
 10
228.4306555920036
 20
250.0732736389159
 30
0.0
 11
218.9306555920036
 21
250.0732736389159
 31
0.0
  0
LINE
  5
4BE3
102
{ACAD_REACTORS
330
4CDE
102
}
330
1F
100
AcDbEntity
  8
APL Joinery
 62
     8
100
AcDbLine
 10
218.9306555920036
 20
258.223273638916
 30
0.0
 11
218.9306555920039
 21
251.5732736389159
 31
0.0
  0
ELLIPSE
  5
4BE4
102
{ACAD_REACTORS
330
4CDE
102
}
330
1F
100
AcDbEntity
  8
APL Joinery
 62
     8
100
AcDbEllipse
 10
219.1670192283673
 20
250.8232736389159
 30
0.0
 11
0.556043059751235
 21
-0.5560430597512443
 31
0.0
210
0.0
220
0.0
230
-1.0
 40
0.9999999999999172
 41
1.090696820188048
 42
3.621692160196798
  0
LINE
  5
4BE5
102
{ACAD_REACTORS
330
4CDE
102
}
330
1F
100
AcDbEntity
  8
APL Joinery
 62
     8
100
AcDbLine
 10
218.3806555920035
 20
247.0732736389159
 30
0.0
 11
218.3806555920035
 21
246.3232736389159
 31
0.0
  0
LINE
  5
4BE6
102
{ACAD_REACTORS
330
4CDE
102
}
330
1F
100
AcDbEntity
  8
APL Joinery
  6
DASHED
 62
     8
100
AcDbLine
 10
221.7956555920036
 20
261.723273638916
 30
0.0
 11
225.5656555920036
 21
261.7232736389158
 31
0.0
  0
LINE
  5
4BE7
102
{ACAD_REACTORS
330
4CDE
102
}
330
1F
100
AcDbEntity
  8
APL Joinery
  6
DASHED
 62
     8
100
AcDbLine
 10
220.7956555920036
 20
260.723273638916
 30
0.0
 11
221.7956555920036
 21
261.723273638916
 31
0.0
  0
LINE
  5
4BE8
102
{ACAD_REACTORS
330
4CDE
102
}
330
1F
100
AcDbEntity
  8
APL Joinery
  6
DASHED
 62
     8
100
AcDbLine
 10
220.7956555920036
 20
260.723273638916
 30
0.0
 11
220.7956555920036
 21
258.723273638916
 31
0.0
  0
LINE
  5
4BE9
102
{ACAD_REACTORS
330
4CDE
102
}
330
1F
100
AcDbEntity
  8
APL Joinery
 62
     8
100
AcDbLine
 10
219.4306555920036
 20
258.723273638916
 30
0.0
 11
218.9306555920036
 21
258.223273638916
 31
0.0
  0
LINE
  5
4BEA
102
{ACAD_REACTORS
330
4CDE
102
}
330
1F
100
AcDbEntity
  8
APL Joinery
 62
     8
100
AcDbLine
 10
228.4306555920036
 20
251.5732736389159
 30
0.0
 11
228.4306555920036
 21
258.2232736389158
 31
0.0
  0
ELLIPSE
  5
4BEB
102
{ACAD_REACTORS
330
4CDE
102
}
330
1F
100
AcDbEntity
  8
APL Joinery
 62
     8
100
AcDbEllipse
 10
228.19429195564
 20
250.8232736389159
 30
0.0
 11
0.5560430597512286
 21
0.5560430597512195
 31
0.0
210
0.0
220
0.0
230
-1.0
 40
0.9999999999999998
 41
5.803085800572614
 42
8.334081140581455
  0
LINE
  5
4BEC
102
{ACAD_REACTORS
330
4CDE
102
}
330
1F
100
AcDbEntity
  8
APL Joinery
 62
     8
100
AcDbLine
 10
228.9806555920036
 20
246.3232736389159
 30
0.0
 11
228.9806555920036
 21
247.0732736389159
 31
0.0
  0
LINE
  5
4BED
102
{ACAD_REACTORS
330
4CDE
102
}
330
1F
100
AcDbEntity
  8
APL Joinery
 62
     8
100
AcDbLine
 10
228.4306555920036
 20
258.2232736389158
 30
0.0
 11
227.9306555920036
 21
258.7232736389158
 31
0.0
  0
LINE
  5
4BEE
102
{ACAD_REACTORS
330
4CDE
102
}
330
1F
100
AcDbEntity
  8
APL Joinery
  6
DASHED
 62
     8
100
AcDbLine
 10
226.5656555920036
 20
260.7232736389158
 30
0.0
 11
226.5656555920036
 21
258.7232736389158
 31
0.0
  0
LEADER
  5
4C14
330
1F
100
AcDbEntity
  8
APL Notes
 62
     8
100
AcDbLeader
  3
ISO-25
 76
     2
 10
18.5982486532896
 20
147.5158220961461
 30
0.0
 10
18.5982486532896
 20
179.5158220961461
 30
0.0
1001
ACAD
1000
DSTYLE
1002
{
1070
   147
1040
0.625
1070
    77
1070
     0
1002
}
  0
LEADER
  5
4C16
330
1F
100
AcDbEntity
  8
APL Notes
 62
     8
100
AcDbLeader
  3
ISO-25
 76
     2
 10
172.0301250128313
 20
122.7223890506216
 30
0.0
 10
172.0301250128313
 20
154.7223890506216
 30
0.0
1001
ACAD
1000
DSTYLE
1002
{
1070
   147
1040
0.625
1070
    77
1070
     0
1002
}
  0
SPLINE
  5
4C38
330
1F
100
AcDbEntity
  8
APL Notes
 62
     3
100
AcDbSpline
210
0.0
220
0.0
230
1.0
 70
     8
 71
     3
 72
    29
 73
    25
 74
    23
 42
0.0000000001
 43
0.0000000001
 44
0.0000000001
 40
0.0
 40
0.0
 40
0.0
 40
0.0
 40
26.83891013999991
 40
57.12325994605091
 40
96.48163189049222
 40
124.6354121421058
 40
149.1814084631083
 40
159.849568111446
 40
176.2981832841599
 40
197.4230861593192
 40
228.5928257659121
 40
241.5355757217773
 40
267.1088543359891
 40
287.9465995723348
 40
299.5808102293175
 40
308.9130019148655
 40
320.7133536562739
 40
340.6882563095643
 40
362.7947032696322
 40
386.0522022340714
 40
401.4901932166067
 40
431.5970138448941
 40
453.854502270403
 40
469.0739226320468
 40
469.0739226320468
 40
469.0739226320468
 40
469.0739226320468
 10
168.3585945524264
 20
51.23610838506556
 30
0.0
 10
167.2264515046535
 20
60.10883064303036
 30
0.0
 10
164.8168267741147
 20
78.99330908597045
 30
0.0
 10
160.1614257365348
 20
110.8518067461329
 30
0.0
 10
161.4831141363923
 20
143.7265661173517
 30
0.0
 10
166.4817284866082
 20
173.7986147491563
 30
0.0
 10
172.1273106086456
 20
194.7871238876643
 30
0.0
 10
168.6081783142573
 20
211.780916394334
 30
0.0
 10
157.9274357664697
 20
226.2592975137353
 30
0.0
 10
132.9409022153602
 20
224.2727311628417
 30
0.0
 10
113.1276217984999
 20
233.0514711388141
 30
0.0
 10
90.10008585855764
 20
237.8518406666714
 30
0.0
 10
70.41867815016113
 20
233.6166399098229
 30
0.0
 10
50.97378305858666
 20
232.6832812698956
 30
0.0
 10
37.1949665192813
 20
236.7703460856482
 30
0.0
 10
26.14111132862306
 20
230.9359586502466
 30
0.0
 10
25.32953533922775
 20
215.7454001366907
 30
0.0
 10
30.12339161584506
 20
198.8982480918124
 30
0.0
 10
32.53612196945292
 20
176.9525557633761
 30
0.0
 10
30.61590641468058
 20
156.6472875717552
 30
0.0
 10
23.87220251607606
 20
134.5657934610428
 30
0.0
 10
25.74383916979853
 20
111.5348575553855
 30
0.0
 10
32.15594793755045
 20
89.44652431873931
 30
0.0
 10
29.40130533162908
 20
77.08422381938986
 30
0.0
 10
28.28264146306628
 20
72.0638778510197
 30
0.0
 11
168.3585945524264
 21
51.23610838506556
 31
0.0
 11
164.8856377625911
 21
77.84936952756607
 31
0.0
 11
161.4126787240884
 21
107.9339236823502
 31
0.0
 11
162.5703332360344
 21
147.2752667980594
 31
0.0
 11
167.2009422891478
 21
175.0456251366436
 31
0.0
 11
170.6738990789831
 21
199.3446890389136
 31
0.0
 11
168.3585945524264
 21
209.7585737718905
 31
0.0
 11
157.9397219342536
 21
222.4866543210669
 31
0.0
 11
137.1019766979079
 21
225.9579501814142
 31
0.0
 11
107.0030111066676
 21
234.0576376741597
 31
0.0
 11
94.26883396193806
 21
236.3718349143915
 31
0.0
 11
68.80047967247901
 21
234.0576376741597
 31
0.0
 11
47.96273443613336
 21
234.0576376741597
 31
0.0
 11
36.38620730601451
 21
235.2147362942755
 31
0.0
 11
28.28264146306628
 21
230.5863432378451
 31
0.0
 11
25.96733468784169
 21
219.0153598847519
 31
0.0
 11
29.44029372634441
 21
199.3446890389136
 31
0.0
 11
31.75559825290111
 21
177.3598223768754
 31
0.0
 11
29.44029372634441
 21
154.2178556706899
 31
0.0
 11
25.96733468784169
 21
139.1755778812817
 31
0.0
 11
27.12498919978771
 21
109.0910223024661
 31
0.0
 11
30.59794598962298
 21
87.10615564042791
 31
0.0
 11
28.28264146306628
 21
72.0638778510197
 31
0.0
  0
INSERT
  5
4CF1
330
1F
100
AcDbEntity
  8
0
100
AcDbBlockReference
  2
a4 specifiers manual
 10
0.0
 20
0.0
 30
0.0
  0
TEXT
  5
4CF2
330
1F
100
AcDbEntity
  8
APL Notes
100
AcDbText
 10
16.28638264477968
 20
141.0012128053122
 30
0.0
 40
5.0
  1
A
  7
Arial-Bold
100
AcDbText
  0
TEXT
  5
4CF3
330
1F
100
AcDbEntity
  8
APL Notes
100
AcDbText
 10
169.8281506034714
 20
115.8138189682067
 30
0.0
 40
5.0
  1
A
  7
Arial-Bold
100
AcDbText
  0
LWPOLYLINE
  5
4F2F
330
1F
100
AcDbEntity
  8
APL Notes
100
AcDbPolyline
 90
        4
 70
     1
 43
0.3
 10
141.7274739670754
 20
254.4854651382157
 10
141.7274739670754
 20
265.4854651382156
 10
90.72747396707546
 20
265.4854651382156
 10
90.72747396707546
 20
254.4854651382157
  0
TEXT
  5
4F30
330
1F
100
AcDbEntity
  8
APL Notes
100
AcDbText
 10
93.72747396707547
 20
257.4854651382157
 30
0.0
 40
5.0
  1
SECTION A-A
  7
Arial-Bold
100
AcDbText
  0
TEXT
  5
4F87
330
1F
100
AcDbEntity
  8
APL Notes
100
AcDbText
 10
64.6521186374994
 20
438.5379308553934
 30
0.0
 40
5.0
  1
Mullion
  7
Arial-Regular
 72
     1
 11
75.71623869206965
 21
438.5379308553934
 31
0.0
100
AcDbText
  0
TEXT
  5
4F88
330
1F
100
AcDbEntity
  8
APL Notes
100
AcDbText
 10
13.20443787351572
 20
338.5379308553934
 30
0.0
 40
5.0
  1
08660
  7
Arial-Bold
 72
     1
 11
22.91623869206961
 21
338.5379308553934
 31
0.0
100
AcDbText
  0
TEXT
  5
4F8A
330
1F
100
AcDbEntity
  8
APL Notes
100
AcDbText
 10
113.2041975569727
 20
338.5379308553934
 30
0.0
 40
5.0
  1
08660
  7
Arial-Bold
 72
     1
 11
122.9159983755265
 21
338.5379308553934
 31
0.0
100
AcDbText
  0
TEXT
  5
4F8C
330
1F
100
AcDbEntity
  8
APL Notes
100
AcDbText
 10
89.44222777801755
 20
338.5379308553934
 30
0.0
 40
5.0
  1
08660
  7
Arial-Bold
 72
     1
 11
99.15402859657143
 21
338.5379308553934
 31
0.0
100
AcDbText
  0
TEXT
  5
4F8D
330
1F
100
AcDbEntity
  8
APL Notes
100
AcDbText
 10
168.1684111193454
 20
348.5379308553936
 30
0.0
 40
5.0
  1
08482
  7
Arial-Bold
 72
     1
 11
177.8802119378993
 21
348.5379308553936
 31
0.0
100
AcDbText
  0
TEXT
  5
4F91
330
1F
100
AcDbEntity
  8
APL Notes
100
AcDbText
 10
259.606871340786
 20
264.3112714525068
 30
0.0
 40
5.0
  1
08482
  7
Arial-Bold
100
AcDbText
  0
TEXT
  5
4F92
330
1F
100
AcDbEntity
  8
APL Notes
100
AcDbText
 10
249.606871340786
 20
211.6470578901336
 30
0.0
 40
5.0
  1
08660
  7
Arial-Bold
100
AcDbText
  0
TEXT
  5
4F95
330
1F
100
AcDbEntity
  8
APL Notes
100
AcDbText
 10
249.606871340786
 20
188.5472982066769
 30
0.0
 40
5.0
  1
08660
  7
Arial-Bold
100
AcDbText
  0
TEXT
  5
4F96
330
1F
100
AcDbEntity
  8
APL Notes
100
AcDbText
 10
249.606871340786
 20
116.647298206677
 30
0.0
 40
5.0
  1
08660
  7
Arial-Bold
100
AcDbText
  0
TEXT
  5
4F98
330
1F
100
AcDbEntity
  8
APL Notes
100
AcDbText
 10
289.8950705222322
 20
182.6472982066769
 30
0.0
 40
5.0
  1
08481
  7
Arial-Bold
 72
     1
 11
299.6068713407861
 21
182.6472982066769
 31
0.0
100
AcDbText
  0
TEXT
  5
4F9B
330
1F
100
AcDbEntity
  8
APL Notes
100
AcDbText
 10
66.00443787351577
 20
445.5379308553934
 30
0.0
 40
5.0
  1
08481
  7
Arial-Bold
 72
     1
 11
75.71623869206965
 21
445.5379308553934
 31
0.0
100
AcDbText
  0
TEXT
  5
4FA2
330
1F
100
AcDbEntity
  8
APL Notes
100
AcDbText
 10
247.9304416831904
 20
394.6039480333702
 30
0.0
 40
5.0
  1
150 x 50 Box
  7
Arial-Regular
 72
     1
 11
268.3175494594522
 21
394.6039480333702
 31
0.0
100
AcDbText
  0
TEXT
  5
4FA3
330
1F
100
AcDbEntity
  8
APL Notes
100
AcDbText
 10
258.6057486408984
 20
401.6039480333701
 30
0.0
 40
5.0
  1
01284
  7
Arial-Bold
 72
     1
 11
268.3175494594522
 21
401.6039480333701
 31
0.0
100
AcDbText
  0
INSERT
  5
50D4
330
1F
100
AcDbEntity
  8
APL Joinery
100
AcDbBlockReference
  2
9010640-4.0mm
 10
34.71623869206962
 20
292.5379308553934
 30
0.0
 50
90.0
  0
INSERT
  5
50D5
330
1F
100
AcDbEntity
  8
APL Joinery
100
AcDbBlockReference
  2
08660
 10
-51.71623869206962
 20
296.5379308553934
 30
0.0
 43
-1.0
 50
270.0
210
0.0
220
0.0
230
-1.0
  0
INSERT
  5
50D6
330
1F
100
AcDbEntity
  8
APL Joinery
100
AcDbBlockReference
  2
9010313
 10
38.76623869206958
 20
343.0379308553938
 30
0.0
 43
2.0
 50
270.0
  0
INSERT
  5
50D8
330
1F
100
AcDbEntity
  8
APL Joinery
 48
3.0
100
AcDbBlockReference
  2
6Glass
 10
21.71635885034135
 20
316.0379286011587
 30
0.0
 50
270.0
  0
INSERT
  5
50D9
330
1F
100
AcDbEntity
  8
APL Joinery
100
AcDbBlockReference
  2
9010312r
 10
-20.71623869206963
 20
318.8379308553936
 30
0.0
 43
-2.0
 50
270.0
210
0.0
220
0.0
230
-1.0
  0
INSERT
  5
50DA
330
1F
100
AcDbEntity
  8
APL Joinery
 48
3.0
100
AcDbBlockReference
  2
9010240l
 10
-20.71623869206996
 20
334.2379308553936
 30
0.0
 43
-1.0
 50
270.0
210
0.0
220
0.0
230
-1.0
  0
INSERT
  5
50DB
330
1F
100
AcDbEntity
  8
APL Joinery
100
AcDbBlockReference
  2
08660
 10
69.71623869206968
 20
296.5379308553934
 30
0.0
 50
270.0
  0
INSERT
  5
50DC
330
1F
100
AcDbEntity
  8
APL Joinery
100
AcDbBlockReference
  2
9010313
 10
82.66623869206972
 20
343.0379308553938
 30
0.0
 41
-1.0
 43
2.0
 50
90.0
  0
INSERT
  5
50DE
330
1F
100
AcDbEntity
  8
APL Joinery
 48
3.0
100
AcDbBlockReference
  2
6Glass
 10
99.71611853379796
 20
316.0379286011587
 30
0.0
 41
-1.0
 50
90.0
  0
INSERT
  5
50DF
330
1F
100
AcDbEntity
  8
APL Joinery
100
AcDbBlockReference
  2
9010312r
 10
100.7162386920697
 20
318.8379308553936
 30
0.0
 43
2.0
 50
270.0
  0
INSERT
  5
50E0
330
1F
100
AcDbEntity
  8
APL Joinery
 48
3.0
100
AcDbBlockReference
  2
9010240l
 10
100.7162386920693
 20
334.2379308553936
 30
0.0
 50
270.0
  0
INSERT
  5
50E1
330
1F
100
AcDbEntity
  8
APL Joinery
100
AcDbBlockReference
  2
9010640-4.0mm
 10
86.71623869206939
 20
292.5379308553934
 30
0.0
 41
-1.0
 50
270.0
  0
INSERT
  5
50E2
330
1F
100
AcDbEntity
  8
APL Joinery
100
AcDbBlockReference
  2
08660
 10
-151.7159983755265
 20
296.5379308553934
 30
0.0
 43
-1.0
 50
270.0
210
0.0
220
0.0
230
-1.0
  0
INSERT
  5
50E3
330
1F
100
AcDbEntity
  8
APL Joinery
100
AcDbBlockReference
  2
9010313
 10
138.7659983755265
 20
343.0379308553938
 30
0.0
 43
2.0
 50
270.0
  0
INSERT
  5
50E5
330
1F
100
AcDbEntity
  8
APL Joinery
 48
3.0
100
AcDbBlockReference
  2
6Glass
 10
121.7161185337983
 20
316.0379286011587
 30
0.0
 50
270.0
  0
INSERT
  5
50E6
330
1F
100
AcDbEntity
  8
APL Joinery
100
AcDbBlockReference
  2
9010312r
 10
-120.7159983755266
 20
318.8379308553936
 30
0.0
 43
-2.0
 50
270.0
210
0.0
220
0.0
230
-1.0
  0
INSERT
  5
50E7
330
1F
100
AcDbEntity
  8
APL Joinery
 48
3.0
100
AcDbBlockReference
  2
9010240l
 10
-120.7159983755269
 20
334.2379308553936
 30
0.0
 43
-1.0
 50
270.0
210
0.0
220
0.0
230
-1.0
  0
INSERT
  5
50E8
330
1F
100
AcDbEntity
  8
APL Joinery
100
AcDbBlockReference
  2
9010640-4.0mm
 10
134.7066624785131
 20
292.5379308553934
 30
0.0
 50
90.0
  0
INSERT
  5
50E9
330
1F
100
AcDbEntity
  8
APL Joinery
100
AcDbBlockReference
  2
08660
 10
207.606871340786
 20
240.6470578901336
 30
0.0
 50
180.0
  0
INSERT
  5
50EA
330
1F
100
AcDbEntity
  8
APL Joinery
100
AcDbBlockReference
  2
9010313
 10
254.1068713407864
 20
227.6970578901336
 30
0.0
 41
-1.0
 43
2.0
  0
INSERT
  5
50EC
330
1F
100
AcDbEntity
  8
APL Joinery
 48
3.0
100
AcDbBlockReference
  2
6Glass
 10
227.1068690865513
 20
210.6471780484053
 30
0.0
 41
-1.0
  0
INSERT
  5
50ED
330
1F
100
AcDbEntity
  8
APL Joinery
100
AcDbBlockReference
  2
9010312r
 10
229.9068713407862
 20
209.6470578901336
 30
0.0
 43
2.0
 50
180.0
  0
INSERT
  5
50EE
330
1F
100
AcDbEntity
  8
APL Joinery
 48
3.0
100
AcDbBlockReference
  2
9010240l
 10
245.3068713407863
 20
209.647057890134
 30
0.0
 50
180.0
  0
INSERT
  5
50EF
330
1F
100
AcDbEntity
  8
APL Joinery
100
AcDbBlockReference
  2
9010640-4.0mm
 10
203.6068713407859
 20
223.6377219931206
 30
0.0
 41
-1.0
 50
180.0
  0
INSERT
  5
50F0
330
1F
100
AcDbEntity
  8
APL Joinery
100
AcDbBlockReference
  2
08660
 10
-207.6068713407859
 20
163.6472982066768
 30
0.0
 43
-1.0
210
0.0
220
0.0
230
-1.0
  0
INSERT
  5
50F1
330
1F
100
AcDbEntity
  8
APL Joinery
100
AcDbBlockReference
  2
9010313
 10
254.1068713407864
 20
176.5972982066769
 30
0.0
 43
2.0
 50
180.0
  0
INSERT
  5
50F3
330
1F
100
AcDbEntity
  8
APL Joinery
 48
3.0
100
AcDbBlockReference
  2
6Glass
 10
227.1068690865512
 20
193.6471780484051
 30
0.0
 50
180.0
  0
INSERT
  5
50F4
330
1F
100
AcDbEntity
  8
APL Joinery
100
AcDbBlockReference
  2
9010312r
 10
-229.9068713407861
 20
194.6472982066768
 30
0.0
 43
-2.0
210
0.0
220
0.0
230
-1.0
  0
INSERT
  5
50F5
330
1F
100
AcDbEntity
  8
APL Joinery
 48
3.0
100
AcDbBlockReference
  2
9010240l
 10
-245.3068713407862
 20
194.6472982066765
 30
0.0
 43
-1.0
210
0.0
220
0.0
230
-1.0
  0
INSERT
  5
50F6
330
1F
100
AcDbEntity
  8
APL Joinery
100
AcDbBlockReference
  2
9010640-4.0mm
 10
203.6068713407859
 20
180.6971631257669
 30
0.0
  0
INSERT
  5
50F7
330
1F
100
AcDbEntity
  8
APL Joinery
100
AcDbBlockReference
  2
08660
 10
207.6068713407859
 20
145.647298206677
 30
0.0
 50
180.0
  0
INSERT
  5
50F8
330
1F
100
AcDbEntity
  8
APL Joinery
100
AcDbBlockReference
  2
9010313
 10
254.1068713407864
 20
132.697298206677
 30
0.0
 41
-1.0
 43
2.0
  0
INSERT
  5
50FA
330
1F
100
AcDbEntity
  8
APL Joinery
 48
3.0
100
AcDbBlockReference
  2
6Glass
 10
227.1068690865512
 20
115.6474183649488
 30
0.0
 41
-1.0
  0
INSERT
  5
50FB
330
1F
100
AcDbEntity
  8
APL Joinery
100
AcDbBlockReference
  2
9010312r
 10
229.9068713407861
 20
114.647298206677
 30
0.0
 43
2.0
 50
180.0
  0
INSERT
  5
50FC
330
1F
100
AcDbEntity
  8
APL Joinery
 48
3.0
100
AcDbBlockReference
  2
9010240l
 10
245.3068713407862
 20
114.6472982066774
 30
0.0
 50
180.0
  0
INSERT
  5
50FD
330
1F
100
AcDbEntity
  8
APL Joinery
100
AcDbBlockReference
  2
9010640-4.0mm
 10
203.6068713407859
 20
128.5974332875871
 30
0.0
 41
-1.0
 50
180.0
  0
LWPOLYLINE
  5
53E5
330
1F
100
AcDbEntity
  8
APL Notes
 62
     2
100
AcDbPolyline
 90
        2
 70
     0
 43
0.0
 10
151.3858181200321
 20
192.0406932410751
 10
169.4778166160567
 20
185.4557443101334
  0
LWPOLYLINE
  5
53E8
330
1F
100
AcDbEntity
  8
APL Notes
 62
     2
100
AcDbPolyline
 90
        2
 70
     0
 43
0.0
 10
53.38581812003212
 20
209.8752347201189
 10
27.20175581267563
 20
209.8752347201189
  0
LWPOLYLINE
  5
53E9
330
1F
100
AcDbEntity
  8
APL Notes
 62
     2
100
AcDbPolyline
 90
        2
 70
     0
 43
0.0
 10
153.3858181200321
 20
191.3127527725428
 10
153.3858181200321
 20
224.2533625428105
  0
LWPOLYLINE
  5
53EA
330
1F
100
AcDbEntity
  8
APL Notes
 62
     2
100
AcDbPolyline
 90
        2
 70
     0
 43
0.0
 10
147.3858181200325
 20
193.4965741781398
 10
147.3858181200325
 20
225.2197114549244
  0
LWPOLYLINE
  5
53EB
330
1F
100
AcDbEntity
  8
APL Notes
 62
     2
100
AcDbPolyline
 90
        2
 70
     0
 43
0.0
 10
105.3858181200321
 20
208.7833240173204
 10
105.3858181200321
 20
234.4850733141679
  0
LWPOLYLINE
  5
53EC
330
1F
100
AcDbEntity
  8
APL Notes
 62
     2
100
AcDbPolyline
 90
        2
 70
     0
 43
0.0
 10
99.38581812003235
 20
209.8752347201189
 10
99.38581812003235
 20
235.7662996189219
  0
LWPOLYLINE
  5
53ED
330
1F
100
AcDbEntity
  8
APL Notes
 62
     2
100
AcDbPolyline
 90
        2
 70
     0
 43
0.0
 10
57.38581812003213
 20
209.8752347201189
 10
57.38581812003213
 20
233.2878796295418
  0
LWPOLYLINE
  5
53EE
330
1F
100
AcDbEntity
  8
APL Notes
 62
     2
100
AcDbPolyline
 90
        2
 70
     0
 43
0.0
 10
51.38581812003235
 20
209.8752347201189
 10
51.38581812003235
 20
233.5899644242518
  0
LWPOLYLINE
  5
53EF
330
1F
100
AcDbEntity
  8
APL Notes
 62
     2
100
AcDbPolyline
 90
        3
 70
     0
 43
0.0
 10
166.5897848083296
 20
65.01457614454193
 10
101.0331641586153
 20
88.8752347201189
 10
30.58360598806735
 20
88.8752347201189
  0
LWPOLYLINE
  5
53F1
330
1F
100
AcDbEntity
  8
APL Notes
 62
     8
100
AcDbPolyline
 90
        3
 70
     0
 43
0.0
 10
92.38581812003236
 20
179.5158220961466
 10
102.3858181200323
 20
179.5158220961466
 10
111.3656939937505
 20
176.2474145707078
  0
LWPOLYLINE
  5
53F2
330
1F
100
AcDbEntity
  8
APL Notes
 62
     2
100
AcDbPolyline
 90
        2
 70
     0
 43
0.0
 10
153.3858181200321
 20
131.9487825382762
 10
153.3858181200321
 20
73.94878253827664
  0
LWPOLYLINE
  5
53F3
330
1F
100
AcDbEntity
  8
APL Notes
 62
     2
100
AcDbPolyline
 90
        2
 70
     0
 43
0.0
 10
151.3858181200321
 20
132.6767230068089
 10
161.1776590578711
 20
129.1127843667664
  0
LWPOLYLINE
  5
53F4
330
1F
100
AcDbEntity
  8
APL Notes
 62
     2
100
AcDbPolyline
 90
        2
 70
     0
 43
0.0
 10
151.3858181200321
 20
134.6767230068089
 10
161.2623229731798
 20
131.0819692216773
  0
LWPOLYLINE
  5
53F5
330
1F
100
AcDbEntity
  8
APL Notes
 62
     2
100
AcDbPolyline
 90
        2
 70
     0
 43
0.0
 10
151.3858181200321
 20
189.7188238615085
 10
169.0409643577663
 20
183.2928761493563
  0
LWPOLYLINE
  5
53F6
330
1F
100
AcDbEntity
  8
APL Notes
 62
     2
100
AcDbPolyline
 90
        2
 70
     0
 43
0.0
 10
153.3858181200321
 20
133.9487825382762
 10
153.3858181200321
 20
188.9908833929762
  0
LWPOLYLINE
  5
53F7
330
1F
100
AcDbEntity
  8
APL Notes
 62
     2
100
AcDbPolyline
 90
        2
 70
     0
 43
0.0
 10
151.3858181200321
 20
74.67672300680897
 10
151.3858181200321
 20
224.6929156548863
  0
LWPOLYLINE
  5
53F8
330
1F
100
AcDbEntity
  8
APL Notes
 62
     8
100
AcDbPolyline
 90
        2
 70
     0
 43
0.0
 10
172.0301250128313
 20
154.7223890506216
 10
132.9785858694717
 20
168.9359869010859
  0
LWPOLYLINE
  5
53F9
330
1F
100
AcDbEntity
  8
APL Notes
 62
     2
100
AcDbPolyline
 90
        3
 70
     0
 43
0.0
 10
166.298589387301
 20
67.24891815510318
 10
101.3858181200321
 20
90.8752347201189
 10
30.4740050811688
 20
90.8752347201189
  0
LWPOLYLINE
  5
53FA
330
1F
100
AcDbEntity
  8
APL Notes
 62
     2
100
AcDbPolyline
 90
        3
 70
     0
 43
0.0
 10
166.0230809791387
 20
69.34919501496415
 10
101.3858181200321
 20
92.87523472011935
 10
30.27774034020377
 20
92.87523472011889
  0
LWPOLYLINE
  5
53FB
330
1F
100
AcDbEntity
  8
APL Notes
 62
     2
100
AcDbPolyline
 90
        2
 70
     0
 43
0.0
 10
147.3858181200325
 20
136.1326039438736
 10
147.3858181200325
 20
191.1747047985732
  0
LWPOLYLINE
  5
53FC
330
1F
100
AcDbEntity
  8
APL Notes
 62
     2
100
AcDbPolyline
 90
        2
 70
     0
 43
0.0
 10
149.3858181200321
 20
133.4046634753413
 10
103.3858181200326
 20
150.1472942515865
  0
LWPOLYLINE
  5
53FD
330
1F
100
AcDbEntity
  8
APL Notes
 62
     2
100
AcDbPolyline
 90
        2
 70
     0
 43
0.0
 10
149.3858181200321
 20
75.40466347534129
 10
149.3858181200321
 20
225.0024632558971
  0
LWPOLYLINE
  5
53FE
330
1F
100
AcDbEntity
  8
APL Notes
 62
     2
100
AcDbPolyline
 90
        2
 70
     0
 43
0.0
 10
149.3858181200321
 20
135.4046634753413
 10
103.3858181200326
 20
152.1472942515865
  0
LWPOLYLINE
  5
53FF
330
1F
100
AcDbEntity
  8
APL Notes
 62
     2
100
AcDbPolyline
 90
        2
 70
     0
 43
0.0
 10
149.3858181200321
 20
190.4467643300409
 10
103.3858181200326
 20
207.1893951062862
  0
LWPOLYLINE
  5
5400
330
1F
100
AcDbEntity
  8
APL Notes
 62
     2
100
AcDbPolyline
 90
        2
 70
     0
 43
0.0
 10
149.3858181200321
 20
192.7686337096074
 10
103.3858181200326
 20
209.5112644858527
  0
LWPOLYLINE
  5
5402
330
1F
100
AcDbEntity
  8
APL Notes
 62
     8
100
AcDbPolyline
 90
        2
 70
     0
 43
0.0
 10
73.57959568589558
 20
179.5158220961461
 10
18.5982486532896
 20
179.5158220961461
  0
LWPOLYLINE
  5
5403
330
1F
100
AcDbEntity
  8
APL Notes
 62
     2
100
AcDbPolyline
 90
        2
 70
     0
 43
0.0
 10
105.3858181200326
 20
149.4193537830542
 10
105.3858181200321
 20
91.41935378305424
  0
LWPOLYLINE
  5
5404
330
1F
100
AcDbEntity
  8
APL Notes
 62
     2
100
AcDbPolyline
 90
        2
 70
     0
 43
0.0
 10
105.3858181200321
 20
206.4614546377538
 10
105.3858181200326
 20
151.4193537830542
  0
LWPOLYLINE
  5
5405
330
1F
100
AcDbEntity
  8
APL Notes
 62
     2
100
AcDbPolyline
 90
        2
 70
     0
 43
0.0
 10
99.38581812003235
 20
207.8752347201194
 10
99.38581812003214
 20
152.8752347201189
  0
LWPOLYLINE
  5
5406
330
1F
100
AcDbEntity
  8
APL Notes
 62
     2
100
AcDbPolyline
 90
        2
 70
     0
 43
0.0
 10
99.38581812003235
 20
150.8752347201189
 10
99.38581812003235
 20
92.87523472011889
  0
LWPOLYLINE
  5
5407
330
1F
100
AcDbEntity
  8
APL Notes
 62
     2
100
AcDbPolyline
 90
        2
 70
     0
 43
0.0
 10
57.38581812003213
 20
150.8752347201189
 10
57.38581812003213
 20
92.87523472011889
  0
LWPOLYLINE
  5
5408
330
1F
100
AcDbEntity
  8
APL Notes
 62
     2
100
AcDbPolyline
 90
        2
 70
     0
 43
0.0
 10
147.3858181200325
 20
134.1326039438736
 10
147.3858181200321
 20
76.13260394387407
  0
LWPOLYLINE
  5
5409
330
1F
100
AcDbEntity
  8
APL Notes
 62
     2
100
AcDbPolyline
 90
        2
 70
     0
 43
0.0
 10
57.38581812003213
 20
207.8752347201189
 10
57.38581812003213
 20
152.8752347201189
  0
LWPOLYLINE
  5
540A
330
1F
100
AcDbEntity
  8
APL Notes
 62
     2
100
AcDbPolyline
 90
        2
 70
     0
 43
0.0
 10
51.38581812003235
 20
150.8752347201189
 10
51.38581812003235
 20
92.87523472011889
  0
LWPOLYLINE
  5
540B
330
1F
100
AcDbEntity
  8
APL Notes
 62
     2
100
AcDbPolyline
 90
        2
 70
     0
 43
0.0
 10
51.38581812003235
 20
207.8752347201189
 10
51.38581812003235
 20
152.8752347201189
  0
LWPOLYLINE
  5
540E
330
1F
100
AcDbEntity
  8
APL Notes
 62
     2
100
AcDbPolyline
 90
        2
 70
     0
 43
0.0
 10
27.60820983151325
 20
207.8752347201189
 10
53.38581812003235
 20
207.8752347201189
  0
LWPOLYLINE
  5
540F
330
1F
100
AcDbEntity
  8
APL Notes
 62
     2
100
AcDbPolyline
 90
        2
 70
     0
 43
0.0
 10
29.13653614901614
 20
152.8752347201189
 10
53.38581812003235
 20
152.8752347201189
  0
LWPOLYLINE
  5
5410
330
1F
100
AcDbEntity
  8
APL Notes
 62
     2
100
AcDbPolyline
 90
        2
 70
     0
 43
0.0
 10
28.65637992326356
 20
150.8752347201189
 10
53.38581812003235
 20
150.8752347201189
  0
LWPOLYLINE
  5
5411
330
1F
100
AcDbEntity
  8
APL Notes
 62
     2
100
AcDbPolyline
 90
        2
 70
     0
 43
0.0
 10
55.38581812003235
 20
152.8752347201189
 10
101.3858181200323
 20
152.8752347201189
  0
LWPOLYLINE
  5
5412
330
1F
100
AcDbEntity
  8
APL Notes
 62
     2
100
AcDbPolyline
 90
        2
 70
     0
 43
0.0
 10
55.38581812003235
 20
150.8752347201189
 10
101.3858181200323
 20
150.8752347201189
  0
LWPOLYLINE
  5
5413
330
1F
100
AcDbEntity
  8
APL Notes
 62
     2
100
AcDbPolyline
 90
        2
 70
     0
 43
0.0
 10
55.38581812003235
 20
207.8752347201189
 10
101.3858181200323
 20
207.8752347201194
  0
LWPOLYLINE
  5
5414
330
1F
100
AcDbEntity
  8
APL Notes
 62
     2
100
AcDbPolyline
 90
        2
 70
     0
 43
0.0
 10
55.38581812003212
 20
209.8752347201189
 10
101.3858181200323
 20
209.8752347201189
  0
LWPOLYLINE
  5
5415
330
1F
100
AcDbEntity
  8
APL Notes
 62
     2
100
AcDbPolyline
 90
        2
 70
     0
 43
0.0
 10
103.3858181200326
 20
234.9697348970003
 10
103.3858181200326
 20
92.14729425158656
  0
LWPOLYLINE
  5
5416
330
1F
100
AcDbEntity
  8
APL Notes
 62
     2
100
AcDbPolyline
 90
        2
 70
     0
 43
0.0
 10
53.38581812003212
 20
233.4211787013601
 10
53.38581812003212
 20
92.87523472011889
  0
LWPOLYLINE
  5
5417
330
1F
100
AcDbEntity
  8
APL Notes
 62
     2
100
AcDbPolyline
 90
        2
 70
     0
 43
0.0
 10
55.38581812003212
 20
233.3223474744641
 10
55.38581812003212
 20
92.87523472011889
  0
LWPOLYLINE
  5
5418
330
1F
100
AcDbEntity
  8
APL Notes
 62
     2
100
AcDbPolyline
 90
        2
 70
     0
 43
0.0
 10
101.3858181200323
 20
235.3991721992275
 10
101.3858181200321
 20
92.87523472011935
  0
LWPOLYLINE
  5
5721
330
1F
100
AcDbEntity
  8
APL Joinery
 62
     9
100
AcDbPolyline
 90
        3
 70
     0
 43
0.0
 10
347.606871340786
 20
92.27053810533471
 10
347.606871340786
 20
436.5379308553934
 10
6.861514921974048
 20
436.5379308553934
  0
VIEWPORT
  5
4ED8
102
{ACAD_XDICTIONARY
360
57DF
102
}
330
4ED0
100
AcDbEntity
 67
     1
  8
0
100
AcDbViewport
 10
99.91724491119384
 20
143.1184201240539
 30
0.0
 40
430.1964563810208
 41
299.4231128286808
 68
     1
 69
     1
 12
99.91724491119384
 22
143.1184201240539
 13
0.0
 23
0.0
 14
10.0
 24
10.0
 15
10.0
 25
10.0
 16
0.0
 26
0.0
 36
1.0
 17
0.0
 27
0.0
 37
0.0
 42
50.0
 43
0.0
 44
0.0
 45
299.4231128286808
 50
0.0
 51
0.0
 72
 20000
 90
    32800
  1

281
     0
 71
     1
 74
     0
110
0.0
120
0.0
130
0.0
111
1.0
121
0.0
131
0.0
112
0.0
122
1.0
132
0.0
 79
     0
146
0.0
  0
VIEWPORT
  5
4EDA
102
{ACAD_XDICTIONARY
360
57E1
102
}
330
4ED0
100
AcDbEntity
 67
     1
  8
0
100
AcDbViewport
 10
100.595
 20
131.1899999999999
 30
0.0
 40
178.0
 41
241.9999999999999
 68
     2
 69
     2
 12
176.9915833720972
 22
241.0000022999994
 13
0.0
 23
0.0
 14
10.0
 24
10.0
 15
2.0
 25
2.0
 16
0.0
 26
0.0
 36
1.0
 17
0.0
 27
0.0
 37
0.0
 42
50.0
 43
0.0
 44
0.0
 45
483.9999999999998
 50
0.0
 51
0.0
 72
   100
 90
    32864
  1

281
     0
 71
     1
 74
     0
110
0.0
120
0.0
130
0.0
111
1.0
121
0.0
131
0.0
112
0.0
122
1.0
132
0.0
 79
     0
146
0.0
  0
INSERT
  5
4EDF
330
4ED0
100
AcDbEntity
 67
     1
  8
APL Border
100
AcDbBlockReference
  2
vantage a4 SM border
 10
0.0
 20
0.0
 30
0.0
  0
INSERT
  5
5665
330
4ED0
100
AcDbEntity
 67
     1
  8
APL Border
100
AcDbBlockReference
 66
     1
  2
vantage a4 SM attributes (4)
 10
0.0
 20
0.0
 30
0.0
  0
ATTRIB
  5
5667
330
5665
100
AcDbEntity
 67
     1
  8
APL Border
100
AcDbText
 10
41.78979785863009
 20
276.19
 30
0.0
 40
3.5
  1
40MM WINDOW SERIES
  7
Arial-Bold
100
AcDbAttribute
  2
DRAWINGTITLE_1
 70
     0
1001
AcDbBlockRepETag
1070
     1
1071
        0
1005
0
  0
ATTRIB
  5
5668
330
5665
100
AcDbEntity
 67
     1
  8
APL Border
100
AcDbText
 10
41.78979785863009
 20
270.19
 30
0.0
 40
3.5
  1
CURTAIN WALL
  7
Arial-Bold
100
AcDbAttribute
  2
DRAWINGTITLE_2
 70
     0
1001
AcDbBlockRepETag
1070
     1
1071
        1
1005
0
  0
ATTRIB
  5
5669
330
5665
100
AcDbEntity
 67
     1
  8
APL Border
100
AcDbText
 10
41.78979785863009
 20
264.19
 30
0.0
 40
3.5
  1
INTERNAL CORNER
  7
Arial-Bold
100
AcDbAttribute
  2
DRAWINGTITLE_3
 70
     0
1001
AcDbBlockRepETag
1070
     1
1071
        2
1005
0
  0
ATTRIB
  5
566A
330
5665
100
AcDbEntity
 67
     1
  8
APL Border
100
AcDbText
 10
41.78979785863009
 20
258.19
 30
0.0
 40
3.0
  1
CROSS SECTION
  7
Arial-Regular
100
AcDbAttribute
  2
DRAWINGTITLE_4
 70
     0
1001
AcDbBlockRepETag
1070
     1
1071
        3
1005
0
  0
ATTRIB
  5
566B
330
5665
100
AcDbEntity
 67
     1
  8
APL Border
100
AcDbText
 10
165.845
 20
273.69
 30
0.0
 40
2.5
  1
VC4012-0
  7
Arial-Regular
100
AcDbAttribute
  2
AW12-0
 70
     0
1001
AcDbBlockRepETag
1070
     1
1071
        4
1005
0
  0
ATTRIB
  5
566C
330
5665
100
AcDbEntity
 67
     1
  8
APL Border
100
AcDbText
 10
147.5475920873124
 20
257.1899999999999
 30
0.0
 40
2.5
  1
01.06.11
  7
Arial-Regular
 72
     1
 11
154.345
 21
257.1899999999999
 31
0.0
100
AcDbAttribute
  2
25.07.08
 70
     0
1001
AcDbBlockRepETag
1070
     1
1071
        5
1005
0
  0
ATTRIB
  5
566D
330
5665
100
AcDbEntity
 67
     1
  8
APL Border
100
AcDbText
 10
175.4174761255116
 20
257.1899999999999
 30
0.0
 40
2.5
  1
1:2
  7
Arial-Regular
 72
     1
 11
177.845
 21
257.1899999999999
 31
0.0
100
AcDbAttribute
  2
1:2
 70
     0
1001
AcDbBlockRepETag
1070
     1
1071
        6
1005
0
  0
ATTRIB
  5
566E
330
5665
100
AcDbEntity
 67
     1
  8
APL Border
100
AcDbText
 10
189.595
 20
1.189999999999997
 30
0.0
 40
3.75
  1

  7
Arial-Bold
 72
     2
 11
189.595
 21
1.189999999999997
 31
0.0
100
AcDbAttribute
  2
1.2.34
 70
     0
1001
AcDbBlockRepETag
1070
     1
1071
        7
1005
0
  0
ATTRIB
  5
566F
330
5665
100
AcDbEntity
 67
     1
  8
APL Border
100
AcDbText
 10
11.59500000000003
 20
1.189999999999997
 30
0.0
 40
3.75
  1

  7
Arial-Bold
100
AcDbAttribute
  2
1.2.34
 70
     0
1001
AcDbBlockRepETag
1070
     1
1071
        8
1005
0
  0
SEQEND
  5
5666
330
5665
100
AcDbEntity
 67
     1
  8
APL Border
  0
ENDSEC
  0
SECTION
  2
OBJECTS
  0
DICTIONARY
  5
C
330
0
100
AcDbDictionary
281
     1
  3
ACAD_COLOR
350
514B
  3
ACAD_GROUP
350
D
  3
ACAD_LAYOUT
350
1A
  3
ACAD_MATERIAL
350
5121
  3
ACAD_MLEADERSTYLE
350
5170
  3
ACAD_MLINESTYLE
350
17
  3
ACAD_PLOTSETTINGS
350
19
  3
ACAD_PLOTSTYLENAME
350
E
  3
ACAD_SCALELIST
350
514E
  3
ACAD_TABLESTYLE
350
514C
  3
ACAD_VISUALSTYLE
350
513A
  3
AcadDim
350
86
  3
ACDB_RECOMPOSE_DATA
350
52E4
  3
ACDBHEADERROUNDTRIPXREC
350
5C75
  3
AcDbVariableDictionary
350
3B
  3
AEC_PROPERTY_SET_DEFS
350
54FE
  3
DWGPROPS
350
5C74
  0
DICTIONARY
  5
52E6
330
8
100
AcDbDictionary
280
     1
281
     1
  3
ACAD_XREC_ROUNDTRIP
360
57D1
  0
DICTIONARY
  5
5190
330
2
100
AcDbDictionary
280
     1
281
     1
  3
ACAD_LAYERFILTERS
360
52AB
  3
ACAD_LAYERSTATES
360
5191
  3
ACLYDICTIONARY
360
52AA
  0
DICTIONARY
  5
51BC
330
10
100
AcDbDictionary
280
     1
281
     1
  3
ACAD_XREC_ROUNDTRIP
360
57D2
  3
ADSK_XREC_LAYER_RECONCILED
360
51BD
  0
DICTIONARY
  5
51BE
330
2B
100
AcDbDictionary
280
     1
281
     1
  3
ACAD_XREC_ROUNDTRIP
360
57D5
  3
ADSK_XREC_LAYER_RECONCILED
360
51BF
  0
DICTIONARY
  5
51C0
330
75
100
AcDbDictionary
280
     1
281
     1
  3
ACAD_XREC_ROUNDTRIP
360
57D6
  3
ADSK_XREC_LAYER_RECONCILED
360
51C1
  0
DICTIONARY
  5
51C2
330
40D8
100
AcDbDictionary
280
     1
281
     1
  3
ACAD_XREC_ROUNDTRIP
360
57D7
  3
ADSK_XREC_LAYER_RECONCILED
360
51C3
  0
DICTIONARY
  5
51C8
330
517A
100
AcDbDictionary
280
     1
281
     1
  3
ACAD_XREC_ROUNDTRIP
360
57F0
  3
ADSK_XREC_LAYER_RECONCILED
360
51C9
  0
DICTIONARY
  5
53E6
330
1F
100
AcDbDictionary
280
     1
281
     1
  3
ACAD_SORTENTS
360
53E7
  0
DICTIONARY
  5
583B
330
37BC
100
AcDbDictionary
280
     1
281
     1
  0
DICTIONARY
  5
5844
330
387B
100
AcDbDictionary
280
     1
281
     1
  0
DICTIONARY
  5
584A
330
3881
100
AcDbDictionary
280
     1
281
     1
  0
DICTIONARY
  5
5662
330
5658
100
AcDbDictionary
280
     1
281
     1
  0
DICTIONARY
  5
5870
330
586F
100
AcDbDictionary
280
     1
281
     1
  3
ACAD_SORTENTS
360
5871
  0
DICTIONARY
  5
586E
330
586D
100
AcDbDictionary
280
     1
281
     1
  0
DICTIONARY
  5
57DF
330
4ED8
100
AcDbDictionary
280
     1
281
     1
  3
ACAD_XREC_ROUNDTRIP
360
57E0
  0
DICTIONARY
  5
57E1
330
4EDA
100
AcDbDictionary
280
     1
281
     1
  3
ACAD_XREC_ROUNDTRIP
360
57E2
  0
DICTIONARY
  5
514B
102
{ACAD_REACTORS
330
C
102
}
330
C
100
AcDbDictionary
281
     1
  0
DICTIONARY
  5
D
102
{ACAD_REACTORS
330
C
102
}
330
C
100
AcDbDictionary
281
     1
  3
*A1
350
4CDC
  3
*A2
350
4CDD
  3
*A3
350
4CDE
  3
*A4
350
4CE4
  3
*A5
350
4CFD
  3
*A6
350
4D02
  3
*A7
350
4D06
  3
*A8
350
4D09
  0
DICTIONARY
  5
1A
102
{ACAD_REACTORS
330
C
102
}
330
C
100
AcDbDictionary
281
     1
  3
Model
350
22
  3
Vantage A4
350
4ED1
  0
DICTIONARY
  5
5121
102
{ACAD_REACTORS
330
C
102
}
330
C
100
AcDbDictionary
281
     1
  3
ByBlock
350
512A
  3
ByLayer
350
5122
  3
Global
350
5132
  0
DICTIONARY
  5
5170
102
{ACAD_REACTORS
330
C
102
}
330
C
100
AcDbDictionary
281
     1
  3
Standard
350
5771
  0
DICTIONARY
  5
17
102
{ACAD_REACTORS
330
C
102
}
330
C
100
AcDbDictionary
281
     1
  3
Standard
350
18
  0
DICTIONARY
  5
19
102
{ACAD_REACTORS
330
C
102
}
330
C
100
AcDbDictionary
281
     1
  3
A4 Specifier Manual Hardcopy
350
4EA3
  3
A4 Specifier Manual PDF
350
4EA4
  0
ACDBDICTIONARYWDFLT
  5
E
102
{ACAD_REACTORS
330
C
102
}
330
C
100
AcDbDictionary
281
     1
  3
Normal
350
F
100
AcDbDictionaryWithDefault
340
F
  0
DICTIONARY
  5
514E
102
{ACAD_REACTORS
330
C
102
}
330
C
100
AcDbDictionary
281
     1
  3
A0
350
514F
  3
A1
350
5150
  3
A2
350
5151
  3
A3
350
5152
  3
A4
350
5153
  3
A5
350
5154
  3
A6
350
5155
  3
A7
350
5156
  3
A8
350
5157
  3
A9
350
5158
  3
B0
350
5159
  3
B1
350
515A
  3
B2
350
515B
  3
B3
350
515C
  3
B4
350
515D
  3
B5
350
515E
  3
B6
350
515F
  3
B7
350
5160
  3
B8
350
5161
  3
B9
350
5162
  3
C0
350
5163
  3
C1
350
5164
  3
C2
350
5165
  3
C3
350
5166
  3
C4
350
5167
  3
C5
350
5168
  3
C6
350
5169
  3
C7
350
516A
  3
C8
350
516B
  3
C9
350
516C
  3
D0
350
516D
  3
D1
350
516E
  3
D2
350
516F
  0
DICTIONARY
  5
514C
102
{ACAD_REACTORS
330
C
102
}
330
C
100
AcDbDictionary
281
     1
  3
Standard
350
514D
  0
DICTIONARY
  5
513A
102
{ACAD_REACTORS
330
C
102
}
330
C
100
AcDbDictionary
281
     1
  3
2dWireframe
350
5140
  3
3D Hidden
350
5142
  3
3dWireframe
350
5141
  3
Basic
350
513F
  3
Brighten
350
5146
  3
ColorChange
350
514A
  3
Conceptual
350
5143
  3
Dim
350
5145
  3
Facepattern
350
5149
  3
Flat
350
513B
  3
FlatWithEdges
350
513C
  3
Gouraud
350
513D
  3
GouraudWithEdges
350
513E
  3
Linepattern
350
5148
  3
Realistic
350
5144
  3
Thicken
350
5147
  0
XRECORD
  5
86
102
{ACAD_REACTORS
330
C
102
}
330
C
100
AcDbXrecord
280
     1
 90
   990106
  3

 60
     0
 61
     0
 62
     1
 63
     3
 64
     0
 65
     0
 66
     0
 67
     3
 68
     1
 69
     0
 70
     0
 71
     0
 72
     0
 40
8.188652110585962
170
     0
  0
XRECORD
  5
52E4
102
{ACAD_REACTORS
330
C
102
}
330
C
100
AcDbXrecord
280
     1
 90
        1
330
514D
  0
DICTIONARY
  5
5C75
102
{ACAD_REACTORS
330
C
102
}
330
C
100
AcDbDictionary
281
     1
  0
DICTIONARY
  5
3B
102
{ACAD_REACTORS
330
C
102
}
330
C
100
AcDbDictionary
281
     1
  3
CANNOSCALE
350
5315
  3
CMLEADERSTYLE
350
535E
  3
CTABLESTYLE
350
5314
  3
DIMASSOC
350
3D
  3
HIDETEXT
350
3C
  3
INDEXCTL
350
5317
  3
PROJECTNAME
350
54D6
  3
SORTENTS
350
5316
  0
DICTIONARY
  5
54FE
102
{ACAD_REACTORS
330
C
102
}
330
C
100
AcDbDictionary
281
     1
  0
XRECORD
  5
5C74
102
{ACAD_REACTORS
330
C
102
}
330
C
100
AcDbXrecord
280
     1
  1
DWGPROPS COOKIE
  2

  3

  4

  6

  7

  8
homer
  9

300
=
301
=
302
=
303
=
304
=
305
=
306
=
307
=
308
=
309
=
 40
1.368447280092592
 41
2452286.590325035
 42
2455660.553984861
  1

 90
        0
  0
XRECORD
  5
57D1
102
{ACAD_REACTORS
330
52E6
102
}
330
52E6
100
AcDbXrecord
280
     1
102
VTR_0.000_0.000_1.000_1.000_VISUALSTYLE
340
5140
102
VTR_0.000_0.000_1.000_1.000_GRIDDISPLAY
 70
     3
102
VTR_0.000_0.000_1.000_1.000_GRIDMAJOR
 70
     5
102
VTR_0.000_0.000_1.000_1.000_DEFAULTLIGHTING
280
     1
102
VTR_0.000_0.000_1.000_1.000_DEFAULTLIGHTINGTYPE
 70
     1
102
VTR_0.000_0.000_1.000_1.000_BRIGHTNESS
141
0.0
102
VTR_0.000_0.000_1.000_1.000_CONTRAST
142
0.0
  0
DICTIONARY
  5
52AB
102
{ACAD_REACTORS
330
5190
102
}
330
5190
100
AcDbDictionary
281
     1
  0
DICTIONARY
  5
5191
102
{ACAD_REACTORS
330
5190
102
}
330
5190
100
AcDbDictionary
281
     1
  0
DICTIONARY
  5
52AA
102
{ACAD_REACTORS
330
5190
102
}
330
5190
100
AcDbDictionary
281
     1
1001
ACAD
1000
<All
  0
XRECORD
  5
57D2
102
{ACAD_REACTORS
330
51BC
102
}
330
51BC
100
AcDbXrecord
280
     1
102
MATERIAL
340
5132
  0
XRECORD
  5
51BD
102
{ACAD_REACTORS
330
51BC
102
}
330
51BC
100
AcDbXrecord
280
     1
290
     1
  0
XRECORD
  5
57D5
102
{ACAD_REACTORS
330
51BE
102
}
330
51BE
100
AcDbXrecord
280
     1
102
MATERIAL
340
5132
  0
XRECORD
  5
51BF
102
{ACAD_REACTORS
330
51BE
102
}
330
51BE
100
AcDbXrecord
280
     1
290
     1
  0
XRECORD
  5
57D6
102
{ACAD_REACTORS
330
51C0
102
}
330
51C0
100
AcDbXrecord
280
     1
102
MATERIAL
340
5132
  0
XRECORD
  5
51C1
102
{ACAD_REACTORS
330
51C0
102
}
330
51C0
100
AcDbXrecord
280
     1
290
     1
  0
XRECORD
  5
57D7
102
{ACAD_REACTORS
330
51C2
102
}
330
51C2
100
AcDbXrecord
280
     1
102
MATERIAL
340
5132
  0
XRECORD
  5
51C3
102
{ACAD_REACTORS
330
51C2
102
}
330
51C2
100
AcDbXrecord
280
     1
290
     1
  0
XRECORD
  5
57F0
102
{ACAD_REACTORS
330
51C8
102
}
330
51C8
100
AcDbXrecord
280
     1
102
MATERIAL
340
5132
  0
XRECORD
  5
51C9
102
{ACAD_REACTORS
330
51C8
102
}
330
51C8
100
AcDbXrecord
280
     1
290
     1
  0
SORTENTSTABLE
  5
53E7
102
{ACAD_REACTORS
330
53E6
102
}
330
53E6
100
AcDbSortentsTable
330
1F
331
50DE
  5
53FD
331
53EA
  5
50EF
331
50E6
  5
5404
331
53F2
  5
50E6
331
50EE
  5
540B
331
53FA
  5
50DC
331
50F6
  5
5412
331
4BB1
  5
4B78
331
4B52
  5
4AFD
331
4BE8
  5
4B65
331
4BB9
  5
4BAA
331
4B5A
  5
4B1D
331
4BC1
  5
4BB2
331
4B2B
  5
4BC7
331
4B62
  5
4B2E
331
4C38
  5
50F4
331
4F8D
  5
53EC
331
4B6A
  5
4B36
331
4F95
  5
53EF
331
5402
  5
4FA2
331
540A
  5
4F87
331
5412
  5
4CF2
331
4BC9
  5
4BBA
331
4B33
  5
4BCF
331
4B72
  5
4B3E
331
4BD1
  5
4B4E
331
4B3B
  5
4BD7
331
4AFC
  5
4BBB
331
4B7A
  5
4B46
331
4B43
  5
4BDF
331
4BD9
  5
4B56
331
4B4B
  5
4BE7
331
4BAA
  5
4B71
331
4BE1
  5
4B5E
331
50DF
  5
53FE
331
53EB
  5
50EE
331
50E7
  5
5405
331
53F3
  5
50E5
331
50EF
  5
540C
331
53FB
  5
50DB
331
50F7
  5
5413
331
4BB2
  5
4B79
331
4B1C
  5
4BC1
331
4B53
  5
4AFE
331
4BE9
  5
4B66
331
4BBA
  5
4BAB
331
4B5B
  5
4B27
331
4BC2
  5
4BB3
331
4B2C
  5
4BC8
331
4B63
  5
4B2F
331
4B6B
  5
4B37
331
4F96
  5
53F0
331
4F98
  5
53F1
331
5403
  5
4F98
331
540B
  5
4F30
331
5413
  5
4CF1
331
4BCA
  5
4B47
331
4B34
  5
4BD0
331
4B73
  5
4B3F
331
4B3C
  5
4BD8
331
4AFD
  5
5722
331
4BD2
  5
4B4F
331
4B44
  5
4BE0
331
4BDA
  5
4B57
331
4F2F
  5
50FD
331
4B4C
  5
4BE8
331
4BAB
  5
4B72
331
4BE2
  5
4B5F
331
4CF1
  5
50F5
331
50D8
  5
53F8
331
50E0
  5
53FF
331
5721
  5
50FC
331
53EC
  5
50ED
331
50E8
  5
5406
331
53F4
  5
50E3
331
50F0
  5
540D
331
53FC
  5
50DA
331
4BB3
  5
4B7A
331
4B1D
  5
4BC2
331
4B54
  5
4AFF
331
4BEA
  5
4B67
331
4BBB
  5
4BAC
331
4B5C
  5
4B28
331
4F87
  5
53E8
331
4BC3
  5
4BB4
331
4B2D
  5
4BC9
331
4B64
  5
4B30
331
4B6C
  5
4B38
331
50F8
  5
5414
331
5404
  5
4F96
331
5414
  5
4C38
331
4BCB
  5
4B48
331
4B35
  5
4BD1
331
4B74
  5
4B40
331
4B3D
  5
4BD9
331
4AFE
  5
4BBC
331
4BD3
  5
4B50
331
4B45
  5
4BE1
331
4B0E
  5
4BBF
331
4BDB
  5
4B58
331
4F30
  5
53E5
331
4B4D
  5
4BE9
331
4BAC
  5
4B73
331
4BE3
  5
4B60
331
4CF2
  5
50F6
331
50D9
  5
53F9
331
53E5
  5
50F3
331
50E1
  5
5400
331
53ED
  5
50EC
331
50E9
  5
5407
331
53F5
  5
50E2
331
50F1
  5
540E
331
53FD
  5
50D9
331
4BB4
  5
4BA5
331
4B55
  5
4B08
331
4BEB
  5
4B68
331
4BBC
  5
4BAD
331
4B5D
  5
4B29
331
4F88
  5
53E9
331
4BC4
  5
4BB5
331
4B2E
  5
4BCA
331
4B65
  5
4B31
331
4B6D
  5
4B39
331
5405
  5
4F95
331
4FA2
  5
53F3
331
5415
  5
4C16
331
4BCC
  5
4B49
331
4B36
  5
4BD2
331
4B75
  5
4B41
331
4B3E
  5
4BDA
331
4AFF
  5
4BBD
331
4BD4
  5
4B51
331
4B46
  5
4BE2
331
4BA5
  5
4B6C
331
4BDC
  5
4B59
331
4B4E
  5
4BEA
331
4BAD
  5
4B74
331
4BE4
  5
4B61
331
4CF3
  5
50F7
331
50DA
  5
53FA
331
50E2
  5
5401
331
53EE
  5
50E9
331
50EA
  5
5408
331
53F6
  5
50E1
331
53FE
  5
50D8
331
4BB5
  5
4BA6
331
4B56
  5
4B0E
331
4BEC
  5
4B69
331
4BBD
  5
4BAE
331
4B27
  5
4BC3
331
4B5E
  5
4B2A
331
4C14
  5
4F9B
331
4BC5
  5
4BB6
331
4B2F
  5
4BCB
331
4B66
  5
4B32
331
4F91
  5
53ED
331
4B6E
  5
4B3A
331
50FA
  5
5415
331
4F9B
  5
53F2
331
5406
  5
4F92
331
4FA3
  5
53F4
331
540E
  5
4F2F
331
5416
  5
4C14
331
4BCD
  5
4B4A
331
4B37
  5
4BD3
331
4B76
  5
4B42
331
4B3F
  5
4BDB
331
4B08
  5
4BBE
331
4BD5
  5
4B52
331
4B47
  5
4BE3
331
4BA6
  5
4B6D
331
4BDD
  5
4B5A
331
4B4F
  5
4BEB
331
4BAE
  5
4B75
331
4BE5
  5
4B62
331
50DB
  5
53FB
331
50E3
  5
5402
331
53EF
  5
50E8
331
53F7
  5
50E0
331
50F3
  5
540F
331
53FF
  5
50D5
331
4BB6
  5
4BA7
331
4B57
  5
4B12
331
4BED
  5
4B6A
331
4BBE
  5
4BAF
331
4B28
  5
4BC4
331
4B5F
  5
4B2B
331
4F8A
  5
53EA
331
4BC6
  5
4BB7
331
4B67
  5
4B33
331
4F92
  5
53EE
331
4B6F
  5
4B3B
331
50FB
  5
5416
331
5407
  5
4F91
331
540F
  5
4D10
331
50D4
  5
53F5
331
5417
  5
4BEE
331
4B30
  5
4BCC
331
4BCE
  5
4B4B
331
4B38
  5
4BD4
331
4B77
  5
4B43
331
4B40
  5
4BDC
331
4BD6
  5
4B53
331
4B48
  5
4BE4
331
4BA7
  5
4B6E
331
4BDE
  5
4B5B
331
4BAF
  5
4B76
331
4BE6
  5
4B63
331
50DC
  5
53FC
331
53E8
  5
50F1
331
50EC
  5
5409
331
50F4
  5
5410
331
53F8
  5
50DF
331
4B50
  5
4BEC
331
4BB7
  5
4BA8
331
4B58
  5
4B13
331
4BEE
  5
4B6B
331
4BBF
  5
4BB0
331
4B29
  5
4BC5
331
4B60
  5
4B2C
331
4C16
  5
4FA3
331
4BC7
  5
4BB8
331
4B68
  5
4B34
331
5400
  5
50D4
331
50FC
  5
5417
331
5408
  5
4F8D
331
5410
  5
4D0F
331
5418
  5
4BED
331
50D5
  5
53F6
331
4B31
  5
4BCD
331
4B70
  5
4B3C
331
4BCF
  5
4B4C
331
4B39
  5
4BD5
331
4B78
  5
4B44
331
4B41
  5
4BDD
331
4BD7
  5
4B54
331
4B49
  5
4BE5
331
4B12
  5
5721
331
4BA8
  5
4B6F
331
4BDF
  5
4B5C
331
4BE7
  5
4B64
331
53E9
  5
50F0
331
50E5
  5
5403
331
53F1
  5
50E7
331
50ED
  5
540A
331
53F9
  5
50DE
331
50F5
  5
5411
331
4BB0
  5
4B77
331
4B51
  5
4AFC
331
4BB8
  5
4BA9
331
4B59
  5
4B1C
331
4BC0
  5
4BB1
331
4B2A
  5
4BC6
331
4B61
  5
4B2D
331
4F8C
  5
53EB
331
4B69
  5
4B35
331
50FD
  5
5418
331
5409
  5
4F8C
331
5411
  5
4CF3
331
50D6
  5
53F7
331
4BC8
  5
4BB9
331
4B32
  5
4BCE
331
4B71
  5
4B3D
331
4BD0
  5
4B4D
331
4B3A
  5
4BD6
331
4B79
  5
4B45
331
4B42
  5
4BDE
331
4BD8
  5
4B55
331
4B4A
  5
4BE6
331
4B13
  5
4BC0
331
4BA9
  5
4B70
331
4BE0
  5
4B5D
  0
SORTENTSTABLE
  5
5871
102
{ACAD_REACTORS
330
5870
102
}
330
5870
100
AcDbSortentsTable
330
586F
  0
XRECORD
  5
57E0
102
{ACAD_REACTORS
330
57DF
102
}
330
57DF
100
AcDbXrecord
280
     1
102
VISUALSTYLE
340
5140
102
GRIDDISPLAY
 70
     0
102
GRIDMAJOR
 70
     5
102
DEFAULTLIGHTING
280
     1
102
DEFAULTLIGHTINGTYPE
 70
     1
102
BRIGHTNESS
141
0.0
102
CONTRAST
142
0.0
102
SHADEPLOT
 70
     0
  0
XRECORD
  5
57E2
102
{ACAD_REACTORS
330
57E1
102
}
330
57E1
100
AcDbXrecord
280
     1
102
VISUALSTYLE
340
5140
102
GRIDDISPLAY
 70
     0
102
GRIDMAJOR
 70
     5
102
DEFAULTLIGHTING
280
     1
102
DEFAULTLIGHTINGTYPE
 70
     1
102
BRIGHTNESS
141
0.0
102
CONTRAST
142
0.0
102
SHADEPLOT
 70
     0
  0
GROUP
  5
4CDC
102
{ACAD_REACTORS
330
D
102
}
330
D
100
AcDbGroup
300

 70
     1
 71
     1
340
4B39
340
4B30
340
4B28
340
4B27
340
4B34
340
4B33
340
4B2F
340
4B2E
340
4B2B
340
4B38
340
4B37
340
4B36
340
4B32
340
4B31
340
4B35
340
4B3A
340
4B3B
340
4B2A
340
4B29
340
4B2C
340
4B2D
340
4B45
340
4B44
340
4B3E
340
4B3D
340
4B3C
340
4B3F
340
4B4E
340
4B4D
340
4B4C
340
4B4B
340
4B4A
340
4B49
340
4B48
340
4B47
340
4B46
340
4B43
340
4B42
340
4B41
340
4B40
340
4B4F
340
4B50
  0
GROUP
  5
4CDD
102
{ACAD_REACTORS
330
D
102
}
330
D
100
AcDbGroup
300

 70
     1
 71
     1
340
4BC4
340
4BC5
340
4BC0
340
4BC3
340
4BC8
340
4BC9
340
4BC6
340
4BC7
340
4BBB
340
4BBA
340
4BC2
340
4BB9
340
4BBF
340
4BB6
340
4BB7
340
4BB8
340
4BBC
340
4BBD
340
4BBE
340
4BC1
340
4BAF
340
4BB5
340
4BAA
340
4BAD
340
4BAE
340
4BB0
340
4BB1
340
4BB3
340
4BA9
340
4BAB
340
4BAC
340
4BB2
340
4BB4
340
4BA5
340
4BA6
340
4BA7
340
4BA8
  0
GROUP
  5
4CDE
102
{ACAD_REACTORS
330
D
102
}
330
D
100
AcDbGroup
300

 70
     1
 71
     1
340
4BE6
340
4BDD
340
4BDF
340
4BDB
340
4BE0
340
4BE1
340
4BE2
340
4BDC
340
4BCE
340
4BCF
340
4BD0
340
4BD1
340
4BCA
340
4BCD
340
4BD4
340
4BD5
340
4BD2
340
4BD3
340
4BE3
340
4BE5
340
4BE4
340
4BE7
340
4BE8
340
4BE9
340
4BCB
340
4BCC
340
4BD9
340
4BDA
340
4BD6
340
4BD7
340
4BD8
340
4BEA
340
4BEC
340
4BEB
340
4BDE
340
4BED
340
4BEE
  0
GROUP
  5
4CE4
102
{ACAD_REACTORS
330
D
102
}
330
D
100
AcDbGroup
300

 70
     1
 71
     1
340
4B57
340
4B60
340
4B53
340
4B54
340
4B55
340
4B65
340
4B67
340
4B7A
340
4B63
340
4B75
340
4B76
340
4B66
340
4B58
340
4B51
340
4B68
340
4B6A
340
4B78
340
4B6C
340
4B64
340
4B73
340
4B72
340
4B69
340
4B5A
340
4B56
340
4B59
340
4B5D
340
4B5B
340
4B52
340
4B6D
340
4B77
340
4B79
340
4B6B
340
4B6F
340
4B70
340
4B71
340
4B74
340
4B6E
340
4B5F
340
4B5C
340
4B62
340
4B5E
340
4B61
  0
GROUP
  5
4CFD
102
{ACAD_REACTORS
330
D
102
}
330
D
100
AcDbGroup
300

 70
     1
 71
     1
  0
GROUP
  5
4D02
102
{ACAD_REACTORS
330
D
102
}
330
D
100
AcDbGroup
300

 70
     1
 71
     1
  0
GROUP
  5
4D06
102
{ACAD_REACTORS
330
D
102
}
330
D
100
AcDbGroup
300

 70
     1
 71
     1
  0
GROUP
  5
4D09
102
{ACAD_REACTORS
330
D
102
}
330
D
100
AcDbGroup
300

 70
     1
 71
     1
  0
LAYOUT
  5
22
102
{ACAD_XDICTIONARY
360
5C76
102
}
102
{ACAD_REACTORS
330
1A
102
}
330
1A
100
AcDbPlotSettings
  1

  2
A4 Specifier Manual.pc3
  4
A4
  6

 40
6.0
 41
5.0
 42
6.97332763671875
 43
5.96832275390625
 44
209.9733276367187
 45
296.9683227539062
 46
10.5
 47
1.0
 48
55.19893561856474
 49
77.41415496436935
140
329.6878846931311
141
251.7976535946928
142
1.0
143
2.0
 70
 11952
 72
     1
 73
     0
 74
     1
  7
A4 Specifier Manual.ctb
 75
    17
147
0.5
148
2.760743696124336
149
26.14788207115953
100
AcDbLayout
  1
Model
 70
     1
 71
     0
 10
0.0
 20
0.0
 11
12.0
 21
9.0
 12
0.0
 22
0.0
 32
0.0
 14
0.0
 24
0.0
 34
0.0
 15
0.0
 25
0.0
 35
0.0
146
0.0
 13
0.0
 23
0.0
 33
0.0
 16
1.0
 26
0.0
 36
0.0
 17
0.0
 27
1.0
 37
0.0
 76
     0
330
1F
  0
LAYOUT
  5
4ED1
102
{ACAD_XDICTIONARY
360
51A3
102
}
102
{ACAD_REACTORS
330
1A
102
}
330
1A
100
AcDbPlotSettings
  1

  2
\\Aplfp01\APL Technical HP5100 PSLaser
  4
A4
  6

 40
5.027083396911621
 41
5.408084392547607
 42
5.70440673828125
 43
5.365753173828125
 44
209.8886566162109
 45
297.0530090332031
 46
0.0
 47
0.0
 48
0.0
 49
0.0
140
0.0
141
0.0
142
1.0
143
1.0
 70
   176
 72
     1
 73
     0
 74
     5
  7
A4 Specifier Manual.ctb
 75
    16
147
1.0
148
0.0
149
0.0
100
AcDbLayout
  1
Vantage A4
 70
     1
 71
     1
 10
-5.027083396911621
 20
-5.408084392547607
 11
204.8615732192993
 21
291.6449246406555
 12
0.0
 22
0.0
 32
0.0
 14
11.46014251777035
 24
3.285575844812797
 34
-0.0015258207003583
 15
189.6073672775216
 25
282.2033753668244
 35
0.0000000349246037
146
0.0
 13
0.0
 23
0.0
 33
0.0
 16
1.0
 26
0.0
 36
0.0
 17
0.0
 27
1.0
 37
0.0
 76
     0
330
4ED0
331
4ED8
1001
ACAD_PSEXT
1000
\\Aplfp01\APL Technical HP5100 PSLaser
1000
HP LaserJet 5100 PS
1000
APL Technical Office
1000

1070
     0
  0
MATERIAL
  5
512A
102
{ACAD_XDICTIONARY
360
512B
102
}
102
{ACAD_REACTORS
330
5121
102
}
330
5121
100
AcDbMaterial
  1
ByBlock
 72
     0
 73
     2
 43
0.0008202099737533
 43
0.0
 43
0.0
 43
0.0
 43
0.0
 43
0.0008202099737533
 43
0.0
 43
0.0
 43
0.0
 43
0.0
 43
1.0
 43
0.0
 43
0.0
 43
0.0
 43
0.0
 43
1.0
 77
     0
 78
     2
 47
0.0008202099737533
 47
0.0
 47
0.0
 47
0.0
 47
0.0
 47
0.0008202099737533
 47
0.0
 47
0.0
 47
0.0
 47
0.0
 47
1.0
 47
0.0
 47
0.0
 47
0.0
 47
0.0
 47
1.0
171
     0
172
     2
 49
0.0008202099737533
 49
0.0
 49
0.0
 49
0.0
 49
0.0
 49
0.0008202099737533
 49
0.0
 49
0.0
 49
0.0
 49
0.0
 49
1.0
 49
0.0
 49
0.0
 49
0.0
 49
0.0
 49
1.0
175
     0
176
     2
142
0.0008202099737533
142
0.0
142
0.0
142
0.0
142
0.0
142
0.0008202099737533
142
0.0
142
0.0
142
0.0
142
0.0
142
1.0
142
0.0
142
0.0
142
0.0
142
0.0
142
1.0
179
     0
270
     2
144
0.0008202099737533
144
0.0
144
0.0
144
0.0
144
0.0
144
0.0008202099737533
144
0.0
144
0.0
144
0.0
144
0.0
144
1.0
144
0.0
144
0.0
144
0.0
144
0.0
144
1.0
274
     2
147
0.0008202099737533
147
0.0
147
0.0
147
0.0
147
0.0
147
0.0008202099737533
147
0.0
147
0.0
147
0.0
147
0.0
147
1.0
147
0.0
147
0.0
147
0.0
147
0.0
147
1.0
  0
MATERIAL
  5
5122
102
{ACAD_XDICTIONARY
360
5123
102
}
102
{ACAD_REACTORS
330
5121
102
}
330
5121
100
AcDbMaterial
  1
ByLayer
 72
     0
 73
     2
 43
0.0008202099737533
 43
0.0
 43
0.0
 43
0.0
 43
0.0
 43
0.0008202099737533
 43
0.0
 43
0.0
 43
0.0
 43
0.0
 43
1.0
 43
0.0
 43
0.0
 43
0.0
 43
0.0
 43
1.0
 77
     0
 78
     2
 47
0.0008202099737533
 47
0.0
 47
0.0
 47
0.0
 47
0.0
 47
0.0008202099737533
 47
0.0
 47
0.0
 47
0.0
 47
0.0
 47
1.0
 47
0.0
 47
0.0
 47
0.0
 47
0.0
 47
1.0
171
     0
172
     2
 49
0.0008202099737533
 49
0.0
 49
0.0
 49
0.0
 49
0.0
 49
0.0008202099737533
 49
0.0
 49
0.0
 49
0.0
 49
0.0
 49
1.0
 49
0.0
 49
0.0
 49
0.0
 49
0.0
 49
1.0
175
     0
176
     2
142
0.0008202099737533
142
0.0
142
0.0
142
0.0
142
0.0
142
0.0008202099737533
142
0.0
142
0.0
142
0.0
142
0.0
142
1.0
142
0.0
142
0.0
142
0.0
142
0.0
142
1.0
179
     0
270
     2
144
0.0008202099737533
144
0.0
144
0.0
144
0.0
144
0.0
144
0.0008202099737533
144
0.0
144
0.0
144
0.0
144
0.0
144
1.0
144
0.0
144
0.0
144
0.0
144
0.0
144
1.0
274
     2
147
0.0008202099737533
147
0.0
147
0.0
147
0.0
147
0.0
147
0.0008202099737533
147
0.0
147
0.0
147
0.0
147
0.0
147
1.0
147
0.0
147
0.0
147
0.0
147
0.0
147
1.0
  0
MATERIAL
  5
5132
102
{ACAD_XDICTIONARY
360
5133
102
}
102
{ACAD_REACTORS
330
5121
102
}
330
5121
100
AcDbMaterial
  1
Global
 72
     0
 73
     2
 43
0.0008202099737533
 43
0.0
 43
0.0
 43
0.0
 43
0.0
 43
0.0008202099737533
 43
0.0
 43
0.0
 43
0.0
 43
0.0
 43
1.0
 43
0.0
 43
0.0
 43
0.0
 43
0.0
 43
1.0
 77
     0
 78
     2
 47
0.0008202099737533
 47
0.0
 47
0.0
 47
0.0
 47
0.0
 47
0.0008202099737533
 47
0.0
 47
0.0
 47
0.0
 47
0.0
 47
1.0
 47
0.0
 47
0.0
 47
0.0
 47
0.0
 47
1.0
171
     0
172
     2
 49
0.0008202099737533
 49
0.0
 49
0.0
 49
0.0
 49
0.0
 49
0.0008202099737533
 49
0.0
 49
0.0
 49
0.0
 49
0.0
 49
1.0
 49
0.0
 49
0.0
 49
0.0
 49
0.0
 49
1.0
175
     0
176
     2
142
0.0008202099737533
142
0.0
142
0.0
142
0.0
142
0.0
142
0.0008202099737533
142
0.0
142
0.0
142
0.0
142
0.0
142
1.0
142
0.0
142
0.0
142
0.0
142
0.0
142
1.0
179
     0
270
     2
144
0.0008202099737533
144
0.0
144
0.0
144
0.0
144
0.0
144
0.0008202099737533
144
0.0
144
0.0
144
0.0
144
0.0
144
1.0
144
0.0
144
0.0
144
0.0
144
0.0
144
1.0
274
     2
147
0.0008202099737533
147
0.0
147
0.0
147
0.0
147
0.0
147
0.0008202099737533
147
0.0
147
0.0
147
0.0
147
0.0
147
1.0
147
0.0
147
0.0
147
0.0
147
0.0
147
1.0
  0
ACAD_PROXY_OBJECT
  5
5771
102
{ACAD_REACTORS
330
5170
102
}
330
5170
100
AcDbProxyObject
 90
      499
 91
      510
 95
   983063
 70
     0
 93
      618
310
40901902A4063FBFFFFFE000000000000002040AD7A3703D0AD73F4254DD185B99185C99000000000000000104090141901A00000000000004100000000000000041025764000000000000300FC0
340
14
340
0
340
11
340
0
 94
        0
1001
ACAD_MLEADERVER
1070
     2
1001
ACAD
1000
AcRTDxfName
1000
MLEADERSTYLE
1000
AcRTDxfName
1000
MLEADERSTYLE
1000
AcRTDxfName
1000
MLEADERSTYLE
  0
MLINESTYLE
  5
18
102
{ACAD_REACTORS
330
17
102
}
330
17
100
AcDbMlineStyle
  2
STANDARD
 70
     0
  3

 62
   256
 51
90.0
 52
90.0
 71
     2
 49
0.5
 62
   256
  6
BYLAYER
 49
-0.5
 62
   256
  6
BYLAYER
  0
PLOTSETTINGS
  5
4EA3
102
{ACAD_XDICTIONARY
360
5C78
102
}
102
{ACAD_REACTORS
330
19
102
}
330
19
100
AcDbPlotSettings
  1
A4 Specifier Manual Hardcopy
  2
A4 Specifier Manual.pc3
  4
A4
  6

 40
6.0
 41
5.0
 42
6.97332763671875
 43
5.96832275390625
 44
209.9733276367187
 45
296.9683227539062
 46
10.5
 47
-1.0
 48
55.19893561856474
 49
77.41415496436935
140
329.6878846931311
141
251.7976535946928
142
1.0
143
2.0
 70
  1712
 72
     1
 73
     0
 74
     1
  7
A4 specifier manual.ctb
 75
    17
147
0.5
148
2.225667800726114
149
26.13925412475783
  0
PLOTSETTINGS
  5
4EA4
102
{ACAD_XDICTIONARY
360
5C7A
102
}
102
{ACAD_REACTORS
330
19
102
}
330
19
100
AcDbPlotSettings
  1
A4 Specifier Manual PDF
  2
Acrobat Distiller.pc3
  4
A4
  6

 40
3.174999952316284
 41
3.174999952316284
 42
3.175003051757812
 43
3.17498779296875
 44
209.9098358154297
 45
297.0318298339844
 46
12.0
 47
3.0
 48
55.19893561856474
 49
77.41415496436935
140
329.6878846931311
141
251.7976535946928
142
1.0
143
2.0
 70
  1712
 72
     1
 73
     0
 74
     1
  7
A4 Specifier Manual.ctb
 75
    17
147
0.5
148
2.231438335389952
149
26.15846035871732
  0
ACDBPLACEHOLDER
  5
F
102
{ACAD_REACTORS
330
E
102
}
330
E
  0
ACAD_PROXY_OBJECT
  5
514F
102
{ACAD_REACTORS
330
514E
102
}
330
514E
100
AcDbProxyObject
 90
      499
 91
      509
 95
   983063
 70
     0
 93
       49
310
904313A3100580
 94
        0
1001
ACAD
1000
AcRTDxfName
1000
SCALE
1000
AcRTDxfName
1000
SCALE
1000
AcRTDxfName
1000
SCALE
1000
AcRTDxfName
1000
SCALE
  0
ACAD_PROXY_OBJECT
  5
5150
102
{ACAD_REACTORS
330
514E
102
}
330
514E
100
AcDbProxyObject
 90
      499
 91
      509
 95
   983063
 70
     0
 93
      113
310
904313A32004000000000000004040
 94
        0
1001
ACAD
1000
AcRTDxfName
1000
SCALE
1000
AcRTDxfName
1000
SCALE
1000
AcRTDxfName
1000
SCALE
1000
AcRTDxfName
1000
SCALE
  0
ACAD_PROXY_OBJECT
  5
5151
102
{ACAD_REACTORS
330
514E
102
}
330
514E
100
AcDbProxyObject
 90
      499
 91
      509
 95
   983063
 70
     0
 93
      113
310
904313A34004000000000000104040
 94
        0
1001
ACAD
1000
AcRTDxfName
1000
SCALE
1000
AcRTDxfName
1000
SCALE
1000
AcRTDxfName
1000
SCALE
1000
AcRTDxfName
1000
SCALE
  0
ACAD_PROXY_OBJECT
  5
5152
102
{ACAD_REACTORS
330
514E
102
}
330
514E
100
AcDbProxyObject
 90
      499
 91
      509
 95
   983063
 70
     0
 93
      113
310
904313A35004000000000000144040
 94
        0
1001
ACAD
1000
AcRTDxfName
1000
SCALE
1000
AcRTDxfName
1000
SCALE
1000
AcRTDxfName
1000
SCALE
1000
AcRTDxfName
1000
SCALE
  0
ACAD_PROXY_OBJECT
  5
5153
102
{ACAD_REACTORS
330
514E
102
}
330
514E
100
AcDbProxyObject
 90
      499
 91
      509
 95
   983063
 70
     0
 93
      113
310
904313A38004000000000000204040
 94
        0
1001
ACAD
1000
AcRTDxfName
1000
SCALE
1000
AcRTDxfName
1000
SCALE
1000
AcRTDxfName
1000
SCALE
1000
AcRTDxfName
1000
SCALE
  0
ACAD_PROXY_OBJECT
  5
5154
102
{ACAD_REACTORS
330
514E
102
}
330
514E
100
AcDbProxyObject
 90
      499
 91
      509
 95
   983063
 70
     0
 93
      121
310
905313A3130004000000000000244040
 94
        0
1001
ACAD
1000
AcRTDxfName
1000
SCALE
1000
AcRTDxfName
1000
SCALE
1000
AcRTDxfName
1000
SCALE
1000
AcRTDxfName
1000
SCALE
  0
ACAD_PROXY_OBJECT
  5
5155
102
{ACAD_REACTORS
330
514E
102
}
330
514E
100
AcDbProxyObject
 90
      499
 91
      509
 95
   983063
 70
     0
 93
      121
310
905313A3136004000000000000304001
 94
        0
1001
ACAD
1000
AcRTDxfName
1000
SCALE
1000
AcRTDxfName
1000
SCALE
1000
AcRTDxfName
1000
SCALE
1000
AcRTDxfName
1000
SCALE
  0
ACAD_PROXY_OBJECT
  5
5156
102
{ACAD_REACTORS
330
514E
102
}
330
514E
100
AcDbProxyObject
 90
      499
 91
      509
 95
   983063
 70
     0
 93
      121
310
905313A3230004000000000000344040
 94
        0
1001
ACAD
1000
AcRTDxfName
1000
SCALE
1000
AcRTDxfName
1000
SCALE
1000
AcRTDxfName
1000
SCALE
1000
AcRTDxfName
1000
SCALE
  0
ACAD_PROXY_OBJECT
  5
5157
102
{ACAD_REACTORS
330
514E
102
}
330
514E
100
AcDbProxyObject
 90
      499
 91
      509
 95
   983063
 70
     0
 93
      121
310
905313A33300040000000000003E4001
 94
        0
1001
ACAD
1000
AcRTDxfName
1000
SCALE
1000
AcRTDxfName
1000
SCALE
1000
AcRTDxfName
1000
SCALE
1000
AcRTDxfName
1000
SCALE
  0
ACAD_PROXY_OBJECT
  5
5158
102
{ACAD_REACTORS
330
514E
102
}
330
514E
100
AcDbProxyObject
 90
      499
 91
      509
 95
   983063
 70
     0
 93
      121
310
905313A3430004000000000000444040
 94
        0
1001
ACAD
1000
AcRTDxfName
1000
SCALE
1000
AcRTDxfName
1000
SCALE
1000
AcRTDxfName
1000
SCALE
1000
AcRTDxfName
1000
SCALE
  0
ACAD_PROXY_OBJECT
  5
5159
102
{ACAD_REACTORS
330
514E
102
}
330
514E
100
AcDbProxyObject
 90
      499
 91
      509
 95
   983063
 70
     0
 93
      121
310
905313A3530004000000000000494001
 94
        0
1001
ACAD
1000
AcRTDxfName
1000
SCALE
1000
AcRTDxfName
1000
SCALE
1000
AcRTDxfName
1000
SCALE
1000
AcRTDxfName
1000
SCALE
  0
ACAD_PROXY_OBJECT
  5
515A
102
{ACAD_REACTORS
330
514E
102
}
330
514E
100
AcDbProxyObject
 90
      499
 91
      509
 95
   983063
 70
     0
 93
      129
310
906313A313030004000000000000594000
 94
        0
1001
ACAD
1000
AcRTDxfName
1000
SCALE
1000
AcRTDxfName
1000
SCALE
1000
AcRTDxfName
1000
SCALE
1000
AcRTDxfName
1000
SCALE
  0
ACAD_PROXY_OBJECT
  5
515B
102
{ACAD_REACTORS
330
514E
102
}
330
514E
100
AcDbProxyObject
 90
      499
 91
      509
 95
   983063
 70
     0
 93
      113
310
904323A31000000000000000010165
 94
        0
1001
ACAD
1000
AcRTDxfName
1000
SCALE
1000
AcRTDxfName
1000
SCALE
1000
AcRTDxfName
1000
SCALE
1000
AcRTDxfName
1000
SCALE
  0
ACAD_PROXY_OBJECT
  5
515C
102
{ACAD_REACTORS
330
514E
102
}
330
514E
100
AcDbProxyObject
 90
      499
 91
      509
 95
   983063
 70
     0
 93
      113
310
904343A31000000000000000410101
 94
        0
1001
ACAD
1000
AcRTDxfName
1000
SCALE
1000
AcRTDxfName
1000
SCALE
1000
AcRTDxfName
1000
SCALE
1000
AcRTDxfName
1000
SCALE
  0
ACAD_PROXY_OBJECT
  5
515D
102
{ACAD_REACTORS
330
514E
102
}
330
514E
100
AcDbProxyObject
 90
      499
 91
      509
 95
   983063
 70
     0
 93
      113
310
904383A31000000000000000810165
 94
        0
1001
ACAD
1000
AcRTDxfName
1000
SCALE
1000
AcRTDxfName
1000
SCALE
1000
AcRTDxfName
1000
SCALE
1000
AcRTDxfName
1000
SCALE
  0
ACAD_PROXY_OBJECT
  5
515E
102
{ACAD_REACTORS
330
514E
102
}
330
514E
100
AcDbProxyObject
 90
      499
 91
      509
 95
   983063
 70
     0
 93
      121
310
90531303A31000000000000000910120
 94
        0
1001
ACAD
1000
AcRTDxfName
1000
SCALE
1000
AcRTDxfName
1000
SCALE
1000
AcRTDxfName
1000
SCALE
1000
AcRTDxfName
1000
SCALE
  0
ACAD_PROXY_OBJECT
  5
515F
102
{ACAD_REACTORS
330
514E
102
}
330
514E
100
AcDbProxyObject
 90
      499
 91
      509
 95
   983063
 70
     0
 93
      129
310
9063130303A31000000000000001650100
 94
        0
1001
ACAD
1000
AcRTDxfName
1000
SCALE
1000
AcRTDxfName
1000
SCALE
1000
AcRTDxfName
1000
SCALE
1000
AcRTDxfName
1000
SCALE
  0
ACAD_PROXY_OBJECT
  5
5160
102
{ACAD_REACTORS
330
514E
102
}
330
514E
100
AcDbProxyObject
 90
      499
 91
      509
 95
   983063
 70
     0
 93
      265
310
90F312F31323822203D2031272D302200000000000000200FC00000000000028404E
 94
        0
1001
ACAD
1000
AcRTDxfName
1000
SCALE
1000
AcRTDxfName
1000
SCALE
1000
AcRTDxfName
1000
SCALE
1000
AcRTDxfName
1000
SCALE
  0
ACAD_PROXY_OBJECT
  5
5161
102
{ACAD_REACTORS
330
514E
102
}
330
514E
100
AcDbProxyObject
 90
      499
 91
      509
 95
   983063
 70
     0
 93
      257
310
90E312F363422203D2031272D302200000000000000240FC000000000000284040
 94
        0
1001
ACAD
1000
AcRTDxfName
1000
SCALE
1000
AcRTDxfName
1000
SCALE
1000
AcRTDxfName
1000
SCALE
1000
AcRTDxfName
1000
SCALE
  0
ACAD_PROXY_OBJECT
  5
5162
102
{ACAD_REACTORS
330
514E
102
}
330
514E
100
AcDbProxyObject
 90
      499
 91
      509
 95
   983063
 70
     0
 93
      257
310
90E312F333222203D2031272D302200000000000000280FC000000000000284066
 94
        0
1001
ACAD
1000
AcRTDxfName
1000
SCALE
1000
AcRTDxfName
1000
SCALE
1000
AcRTDxfName
1000
SCALE
1000
AcRTDxfName
1000
SCALE
  0
ACAD_PROXY_OBJECT
  5
5163
102
{ACAD_REACTORS
330
514E
102
}
330
514E
100
AcDbProxyObject
 90
      499
 91
      509
 95
   983063
 70
     0
 93
      257
310
90E312F313622203D2031272D3022000000000000002C0FC000000000000284040
 94
        0
1001
ACAD
1000
AcRTDxfName
1000
SCALE
1000
AcRTDxfName
1000
SCALE
1000
AcRTDxfName
1000
SCALE
1000
AcRTDxfName
1000
SCALE
  0
ACAD_PROXY_OBJECT
  5
5164
102
{ACAD_REACTORS
330
514E
102
}
330
514E
100
AcDbProxyObject
 90
      499
 91
      509
 95
   983063
 70
     0
 93
      257
310
90E332F333222203D2031272D3022000000000000002E0FC000000000000284066
 94
        0
1001
ACAD
1000
AcRTDxfName
1000
SCALE
1000
AcRTDxfName
1000
SCALE
1000
AcRTDxfName
1000
SCALE
1000
AcRTDxfName
1000
SCALE
  0
ACAD_PROXY_OBJECT
  5
5165
102
{ACAD_REACTORS
330
514E
102
}
330
514E
100
AcDbProxyObject
 90
      499
 91
      509
 95
   983063
 70
     0
 93
      249
310
90D312F3822203D2031272D302200000000000000300FC000000000000284028
 94
        0
1001
ACAD
1000
AcRTDxfName
1000
SCALE
1000
AcRTDxfName
1000
SCALE
1000
AcRTDxfName
1000
SCALE
1000
AcRTDxfName
1000
SCALE
  0
ACAD_PROXY_OBJECT
  5
5166
102
{ACAD_REACTORS
330
514E
102
}
330
514E
100
AcDbProxyObject
 90
      499
 91
      509
 95
   983063
 70
     0
 93
      257
310
90E332F313622203D2031272D302200000000000000320FC000000000000284066
 94
        0
1001
ACAD
1000
AcRTDxfName
1000
SCALE
1000
AcRTDxfName
1000
SCALE
1000
AcRTDxfName
1000
SCALE
1000
AcRTDxfName
1000
SCALE
  0
ACAD_PROXY_OBJECT
  5
5167
102
{ACAD_REACTORS
330
514E
102
}
330
514E
100
AcDbProxyObject
 90
      499
 91
      509
 95
   983063
 70
     0
 93
      249
310
90D312F3422203D2031272D302200000000000000340FC000000000000284040
 94
        0
1001
ACAD
1000
AcRTDxfName
1000
SCALE
1000
AcRTDxfName
1000
SCALE
1000
AcRTDxfName
1000
SCALE
1000
AcRTDxfName
1000
SCALE
  0
ACAD_PROXY_OBJECT
  5
5168
102
{ACAD_REACTORS
330
514E
102
}
330
514E
100
AcDbProxyObject
 90
      499
 91
      509
 95
   983063
 70
     0
 93
      249
310
90D332F3822203D2031272D302200000000000000360FC000000000000284028
 94
        0
1001
ACAD
1000
AcRTDxfName
1000
SCALE
1000
AcRTDxfName
1000
SCALE
1000
AcRTDxfName
1000
SCALE
1000
AcRTDxfName
1000
SCALE
  0
ACAD_PROXY_OBJECT
  5
5169
102
{ACAD_REACTORS
330
514E
102
}
330
514E
100
AcDbProxyObject
 90
      499
 91
      509
 95
   983063
 70
     0
 93
      249
310
90D312F3222203D2031272D302200000000000000380FC000000000000284040
 94
        0
1001
ACAD
1000
AcRTDxfName
1000
SCALE
1000
AcRTDxfName
1000
SCALE
1000
AcRTDxfName
1000
SCALE
1000
AcRTDxfName
1000
SCALE
  0
ACAD_PROXY_OBJECT
  5
516A
102
{ACAD_REACTORS
330
514E
102
}
330
514E
100
AcDbProxyObject
 90
      499
 91
      509
 95
   983063
 70
     0
 93
      249
310
90D332F3422203D2031272D3022000000000000003A0FC000000000000284028
 94
        0
1001
ACAD
1000
AcRTDxfName
1000
SCALE
1000
AcRTDxfName
1000
SCALE
1000
AcRTDxfName
1000
SCALE
1000
AcRTDxfName
1000
SCALE
  0
ACAD_PROXY_OBJECT
  5
516B
102
{ACAD_REACTORS
330
514E
102
}
330
514E
100
AcDbProxyObject
 90
      499
 91
      509
 95
   983063
 70
     0
 93
      169
310
90B3122203D2031272D3022004000000000000284000
 94
        0
1001
ACAD
1000
AcRTDxfName
1000
SCALE
1000
AcRTDxfName
1000
SCALE
1000
AcRTDxfName
1000
SCALE
1000
AcRTDxfName
1000
SCALE
  0
ACAD_PROXY_OBJECT
  5
516C
102
{ACAD_REACTORS
330
514E
102
}
330
514E
100
AcDbProxyObject
 90
      499
 91
      509
 95
   983063
 70
     0
 93
      265
310
90F312D312F3222203D2031272D3022000000000000003E0FC000000000000284018
 94
        0
1001
ACAD
1000
AcRTDxfName
1000
SCALE
1000
AcRTDxfName
1000
SCALE
1000
AcRTDxfName
1000
SCALE
1000
AcRTDxfName
1000
SCALE
  0
ACAD_PROXY_OBJECT
  5
516D
102
{ACAD_REACTORS
330
514E
102
}
330
514E
100
AcDbProxyObject
 90
      499
 91
      509
 95
   983063
 70
     0
 93
      233
310
90B3322203D2031272D30220000000000000002100000000000000284000
 94
        0
1001
ACAD
1000
AcRTDxfName
1000
SCALE
1000
AcRTDxfName
1000
SCALE
1000
AcRTDxfName
1000
SCALE
1000
AcRTDxfName
1000
SCALE
  0
ACAD_PROXY_OBJECT
  5
516E
102
{ACAD_REACTORS
330
514E
102
}
330
514E
100
AcDbProxyObject
 90
      499
 91
      509
 95
   983063
 70
     0
 93
      233
310
90B3622203D2031272D3022000000000000000610000000000000028405D
 94
        0
1001
ACAD
1000
AcRTDxfName
1000
SCALE
1000
AcRTDxfName
1000
SCALE
1000
AcRTDxfName
1000
SCALE
1000
AcRTDxfName
1000
SCALE
  0
ACAD_PROXY_OBJECT
  5
516F
102
{ACAD_REACTORS
330
514E
102
}
330
514E
100
AcDbProxyObject
 90
      499
 91
      509
 95
   983063
 70
     0
 93
      257
310
90E31272D3022203D2031272D3022000000000000000A100000000000000284000
 94
        0
1001
ACAD
1000
AcRTDxfName
1000
SCALE
1000
AcRTDxfName
1000
SCALE
1000
AcRTDxfName
1000
SCALE
1000
AcRTDxfName
1000
SCALE
  0
TABLESTYLE
  5
514D
102
{ACAD_XDICTIONARY
360
52E2
102
}
102
{ACAD_REACTORS
330
514C
102
}
330
514C
100
AcDbTableStyle
  3
Standard
 70
     0
 71
     0
 40
1.5
 41
1.5
280
     0
281
     0
  7
Standard
140
4.5
170
     2
 62
     0
 63
     7
283
     0
274
    -2
284
     1
 64
     0
275
    -2
285
     1
 65
     0
276
    -2
286
     1
 66
     0
277
    -2
287
     1
 67
     0
278
    -2
288
     1
 68
     0
279
    -2
289
     1
 69
     0
  7
Standard
140
6.0
170
     5
 62
     0
 63
     7
283
     0
274
    -2
284
     1
 64
     0
275
    -2
285
     1
 65
     0
276
    -2
286
     1
 66
     0
277
    -2
287
     1
 67
     0
278
    -2
288
     1
 68
     0
279
    -2
289
     1
 69
     0
  7
Standard
140
4.5
170
     5
 62
     0
 63
     7
283
     0
274
    -2
284
     1
 64
     0
275
    -2
285
     1
 65
     0
276
    -2
286
     1
 66
     0
277
    -2
287
     1
 67
     0
278
    -2
288
     1
 68
     0
279
    -2
289
     1
 69
     0
  0
ACAD_PROXY_OBJECT
  5
5140
102
{ACAD_REACTORS
330
513A
102
}
330
513A
100
AcDbProxyObject
 90
      499
 91
      507
 95
   983063
 70
     0
 93
      444
310
430C9915DA5C99599C985B59401049028333333333333E3BF0000000000000FB0107901411070040501600405405064090741402480A0340
 94
        0
1001
ACAD
1000
AcRTDxfName
1000
VISUALSTYLE
1000
AcDbSavedByObjectVersion
1070
     0
1000
AcRTDxfName
1000
VISUALSTYLE
1000
AcRTDxfName
1000
VISUALSTYLE
1000
AcRTDxfName
1000
VISUALSTYLE
  0
ACAD_PROXY_OBJECT
  5
5142
102
{ACAD_REACTORS
330
513A
102
}
330
513A
100
AcDbProxyObject
 90
      499
 91
      507
 95
   983063
 70
     0
 93
      508
310
428CD108121A5919195B8010640502408333333333333E3BF0000000000000FB01079024090700405020000000000001110200405405064090740C02480A0340
 94
        0
1001
ACAD
1000
AcRTDxfName
1000
VISUALSTYLE
1000
AcDbSavedByObjectVersion
1070
     0
1000
AcRTDxfName
1000
VISUALSTYLE
1000
AcRTDxfName
1000
VISUALSTYLE
1000
AcRTDxfName
1000
VISUALSTYLE
  0
ACAD_PROXY_OBJECT
  5
5141
102
{ACAD_REACTORS
330
513A
102
}
330
513A
100
AcDbProxyObject
 90
      499
 91
      507
 95
   983063
 70
     0
 93
      444
310
430CD915DA5C99599C985B59401059028333333333333E3BF0000000000000FB0107901411070040501600405405064090741402480A0340
 94
        0
1001
ACAD
1000
AcRTDxfName
1000
VISUALSTYLE
1000
AcDbSavedByObjectVersion
1070
     0
1000
AcRTDxfName
1000
VISUALSTYLE
1000
AcRTDxfName
1000
VISUALSTYLE
1000
AcRTDxfName
1000
VISUALSTYLE
  0
ACAD_PROXY_OBJECT
  5
513F
102
{ACAD_REACTORS
330
513A
102
}
330
513A
100
AcDbProxyObject
 90
      499
 91
      507
 95
   983063
 70
     0
 93
      396
310
4190985CDA58C0107406404333333333333E3BF0000000000000FB0107A41107004050150841D405064090741402480A0354
 94
        0
1001
ACAD
1000
AcRTDxfName
1000
VISUALSTYLE
1000
AcDbSavedByObjectVersion
1070
     0
1000
AcRTDxfName
1000
VISUALSTYLE
1000
AcRTDxfName
1000
VISUALSTYLE
1000
AcRTDxfName
1000
VISUALSTYLE
  0
ACAD_PROXY_OBJECT
  5
5146
102
{ACAD_REACTORS
330
513A
102
}
330
513A
100
AcDbProxyObject
 90
      499
 91
      507
 95
   983063
 70
     0
 93
      436
310
42509C9A59DA1D195B8010C409028333333333333E3BF0000000000000FB010790141107004050150841D405064090741402480A02995A
 94
        0
1001
ACAD
1000
AcRTDxfName
1000
VISUALSTYLE
1000
AcDbSavedByObjectVersion
1070
     0
1000
AcRTDxfName
1000
VISUALSTYLE
1000
AcRTDxfName
1000
VISUALSTYLE
1000
AcRTDxfName
1000
VISUALSTYLE
  0
ACAD_PROXY_OBJECT
  5
514A
102
{ACAD_REACTORS
330
513A
102
}
330
513A
100
AcDbProxyObject
 90
      499
 91
      507
 95
   983063
 70
     0
 93
      460
310
4310DBDB1BDC90DA185B99D9401104090240C333333333333E3BF0000000000000FB0108901411070040501508421405064090741402480A035E
 94
        0
1001
ACAD
1000
AcRTDxfName
1000
VISUALSTYLE
1000
AcDbSavedByObjectVersion
1070
     0
1000
AcRTDxfName
1000
VISUALSTYLE
1000
AcRTDxfName
1000
VISUALSTYLE
1000
AcRTDxfName
1000
VISUALSTYLE
  0
ACAD_PROXY_OBJECT
  5
5143
102
{ACAD_REACTORS
330
513A
102
}
330
513A
100
AcDbProxyObject
 90
      499
 91
      507
 95
   983063
 70
     0
 93
      508
310
42D0DBDB98D95C1D1D585B0010940D028333333333333E3BF0000000000000FB0107902409070040501000000000000111010841D405064090740C02480A0340
 94
        0
1001
ACAD
1000
AcRTDxfName
1000
VISUALSTYLE
1000
AcDbSavedByObjectVersion
1070
     0
1000
AcRTDxfName
1000
VISUALSTYLE
1000
AcRTDxfName
1000
VISUALSTYLE
1000
AcRTDxfName
1000
VISUALSTYLE
  0
ACAD_PROXY_OBJECT
  5
5145
102
{ACAD_REACTORS
330
513A
102
}
330
513A
100
AcDbProxyObject
 90
      499
 91
      507
 95
   983063
 70
     0
 93
      420
310
41111A5B4010B409028333333333333E3BF0000000000000FB010790141107004050150841D405064090741402480A02677FFFFFD2
 94
        0
1001
ACAD
1000
AcRTDxfName
1000
VISUALSTYLE
1000
AcDbSavedByObjectVersion
1070
     0
1000
AcRTDxfName
1000
VISUALSTYLE
1000
AcRTDxfName
1000
VISUALSTYLE
1000
AcRTDxfName
1000
VISUALSTYLE
  0
ACAD_PROXY_OBJECT
  5
5149
102
{ACAD_REACTORS
330
513A
102
}
330
513A
100
AcDbProxyObject
 90
      499
 91
      507
 95
   983063
 70
     0
 93
      452
310
43119858D95C185D1D195C9B8010F409028333333333333E3BF0000000000000FB010790141107004050150841D405064090741402480A0353
 94
        0
1001
ACAD
1000
AcRTDxfName
1000
VISUALSTYLE
1000
AcDbSavedByObjectVersion
1070
     0
1000
AcRTDxfName
1000
VISUALSTYLE
1000
AcRTDxfName
1000
VISUALSTYLE
1000
AcRTDxfName
1000
VISUALSTYLE
  0
ACAD_PROXY_OBJECT
  5
513B
102
{ACAD_REACTORS
330
513A
102
}
330
513A
100
AcDbProxyObject
 90
      499
 91
      507
 95
   983063
 70
     0
 93
      396
310
41519B185D00240901404333333333333E3BF0000000000000F9010740A41107004050150841D405064090741402480A1B58
 94
        0
1001
ACAD
1000
AcRTDxfName
1000
VISUALSTYLE
1000
AcDbSavedByObjectVersion
1070
     0
1000
AcRTDxfName
1000
VISUALSTYLE
1000
AcRTDxfName
1000
VISUALSTYLE
1000
AcRTDxfName
1000
VISUALSTYLE
  0
ACAD_PROXY_OBJECT
  5
513C
102
{ACAD_REACTORS
330
513A
102
}
330
513A
100
AcDbProxyObject
 90
      499
 91
      507
 95
   983063
 70
     0
 93
      484
310
43919B185D15DA5D1A115919D95CC010140901404333333333333E3BF0000000000000F9010740901411070040501600405405064090741402480A1B58
 94
        0
1001
ACAD
1000
AcRTDxfName
1000
VISUALSTYLE
1000
AcDbSavedByObjectVersion
1070
     0
1000
AcRTDxfName
1000
VISUALSTYLE
1000
AcRTDxfName
1000
VISUALSTYLE
1000
AcRTDxfName
1000
VISUALSTYLE
  0
ACAD_PROXY_OBJECT
  5
513D
102
{ACAD_REACTORS
330
513A
102
}
330
513A
100
AcDbProxyObject
 90
      499
 91
      507
 95
   983063
 70
     0
 93
      420
310
4211DBDD5C985D590010240902404333333333333E3BF0000000000000F9010740A411070040501641D405064090741402480A1B58
 94
        0
1001
ACAD
1000
AcRTDxfName
1000
VISUALSTYLE
1000
AcDbSavedByObjectVersion
1070
     0
1000
AcRTDxfName
1000
VISUALSTYLE
1000
AcRTDxfName
1000
VISUALSTYLE
1000
AcRTDxfName
1000
VISUALSTYLE
  0
ACAD_PROXY_OBJECT
  5
513E
102
{ACAD_REACTORS
330
513A
102
}
330
513A
100
AcDbProxyObject
 90
      499
 91
      507
 95
   983063
 70
     0
 93
      508
310
4451DBDD5C985D5915DA5D1A115919D95CC010340902404333333333333E3BF0000000000000F9010740901411070040501600405405064090741402480A1B50
 94
        0
1001
ACAD
1000
AcRTDxfName
1000
VISUALSTYLE
1000
AcDbSavedByObjectVersion
1070
     0
1000
AcRTDxfName
1000
VISUALSTYLE
1000
AcRTDxfName
1000
VISUALSTYLE
1000
AcRTDxfName
1000
VISUALSTYLE
  0
ACAD_PROXY_OBJECT
  5
5148
102
{ACAD_REACTORS
330
513A
102
}
330
513A
100
AcDbProxyObject
 90
      499
 91
      507
 95
   983063
 70
     0
 93
      452
310
43131A5B995C185D1D195C9B8010E409028333333333333E3BF0000000000000FB010790141107004050750841D405064090741402483A0350
 94
        0
1001
ACAD
1000
AcRTDxfName
1000
VISUALSTYLE
1000
AcDbSavedByObjectVersion
1070
     0
1000
AcRTDxfName
1000
VISUALSTYLE
1000
AcRTDxfName
1000
VISUALSTYLE
1000
AcRTDxfName
1000
VISUALSTYLE
  0
ACAD_PROXY_OBJECT
  5
5144
102
{ACAD_REACTORS
330
513A
102
}
330
513A
100
AcDbProxyObject
 90
      499
 91
      507
 95
   983063
 70
     0
 93
      428
310
429499585B1A5CDD1A58C0108409028333333333333E3BF0000000000000FB01079019070040501508421405064090741402480A1B49
 94
        0
1001
ACAD
1000
AcRTDxfName
1000
VISUALSTYLE
1000
AcDbSavedByObjectVersion
1070
     0
1000
AcRTDxfName
1000
VISUALSTYLE
1000
AcRTDxfName
1000
VISUALSTYLE
1000
AcRTDxfName
1000
VISUALSTYLE
  0
ACAD_PROXY_OBJECT
  5
5147
102
{ACAD_REACTORS
330
513A
102
}
330
513A
100
AcDbProxyObject
 90
      499
 91
      507
 95
   983063
 70
     0
 93
      420
310
42151A1A58DAD95B8010D409028333333333333E3BF0000000000000FB010790141107004050150C41D405064090741402480A0352
 94
        0
1001
ACAD
1000
AcRTDxfName
1000
VISUALSTYLE
1000
AcDbSavedByObjectVersion
1070
     0
1000
AcRTDxfName
1000
VISUALSTYLE
1000
AcRTDxfName
1000
VISUALSTYLE
1000
AcRTDxfName
1000
VISUALSTYLE
  0
DICTIONARYVAR
  5
5315
102
{ACAD_REACTORS
330
3B
102
}
330
3B
100
DictionaryVariables
280
     0
  1
1:1
  0
DICTIONARYVAR
  5
535E
102
{ACAD_REACTORS
330
3B
102
}
330
3B
100
DictionaryVariables
280
     0
  1
STANDARD
  0
DICTIONARYVAR
  5
5314
102
{ACAD_REACTORS
330
3B
102
}
330
3B
100
DictionaryVariables
280
     0
  1
STANDARD
  0
DICTIONARYVAR
  5
3D
102
{ACAD_REACTORS
330
3B
102
}
330
3B
100
DictionaryVariables
280
     0
  1
2
  0
DICTIONARYVAR
  5
3C
102
{ACAD_REACTORS
330
3B
102
}
330
3B
100
DictionaryVariables
280
     0
  1
1
  0
DICTIONARYVAR
  5
5317
102
{ACAD_REACTORS
330
3B
102
}
330
3B
100
DictionaryVariables
280
     0
  1
0
  0
DICTIONARYVAR
  5
54D6
102
{ACAD_REACTORS
330
3B
102
}
330
3B
100
DictionaryVariables
280
     0
  1

  0
DICTIONARYVAR
  5
5316
102
{ACAD_REACTORS
330
3B
102
}
330
3B
100
DictionaryVariables
280
     0
  1
127
  0
DICTIONARY
  5
5C76
330
22
100
AcDbDictionary
280
     1
281
     1
  3
ACAD_XREC_ROUNDTRIP
360
5C77
  0
DICTIONARY
  5
51A3
330
4ED1
100
AcDbDictionary
280
     1
281
     1
  3
ACAD_XREC_ROUNDTRIP
360
5C7C
  3
ADSK_XREC_LAYOUTTHUMBNAIL
360
51A4
  0
DICTIONARY
  5
512B
330
512A
100
AcDbDictionary
280
     1
281
     1
  3
ACAD_XREC_ROUNDTRIP
360
57EC
  3
BUMPTILE
360
512D
  3
DIFFUSETILE
360
512C
  3
OPACITYTILE
360
5130
  3
REFLECTIONTILE
360
512F
  3
REFRACTIONTILE
360
5131
  3
SPECULARTILE
360
512E
  0
DICTIONARY
  5
5123
330
5122
100
AcDbDictionary
280
     1
281
     1
  3
ACAD_XREC_ROUNDTRIP
360
57EB
  3
BUMPTILE
360
5125
  3
DIFFUSETILE
360
5124
  3
OPACITYTILE
360
5128
  3
REFLECTIONTILE
360
5127
  3
REFRACTIONTILE
360
5129
  3
SPECULARTILE
360
5126
  0
DICTIONARY
  5
5133
330
5132
100
AcDbDictionary
280
     1
281
     1
  3
ACAD_XREC_ROUNDTRIP
360
57ED
  3
BUMPTILE
360
5135
  3
DIFFUSETILE
360
5134
  3
OPACITYTILE
360
5138
  3
REFLECTIONTILE
360
5137
  3
REFRACTIONTILE
360
5139
  3
SPECULARTILE
360
5136
  0
DICTIONARY
  5
5C78
330
4EA3
100
AcDbDictionary
280
     1
281
     1
  3
ACAD_XREC_ROUNDTRIP
360
5C79
  0
DICTIONARY
  5
5C7A
330
4EA4
100
AcDbDictionary
280
     1
281
     1
  3
ACAD_XREC_ROUNDTRIP
360
5C7B
  0
DICTIONARY
  5
52E2
330
514D
100
AcDbDictionary
280
     1
281
     1
  3
ACAD_ROUNDTRIP_2008_TABLESTYLE_CELLSTYLEMAP
360
57CF
  3
ACAD_XREC_ROUNDTRIP
360
57EE
  0
XRECORD
  5
5C77
102
{ACAD_REACTORS
330
5C76
102
}
330
5C76
100
AcDbXrecord
280
     1
102
SHADEPLOT
 70
     0
102
SHADEPLOTRESLEVEL
 70
     2
102
SHADEPLOTCUSTOMDPI
 70
   300
  0
XRECORD
  5
5C7C
102
{ACAD_REACTORS
330
51A3
102
}
330
51A3
100
AcDbXrecord
280
     1
102
SHADEPLOT
 70
     1
102
SHADEPLOTRESLEVEL
 70
     2
102
SHADEPLOTCUSTOMDPI
 70
   300
  0
XRECORD
  5
51A4
102
{ACAD_REACTORS
330
51A3
102
}
330
51A3
100
AcDbXrecord
280
     1
310
28000000630000008C0000000100080000000000B0360000000000000000000000010000000000000000000000000000FFFFFF000000000000000000000000000000000000000000000000000000000000000000330000006600000099000000CC000000FF00000000330000333300006633000099330000CC330000FF3300
310
0000660000336600006666000099660000CC660000FF66000000990000339900006699000099990000CC990000FF99000000CC000033CC000066CC000099CC0000CCCC0000FFCC000000FF000033FF000066FF000099FF0000CCFF0000FFFF000000003300330033006600330099003300CC003300FF003300003333003333
310
33006633330099333300CC333300FF33330000663300336633006666330099663300CC663300FF66330000993300339933006699330099993300CC993300FF99330000CC330033CC330066CC330099CC3300CCCC3300FFCC330000FF330033FF330066FF330099FF3300CCFF3300FFFF330000006600330066006600660099
310
006600CC006600FF00660000336600333366006633660099336600CC336600FF33660000666600336666006666660099666600CC666600FF66660000996600339966006699660099996600CC996600FF99660000CC660033CC660066CC660099CC6600CCCC6600FFCC660000FF660033FF660066FF660099FF6600CCFF6600
310
FFFF660000009900330099006600990099009900CC009900FF00990000339900333399006633990099339900CC339900FF33990000669900336699006666990099669900CC669900FF66990000999900339999006699990099999900CC999900FF99990000CC990033CC990066CC990099CC9900CCCC9900FFCC990000FF99
310
0033FF990066FF990099FF9900CCFF9900FFFF99000000CC003300CC006600CC009900CC00CC00CC00FF00CC000033CC003333CC006633CC009933CC00CC33CC00FF33CC000066CC003366CC006666CC009966CC00CC66CC00FF66CC000099CC003399CC006699CC009999CC00CC99CC00FF99CC0000CCCC0033CCCC0066CC
310
CC0099CCCC00CCCCCC00FFCCCC0000FFCC0033FFCC0066FFCC0099FFCC00CCFFCC00FFFFCC000000FF003300FF006600FF009900FF00CC00FF00FF00FF000033FF003333FF006633FF009933FF00CC33FF00FF33FF000066FF003366FF006666FF009966FF00CC66FF00FF66FF000099FF003399FF006699FF009999FF00CC
310
99FF00FF99FF0000CCFF0033CCFF0066CCFF0099CCFF00CCCCFF00FFCCFF0000FFFF0033FFFF0066FFFF0099FFFF00CCFFFF00FFFFFF00000000000D0D0D001A1A1A00282828003535350043434300505050005D5D5D006B6B6B00787878008686860093939300A1A1A100AEAEAE00BBBBBB00C9C9C900D6D6D600E4E4E400
310
F1F1F100FFFFFF0000000000000000000000000000000000000000000000000000000000000000000000000000000000F5F5F5F5F5F5F5F5F5F5F5F5F5F5F5F5F5F5F5F5F5F5F5F5F5F5F5F5F5F5F5F5F5F5F5F5F5F5F5F5F5F5F5F5F5F5F5F5F5F5F5F5F5F5F5F5F5F5F5F5F5F5F5F5F5F5F5F5F5F5F5F5F5F5F5F5F5F5F5
310
F5F5F5F5F5F5F5F5F5F5F5F5F5F5F5F5F5F5F5EF00E2E2E2E2E2E2E2E2E2E2E2E2E2E2E2E2E2E2E2E2E2E2E2E2E2E2E2E2E2E2E2E2E2E2E2E2E2E2E2E2E2E2E2E2E2E2E2E2E2E2E2E2E2E2E2E2E2E2E2E2E2E2E2E2E2E2E2E2E2E2E2E2E2E2E2E2E2E2E2E2E2E2E2E2E2E2E2E2E2E2E2E2E2E2E2E2E2F5EF00E2E2E2E2E2E2
310
E2E2E2E2E2E2E2E2E2E2E2E2E2E2E2E2E2E2E2E2E2E2E2E2E2E2E2E2E2E2E2E2E2E2E2E2E2E2E2E2E2E2E2E2E2E2E2E2E2E2E2E2E2E2E2E2E2E2E2E2E2E2E2E2E2E2E2E2E2E2E2E2E2E2E2E2E2E2E2E2E2E2E2E2E2E2E2E2E2E2E2F5EF00E2F5F5F5F5F5F5F5F5E2E2E2E2E2E2E2E2F5F5F5F5F5F5F5F5F5F5F5F5F5F5F5E2
310
E2E2E2E2E2E2E2E2F5F5F5F5F5F5F5F5F5F5F5F5F5F5E2E2E2E2E2E2E2E2E2F5F5F5F5F5F5F5F5F5F5F5F5F5F5F5E2E2E2E2E2E2E2E2F5F5F5F5F5F5F5F5E2E2F5EF00E2F5E2E2E2E2E2E2E2E2E2E2E2E2E2E2E2E2E2E2E2E2E2E2E2E2E2E2F5F5E2E2E2E2E2E2E2E2E2E2E2E2E2E2E2E2E2E2E2E2E2E2E2E2E2E2E2E2E2E2
310
E2E2E2E2E2E2E2E2E2E2E2E2E2E2E2E2E2E2E2E2E2E2E2E2E2E2E2E2E2E2E2E2E2E2F5E2E2F5EF00E2F5E2E2E2E2E2F5F5F5F5F5F5F5F5F5F5F5F5F5F5F5F5F5F5F5F5F5F5F5F5F5F5F5F5F5F5F5F5F5F5F5F5F5F5F5F5F5F5F5F5F5F5F5F5F5F5F5F5F5F5F5F5F5F5F5F5F5F5F5F5F5F5F5F5F5F5F5F5F5F5F5F5F5F5F5F5
310
F5F5F5E2E2E2E2F5E2E2F5EF00E2F5E2E2E2E2E2F5F5F5F5F5F5F5F5F5F5F5F5F5F5F5F5F5F5F5F5F5F5F5F5F5F5F5F5F5F5F5F5F5F5F5F5F5F5F5F5F5F5F5F5F5F5F5F5F5F5F5F5F5F5F5F5F5F5F5F5F5F5F5F5F5F5F5F5F5F5F5F5F5F5F5F5F5F5F5F5F5F5F5F5E2E2E2F5E2E2F5EF00E2F5E2E2E2E2E2E2E2E2E2E2E2E2
310
E2E2E2E2E2E2E2E2E2E2E2E2E2E2E2E2E2E2E2E2E2E2E2E2E2E2E2E2E2E2E2E2E2E2E2E2E2E2E2E2E2E2E2E2E2E2E2E2E2E2E2E2E2E2E2E2E2E2E2E2E2E2E2E2E2E2E2E2E2E2E2E2E2E2E2E2E2E2E2E2F5E2E2F5EF00E2F5E2E2E2E2E2EAEAEAEAEAEAEAEAEAEAEAEAEAEAEAEAEAEAEAEAEAEAEAEAEAEAEAEAEAEAEAEAEAEA
310
EAEAEAEAEAEAEAEAEAEAEAEAEAEAEAEAEAEAEAEAEAEAEAEAEAEAEAEAEAEAEAEAEAEAEAEAEAEAEAEAEAEAEAEAEAEAEAEAEAEAE2E2E2F5E2E2F5EF00E2F5E2E2E2E2E2EAE2E2E2E2E2E2E2E2E2E2E2E2E2E2E2E2E2E2E2E2E2E2E2E2E2E2E2E2E2E2E2E2E2E2E2E2E2E2E2E2E2E2E2E2E2E2E2E2E2E2E2E2E2E2E2E2E2E2E2E2
310
E2E2E2E2E2E2E2E2E2E2E2E2E2E2E2E2E2E2E2E2E2E2EAE2E2E2F5E2E2F5EF00E2F5E2E2E2E2E2EAE2E2E2E2E2E2E2E2E2E2E2E2E2E2E2E2E2E2E2E2E2E2E2E2E2E2E2E2E2E2E2E2E2E2E2E2E2E2E2E2E2E2E2E2E2E2E2E2E2E2E2E2E2E2E2E2E2E2E2E2E2E2E2E2E2E2E2E2E2E2E2E2E2E2E2E2E2E2E2E2E2E2EAE2E2E2F5
310
E2E2F5EF00E2F5E2E2E2E2E2EAE2E2E2E2E2E2E2E2E2E2E2E2E2E2E2E2E2E2E2E2E2E2E2E2E2E2E2E2E2E2E2E2E2E2E2E2E2E2E2E2E2E2E2E2E2E2E2E2E2E2E2E2E2E2E2E2E2E2E2E2E2E2E2E2E2E2E2E2E2E2E2E2E2E2E2E2E2E2E2E2E2E2EAE2E2E2F5E2E2F5EF00E2E2E2E2E2E2E2EAE2E2E2E2E2E2E2E2E2E2E2E2E2E2
310
E2E2E2E2E2E2E2E2E2E2E2E2E2E2E2E2E2E2E2E2E2E2E2E2E2E2E2E2E2E2E2E2E2E2E2E2E2E2E2E2E2E2E2E2E2E2E2E2E2E2E2E2E2E2E2E2E2E2E2E2E2E2E2E2E2E2E2E2EAE2E2E2E2E2E2F5EF00E2E2E2E2E2E2E2EAE2E2E2E2E2E2E2E2E2E2E2E2E2E2E2E2E2E2E2E2E2E2E2E2E2E2E2E2E2E2E2E2E2E2E2E2E2E2E2E2E2
310
E2E2E2E2E2E2E2E2E2E2E2E2E2E2E2E2E2E2E2E2E2E2E2E2E2E2E2E2E2E2E2E2E2E2E2E2E2E2E2E2E2EAE2E2E2E2E2E2F5EF00E2E2E2E2E2E2E2EAE2E2E2E2E2E2E2E2E2E2E2E2E2E2E2E2E2E2E2E2E2E2E2E2E2E2E2E2E2E2E2E2E2E2E2E2E2E2E2E2E2E2E2E2E2E2E2E2E2E2E2E2E2E2E2E2E2E2E2E2E2E2E2E2E2E2E2E2
310
E2E2E2E2E2E2E2E2E2E2E2E2E2E2EAE2E2E2E2E2E2F5EF00E2E2E2E2E2E2E2EAE2E2E2E2E2E2E2E2E2E2E2E2E2E2E2E2E2E2E2E2E2E2E2E2E2E2E2E2E2E2E2E2E2E2E2E2E2E2E2E2E2E2E2E2E2E2E2E2E2E2E2E2E2E2E2E2E2E2E2E2E2E2E2E2E2E2E2E2E2E2E2E2E2E2E2E2E2E2E2E2E2E2EAE2E2E2E2E2E2F5EF00E2E2E2
310
E2E2E2E2EAE2E2E2E2E2E2E2E2E2E2E2E2E2E2E2E2E2E2E2E2E2E2E2E2E2E2E2E2E2E2E2E2E2E2E2E2E2E2E2E2E2E2E2E2E2E2E2E2E2E2E2E2E2E2E2E2E2E2E2E2E2E2E2E2E2E2E2E2E2E2E2E2E2E2E2E2E2E2E2E2E2E2EAE2E2E2E2E2E2F5EF00E2E2E2E2E2E2E2EAE2E2E2E2E2E2E2E2E2E2E2E2E2E2E2E2E2E2E2E2E2E2
310
E2E2E2E2E2E2E2E2E2E2E2E2E2E2E2E2E2E2E2E2E2E2E2E2E2E2E2E2E2E2E2E2E2E2E2E2E2E2E2E2E2E2E2E2E2E2E2E2E2E2E2E2E2E2E2E2E2E2E2E2EAE2E2E2E2E2E2F5EF00E2E2E2E2E2E2E2EAE2E2E2E2E2E2E2E2E2E2E2E2E2E2E2E2E2E2E2E2E2E2E2E2E2E2E2E2E2E2E2E2E2E2E2E2E2E2E2E2E2E2E2E2E2E2E2E2E2
310
E2E2E2E2E2E2E2E2E2E2E2E2E2E2E2E2E2E2E2E2E2E2E2E2E2E2E2E2E2E2E2E2E2EAE2E2E2E2E2E2F5EF00E2E2E2E2E2E2E2EAE2E2E2E2E2E2E2E2E2E2E2E2E2E2E2E2E2E2E2E2E2E2E2E2E2E2E2E2E2E2E2E2E2E2E2E2E2E2E2E2E2E2E2E2E2E2E2E2E2E2E2E2E2E2E2E2E2E2E2E2E2E2E2E2E2E2E2E2E2E2E2E2E2E2E2E2
310
E2E2E2E2E2E2EAE2E2E2E2E2E2F5EF00E2E2E2E2E2E2E2EAE2E2E2E2E2E2E2E2E2E2E2E2E2E2E2E2E2E2E2E2E2E2E2E2E2E2E2E2E2E2E2E2E2E2E2E2E2E228E2E2E2E2E2E2E2E2E2E2E2E2E2E2E2E2E2E2E2E2E2E2E2E2E2E2E2E2E2E2E2E2E2E2E2E2E2E2E2E2E2E2E2EAE2E2E2E2E2E2F5EF00E2E2E2E2E2E2E2EAE2E2E2
310
E2E2E2E2E2E2E2E2E2E2E2E2E2E2E2E2E2E2E2E2E2E2E2E2E2E2E2E2E2E2E2E2E2E2E228E2E2E2E2E2E2E2E2E2E2E2E2E2E2E2E2E2E2E2E2E2E2E2E2E2E2E2E2E2E2E2E2E2E2E2E2E2E2E2E2E2E2E2EAE2E2E2E2E2E2F5EF00E2F5E2E2E2E2E2EAE2E2E2E2E2E2E2E2E2E2E2E2E2E2E2E2E2E2E2E2E2E2E2E2E2E2E2E2E2E2
310
E2E2E2E2E2E2E2E228E2E2E2E2E2E2E2E2E2E2E2E2E2E2E2E2E2E2E2E2E2E2E2E2E2E2E2E2E2E2E2E2E2E2E2E2E2E2E2E2E2E2E2EAE2E2E2F5E2E2F5EF00E2F5E2E2E2E2E2EAE2E2E2E2E2E2E2E2E2E2E2E2E2E2E2E2E2E2E2E2E2E2E2E2E2E2E2E2E2E2E2E2E2E2E2E2E2DC28E2E2E2E2E2E2E2E2E2E2E2E2E2E2E2E2E2E2
310
E2E2E2E2E2E2E2E2E2E2E2E2E2E2E2E2E2E2E2E2E2E2E2E2E2EAE2E2E2F5E2E2F5EF00E2F5E2E2E2E2E2EAE2E2E2E2E2E2E2E2E2E2E2E2E2E2E2E2E2E2E2E2E2E2E2E2E2E2E2E2E2E2E2E2E2E2E2DCDCDC28E2E2E2E2E2E2E2E2E2E2E2E2E2E2E2E2E2E2E2E2E2E2E2E2E2E2E2E2E2E2E2E2E2E2E2E2E2E2E2E2E2E2E2EAE2
310
E2E2F5E2E2F5EF00E2F5E2E2E2E2E2EAE2E2E2E2E2E228E2E2E2E2E2E2E2E2E2E2E2E2E2E2E2E2E2E2E2E2E2E2E2E2E2DCDCDCDCDCE228E2E2E2E2E2E2E2E2E2E2E2E2E2E2E2E2E2E2E2E2E2E2E2E2E2E2E2E2E2E2E2E2E2E2E2E2E2E2E2E2E2E2E2EAE2E2E2F5E2E2F5EF00E2F5E2E2E2E2E2EAE2E2E2E2E2E228E2E2E2E2
310
E2E2E2E2E2E2E2E2E2E2E2E2E2E2E2E2E2E2E2DCDCDCDCDCDCE2E228E2E2E2E2E2E2E2E2E2E2E2E2E2E2E2E2E2E2E2E2E2E2E2E2E2E2E2E2E2E2E2E2E2E2E2E2E2E2E2E2E2E2E2EAE2E2E2F5E2E2F5EF00E2F5E2E2E2E2E2EAE2E2E2E2E2E228E2E2E2E2E2E2E2E2E2E2E2E2E2E2E2E2E2E2E2E2DCDCDCDCDCE2E2DCDCE2E2
310
28E2E2E2E2E2E2E2E2E2E2E2E2E2E2E2E2E2E2E2E2E2E2E2E2E2E2E2E2E2E2E2E2E2E2E2E2E2E2E2E2E2E2E2EAE2E2E2F5E2E2F5EF00E2F5E2E2E2E2E2EAE2E2E2E2E2E228E2E2E2E2E2E2E2E2E2E2E2E2E2E2E2E2E2E2DCDCDCDCDCE2E2E2E2DCDCE2E228E2E2E2E2E2E2E2E2E2E2E2E2E2E2E2E2E2E2E2E2E2E2E2E2E2E2
310
E2E2E2E2E2E2E2E2E2E2E2E2E2E2E2E2E2EAE2E2E2F5E2E2F5EF00E2F5E2E2E2E2E2EAE2E2E2E2E2E228DCDCDCDCDCDCDCDCDCDCDCDCDCDCDCDCDCDCDCDCE2E2E2E2E2E2E2DCDCE2E228E2E2E2E2E2E2F0E2E2E2E2E2E2E2E2E2E2E2E2E2E2E2E2E2E2E2E2E2E2E2E2E2E2E2E2E2E2E2E2E2E2F0E2EAE2E2E2F5E2E2F5EF00
310
E2F5E2E2E2E2E2EAE2E2E2E2E2E228DCDCDCDCDCDCDCDCDCDCDCDCDCDCDCDCDCDCE2E2E2E2E2E2E2E2E2DCDCE2E228E2E2E2E2E2E2F0E2E2E2E2E2E2E2E2E2E2E2E2E2E2E2E2E2E2E2E2E2E2E2E2E2E2E2E2E2E2E2E2E2E2F0E2EAE2E2E2F5E2E2F5EF00E2F5E2E2E2E2E2EAE2E2E2E2E2E228E2E2E2E2DCDCE2E2E2E2E2E2
310
E2E2E2DCDCDCE2E2E2E2E2E2E2E2E2DCDCE228E2E2E2E2E2E2E2F0E2E2E2E2E2E2E2E2E2E2E2E2E2E2E2E2E2E2E2E2E2E2E2E2E2E2E2E2E2E2E2E2E2E2F0E2EAE2E2E2F5E2E2F5EF00E2F5E2E2E2E2E2EAE2E2E2E2E2E228E2E2E2E2DCDCE2E2E2E2E2E2E2E2E2DCDCDCE2E2E2E2E2E2E2E2E2DCDCE228E2E2E2E2E2E2E2F0
310
E2E2E2E2E2E2E2E2E2E2E2E2E2E2E2E2E2E2E2E2E2E2E2E2E2E2E2E2E2E2E2E2E2E2F0E2EAE2E2E2F5E2E2F5EF00E2F5E2E2E2E2E2EAE2E2E2E2E2E228E2E2E2E2DCDCE2E2E2E2E2E2E2E2E2DCDCDCE2E2E2E2E2E2E2E2E2DCDCE228E2E2E2E2E2E2E2F0E2E2E2E2E2E2E2E2ECECE2E2E2E2E2E2E2E2E2E2E2E2E2E2E2E2E2
310
E2E2E2E2E2E2E2F0E2EAE2E2E2F5E2E2F5EF00E2F5E2E2E2E2E2EAE2E2E2E2E228E2E2E2E2E2DCDCE2E2E2E2E2E2E2E2E2DCDCDCE2E2E2E2E2E2E2E2E2DCDCE228E2F5F5E2E2E2E2F0E2E2EFEFEFEFEFECECECECECE2E2E2E2E2E2E2E2E2E2E2E2E2E2E2E2E2E2E2E2E2E2F0E2EAE2E2E2F5E2E2F5EF00E2F5E2E2E2E2E2EA
310
E2E2E2E2E228E2E2E2E2E2DCDCE2E2E2E2E2E2E2E2E2DCDCDCE2E2E2E2E2E2E2E2E2DCDCE228E2F5F5E2E2E2E2F0E2E2EFEFEFEFEFECECECECEFF5F5F5F5E2E2E2E2E2E2E2E2E2E2E2E2E2E2E2E2E2E2F0E2EAE2E2E2F5E2E2F5EF00E2F5E2E2E2E2E2EAE2E2E2E2E228E2E2E2E2E2DCDCE2E2E2E2E2E2E2E2E2DCDCDCE2E2
310
E2E2E2E2E2E2E2DCDCE228E2E2E2E2E2E2E2F0E2E2EFEFEFE2EFECECECECEFF5F5F5F5E2E2E2E2E2E2E2E2E2E2E2E2E2E2E2E2E2E2F0E2EAE2E2E2F5E2E2F5EF00E2F5E2E2E2E2E2EAE2E2E2E2E228E2E2E2E2E2DCDCE2E2E2E2E2E2E2E2E2DCDCDCE2E2E2E2E2E2E2E2E2DCDCE228E2ECE2E2E2E2E2F0E2ECECE2ECECEFEF
310
ECECEFECE2E2E2E2E2E2E2E2E2E2E2E2E2E2E2E2E2E2E2E2E2E2F0E2EAE2E2E2F5E2E2F5EF00E2F5E2E2E2E2E2EAE2E2E2E2E228E2E2E2E2E2DCDCE2E2E2E2E2E2E2E2E2DCDCDCE2E2E2E2E2E2E2E2E2DCDCE228E2ECE2E2E2E2E2F0EFECECE2ECECEFEFECECE2ECECEFEFEFEFEFEFEFEFEFEFEFEFEFEFEFEFEFEFEFEFEFF0
310
E2EAE2E2E2F5E2E2F5EF00E2E2E2E2E2E2E2EAE2E2E2E2E228E2E2E2E2E2DCDCE2E2E2E2E2E2E2E2E2DCDCDCE2E2E2E2E2E2E2E2DCDCDCDC28E2ECE2E2E2E2E2F0EFECECE2ECECEFEFE2E2E2ECECEFE2EFEFE2E2E2E2E2E2E2E2E2E2E2E2E2E2E2EFEFF0E2EAE2E2E2E2E2E2F5EF00E2E2E2E2E2E2E2EAE2E2E2F5F528E2E2
310
E2E2E2DCDCE2E2E2E2E2E2E2E2E2DCDCDCE2E2E2E2E2DCDCDCE2DCDCE228E2ECE2E2E2E2E2F0EFECECE2ECECEFEFEFEFEFECECEFE2EFE2E2E2E2E2E2E2E2E2E2E2E2E2E2E2E2E2EFF0E2EAE2E2E2E2E2E2F5EF00E2E2E2E2E2E2E2EAE2E2E2F5F528E2E2E2E2E2DCDCE2E2E2E2E2E2E2E2E2DCDCDCE2E2E2DCDCE2E2E2E2DC
310
DCE228E2ECE2E2E2E2E2F0EFE2EFE2ECECECECEFEFEFEFE2E2E2EFE2E2E2E2E2E2E2E2E2E2E2E2E2E2E2E2E2EFF0E2EAE2E2E2E2E2E2F5EF00E2E2E2E2E2E2E2EAE2E2E2ECE228E2E2E2E2E2DCDCE2E2E2E2E2E2E2E2E2DCDCDCDCDCDCE2E2E2E2E2E2DCDCE228E2ECE2E2E2E2E2F0EFE2EFE2ECECECECE2E2E2EFE2E2E2EF
310
E2E2E2E2E2E2E2E2E2E2E2E2E2E2E2E2E2EFF0E2EAE2E2E2E2E2E2F5EF00E2E2E2E2E2E2E2EAE2E2E2ECEC28DCDCDCDCDCDCDCDCDCDCDCDCDCDCDCDCDCDCDCE2E2E2E2E2E2E2E2E2DCDCE228E2ECE2E2E2E2E2F0EFEFEFEFEFECECEFEFEFEFEFEFEFEFEFE2E2E2E2E2E2E2E2E2E2E2E2E2E2E2E2E2EFF0E2EAE2E2E2E2E2E2
310
F5EF00E2E2E2E2E2E2E2EAE2E2E2ECE2E228DCDCDCDCDCDCDCDCDCDCDCDCDCDCDCDCDCDCE2E2E2E2E2E2E2E2E2DCDCE228ECECE2E2E2F0F0F0F0F0F0F0F0F0F0F0F0F0F0F0F0F0F0F0F0F0F0F0F0F0F0F0F0F0F0F0F0F0F0F0F0F0F0F0EAE2E2E2E2E2E2F5EF00E2E2E2E2E2E2E2EAE2E2E2ECE2E228E2E2E2E2DCDCE2E2E2
310
E2E2E2E2E2E2DCDCDCE2E2E2E2E2E2E2E2E2DCDCEC28E2E2E2E2E2E2E2F0EFE2E2E2ECECECECE2E2E2E2E2E2EFEFE2E2E2E2E2E2E2E2E2E2E2E2E2E2E2E2E2EFF0E2EAE2E2E2E2E2E2F5EF00E2E2E2E2E2E2E2EAE2E2E2ECE2E228E2E2E2E2DCDCE2E2E2E2E2E2E2E2E2DCDCDCE2E2E2E2E2E2E2ECECECDCE2E228E2E2E2E2
310
E2E2F0EFE2EFE2ECECECECEFEFEFEFE2E2E2EFE2E2E2E2E2E2E2E2E2E2E2E2E2E2E2E2E2EFF0E2EAE2E2E2E2E2E2F5EF00E2E2E2E2E2E2E2EAE2E2E2ECE2E228E2E2E2E2DCDCE2E2E2E2E2E2E2E2E2DCDCDCE2E2E2E2E2ECECE2E2DCDCE2E228E2E2E2E2E2E2F0EFE2EFE2ECECEFEFEFEFEFEFE2E2E2EFE2E2E2E2E2E2E2E2
310
E2E2E2E2E2E2E2E2E2EFF0E2EAE2E2E2E2E2E2F5EF00E2F5E2E2E2E2E2EAE2E2E2ECE2E228E2E2E2E2DCDCE2E2E2E2E2E2E2E2E2DCDCDCE2E2E2E2E2E2E2E2E2DCDCE2E228E2E2E2E2E2E2F0EFECECE2ECECEFEFEFEFEFECECEFE2EFE2E2E2E2E2E2E2E2E2E2E2E2E2E2E2E2E2EFF0E2EAE2E2E2F5E2E2F5EF00E2F5E2E2E2
310
E2E2EAE2E2E2ECE2E228E2E2E2E2DCDCE2E2E2E2E2E2E2E2E2DCDCDCECE2E2E2E2E2E2E2E2DCDCE2E2E228E2E2E2E2E2F0EFECECE2ECECEFEFE2E2E2ECECEFEFEFEFEFEFEFEFEFEFEFEFEFEFEFEFEFEFEFEFEFF0E2EAE2E2E2F5E2E2F5EF00E2F5E2E2E2E2E2EAE2E2E2ECECEC28ECECECECECECECECECECE2E2E2E2ECECEC
310
ECE2E2E2E2E2E2E2E2E2DCDCE2E2E228E2E2E2E2E2F0EFECECE2ECECEFEFECECE2ECECEFEFEFEFEFEFEFEFF5F5F5F5F5EFEFEFEFEFEFEFEFF0E2EAE2E2E2F5E2E2F5EF00E2F5E2E2E2E2E2EAE2E2E2E2E2E228E2E2E2E2DCDCE2E2E2E2E2E2E2E2E2DCDCDCE2E2E2E2E2E2E2E2E2DCDCE2E2DC28E2E2E2E2E2F0E2E2ECE2EC
310
ECEFEFECECEFECF5F5F5F5E2E2E2E2E2F5F5F5F5F5E2E2E2E2E2E2E2E2F0E2EAE2E2E2F5E2E2F5EF00E2F5E2E2E2E2E2EAE2E2E2E2E2E228E2E2E2E2DCDCE2E2E2E2E2E2E2E2E2DCDCDCE2E2E2E2E2E2E2E2DCDCDCDCDCDC28E2E2E2E2E2F0E2E2EFEFEFE2EFECECECECEFF5F5F5F5E2E2E2E2E2E2E2E2E2E2E2E2E2E2E2E2
310
E2E2F0E2EAE2E2E2F5E2E2F5EF00E2F5E2E2E2E2E2EAE2E2E2E2E2E228E2E2E2E2DCDCE2E2E2E2E2E2E2E2E2DCDCDCE2E2E2E2E2DCDCDCDCDCDCDCE2E228E2E2E2E2E2F0E2E2EFEFEFEFEFECECECECEFE2E2E2E2E2E2E2E2E2E2E2E2E2E2E2E2E2E2E2E2E2E2F0E2EAE2E2E2F5E2E2F5EF00E2F5E2E2E2E2E2EAE2E2E2E2E2
310
E228E2E2E2E2DCDCE2E2E2E2E2E2E2E2E2DCDCDCE2E2E2DCDCDCDCDCE2DCDCE2E2E228E2E2E2E2E2F0E2E2EFEFEFEFEFECECECECECE2E2E2E2E2E2E2E2E2E2E2E2E2E2E2E2E2E2E2E2E2E2F0E2EAE2E2E2F5E2E2F5EF00E2F5E2E2E2E2E2EAE2E2E2E2E228E2E2E2E2E2DCDCE2E2E2E2E2E2E2E2E2DCDCDCDCDCDCDCDCE2E2
310
E2E2DCDCE2E2E228E2E2E2E2E2F0E2E2E2E2E2E2E2E2ECECE2E2E2E2E2E2E2E2E2E2E2E2E2E2E2E2E2E2E2E2E2E2E2E2F0E2EAE2E2E2F5E2E2F5EF00E2F5E2E2E2E2E2EAE2E2E2E2E228DCDCDCDCDCDCDCDCDCDCDCDCDCDCDCDCDCDCDCDCDCDCE2E2E2E2E2E2DCDCE2E2E228E2E2E2E2E2F0E2E2EFEFEFEFEFECECECECECE2
310
E2E2E2E2E2E2E2E2E2E2E2E2E2E2E2E2E2E2E2E2E2F0E2EAE2E2E2F5E2E2F5EF00E2F5E2E2E2E2E2EAE2E2E2E2E228DCDCDCDCDCDCDCDCDCDCDCDCDCDCDCDCDCDCDCE2E2E2E2E2E2E2E2E2DCDCE2E228E2E2E2E2E2E2F0E2E2EFEFEFEFEFECECECECEFF5F5F5F5E2E2E2E2E2E2E2E2E2E2E2E2E2E2E2E2E2E2F0E2EAE2E2E2
310
F5E2E2F5EF00E2F5E2E2E2E2E2EAE2E2E2E2E228E2E2E2E2E2DCDCE2E2E2E2E2E2E2E2E2DCDCDCE2E2E2E2E2E2E2E2E2DCDCE2E228E2E2E2E2E2E2F0E2E2EFEFEFE2EFECECECECEFF5F5F5F5E2E2E2E2E2E2E2E2E2E2E2E2E2E2E2E2E2E2F0E2EAE2E2E2F5E2E2F5EF00E2F5E2E2E2E2E2EAE2E2E2E2E228E2E2E2E2E2DCDC
310
E2E2E2E2E2E2E2E2E2DCDCDCE2E2E2E2E2E2E2E2E2DCDCE228E2E2E2E2E2E2E2F0E2ECECE2ECECEFEFECECEFECE2E2E2E2E2E2E2E2E2E2E2E2E2E2E2E2E2E2E2E2E2E2F0E2EAE2E2E2F5E2E2F5EF00E2F5E2E2E2E2E2EAE2E2E2E2E228E2E2E2E2E2DCDCE2E2E2E2E2E2E2E2E2DCDCDCE2E2E2E2E2E2E2E228282828E2E2E2
310
E2E2E2E2E2F0EFECECE2ECECEFEFECECE2ECECEFE2E2E2E2E2E2E2E2E2E2E2E2E2E2E2E2E2E2E2E2F0E2EAE2E2E2F5E2E2F5EF00E2F5E2E2E2E2E2EAE2E2E2E2E228E2E2E2E2E2DCDCE2E2E2E2E2E2E2E2E2DCDCDCE2E2E22828282828E2E2E2E2E2E2E2E2E2E2E2E2F0EFECECE2ECECEFEFE2E2E2ECECEFE2E2E2E2E2E2E2
310
E2E2E2E2E2E2E2E2E2E2E2E2E2F0E2EAE2E2E2F5E2E2F5EF00E2F5E2E2E2E2E2EAE2E2E2E2E2E22828E2E2E228282828282828E2E2E2E2DCDCDC282828E2E2E2E2E2E2E2E2E2E2E2E2E2E2E2E2E2F0EFECECE2ECECEFEFEFEFEFECECEFE2E2E2E2E2E2E2E2E2E2E2E2E2E2E2E2E2E2E2E2F0E2EAE2E2E2F5E2E2F5EF00E2F5
310
E2E2E2E2E2EAE2E2E2E2E2E2E228282828E2E2E2E2E2E2E228282828282828E2E2E2E2E2E2E2E2E2E2E2E2E2E2E2E2E2E2E2E2F0EFE2EFE2ECECECECEFEFEFEFE2EFE2E2E2E2E2E2E2E2E2E2E2E2E2E2E2E2E2E2E2E2F0E2EAE2E2E2F5E2E2F5EF00E2F5E2E2E2E2E2EAE2E2E2E2E2E2E2E2E2E2E2E2E2E2E2E2E2E2E2E2E2
310
E2E2E2E2E2E2E2E2E2E2E2E2E2E2E2E2E2E2E2E2E2E2E2E2F0EFE2EFE2ECECECECEFEFE2EFE2EFE2E2E2E2E2E2E2E2E2E2E2E2E2E2E2E2E2E2E2E2F0E2EAE2E2E2F5E2E2F5EF00E2E2E2E2E2E2E2EAE2E2E2E2E2E2E2E2E2E2E2E2E2E2E2E2E2E2E2E2E2E2E2E2E2E2E2E2E2E2E2E2E2E2E2E2E2E2E2E2E2E2E2E2E2F0EFEF
310
EFEFEFEFEFEFEFEFEFEFEFEFE2E2E2E2E2E2E2E2E2E2E2E2E2E2E2E2E2E2E2E2F0E2EAE2E2E2E2E2E2F5EF00E2E2E2E2E2E2E2EAE2E2E2E2E2E2E2E2E2E2E2E2E2E2E2E2E2E2E2E2E2E2E2E2E2E2E2E2E2E2E2E2E2E2E2E2E2E2E2E2E2E2E2E2E2F0EFEFEFEFEFEFEFEFEFEFEFEFEFEFE2E2E2E2E2E2E2E2E2E2E2E2E2E2E2
310
E2E2E2E2E2F0E2EAE2E2E2E2E2E2F5EF00E2E2E2E2E2E2E2EAE2E2E2E2E2E2E2E2E2E2E2E2E2E2E2E2E2E2E2E2F5F5F5F5F5F5F5F5F5F5F5F5F5E2E2E2E2E2E2E2E2E2E2E2DCEFEFEFE2E2ECECECECE2E2E2E2E2EFE2E2E2E2E2E2E2E2E2E2E2E2E2E2E2E2E2E2E2E2F0E2EAE2E2E2E2E2E2F5EF00E2E2E2E2E2E2E2EAE2E2
310
E2E2E2E2E2E2E2E2E2E2E2E2E2E2E2E2E2E2F5F5F5F5F5F5F5F5F5F5F5F5F5E2E2E2E2E2E2F0E2E2E2DCEFE2EFEFEFE2ECECECECE2E2E2E2E2EFE2E2E2E2E2E2E2E2E2E2E2E2E2E2E2E2E2E2E2E2F0E2EAE2E2E2E2E2E2F5EF00E2E2E2E2E2E2E2EAE2E2E2E2E2E2E2E2E2E2E2E2E2E2E2E2E2E2E2E2F5E2E2E2E2E2E2E2E2
310
E2E2E2F5E2E2E2E2E2E2E2F0E2DCEFE2E2E2EFEFEFEFEFEFEFEFEFEFE2E2EFF5F5F5F5E2E2E2E2E2E2E2E2E2E2E2E2E2E2E2E2F0E2EAE2E2E2E2E2E2F5EF00E2E2E2E2E2E2E2EAE2E2E2E2E2E2E2E2E2E2E2E2E2E2E2E2E2E2E2E2F5F5F5F5F5F5F5F5F5F5F5F5F5E2E2E2E2E2E2E2E2F0EFE2E2E2E2E2EFEFEFEFEFEFEFEF
310
EFE2E2EFF5F5F5F5E2E2E2E2E2E2E2E2E2E2E2E2E2E2E2E2F0E2EAE2E2E2E2E2E2F5EF00E2E2E2E2E2E2E2EAE2E2E2E2E2E2E2E2E2E2E2E2E2E2E2E2E2E2E2E2E2E2E2E2E2E2E2E2E2E2E2E2E2E2E2E2E2E2E2E2E2F0EFE2E2E2E2E2E2EFEFE2E2E2E2EFEFE2E2EFE2E2E2E2E2E2E2E2E2E2E2E2E2E2E2E2E2E2E2E2F0E2EA
310
E2E2E2E2E2E2F5EF00E2E2E2E2E2E2E2EAE2E2E2E2E2E2E2E2E2E2E2E2E2F0E2E2E2E2E2E2E2E2E2E2E2E2E2E2E2E2E2E2E2E2E2E2E2E2E2E2EFEFF0E2E2E2E2E2E2E2EFEFE2E2E2EFEFE2E2EFE2E2E2E2E2E2E2E2E2E2E2E2E2E2E2E2E2E2E2E2F0E2EAE2E2E2E2E2E2F5EF00E2E2E2E2E2E2E2EAE2E2E2E2E2E2E2E2E2E2
310
E2E2E2F0E2E2E2E2E2E2E2E2E2E2E2E2E2E2E2E2E2E2E2E2E2E2E2E2E2EFEFE2E2F0F0E2E2E2E2E2E2EFEFE2E2EFEFE2E2EFE2E2E2E2E2E2E2E2E2E2E2E2E2E2E2E2E2E2E2E2F0E2EAE2E2E2E2E2E2F5EF00E2E2E2E2E2E2E2EAE2E2E2E2E2E2E2E2E2E2E2E2E2F0E2E2E2E2E2E2E2E2E2E2E2E2E2E2E2E2E2E2E2E2E2E2E2
310
E2EFEFE2E2E2E2F0E2E2E2E2E2E2E2EFEFE2EFEFE2E2EFE2E2E2E2E2E2E2E2E2E2E2E2E2E2E2E2E2E2E2E2F0E2EAE2E2E2E2E2E2F5EF00E2F5E2E2E2E2E2EAE2F0F0F0F0F0F0F0F0F0F0F0F0F0F0F0F0F0F0F0F0F0F0F0F0F0F0F0F0F0F0F0F0F0F0F0F0F0EFEFE2E2E2E2E2F0F0E2E2E2E2E2E2EFEFEFEFE2E2EFE2E2E2E2
310
E2E2E2E2E2E2E2E2E2E2E2E2E2E2E2E2F0E2EAE2E2E2F5E2E2F5EF00E2F5E2E2E2E2E2EAE2E2E2E2E2E2E2ECECECE2E2E2F0EFE2E2ECECECECE2E2E2E2E2E2E2E2E2ECECECECE2E2EFEFEFEFEFE2E2E2E2E2E2F0E2E2E2E2E2E2EFEFEFE2E2EFE2E2E2E2E2E2E2E2E2E2E2E2E2E2E2E2E2E2E2E2F0E2EAE2E2E2F5E2E2F5EF
310
00E2F5E2E2E2E2E2EAE2E2E2EFEFEFEFEFEFEFEFEFE2F0EFEFEFECECECECEFEFEFE2E2E2EFEFEFECECECECEFEFEFEFE2EFEFEFE2E2E2E2E2E2F0E2E2E2E2E2E2EFEFEFE2EFE2E2E2E2E2E2E2E2E2E2E2E2E2E2E2E2E2E2E2E2F0E2EAE2E2E2F5E2E2F5EF00E2F5E2E2E2E2E2EAE2E2E2EFEFEFE2E2E2E2E2E2E2F0EFE2E2E2
310
E2E2E2E2EFEFE2E2E2EFEFE2E2E2E2E2E2E2EFEFE2E2EFEFEFE2E2E2E2E2E2F0E2E2E2E2E2E2EFEFEFEFE2E2E2E2E2E2E2E2E2E2E2E2E2E2E2E2E2E2E2E2F0E2EAE2E2E2F5E2E2F5EF00E2F5E2E2E2E2E2EAE2E2E2EFEFEFE2ECECECECECECF0ECECECECECECECE2EFEFE2E2E2EFEFE2ECECECECECECEFEFE2E2EFEFEFEFE2
310
E2E2E2E2E2F0E2E2E2E2E2E2EFEFEFE2E2E2E2E2E2E2E2E2E2E2E2E2E2E2E2E2E2E2E2F0E2EAE2E2E2F5E2E2F5EF00E2F5E2E2E2E2E2EAE2E2E2EFEFEFE2ECECECECECECF0ECECECECECECECECEFEFE2E2E2EFEFE2ECECECECECECEFEFECECEFEFEFEFEFE2E2E2E2E2F0F0E2E2E2E2E2E2EFEFE2E2E2E2E2E2E2E2E2E2E2E2
310
E2E2E2E2E2E2E2E2F0E2EAE2E2E2F5E2E2F5EF00E2F5E2E2E2E2E2EAE2E2E2EFEFE2E2ECECECECECECF0ECECECECECECECECE2EFE2E2E2EFE2E2ECECECECECECEFEFECECEFEFE2EFEFEFE2E2E2E2E2E2F0E2E2E2E2E2E2EFEFE2E2E2E2E2E2E2E2E2E2E2E2E2E2E2E2E2E2E2F0E2EAE2E2E2F5E2E2F5EF00E2F5E2E2E2E2E2
310
EAE2E2E2ECECECEFEFEFEFEFECECF0ECECECEFEFEFEFECECECE2E2E2ECECECEFEFEFEFECECEFEFECECEFEFE2E2EFEFEFE2E2E2E2E2E2F0E2E2E2E2E2E2EFEFE2E2E2E2E2E2E2E2E2E2E2E2E2E2E2E2E2E2F0E2EAE2E2E2F5E2E2F5EF00E2F5E2E2E2E2E2EAE2E2ECECECECECECE2EFEFEFE2F0EFE2EFEFE2ECECECECECECE2
310
ECECECECECECE2EFEFE2EFEFE2E2EFEFE2E2E2EFEFEFE2E2E2E2E2F0F0E2E2E2E2E2E2EFEFE2E2E2E2E2E2E2E2E2E2E2E2E2E2E2E2E2F0E2EAE2E2E2F5E2E2F5EF00E2F5E2E2E2E2E2EAE2E2ECECECECECECE2EFEFEFE2F0EFE2EFEFE2ECECECECECECE2ECECECECECECE2EFEFE2EFEFE2E2EFEFEFEFEFEFEFEFEFE2E2E2E2
310
E2E2F0E2E2E2E2E2E2EFEFE2E2E2E2E2E2E2E2E2E2E2E2E2E2E2E2F0E2EAE2E2E2F5E2E2F5EF00E2F5E2E2E2E2E2EAE2E2E2ECECECECE2E2EFEFEFE2F0EFE2EFEFE2E2E2ECECECE2E2E2ECECECE2E2E2EFEFE2EFEFE2E2EFEFEFEFEFEFEFEFDCEFE2E2E2E2E2E2F0E2E2E2E2E2E2EFEFE2E2E2E2E2E2E2E2E2E2E2E2E2E2E2
310
F0E2EAE2E2E2F5E2E2F5EF00E2F5E2E2E2E2E2EAE2E2F5ECECEFEFECECEFECEFE2F0EFEFEFECECEFECEFEFECF5E2F5ECEFEFECECECECEFEFEFEFE2E2E2E2E2E2E2E2E2E2EFEFEFE2E2E2E2E2F0F0E2E2E2E2E2E2EFEFE2E2E2E2E2E2E2E2E2E2E2E2E2E2F0E2EAE2E2E2F5E2E2F5EF00E2F5E2E2E2E2E2EAE2E2F5F5F5F5F5
310
ECECECE2E2E2F0EFE2E2ECECECF5F5F5F5F5E2F5F5F5F5E2ECECE2E2E2EFEFE2E2E2E2E2E2E2E2E2E2E2EFEFEFE2E2E2E2E2E2F0E2E2E2E2E2E2EFEFE2E2E2E2E2E2E2E2E2E2E2E2E2F0E2EAE2E2E2F5E2E2F5EF00E2F5E2E2E2E2E2EAE2E2E2E2E2E2E2EFECECE2E2E2F0EFE2E2EFECECE2E2E2E2E2E2E2E2E2E2E2ECECEF
310
EFEFEFEFEFEFEFEFEFEFEFEFEFEFEFEFEFEFEFE2E2E2E2E2E2F0E2E2E2E2E2E2EFEFE2E2E2E2E2E2E2E2E2E2E2E2F0E2EAE2E2E2F5E2E2F5EF00E2F5E2E2E2E2E2EAE2E2E2E2E2E2E2EFEFE2E2E2E2F0EFE2E2E2E2EFE2E2E2E2E2E2E2E2E2E2E2EFEFEFEFEFEFEFF5F5F5F5F5EFEFEFEFEFEFEFEFEFEFEFE2E2E2E2E2E2F0
310
E2E2E2E2E2E2EFEFE2E2E2E2E2E2E2E2E2E2E2F0E2EAE2E2E2F5E2E2F5EF00E2F5E2E2E2E2E2EAE2E2E2E2E2E2E2EFEFEFEFEFEFF0EFEFEFEFEFEFE2E2E2E2E2E2E2E2E2E2E2E2E2E2E2E2E2E2E2E2E2E2E2E2E2E2E2E2E2E2E2E2E2EFEFE2E2E2E2E2E2F0E2E2E2E2E2E2EFEFE2E2E2E2E2E2E2E2E2E2F0E2EAE2E2E2F5E2
310
E2F5EF00E2F5E2E2E2E2E2EAE2E2E2E2E2E2E2EFEFE2E2E2E2F0E2E2E2E2E2EFE2E2E2E2E2E2E2E2E2E2E2E2E2E2E2E2E2E2E2E2E2E2E2E2E2E2E2E2E2E2E2E2E2E2EFEFE2E2E2E2E2E2F0E2E2E2E2E2E2EFEFE2E2E2E2E2E2E2E2E2F0E2EAE2E2E2F5E2E2F5EF00E2E2E2E2E2E2E2EAE2E2E2E2E2E2E2EFEFE2E2E2E2F0E2
310
E2E2E2E2EFE2E2E2E2E2E2E2E2E2E2E2E2E2E2E2E2E2E2E2E2E2E2E2E2E2E2E2E2E2E2E2E2E2E2E2EFEFE2E2E2E2E2E2F0E2E2E2E2EFEFE2E2E2E2E2E2E2E2E2E2F0E2EAE2E2E2E2E2E2F5EF00E2E2E2E2E2E2E2EAE2E2E2E2E2E2E2EFEFE2E2E2E2F0E2E2E2E2E2EFE2E2E2E2E2E2E2E2E2E2E2E2E2E2E2E2E2E2E2E2E2E2
310
E2E2E2E2E2E2E2E2E2E2E2E2E2E2EFEFE2E2E2E2E2E2F0E2E2EFEFE2E2E2E2E2E2E2E2E2E2E2F0E2EAE2E2E2E2E2E2F5EF00E2E2E2E2E2E2E2EAE2E2E2E2E2E2E2EFEFE2E2E2E2F0E2E2E2E2E2EFE2E2E2E2E2E2E2E2E2E2E2E2E2E2E2E2E2E2E2E2E2E2E2E2E2E2E2E2E2E2E2E2E2E2E2E2E2EFEFE2E2E2E2E2E2F0EFEFE2
310
E2E2E2E2E2E2E2E2E2E2E2F0E2EAE2E2E2E2E2E2F5EF00E2E2E2E2E2E2E2EAE2E2E2E2E2E2E2EFEFE2E2E2E2F0E2E2E2E2E2EFE2E2E2E2E2E2E2E2E2E2E2E2E2E2E2E2E2E2E2E2E2E2E2E2E2E2E2E2E2E2E2E2E2E2E2E2E2E2EFEFE2E2E2E2E2EFF0E2E2E2E2E2E2E2E2E2E2E2E2E2F0E2EAE2E2E2E2E2E2F5EF00E2E2E2E2
310
E2E2E2EAE2E2E2E2E2E2E2EFEFE2E2E2E2F0E2E2E2E2E2EFE2E2E2E2E2E2E2E2E2E2E2E2E2E2E2E2E2E2E2E2E2E2E2E2E2E2E2E2E2E2E2E2E2E2E2E2E2E2E2EFEFE2E2E2EFEFF0E2E2E2E2E2E2E2E2E2E2E2E2E2F0E2EAE2E2E2E2E2E2F5EF00E2E2E2E2E2E2E2EAE2E2E2E2E2E2E2EFEFE2E2E2E2F0E2E2E2E2E2EFE2E2E2
310
E2E2E2E2E2E2E2E2E2E2E2E2E2E2E2E2E2E2E2E2E2E2E2E2E2E2E2E2E2E2E2E2E2E2E2E2E2EFEFE2EFEFE2E2F0F0E2E2E2E2E2E2E2E2E2E2E2F0E2EAE2E2E2E2E2E2F5EF00E2E2E2E2E2E2E2EAE2E2E2E2E2E2E2EFEFE2E2E2E2F0E2E2E2E2E2EFE2E2E2E2E2E2E2E2E2E2E2E2E2E2E2E2E2E2E2E2E2E2E2E2E2E2E2E2E2E2
310
E2E2E2E2E2E2E2E2E2E2E2EFEFEFE2E2E2E2E2F0E2E2E2E2E2E2E2E2E2E2F0E2EAE2E2E2E2E2E2F5EF00E2E2E2E2E2E2E2EAE2E2E2E2E2E2E2EFEFE2E2E2E2F0E2E2E2E2E2EFE2E2E2E2E2E2E2E2E2E2E2E2E2E2E2E2E2E2E2E2E2E2E2E2E2E2E2E2E2E2E2E2E2E2E2E2E2F5F5F5F5F5F5F5F5F5F5E2E2E2F0E2E2E2E2E2E2
310
E2E2E2F0E2EAE2E2E2E2E2E2F5EF00E2E2E2E2E2E2E2EAE2E2E2E2E2E2E2EFEFE2E2E2E2F0E2E2E2E2E2EFE2E2E2E2E2E2E2E2E2E2E2E2E2E2E2E2E2E2E2E2E2E2E2E2E2E2E2E2E2E2E2E2E2E2E2E2E2F5F5F5F5F5F5F5F5F5F5E2E2E2E2F0E2E2E2E2E2E2E2E2F0E2EAE2E2E2E2E2E2F5EF00E2F5E2E2E2E2E2EAE2E2E2E2
310
E2E2E2EFEFE2E2E2E2F0E2E2E2E2E2EFE2E2E2E2E2E2E2E2E2E2E2E2E2E2E2E2E2E2E2E2E2E2E2E2E2E2E2E2E2E2E2E2E2E2E2E2E2E2E2E2F5F5F5F5E2E2E2E2E2E2E2E2F0E2E2E2E2E2E2E2F0E2EAE2E2E2F5E2E2F5EF00E2F5E2E2E2E2E2EAE2E2E2E2E2E2E2EFEFE2E2E2E2F0E2E2E2E2E2EFE2E2E2E2E2E2E2E2E2E2E2
310
E2E2E2E2E2E2E2E2E2E2E2E2E2E2E2E2E2E2E2E2E2E2E2E2E2E2E2E2E2F5F5F5F5E2E2E2E2E2E2E2E2E2F0E2E2E2E2E2E2F0E2EAE2E2E2F5E2E2F5EF00E2F5E2E2E2E2E2EAE2E2E2E2E2E2E2EFEFE2E2E2E2F0E2E2E2E2E2EFE2E2E2E2E2E2E2E2E2E2E2E2E2E2E2E2E2E2E2E2E2E2E2E2E2E2E2E2E2E2E2E2E2E2E2E2E2E2
310
E2E2E2E2E2E2E2E2E2E2E2E2E2E2E2E2F0E2E2E2E2E2F0E2EAE2E2E2F5E2E2F5EF00E2F5E2E2E2E2E2EAE2E2E2E2E2E2E2EFEFE2E2E2E2F0E2E2E2E2E2EFE2E2E2E2E2E2E2E2E2E2E2E2E2E2E2E2E2E2E2E2E2E2E2E2E2E2E2E2E2E2E2E2E2E2E2E2E2E2E2E2E2E2E2E2E2E2E2E2E2E2E2E2E2E2E2F0E2E2E2E2F0E2EAE2E2
310
E2F5E2E2F5EF00E2F5E2E2E2E2E2EAE2E2E2E2E2E2E2EFEFE2E2E2E2F0E2E2E2E2E2EFE2E2E2E2E2E2E2E2E2E2E2E2E2E2E2E2E2E2E2E2E2E2E2E2E2E2E2E2E2E2E2E2E2E2E2E2E2E2E2E2E2E2E2E2E2E2E2E2E2E2E2E2E2E2E2E2F0E2E2E2F0E2EAE2E2E2F5E2E2F5EF00E2F5E2E2E2E2E2EAE2E2E2E2E2E2E2EFEFE2E2E2
310
E2F0E2E2E2E2E2EFE2E2E2E2E2E2E2E2E2E2E2E2E2E2E2E2E2E2E2E2E2E2E2E2E2E2E2E2E2E2E2E2E2E2E2E2E2E2E2E2E2E2E2E2E2E2E2E2E2E2E2E2E2E2E2E2E2F0E2E2F0E2EAE2E2E2F5E2E2F5EF00E2F5E2E2E2E2E2EAE2E2E2E2E2E2E2EFEFE2E2E2E2F0E2E2E2E2E2EFE2E2E2E2E2E2E2E2E2E2E2E2E2E2E2E2E2E2E2
310
E2E2E2E2E2E2E2E2E2E2E2E2E2E2E2E2E2E2E2E2E2E2E2E2E2E2E2E2E2E2E2E2E2E2E2E2E2E2E2F0E2F0E2EAE2E2E2F5E2E2F5EF00E2F5E2E2E2E2E2EAE2E2E2E2E2E2E2EFEFEFEFEFEFF0EFEFEFEFEFEFE2E2E2E2E2E2E2E2E2E2E2E2E2E2E2E2E2E2E2E2E2E2E2E2E2E2E2E2E2E2E2E2E2E2E2E2E2E2E2E2E2E2E2E2E2E2
310
E2E2E2E2E2E2E2E2E2E2E2E2E2F0F0E2EAE2E2E2F5E2E2F5EF00E2F5E2E2E2E2E2EAE2F0F0F0F0F0F0F0F0F0F0F0F0F0F0F0F0F0F0F0F0F0F0F0F0F0F0F0F0F0F0F0F0F0F0F0F0F0F0F0F0F0F0F0F0F0F0F0F0F0F0F0F0F0F0F0F0F0F0F0F0F0F0F0F0F0F0F0F0F0F0F0F0F0F0F0F0F0F0F0F0E2EAE2E2E2F5E2E2F5EF00E2
310
F5E2E2E2E2E2EAE2E2E2E2E2E2E2E2E2E2E2E2E2F0F5F5F5F5F5E2E2E2E2E2E2E2E2E2E2E2E2E2E2E2E2E2E2E2E2E2E2E2E2E2E2E2E2E2E2E2E2E2E2E2E2E2E2E2E2E2E2E2E2E2E2E2E2E2E2E2E2E2E2E2E2E2E2E2E2E2E2E2EAE2E2E2F5E2E2F5EF00E2F5E2E2E2E2E2EAE2E2E2E2E2E2E2E2E2E2E2E2E2F0F5F5F5F5F5E2
310
E2E2E2E2E2E2E2E2E2E2E2E2E2E2E2E2E2E2E2E2E2E2E2E2E2E2E2E2E2E2E2E2E2E2E2E2E2E2E2E2E2E2E2E2E2E2E2E2E2E2E2E2E2E2E2E2E2E2E2E2E2E2EAE2E2E2F5E2E2F5EF00E2F5E2E2E2E2E2EAE2E2E2E2E2E2E2E2E2E2E2E2E2F0F5F5F5F5F5E2E2E2E2E2E2E2E2E2E2E2E2E2E2E2E2E2E2E2E2E2E2E2E2E2E2E2E2
310
E2E2E2E2E2E2E2E2E2E2E2E2E2E2E2E2E2E2E2E2E2E2E2E2E2E2E2E2E2E2E2E2E2E2E2EAE2E2E2F5E2E2F5EF00E2F5E2E2E2E2E2EAE2E2E2E2E2E2E2E2E2E2E2E2E2E2E2E2E2E2E2E2E2E2E2E2E2E2E2E2E2E2E2E2E2E2E2E2E2E2E2E2E2E2E2E2E2E2E2E2E2E2E2E2E2E2E2E2E2E2E2E2E2E2E2E2E2E2E2E2E2E2E2E2E2E2
310
E2E2E2E2E2E2E2E2EAE2E2E2F5E2E2F5EF00E2F5E2E2E2E2E2EAE2E2E2E2E2E2E2E2E2E2E2E2E2E2E2E2E2E2E2E2E2E2E2E2E2E2E2E2E2E2E2E2E2E2E2E2E2E2E2E2E2E2E2E2E2E2E2E2E2E2E2E2E2E2E2E2E2E2E2E2E2E2E2E2E2E2E2E2E2E2E2E2E2E2E2E2E2E2E2E2E2E2EAE2E2E2F5E2E2F5EF00E2F5E2E2E2E2E2EAE2
310
E2E2E2E2E2E2E2E2E2E2E2E2E2E2E2E2E2E2E2E2E2E2E2E2E2E2E2E2E2E2E2E2E2E2E2E2E2E2E2E2E2E2E2E2E2E2E2E2E2E2E2E2E2E2E2E2E2E2E2E2E2E2E2E2E2E2E2E2E2E2E2E2E2E2E2E2E2E2E2E2E2EAE2E2E2F5E2E2F5EF00E2F5E2E2E2E2E2EAE2E2E2E2E2E2E2E2E2E2E2E2E2E2E2E2E2E2E2E2E2E2E2E2E2E2E2E2
310
E2E2E2E2E2E2E2E2E2E2E2E2E2E2E2E2E2E2E2E2E2E2E2E2E2E2E2E2E2E2E2E2E2E2E2E2E2E2E2E2E2E2E2E2E2E2E2E2E2E2E2E2E2E2EAE2E2E2F5E2E2F5EF00E2F5E2E2E2E2E2EAE2E2E2E2E2E2E2E2E2E2E2E2E2E2E2E2E2E2E2E2E2E2E2E2E2E2E2E2E2E2E2E2E2E2E2E2E2E2E2E2E2E2E2E2E2E2E2E2E2E2E2E2E2E2E2
310
E2E2E2E2E2E2E2E2E2E2E2E2E2E2E2E2E2E2E2E2E2E2E2E2E2E2E2EAE2E2E2F5E2E2F5EF00E2E2E2E2E2E2E2EAE2E2E2E2E2E2E2E2E2E2E2E2E2E2E2E2E2E2E2E2E2E2E2E2E2E2E2E2E2E2E2E2E2E2E2E2E2E2E2E2E2E2E2E2E2E2E2E2E2E2E2E2E2E2E2E2E2E2E2E2E2E2E2E2E2E2E2E2E2E2E2E2E2E2E2E2E2E2E2E2E2E2
310
EAE2E2E2E2E2E2F5EF00E2E2E2E2E2E2E2EAE2E2E2E2E2E2E2E2E2E2E2E2E2E2E2E2E2E2E2E2E2E2E2E2E2E2E2E2E2E2E2E2E2E2E2E2E2E2E2E2E2E2E2E2E2E2E2E2E2E2E2E2E2E2E2E2E2E2E2E2E2E2E2E2E2E2E2E2E2E2E2E2E2E2E2E2E2E2E2E2E2E2EAE2E2E2E2E2E2F5EF00E2E2E2E2E2E2E2EAEAEAEAEAEAEAEAEAEA
310
EAEAEAEAEAEAEAEAEAEAEAEAEAEAEAEAEAEAEAEAEAEAEAEAEAEAEAEAEAEAEAEAEAEAEAEAEAEAEAEAEAEAEAEAEAEAEAEAEAEAEAEAEAEAEAEAEAEAEAEAEAEAEAEAEAEAEAEAEAEAEAEAEAEAE2E2E2E2E2E2F5EF00E2E2E2E2E2E2E2E2E2E2E2E2E2F5F5F5F5F5F5F5F5F5F5F5F5F5F5F5F5F5F5F5F5F5F5F5F5F5F5F5F5F5F5F5
310
F5F5F5F5F5F5F5F5F5F5F5F5F5F5F5F5F5F5F5F5F5F5F5F5F5F5F5F5F5F5F5F5F5F5F5F5F5F5F5F5F5F5F5F5F5F5F5E2E2E2E2E2E2F5EF00E2E2E2E2E2E2E2E2E2E2E2E2E2F5E2E2E2E2E2E2E2E2E2E2E2E2E2E2E2E2E2E2E2E2E2E2E2E2E2E2E2E2E2E2E2E2E2E2E2E2E2E2E2E2E2E2E2E2E2E2E2E2E2E2E2E2E2E2F5E2F5
310
F5F5F5F5F5F5E2E2F5E2E2E2F5F5E2E2E2E2E2F5E2E2E2E2E2E2F5EF00E2E2E2E2E2E2E2E2E2E2E2E2ECECECE2E2E2E2E2E2F5F5F5F5F5F5F5F5F5F5F5F5F5F5F5F5E2E2E2E2E2E2E2E2E2E2E2E2E2E2E2E2E2E2E2E2E2E2E2E2E2E2E2E2E2E2E2F5E2F5F5F5F5F5F5F5E2E2F5E2E2E2F5F5E2E2E2E2E2F5E2E2E2E2E2E2F5
310
EF00E2E2E2E2E2E2E2E2E2E2E2E2ECECECECE2E2E2E2E2F5F5F5F5F5F5F5F5F5F5F5F5F5F5F5F5E2E2E2E2E2E2E2E2E2E2E2E2E2E2E2E2E2E2E2E2E2E2E2E2E2E2E2E2E2E2E2F5E2E2E2E2E2E2E2E2E2E2F5E2E2E2E2E2E2E2E2E2E2F5E2E2E2E2E2E2F5EF00E2E2E2E2E2E2E2E2E2E2E2ECECECECECE2E2E2E2E2F5F5F5F5
310
F5F5F5F5F5F5F5F5F5F5F5F5F5F5F5F5F5F5E2E2E2E2E2E2E2E2E2E2E2E2E2E2E2E2E2E2E2E2E2E2E2E2E2F5E2E2F5F5F5F5F5E2E2E2F5E2E2F5F5F5F5F5E2E2E2F5E2E2E2E2E2E2F5EF00E2E2E2E2E2E2E2E2E2E2E2ECECECECECECE2E2E2E2F5F5F5F5F5F5F5F5F5F5F5F5F5F5F5F5F5F5F5F5F5F5E2E2E2E2E2E2E2E2E2
310
E2E2E2E2E2E2E2E2E2E2E2E2E2E2E2E2F5E2E2E2E2E2E2E2E2E2E2F5E2E2E2E2E2E2E2E2E2E2F5E2E2E2E2E2E2F5EF00E2E2E2E2E2E2E2E2E2E2ECECECECECECECE2E2E2E2F5F5F5F5F5F5F5F5F5F5F5F5F5F5F5F5F5F5F5F5F5F5E2E2E2E2E2E2E2E2E2E2E2E2E2E2E2E2E2E2E2E2E2E2E2E2E2F5E2E2E2E2E2E2E2E2E2E2
310
F5E2E2E2E2E2E2E2E2E2E2F5E2E2E2E2E2E2F5EF00E2F5E2E2E2E2E2E2E2E2ECECECECECECECECE2E2E2F5F5F5F5F5F5F5F5F5F5F5F5F5F5F5F5F5F5F5F5F5F5F5F5F5F5E2E2E2E2E2E2E2E2E2E2E2E2E2E2E2E2E2E2E2E2E2F5F5F5F5F5F5F5F5F5F5F5F5F5F5F5F5F5F5F5F5F5F5F5E2E2E2F5E2E2F5EF00E2F5E2E2E2E2
310
E2E2E2ECECECECECECECECECE2E2E2F5F5F5F5F5F5F5F5F5F5F5F5F5F5F5F5F5F5F5F5F5F5F5F5F5F5E2E2E2E2E2E2E2E2E2E2E2E2E2E2E2E2E2E2E2E2E2F5E2E2E2E2E2E2E2E2E2E2E2E2E2E2E2E2E2E2E2E2E2F5E2E2E2F5E2E2F5EF00E2F5E2E2E2E2E2E2ECECECECECECECECECECECE2E2F5F5F5F5F5F5F5F5F5F5F5F5
310
F5F5F5F5F5F5F5F5F5F5F5F5F5F5E2E2E2E2E2E2E2E2E2E2E2E2E2E2E2E2E2E2E2E2E2F5E2F5F5F5F5F5F5F5F5E2F5F5F5F5F5F5F5E2E2E2E2F5E2E2E2F5E2E2F5EF00E2F5E2E2E2E2E2E2ECECECECECECECECECECECE2E2F5F5F5F5F5F5F5F5F5F5F5F5F5F5F5F5F5F5F5F5F5F5F5F5F5F5E2E2E2E2E2E2E2E2E2E2E2E2E2
310
E2E2E2E2E2E2E2E2F5E2F5F5F5F5F5F5F5F5E2F5F5F5F5F5F5F5E2E2E2E2F5E2E2E2F5E2E2F5EF00E2F5E2E2E2E2E2ECECECECECECECECECECECECECE2F5F5F5F5F5F5F5F5F5F5F5F5F5F5F5F5F5F5F5F5F5F5F5F5F5F5E2E2E2E2E2E2E2E2E2E2E2E2E2E2E2E2E2E2E2E2E2F5E2E2E2E2E2E2E2E2E2E2E2E2E2E2E2E2E2E2
310
E2E2E2F5E2E2E2F5E2E2F5EF00E2F5E2E2E2E2E2ECECECECECECF5ECECECECECECE2E2E2E2E2E2E2E2E2E2E2E2E2E2E2E2E2E2E2E2E2E2E2E2E2E2E2E2E2E2E2E2E2E2E2E2E2E2E2E2E2E2E2E2E2E2E2E2F5E2E2E2E2E2E2E2E2E2E2E2E2E2E2E2E2E2E2E2E2E2F5E2E2E2F5E2E2F5EF00E2F5E2E2E2E2E2E2E2E2E2E2E2F5
310
F5F5F5F5F5F5F5F5F5F5F5F5F5F5F5F5F5F5F5F5F5F5F5F5F5F5F5F5F5F5F5F5F5F5F5F5F5F5F5F5F5F5F5F5F5F5F5F5F5F5F5F5F5F5F5F5F5F5F5F5F5F5F5F5F5F5F5F5F5F5F5F5F5F5F5F5F5E2E2E2F5E2E2F5EF00E2F5E2E2E2E2E2E2E2E2E2E2E2E2E2E2E2E2E2E2E2E2E2E2E2E2E2E2E2E2E2E2E2E2E2E2E2E2E2E2E2
310
E2E2E2E2E2E2E2E2E2E2E2E2E2E2E2E2E2E2E2E2E2E2E2E2E2E2E2E2E2E2E2E2E2E2E2E2E2E2E2E2E2E2E2E2E2E2E2E2E2E2E2E2E2F5E2E2F5EF00E2F5F5F5F5F5F5F5F5E2E2E2E2E2E2E2E2F5F5F5F5F5F5F5F5F5F5F5F5F5F5F5E2E2E2E2E2E2E2E2E2F5F5F5F5F5F5F5F5F5F5F5F5F5F5E2E2E2E2E2E2E2E2E2F5F5F5F5
310
F5F5F5F5F5F5F5F5F5F5F5E2E2E2E2E2E2E2E2F5F5F5F5F5F5F5F5E2E2F5EF00E2E2E2E2E2E2E2E2E2E2E2E2E2E2E2E2E2E2E2E2E2E2E2E2E2E2E2E2E2E2E2E2E2E2E2E2E2E2E2E2E2E2E2E2E2E2E2E2E2E2E2E2E2E2E2E2E2E2E2E2E2E2E2E2E2E2E2E2E2E2E2E2E2E2E2E2E2E2E2E2E2E2E2E2E2E2E2E2E2E2E2E2E2E2E2
310
E2E2F5EF00E2E2E2E2E2E2E2E2E2E2E2E2E2E2E2E2E2E2E2E2E2E2E2E2E2E2E2E2E2E2E2E2E2E2E2E2E2E2E2E2E2E2E2E2E2E2E2E2E2E2E2E2E2E2E2E2E2E2E2E2E2E2E2E2E2E2E2E2E2E2E2E2E2E2E2E2E2E2E2E2E2E2E2E2E2E2E2E2E2E2E2E2E2E2E2E2E2F5EF00F5F5F5F5F5F5F5F5F5F5F5F5F5F5F5F5F5F5F5F5F5F5
310
F5F5F5F5F5F5F5F5F5F5F5F5F5F5F5F5F5F5F5F5F5F5F5F5F5F5F5F5F5F5F5F5F5F5F5F5F5F5F5F5F5F5F5F5F5F5F5F5F5F5F5F5F5F5F5F5F5F5F5F5F5F5F5F5F5F5F5F5F5F5F5F5F5F5F5F5EF00
  0
XRECORD
  5
57EC
102
{ACAD_REACTORS
330
512B
102
}
330
512B
100
AcDbXrecord
280
     1
102
MATERIAL
148
0.0
149
0.0
149
0.0
 93
        0
 94
      127
282
     0
 72
     0
 77
     0
171
     0
175
     0
179
     0
273
     0
  0
XRECORD
  5
512D
102
{ACAD_REACTORS
330
512B
102
}
330
512B
100
AcDbXrecord
280
     1
270
     1
271
     1
  0
XRECORD
  5
512C
102
{ACAD_REACTORS
330
512B
102
}
330
512B
100
AcDbXrecord
280
     1
270
     1
271
     1
  0
XRECORD
  5
5130
102
{ACAD_REACTORS
330
512B
102
}
330
512B
100
AcDbXrecord
280
     1
270
     1
271
     1
  0
XRECORD
  5
512F
102
{ACAD_REACTORS
330
512B
102
}
330
512B
100
AcDbXrecord
280
     1
270
     1
271
     1
  0
XRECORD
  5
5131
102
{ACAD_REACTORS
330
512B
102
}
330
512B
100
AcDbXrecord
280
     1
270
     1
271
     1
  0
XRECORD
  5
512E
102
{ACAD_REACTORS
330
512B
102
}
330
512B
100
AcDbXrecord
280
     1
270
     1
271
     1
  0
XRECORD
  5
57EB
102
{ACAD_REACTORS
330
5123
102
}
330
5123
100
AcDbXrecord
280
     1
102
MATERIAL
148
0.0
149
0.0
149
0.0
 93
        0
 94
      127
282
     0
 72
     0
 77
     0
171
     0
175
     0
179
     0
273
     0
  0
XRECORD
  5
5125
102
{ACAD_REACTORS
330
5123
102
}
330
5123
100
AcDbXrecord
280
     1
270
     1
271
     1
  0
XRECORD
  5
5124
102
{ACAD_REACTORS
330
5123
102
}
330
5123
100
AcDbXrecord
280
     1
270
     1
271
     1
  0
XRECORD
  5
5128
102
{ACAD_REACTORS
330
5123
102
}
330
5123
100
AcDbXrecord
280
     1
270
     1
271
     1
  0
XRECORD
  5
5127
102
{ACAD_REACTORS
330
5123
102
}
330
5123
100
AcDbXrecord
280
     1
270
     1
271
     1
  0
XRECORD
  5
5129
102
{ACAD_REACTORS
330
5123
102
}
330
5123
100
AcDbXrecord
280
     1
270
     1
271
     1
  0
XRECORD
  5
5126
102
{ACAD_REACTORS
330
5123
102
}
330
5123
100
AcDbXrecord
280
     1
270
     1
271
     1
  0
XRECORD
  5
57ED
102
{ACAD_REACTORS
330
5133
102
}
330
5133
100
AcDbXrecord
280
     1
102
MATERIAL
148
0.0
149
0.0
149
0.0
 93
        0
 94
      127
282
     0
 72
     0
 77
     0
171
     0
175
     0
179
     0
273
     0
  0
XRECORD
  5
5135
102
{ACAD_REACTORS
330
5133
102
}
330
5133
100
AcDbXrecord
280
     1
270
     1
271
     1
  0
XRECORD
  5
5134
102
{ACAD_REACTORS
330
5133
102
}
330
5133
100
AcDbXrecord
280
     1
270
     1
271
     1
  0
XRECORD
  5
5138
102
{ACAD_REACTORS
330
5133
102
}
330
5133
100
AcDbXrecord
280
     1
270
     1
271
     1
  0
XRECORD
  5
5137
102
{ACAD_REACTORS
330
5133
102
}
330
5133
100
AcDbXrecord
280
     1
270
     1
271
     1
  0
XRECORD
  5
5139
102
{ACAD_REACTORS
330
5133
102
}
330
5133
100
AcDbXrecord
280
     1
270
     1
271
     1
  0
XRECORD
  5
5136
102
{ACAD_REACTORS
330
5133
102
}
330
5133
100
AcDbXrecord
280
     1
270
     1
271
     1
  0
XRECORD
  5
5C79
102
{ACAD_REACTORS
330
5C78
102
}
330
5C78
100
AcDbXrecord
280
     1
102
SHADEPLOT
 70
     0
102
SHADEPLOTRESLEVEL
 70
     2
102
SHADEPLOTCUSTOMDPI
 70
   300
  0
XRECORD
  5
5C7B
102
{ACAD_REACTORS
330
5C7A
102
}
330
5C7A
100
AcDbXrecord
280
     1
102
SHADEPLOT
 70
     0
102
SHADEPLOTRESLEVEL
 70
     2
102
SHADEPLOTCUSTOMDPI
 70
   300
  0
ACAD_PROXY_OBJECT
  5
57CF
102
{ACAD_REACTORS
330
52E2
102
}
330
52E2
100
AcDbProxyObject
 90
      499
 91
      514
 95
   983063
 70
     0
 93
     5304
310
40D054060020000020000003200101A000080002A5058000000C10000000000000006101010000000000003E0FC000000000000F83F0000000000003E0FC000000000000F83F02B5E8DC0F42B1CFC0AD7A3703D0AC73F419019018000000C1003FBFFFFFE0000000000003C8FD029018000000C1003FBFFFFFE00000000000
310
03C8FD049018000000C1003FBFFFFFE0000000000003C8FD089018000000C1003FBFFFFFE0000000000003C8FD109018000000C1003FBFFFFFE0000000000003C8FD209018000000C1003FBFFFFFE0000000000003C8FD01405075F5449544C450041501A8000000C800406800020000A94160000003040000000000000012
310
40404000000000000F83F0000000000003E0FC000000000000F83F0000000000003E0FC0AD7A3703D0AC73F02B5E8DC0F42B1CFD0640640600000030400FEFFFFFF8000000000000F23F40A40600000030400FEFFFFFF8000000000000F23F41240600000030400FEFFFFFF8000000000000F23F42240600000030400FEFFF
310
FFF8000000000000F23F44240600000030400FEFFFFFF8000000000000F23F48240600000030400FEFFFFFF8000000000000F23F409014217D2115051115480105406A0000003200101A000080002A5028000000C10000000000000004901010000000000003E0FC000000000000F83F0000000000003E0FC000000000000F
310
83F02B5E8DC0F42B1CFC0AD7A3703D0AC73F419019018000000C1003FBFFFFFE0000000000003C8FD029018000000C1003FBFFFFFE0000000000003C8FD049018000000C1003FBFFFFFE0000000000003C8FD089018000000C1003FBFFFFFE0000000000003C8FD109018000000C1003FBFFFFFE0000000000003C8FD20901
310
8000000C1003FBFFFFFE0000000000003C8FD03409065F444154410053
340
11
340
0
340
0
340
0
340
0
340
0
340
0
340
11
340
0
340
0
340
0
340
0
340
0
340
0
340
11
340
0
340
0
340
0
340
0
340
0
340
0
 94
        0
1001
ACAD
1000
AcRTDxfName
1000
CELLSTYLEMAP
1000
AcRTDxfName
1000
CELLSTYLEMAP
1000
AcRTDxfName
1000
CELLSTYLEMAP
  0
XRECORD
  5
57EE
102
{ACAD_REACTORS
330
52E2
102
}
330
52E2
100
AcDbXrecord
280
     1
102
ACAD_ROUNDTRIP_PRE2007_TABLESTYLE
 90
      512
 91
        0
  1

 92
      512
 93
        0
  2

 94
      512
 95
        0
  3

  0
ENDSEC
  0
EOF
