  0
SECTION
  2
HEADER
  9
$ACADVER
  1
AC1015
  9
$ACADMAINTVER
 70
    20
  9
$DWGCODEPAGE
  3
ANSI_1252
  9
$INSBASE
 10
0.0
 20
0.0
 30
0.0
  9
$EXTMIN
 10
-0.0000008078504834
 20
0.0000001108869583
 30
0.0
  9
$EXTMAX
 10
353.9999991921495
 20
482.0000001108869
 30
0.0
  9
$LIMMIN
 10
0.0
 20
0.0
  9
$LIMMAX
 10
353.9999991921495
 20
482.0000001108869
  9
$ORTHOMODE
 70
     0
  9
$REGENMODE
 70
     1
  9
$FILLMODE
 70
     1
  9
$QTEXTMODE
 70
     0
  9
$MIRRTEXT
 70
     0
  9
$LTSCALE
 40
1.0
  9
$ATTMODE
 70
     1
  9
$TEXTSIZE
 40
5.0
  9
$TRACEWID
 40
1.0
  9
$TEXTSTYLE
  7
Arial-Bold
  9
$CLAYER
  8
APL Border
  9
$CELTYPE
  6
ByLayer
  9
$CECOLOR
 62
   256
  9
$CELTSCALE
 40
3.0
  9
$DISPSILH
 70
     0
  9
$DIMSCALE
 40
1.0
  9
$DIMASZ
 40
4.0
  9
$DIMEXO
 40
0.625
  9
$DIMDLI
 40
3.75
  9
$DIMRND
 40
0.0
  9
$DIMDLE
 40
0.0
  9
$DIMEXE
 40
1.25
  9
$DIMTP
 40
0.0
  9
$DIMTM
 40
0.0
  9
$DIMTXT
 40
2.5
  9
$DIMCEN
 40
2.5
  9
$DIMTSZ
 40
0.0
  9
$DIMTOL
 70
     0
  9
$DIMLIM
 70
     0
  9
$DIMTIH
 70
     0
  9
$DIMTOH
 70
     0
  9
$DIMSE1
 70
     0
  9
$DIMSE2
 70
     0
  9
$DIMTAD
 70
     1
  9
$DIMZIN
 70
     8
  9
$DIMBLK
  1

  9
$DIMASO
 70
     1
  9
$DIMSHO
 70
     1
  9
$DIMPOST
  1

  9
$DIMAPOST
  1

  9
$DIMALT
 70
     0
  9
$DIMALTD
 70
     3
  9
$DIMALTF
 40
0.03937007874016
  9
$DIMLFAC
 40
1.0
  9
$DIMTOFL
 70
     1
  9
$DIMTVP
 40
0.0
  9
$DIMTIX
 70
     0
  9
$DIMSOXD
 70
     0
  9
$DIMSAH
 70
     0
  9
$DIMBLK1
  1

  9
$DIMBLK2
  1

  9
$DIMSTYLE
  2
ISO-25
  9
$DIMCLRD
 70
     0
  9
$DIMCLRE
 70
     0
  9
$DIMCLRT
 70
     0
  9
$DIMTFAC
 40
1.0
  9
$DIMGAP
 40
0.625
  9
$DIMJUST
 70
     0
  9
$DIMSD1
 70
     0
  9
$DIMSD2
 70
     0
  9
$DIMTOLJ
 70
     0
  9
$DIMTZIN
 70
     8
  9
$DIMALTZ
 70
     0
  9
$DIMALTTZ
 70
     0
  9
$DIMUPT
 70
     0
  9
$DIMDEC
 70
     2
  9
$DIMTDEC
 70
     2
  9
$DIMALTU
 70
     2
  9
$DIMALTTD
 70
     3
  9
$DIMTXSTY
  7
Standard
  9
$DIMAUNIT
 70
     0
  9
$DIMADEC
 70
     0
  9
$DIMALTRND
 40
0.0
  9
$DIMAZIN
 70
     0
  9
$DIMDSEP
 70
    44
  9
$DIMATFIT
 70
     3
  9
$DIMFRAC
 70
     0
  9
$DIMLDRBLK
  1

  9
$DIMLUNIT
 70
     2
  9
$DIMLWD
 70
    -2
  9
$DIMLWE
 70
    -2
  9
$DIMTMOVE
 70
     0
  9
$LUNITS
 70
     2
  9
$LUPREC
 70
     4
  9
$SKETCHINC
 40
1.0
  9
$FILLETRAD
 40
0.0
  9
$AUNITS
 70
     0
  9
$AUPREC
 70
     0
  9
$MENU
  1
.
  9
$ELEVATION
 40
0.0
  9
$PELEVATION
 40
0.0
  9
$THICKNESS
 40
0.0
  9
$LIMCHECK
 70
     0
  9
$CHAMFERA
 40
10.0
  9
$CHAMFERB
 40
10.0
  9
$CHAMFERC
 40
20.0
  9
$CHAMFERD
 40
0.0
  9
$SKPOLY
 70
     0
  9
$TDCREATE
 40
2452286.590325035
  9
$TDUCREATE
 40
2452286.090325035
  9
$TDUPDATE
 40
2455660.553215857
  9
$TDUUPDATE
 40
2455660.053215857
  9
$TDINDWG
 40
2.3286632523
  9
$TDUSRTIMER
 40
2.3286632523
  9
$USRTIMER
 70
     1
  9
$ANGBASE
 50
0.0
  9
$ANGDIR
 70
     0
  9
$PDMODE
 70
     3
  9
$PDSIZE
 40
3.0
  9
$PLINEWID
 40
0.0
  9
$SPLFRAME
 70
     0
  9
$SPLINETYPE
 70
     6
  9
$SPLINESEGS
 70
     8
  9
$HANDSEED
  5
5FB6
  9
$SURFTAB1
 70
     6
  9
$SURFTAB2
 70
     6
  9
$SURFTYPE
 70
     6
  9
$SURFU
 70
     6
  9
$SURFV
 70
     6
  9
$UCSBASE
  2

  9
$UCSNAME
  2

  9
$UCSORG
 10
0.0
 20
0.0
 30
0.0
  9
$UCSXDIR
 10
1.0
 20
0.0
 30
0.0
  9
$UCSYDIR
 10
0.0
 20
1.0
 30
0.0
  9
$UCSORTHOREF
  2

  9
$UCSORTHOVIEW
 70
     0
  9
$UCSORGTOP
 10
0.0
 20
0.0
 30
0.0
  9
$UCSORGBOTTOM
 10
0.0
 20
0.0
 30
0.0
  9
$UCSORGLEFT
 10
0.0
 20
0.0
 30
0.0
  9
$UCSORGRIGHT
 10
0.0
 20
0.0
 30
0.0
  9
$UCSORGFRONT
 10
0.0
 20
0.0
 30
0.0
  9
$UCSORGBACK
 10
0.0
 20
0.0
 30
0.0
  9
$PUCSBASE
  2

  9
$PUCSNAME
  2

  9
$PUCSORG
 10
0.0
 20
0.0
 30
0.0
  9
$PUCSXDIR
 10
1.0
 20
0.0
 30
0.0
  9
$PUCSYDIR
 10
0.0
 20
1.0
 30
0.0
  9
$PUCSORTHOREF
  2

  9
$PUCSORTHOVIEW
 70
     0
  9
$PUCSORGTOP
 10
0.0
 20
0.0
 30
0.0
  9
$PUCSORGBOTTOM
 10
0.0
 20
0.0
 30
0.0
  9
$PUCSORGLEFT
 10
0.0
 20
0.0
 30
0.0
  9
$PUCSORGRIGHT
 10
0.0
 20
0.0
 30
0.0
  9
$PUCSORGFRONT
 10
0.0
 20
0.0
 30
0.0
  9
$PUCSORGBACK
 10
0.0
 20
0.0
 30
0.0
  9
$USERI1
 70
     0
  9
$USERI2
 70
     0
  9
$USERI3
 70
     0
  9
$USERI4
 70
     0
  9
$USERI5
 70
     0
  9
$USERR1
 40
0.0
  9
$USERR2
 40
0.0
  9
$USERR3
 40
0.0
  9
$USERR4
 40
0.0
  9
$USERR5
 40
0.0
  9
$WORLDVIEW
 70
     1
  9
$SHADEDGE
 70
     3
  9
$SHADEDIF
 70
    70
  9
$TILEMODE
 70
     0
  9
$MAXACTVP
 70
    64
  9
$PINSBASE
 10
0.0
 20
0.0
 30
0.0
  9
$PLIMCHECK
 70
     0
  9
$PEXTMIN
 10
11.46014299460751
 20
3.285575844812797
 30
-0.0015258207003583
  9
$PEXTMAX
 10
189.6073677543587
 20
282.2033753668244
 30
0.0000000349246037
  9
$PLIMMIN
 10
-5.027082920074462
 20
-5.408084392547607
  9
$PLIMMAX
 10
204.8615736961365
 20
291.6449246406555
  9
$UNITMODE
 70
     0
  9
$VISRETAIN
 70
     1
  9
$PLINEGEN
 70
     0
  9
$PSLTSCALE
 70
     1
  9
$TREEDEPTH
 70
  3020
  9
$CMLSTYLE
  2
Standard
  9
$CMLJUST
 70
     0
  9
$CMLSCALE
 40
20.0
  9
$PROXYGRAPHICS
 70
     1
  9
$MEASUREMENT
 70
     1
  9
$CELWEIGHT
370
    -1
  9
$ENDCAPS
280
     0
  9
$JOINSTYLE
280
     0
  9
$LWDISPLAY
290
     0
  9
$INSUNITS
 70
     4
  9
$HYPERLINKBASE
  1

  9
$STYLESHEET
  1
A4 Specifier Manual.ctb
  9
$XEDIT
290
     1
  9
$CEPSNTYPE
380
     0
  9
$PSTYLEMODE
290
     1
  9
$FINGERPRINTGUID
  2
{D079D194-C9C2-11D5-B123-005004D48FB5}
  9
$VERSIONGUID
  2
{1C36D8D8-A66F-4917-8576-0CB37C4710F5}
  9
$EXTNAMES
290
     1
  9
$PSVPSCALE
 40
0.0
  9
$OLESTARTUP
290
     0
  0
ENDSEC
  0
SECTION
  2
CLASSES
  0
CLASS
  1
ACDBDICTIONARYWDFLT
  2
AcDbDictionaryWithDefault
  3
ObjectDBX Classes
 90
        0
280
     0
281
     0
  0
CLASS
  1
ACDBPLACEHOLDER
  2
AcDbPlaceHolder
  3
ObjectDBX Classes
 90
        0
280
     0
281
     0
  0
CLASS
  1
LAYOUT
  2
AcDbLayout
  3
ObjectDBX Classes
 90
        0
280
     0
281
     0
  0
CLASS
  1
DICTIONARYVAR
  2
AcDbDictionaryVar
  3
ObjectDBX Classes
 90
        0
280
     0
281
     0
  0
CLASS
  1
PLOTSETTINGS
  2
AcDbPlotSettings
  3
ObjectDBX Classes
 90
        0
280
     0
281
     0
  0
CLASS
  1
DIMASSOC
  2
AcDbDimAssoc
  3
"AcDbDimAssoc|Product Desc:     AcDim ARX App For Dimension|Company:          Autodesk, Inc.|WEB Address:      www.autodesk.com"
 90
    32768
280
     0
281
     0
  0
CLASS
  1
SORTENTSTABLE
  2
AcDbSortentsTable
  3
ObjectDBX Classes
 90
        0
280
     0
281
     0
  0
CLASS
  1
MATERIAL
  2
AcDbMaterial
  3
ObjectDBX Classes
 90
        0
280
     0
281
     0
  0
CLASS
  1
VISUALSTYLE
  2
AcDbVisualStyle
  3
ObjectDBX Classes
 90
     4095
280
     0
281
     0
  0
CLASS
  1
TABLESTYLE
  2
AcDbTableStyle
  3
ObjectDBX Classes
 90
     2047
280
     0
281
     0
  0
CLASS
  1
SCALE
  2
AcDbScale
  3
ObjectDBX Classes
 90
     1153
280
     0
281
     0
  0
CLASS
  1
MLEADERSTYLE
  2
AcDbMLeaderStyle
  3
ACDB_MLEADERSTYLE_CLASS
 90
     4095
280
     0
281
     0
  0
CLASS
  1
EXACTERMXREFMAP
  2
ExAcTermXrefMap
  3
EXAC_SERVICE
 90
    33793
280
     0
281
     0
  0
CLASS
  1
NPOCOLLECTION
  2
AcDbImpNonPersistentObjectsCollection
  3
ObjectDBX Classes
 90
    33921
280
     0
281
     0
  0
CLASS
  1
EXACXREFPANELOBJECT
  2
ExAcXREFPanelObject
  3
EXAC_ESW
 90
    33793
280
     0
281
     0
  0
CLASS
  1
CELLSTYLEMAP
  2
AcDbCellStyleMap
  3
ObjectDBX Classes
 90
     1152
280
     0
281
     0
  0
ENDSEC
  0
SECTION
  2
TABLES
  0
TABLE
  2
VPORT
  5
8
102
{ACAD_XDICTIONARY
360
570E
102
}
330
0
100
AcDbSymbolTable
 70
     1
  0
VPORT
  5
5447
330
8
100
AcDbSymbolTableRecord
100
AcDbViewportTableRecord
  2
*Active
 70
     0
 10
0.0
 20
0.0
 11
1.0
 21
1.0
 12
177.0000000163699
 22
241.0000011776872
 13
0.0
 23
0.0
 14
1.0
 24
1.0
 15
1.0
 25
1.0
 16
0.0
 26
0.0
 36
1.0
 17
0.0
 27
0.0
 37
0.0
 40
486.0631380441587
 41
2.208100558659217
 42
50.0
 43
0.0
 44
0.0
 50
0.0
 51
0.0
 71
     0
 72
 20000
 73
     1
 74
     3
 75
     0
 76
     0
 77
     0
 78
     0
281
     0
 65
     1
110
0.0
120
0.0
130
0.0
111
1.0
121
0.0
131
0.0
112
0.0
122
1.0
132
0.0
 79
     0
146
0.0
  0
ENDTAB
  0
TABLE
  2
LTYPE
  5
5
330
0
100
AcDbSymbolTable
 70
     1
  0
LTYPE
  5
14
330
5
100
AcDbSymbolTableRecord
100
AcDbLinetypeTableRecord
  2
ByBlock
 70
     0
  3

 72
    65
 73
     0
 40
0.0
  0
LTYPE
  5
15
330
5
100
AcDbSymbolTableRecord
100
AcDbLinetypeTableRecord
  2
ByLayer
 70
     0
  3

 72
    65
 73
     0
 40
0.0
  0
LTYPE
  5
16
330
5
100
AcDbSymbolTableRecord
100
AcDbLinetypeTableRecord
  2
Continuous
 70
     0
  3
Solid line
 72
    65
 73
     0
 40
0.0
  0
ENDTAB
  0
TABLE
  2
LAYER
  5
2
102
{ACAD_XDICTIONARY
360
55C4
102
}
330
0
100
AcDbSymbolTable
 70
     6
  0
LAYER
  5
10
102
{ACAD_XDICTIONARY
360
55E8
102
}
330
2
100
AcDbSymbolTableRecord
100
AcDbLayerTableRecord
  2
0
 70
     4
 62
     7
  6
Continuous
290
     0
370
    -3
390
F
  0
LAYER
  5
2B
102
{ACAD_XDICTIONARY
360
55EA
102
}
330
2
100
AcDbSymbolTableRecord
100
AcDbLayerTableRecord
  2
APL Joinery
 70
     0
 62
     2
  6
Continuous
370
    -3
390
F
  0
LAYER
  5
75
102
{ACAD_XDICTIONARY
360
55EC
102
}
330
2
100
AcDbSymbolTableRecord
100
AcDbLayerTableRecord
  2
APL Notes
 70
     0
 62
     7
  6
Continuous
370
    -3
390
F
  0
LAYER
  5
5173
102
{ACAD_XDICTIONARY
360
55EE
102
}
330
2
100
AcDbSymbolTableRecord
100
AcDbLayerTableRecord
  2
APL Border
 70
     0
 62
     7
  6
Continuous
370
    -3
390
F
  0
LAYER
  5
55AC
102
{ACAD_XDICTIONARY
360
55F2
102
}
330
2
100
AcDbSymbolTableRecord
100
AcDbLayerTableRecord
  2
APL Hatch
 70
     0
 62
   253
  6
Continuous
370
    -3
390
F
  0
ENDTAB
  0
TABLE
  2
STYLE
  5
3
330
0
100
AcDbSymbolTable
 70
     4
  0
STYLE
  5
11
330
3
100
AcDbSymbolTableRecord
100
AcDbTextStyleTableRecord
  2
Standard
 70
     0
 40
0.0
 41
1.0
 50
0.0
 71
     0
 42
3.0
  3
txt.shx
  4

  0
STYLE
  5
4629
330
3
100
AcDbSymbolTableRecord
100
AcDbTextStyleTableRecord
  2
Arial-Bold
 70
     0
 40
0.0
 41
1.0
 50
0.0
 71
     0
 42
5.0
  3
ARIALBD.TTF
  4

1001
ACAD
1000
Arial
1071
 33554466
  0
STYLE
  5
5297
330
3
100
AcDbSymbolTableRecord
100
AcDbTextStyleTableRecord
  2
Arial-Regular
 70
     0
 40
0.0
 41
1.0
 50
0.0
 71
     0
 42
2.5
  3
ARIAL.TTF
  4

1001
ACAD
1000
Arial
1071
       34
  0
ENDTAB
  0
TABLE
  2
VIEW
  5
6
330
0
100
AcDbSymbolTable
 70
     0
  0
ENDTAB
  0
TABLE
  2
UCS
  5
7
330
0
100
AcDbSymbolTable
 70
     0
  0
ENDTAB
  0
TABLE
  2
APPID
  5
9
330
0
100
AcDbSymbolTable
 70
    10
  0
APPID
  5
12
330
9
100
AcDbSymbolTableRecord
100
AcDbRegAppTableRecord
  2
ACAD
 70
     0
  0
APPID
  5
55A4
330
9
100
AcDbSymbolTableRecord
100
AcDbRegAppTableRecord
  2
ACAD_MLEADERVER
 70
     0
  0
APPID
  5
55AD
330
9
100
AcDbSymbolTableRecord
100
AcDbRegAppTableRecord
  2
DCO15
 70
     0
  0
APPID
  5
5792
330
9
100
AcDbSymbolTableRecord
100
AcDbRegAppTableRecord
  2
ACAD_PSEXT
 70
     0
  0
APPID
  5
59B9
330
9
100
AcDbSymbolTableRecord
100
AcDbRegAppTableRecord
  2
ACAUTHENVIRON
 70
     0
  0
APPID
  5
59BA
330
9
100
AcDbSymbolTableRecord
100
AcDbRegAppTableRecord
  2
AcDbDynamicBlockTrueName
 70
     0
  0
APPID
  5
59BB
330
9
100
AcDbSymbolTableRecord
100
AcDbRegAppTableRecord
  2
AcDbDynamicBlockGUID
 70
     0
  0
APPID
  5
59BC
330
9
100
AcDbSymbolTableRecord
100
AcDbRegAppTableRecord
  2
AcDbBlockRepETag
 70
     0
  0
APPID
  5
59BD
330
9
100
AcDbSymbolTableRecord
100
AcDbRegAppTableRecord
  2
AcDbBlockRepBTag
 70
     0
  0
APPID
  5
59BE
330
9
100
AcDbSymbolTableRecord
100
AcDbRegAppTableRecord
  2
ACAD_EXEMPT_FROM_CAD_STANDARDS
 70
     0
  0
ENDTAB
  0
TABLE
  2
DIMSTYLE
  5
A
330
0
100
AcDbSymbolTable
 70
     2
100
AcDbDimStyleTable
 71
     1
340
3E5B
  0
DIMSTYLE
105
3E5B
330
A
100
AcDbSymbolTableRecord
100
AcDbDimStyleTableRecord
  2
ISO-25
 70
     0
 41
4.0
 42
0.625
 43
3.75
 44
1.25
 73
     0
 74
     0
 77
     1
 78
     8
140
2.5
141
2.5
143
0.03937007874016
147
0.625
171
     3
172
     1
271
     2
272
     2
274
     3
278
    44
283
     0
284
     8
340
11
  0
ENDTAB
  0
TABLE
  2
BLOCK_RECORD
  5
1
330
0
100
AcDbSymbolTable
 70
    22
  0
BLOCK_RECORD
  5
1F
102
{ACAD_XDICTIONARY
360
461C
102
}
330
1
100
AcDbSymbolTableRecord
100
AcDbBlockTableRecord
  2
*Model_Space
340
22
  0
BLOCK_RECORD
  5
530D
330
1
100
AcDbSymbolTableRecord
100
AcDbBlockTableRecord
  2
*Paper_Space
340
530E
  0
BLOCK_RECORD
  5
36E0
330
1
100
AcDbSymbolTableRecord
100
AcDbBlockTableRecord
  2
08600
340
0
102
{BLKREFS
331
36EE
331
4F7A
331
4F7B
102
}
  0
BLOCK_RECORD
  5
36F1
330
1
100
AcDbSymbolTableRecord
100
AcDbBlockTableRecord
  2
08630
340
0
102
{BLKREFS
331
4659
102
}
  0
BLOCK_RECORD
  5
3D9E
330
1
100
AcDbSymbolTableRecord
100
AcDbBlockTableRecord
  2
9010312r
340
0
102
{BLKREFS
331
465B
102
}
  0
BLOCK_RECORD
  5
407B
330
1
100
AcDbSymbolTableRecord
100
AcDbBlockTableRecord
  2
08654
340
0
102
{BLKREFS
331
4080
331
437C
102
}
  0
BLOCK_RECORD
  5
4081
330
1
100
AcDbSymbolTableRecord
100
AcDbBlockTableRecord
  2
08653
340
0
102
{BLKREFS
331
4086
331
4087
331
4380
331
4377
102
}
  0
BLOCK_RECORD
  5
462A
330
1
100
AcDbSymbolTableRecord
100
AcDbBlockTableRecord
  2
a4 specifiers manual
340
0
102
{BLKREFS
331
4631
102
}
1001
ACAD
1000
DesignCenter Data
1002
{
1070
     1
1070
     4
1002
}
  0
BLOCK_RECORD
  5
4634
330
1
100
AcDbSymbolTableRecord
100
AcDbBlockTableRecord
  2
08652
340
0
102
{BLKREFS
331
4F99
102
}
  0
BLOCK_RECORD
  5
4645
330
1
100
AcDbSymbolTableRecord
100
AcDbBlockTableRecord
  2
9010240l
340
0
102
{BLKREFS
331
465C
102
}
  0
BLOCK_RECORD
  5
4653
330
1
100
AcDbSymbolTableRecord
100
AcDbBlockTableRecord
  2
6Glass
340
0
102
{BLKREFS
331
465A
102
}
  0
BLOCK_RECORD
  5
4658
330
1
100
AcDbSymbolTableRecord
100
AcDbBlockTableRecord
  2
08630Glaze
340
0
310
2800000020000000200000000100080000000000000400000000000000000000000000000000000000000000000080000080000000808000800000008000800080800000C0C0C000C0DCC000F0CAA6000020400000206000002080000020A0000020C0000020E00000400000004020000040400000406000004080000040A0
310
000040C0000040E00000600000006020000060400000606000006080000060A0000060C0000060E00000800000008020000080400000806000008080000080A0000080C0000080E00000A0000000A0200000A0400000A0600000A0800000A0A00000A0C00000A0E00000C0000000C0200000C0400000C0600000C0800000C0
310
A00000C0C00000C0E00000E0000000E0200000E0400000E0600000E0800000E0A00000E0C00000E0E00040000000400020004000400040006000400080004000A0004000C0004000E00040200000402020004020400040206000402080004020A0004020C0004020E000404000004040200040404000404060004040800040
310
40A0004040C0004040E00040600000406020004060400040606000406080004060A0004060C0004060E00040800000408020004080400040806000408080004080A0004080C0004080E00040A0000040A0200040A0400040A0600040A0800040A0A00040A0C00040A0E00040C0000040C0200040C0400040C0600040C08000
310
40C0A00040C0C00040C0E00040E0000040E0200040E0400040E0600040E0800040E0A00040E0C00040E0E00080000000800020008000400080006000800080008000A0008000C0008000E00080200000802020008020400080206000802080008020A0008020C0008020E00080400000804020008040400080406000804080
310
008040A0008040C0008040E00080600000806020008060400080606000806080008060A0008060C0008060E00080800000808020008080400080806000808080008080A0008080C0008080E00080A0000080A0200080A0400080A0600080A0800080A0A00080A0C00080A0E00080C0000080C0200080C0400080C0600080C0
310
800080C0A00080C0C00080C0E00080E0000080E0200080E0400080E0600080E0800080E0A00080E0C00080E0E000C0000000C0002000C0004000C0006000C0008000C000A000C000C000C000E000C0200000C0202000C0204000C0206000C0208000C020A000C020C000C020E000C0400000C0402000C0404000C0406000C0
310
408000C040A000C040C000C040E000C0600000C0602000C0604000C0606000C0608000C060A000C060C000C060E000C0800000C0802000C0804000C0806000C0808000C080A000C080C000C080E000C0A00000C0A02000C0A04000C0A06000C0A08000C0A0A000C0A0C000C0A0E000C0C00000C0C02000C0C04000C0C06000
310
C0C08000C0C0A000F0FBFF00A4A0A000808080000000FF0000FF000000FFFF00FF000000FF00FF00FFFF0000FFFFFF0000000000000000000000000000000000000000000000000000000000000000000000000000000000000000000000000000000000000000000000000000000000000000000000000000000000000000
310
00000000000000000000000000000000000000000000000000000000000000000000000000000000000000000000000000000000000000000000000000000000000000000000000000000000000000000000000000FB000000000000000000FBFB00000000000000000000000000000000000000FBFB0000000000000000FB
310
FBFBFBFB00000000000000000000000000000000FBFBFB0000000000000000FBFB000000000000000000000000000000000000FB0000FB0000000000000000FBFB00000000000000000000000000000000000000FB00FB0000000000000000FBFB0000000000000000000000000000000000000000FB00FB00000000000000
310
00FBFB0000000000000000000000000000000000000000FB00FB0000000000000000FBFB0000000000000000000000000000000000000000FB00FB0000000000000000FBFB00000000FFA4FFA4FF0000000000000000000000FB00FB00000000000000FBFB00000000FFA400A4FF000000000000000000000000FB00FB0000
310
00000000FBFB00000000FFA400A4A4A4000000000000000000000000FBFBFB0000000000FBFB00000000FFA400A4A4A40000000000000000000000000000FBFB00000000FBFBFBFB0000FFA400A4A4A4000000000000000000000000000000FBFB000000FBFBFBFBA400FFA400A4A4A400A400000000000000000000000000
310
00FBFB0000FBFB00A4A4A4A4A400A4A4A4A4A4000000000000000000000000000000FBFB00FBFBA400A4A4A4A400A4FFA400A400000000000000000000000000000000FBFBFBFBFBA4A4A4A4A400A4A4A4A4A40000000000000000000000000000000000FBFBFBFBA4A4A4A4A400A4A4A4A400000000000000000000000000
310
000000000000FB00A4A40000A4A400A4A4A4A4A400000000000000000000000000000000000000FBA4A40000A4A400A4A40000A400000000000000000000000000000000000000000000A4A4A4A400A4A4A4A400000000000000000000000000000000000000000000000000FFA400A4A4A400000000000000000000000000
310
00000000000000000000000000FFA400A4FF00000000000000000000000000000000000000000000000000000000000000000000000000000000000000000000000000000000000000000000000000000000000000000000000000000000000000000000000000000000000000000000000000000000000000000000000000
310
0000000000000000000000000000000000000000000000000000000000000000000000000000000000000000000000000000000000000000
102
{BLKREFS
331
5066
331
5068
331
506C
331
506D
331
506E
331
506F
331
5071
331
5074
331
5078
102
}
1001
ACAD
1000
DesignCenter Data
1002
{
1070
     1
1070
     4
1002
}
  0
BLOCK_RECORD
  5
5079
330
1
100
AcDbSymbolTableRecord
100
AcDbBlockTableRecord
  2
19mmliner
340
0
102
{BLKREFS
331
507D
331
507E
331
507F
102
}
  0
BLOCK_RECORD
  5
5318
330
1
100
AcDbSymbolTableRecord
100
AcDbBlockTableRecord
  2
vantage a4 SM border
340
0
102
{BLKREFS
331
531C
102
}
  0
BLOCK_RECORD
  5
5A69
102
{ACAD_XDICTIONARY
360
5A73
102
}
330
1
100
AcDbSymbolTableRecord
100
AcDbBlockTableRecord
  2
vantage a4 SM attributes (4)
340
0
102
{BLKREFS
331
5A76
102
}
1001
ACAD
1000
DesignCenter Data
1002
{
1070
     1
1070
     4
1002
}
  0
BLOCK_RECORD
  5
5BAA
102
{ACAD_XDICTIONARY
360
5BAB
102
}
330
1
100
AcDbSymbolTableRecord
100
AcDbBlockTableRecord
  2
vantage black & white logo
340
0
310
2800000020000000200000000100080000000000000400000000000000000000000000000000000000000000000080000080000000808000800000008000800080800000C0C0C000C0DCC000F0CAA6000020400000206000002080000020A0000020C0000020E00000400000004020000040400000406000004080000040A0
310
000040C0000040E00000600000006020000060400000606000006080000060A0000060C0000060E00000800000008020000080400000806000008080000080A0000080C0000080E00000A0000000A0200000A0400000A0600000A0800000A0A00000A0C00000A0E00000C0000000C0200000C0400000C0600000C0800000C0
310
A00000C0C00000C0E00000E0000000E0200000E0400000E0600000E0800000E0A00000E0C00000E0E00040000000400020004000400040006000400080004000A0004000C0004000E00040200000402020004020400040206000402080004020A0004020C0004020E000404000004040200040404000404060004040800040
310
40A0004040C0004040E00040600000406020004060400040606000406080004060A0004060C0004060E00040800000408020004080400040806000408080004080A0004080C0004080E00040A0000040A0200040A0400040A0600040A0800040A0A00040A0C00040A0E00040C0000040C0200040C0400040C0600040C08000
310
40C0A00040C0C00040C0E00040E0000040E0200040E0400040E0600040E0800040E0A00040E0C00040E0E00080000000800020008000400080006000800080008000A0008000C0008000E00080200000802020008020400080206000802080008020A0008020C0008020E00080400000804020008040400080406000804080
310
008040A0008040C0008040E00080600000806020008060400080606000806080008060A0008060C0008060E00080800000808020008080400080806000808080008080A0008080C0008080E00080A0000080A0200080A0400080A0600080A0800080A0A00080A0C00080A0E00080C0000080C0200080C0400080C0600080C0
310
800080C0A00080C0C00080C0E00080E0000080E0200080E0400080E0600080E0800080E0A00080E0C00080E0E000C0000000C0002000C0004000C0006000C0008000C000A000C000C000C000E000C0200000C0202000C0204000C0206000C0208000C020A000C020C000C020E000C0400000C0402000C0404000C0406000C0
310
408000C040A000C040C000C040E000C0600000C0602000C0604000C0606000C0608000C060A000C060C000C060E000C0800000C0802000C0804000C0806000C0808000C080A000C080C000C080E000C0A00000C0A02000C0A04000C0A06000C0A08000C0A0A000C0A0C000C0A0E000C0C00000C0C02000C0C04000C0C06000
310
C0C08000C0C0A000F0FBFF00A4A0A000808080000000FF0000FF000000FFFF00FF000000FF00FF00FFFF0000FFFFFF0000000000000000000000000000000000000000000000000000000000000000000000000000000000000000000000000000000000000000000000000000000000000000000000000000000000000000
310
0000000000000000000000000000000000000000000000000000000000000000A4A40000000000000000000000000000000000000000000000000000000000A400000700000000000000000000000000000000000000000000000000000000A4000707000000000000000000000000000000000000000000000000000000A4
310
00A4A407070000000000000000000000000000000000000000000000000000A400A400A40700000000000000000000000000000000000000000000000000A400A4A400A407070000000000000000000000000000000000000000000000A40700A4000000A4070000000000000000000000000000000000000000000000A400
310
A4A4000000A40707000000000000000000000000000000000000000000A400A4A4000000A4A4A400070000000000000000000000000000000000000000A400A400000000A400A4070700000000000000000000000000000000000000A400A4A4000000A4A40000A40007000000000000000000000000000000000000A400A4
310
A4A4A4A4A4A4A4A4A407070000000000000000000000000000000000A400A4A4A4A4A4A4A4A4A4A4A4A40007000000000000000000000000000000A40000A4A4A4A4A4A4A4A4A4A4A4A40700070000000000000000000000000000A400A4A400A4A4A4A4A4A4A4A4A4A4A4070700000000000000000000000000A400A4A4A4
310
A4A4A4A4A4A4A4A4A4A4A4A4070007000000000000000000000000A400A4A4A4A4A4A4A4A4A4A4A4A4A4A4A4A407070000000000000000000000A400A4A400A4A4A4A4A4A4A4A4A4A4A4A4A4A4070007000000000000000000A40700A4A400A4A4A4A4A4A4A4A4A4A4A4A4A400A40707000000000000000000A400A4A4A4A4
310
A4A4A4A4A4A4A4A4A4A4A4A4A4A4A407000700000000000000A400A4A4A4A4A4A4A4A4A4A4A4A4A4A4A4A4A4A4A4A4A4070007000000000000A400A4A4A4A4A4A4A4A4A4A4A4A4A4A4A4A4A4A4A4A4A40700070000000000A400A4A400A4A4A4A4A4A4A4A4A4A4A4A4A4A4A4A4A4A4A40007000700000000A400A4A4A400A4
310
A4A4A4A4A4A4A4A4A4A4A4A4A4A4A4A4A4000700070000000700A4A4A4A4A4A4A4A4A4A4A4A4A4A4A4A4A4A4A4A4A4A4A4A4A40700070000A407A4A4A4A4A4A4A4A4A4A4A4A4A4A4A4A4A4A4A4A4A4A4A4A4A4A407A40000000000000000000000000000000000000000000000000000000000000000000000000000000000
310
0000000000000000000000000000000000000000000000000000000000000000000000000000000000000000000000000000000000000000
102
{BLKREFS
331
5BA8
102
}
1001
AcDbDynamicBlockGUID
1000
{7D04BC3F-8AE2-40EA-A482-CE6E620AF154}
1001
AcDbBlockRepETag
1070
     1
1071
      907
1001
ACAD
1000
DesignCenter Data
1002
{
1070
     1
1070
     4
1002
}
  0
ENDTAB
  0
ENDSEC
  0
SECTION
  2
BLOCKS
  0
BLOCK
  5
20
330
1F
100
AcDbEntity
  8
0
100
AcDbBlockBegin
  2
*Model_Space
 70
     0
 10
0.0
 20
0.0
 30
0.0
  3
*Model_Space
  1

  0
ENDBLK
  5
21
330
1F
100
AcDbEntity
  8
0
100
AcDbBlockEnd
  0
BLOCK
  5
530F
330
530D
100
AcDbEntity
 67
     1
  8
0
 48
3.0
100
AcDbBlockBegin
  2
*Paper_Space
 70
     0
 10
0.0
 20
0.0
 30
0.0
  3
*Paper_Space
  1

  0
ENDBLK
  5
5310
330
530D
100
AcDbEntity
 67
     1
  8
0
 48
3.0
100
AcDbBlockEnd
  0
BLOCK
  5
36E1
330
36E0
100
AcDbEntity
  8
0
100
AcDbBlockBegin
  2
08600
 70
     0
 10
199.1571794166645
 20
219.760503870769
 30
0.0
  3
08600
  1
08600.dwg
  0
LWPOLYLINE
  5
5B85
102
{ACAD_REACTORS
330
5B86
102
}
330
36E0
100
AcDbEntity
  8
APL Joinery
  6
Continuous
100
AcDbPolyline
 90
      144
 70
     1
 43
0.0
 10
244.8269242989592
 20
238.8559584162235
 42
0.1432248589116724
 10
245.276939789862
 20
238.6262656100214
 42
-0.2959768337492813
 10
245.2769397898612
 20
236.3947421315165
 42
0.1432248589116831
 10
244.8269242989602
 20
236.1650493253145
 42
-0.3973597071195351
 10
242.2874345343681
 20
236.1650493253144
 42
0.599363233483035
 10
240.782308840381
 20
235.660503870769
 10
240.3071794166645
 20
235.660503870769
 42
0.4142135623730951
 10
240.0571794166646
 20
235.410503870769
 10
240.0571794166646
 20
234.4105038707691
 42
0.4142135623730951
 10
240.3071794166645
 20
234.160503870769
 10
247.6571794166646
 20
234.1605038707689
 10
247.6571794166646
 20
224.960503870769
 42
0.4142135623728455
 10
247.8571794166646
 20
224.760503870769
 10
248.7571794166649
 20
224.760503870769
 10
249.1571794166646
 20
225.160503870769
 10
262.7571824166651
 20
225.160503870769
 10
263.1571824166647
 20
224.760503870769
 10
264.9071794166648
 20
224.760503870769
 42
0.9999999999999998
 10
264.9071794166648
 20
226.260503870769
 10
249.1571794166646
 20
226.260503870769
 10
249.1571794166649
 20
234.360503870769
 42
0.4142135623731336
 10
247.8571794166648
 20
235.660503870769
 10
247.4814627907343
 20
235.660503870769
 42
-0.5149445451952161
 10
247.0086575649427
 20
236.3231544731787
 42
0.2034359732099162
 10
246.8089892460779
 20
239.1682833595222
 42
-0.4477817127676043
 10
247.0791368053804
 20
239.8636369037673
 42
0.3127834059992393
 10
249.1571794166646
 20
242.860503870769
 10
249.1571794166646
 20
245.7605038707689
 10
252.4571794166647
 20
245.760503870769
 42
1.044748832512376
 10
252.3959900701673
 20
247.1578243594076
 10
248.9610247293112
 20
246.8564087436709
 42
0.3888043079714984
 10
247.9571794166647
 20
245.7606194043816
 10
247.9571794166647
 20
242.860503870769
 42
-0.4142135623730951
 10
245.9571794166647
 20
240.860503870769
 10
235.6571794166646
 20
240.860503870769
 42
-0.4142135623730951
 10
234.6571794166646
 20
241.860503870769
 10
234.6571794166646
 20
262.560503870769
 42
0.4142135623730118
 10
234.4571794166646
 20
262.7605038707689
 10
232.5571794166648
 20
262.760503870769
 42
0.4142135623730118
 10
232.3571794166649
 20
262.560503870769
 10
232.3571794166649
 20
260.7605038707689
 10
231.1571794166646
 20
260.7605038707689
 42
0.4142135623730951
 10
230.6571794166646
 20
260.2605038707689
 10
230.6571794166646
 20
258.7105038707689
 42
0.9999999999999998
 10
231.6571794166646
 20
258.7105038707689
 10
231.6571794166646
 20
259.4605038707689
 10
233.1571794166646
 20
259.4605038707689
 10
233.1571794166646
 20
253.9605038707689
 10
231.6571794166646
 20
253.9605038707689
 10
231.6571794166646
 20
254.7105038707689
 42
0.9999999999999998
 10
230.6571794166646
 20
254.7105038707689
 10
230.6571794166646
 20
253.1605038707689
 42
0.4142135623730951
 10
231.1571794166646
 20
252.6605038707689
 10
232.8571794166649
 20
252.6605038707689
 10
232.8571794166649
 20
247.260503870769
 10
231.1571794166647
 20
247.260503870769
 42
0.9999999999999998
 10
231.1571794166647
 20
246.2605038707689
 10
232.8571794166649
 20
246.2605038707689
 10
232.8571794166649
 20
242.260503870769
 10
230.8571794166645
 20
242.260503870769
 42
0.4142135623730118
 10
230.6571794166647
 20
242.060503870769
 10
230.6571794166646
 20
240.760503870769
 10
226.0571794166647
 20
240.760503870769
 10
225.6571794166646
 20
240.3605038707689
 10
225.2571794166649
 20
240.760503870769
 10
212.657179416665
 20
240.760503870769
 42
0.9999999999999998
 10
212.6571794166646
 20
239.7605038707687
 10
215.1571794166646
 20
239.7605038707687
 42
-0.4142135623730951
 10
215.6571794166646
 20
239.2605038707687
 10
215.6571794166646
 20
237.4605038707687
 42
-0.4142135623730951
 10
215.1571794166646
 20
236.9605038707687
 10
212.5071794166647
 20
236.9605038707687
 42
0.4142135623730951
 10
208.8571794166647
 20
233.3105038707687
 10
208.8571794166646
 20
232.810503870769
 42
-0.4142135623730951
 10
208.6071794166646
 20
232.560503870769
 10
204.0571794166647
 20
232.560503870769
 10
203.6571794166646
 20
232.1605038707691
 10
203.2571794166645
 20
232.560503870769
 10
197.4571794166645
 20
232.560503870769
 42
-0.4142135623730951
 10
196.4571794166645
 20
233.560503870769
 10
196.4571794166647
 20
236.060503870769
 42
0.4142135623730118
 10
196.2571794166647
 20
236.260503870769
 10
196.1571794166646
 20
236.260503870769
 10
196.1571794166646
 20
239.260503870769
 10
196.9071794166645
 20
239.260503870769
 42
0.4744978678080102
 10
197.1521283909429
 20
239.560503870769
 42
0.3563939586925959
 10
195.682434545273
 20
240.760503870769
 10
194.9071794166646
 20
240.760503870769
 42
0.4142135623730951
 10
194.6571794166646
 20
240.510503870769
 10
194.6571794166646
 20
200.760503870769
 42
0.4142135623730951
 10
195.6571794166645
 20
199.7605038707689
 10
198.1571794166645
 20
199.7605038707689
 42
0.4142135623730951
 10
199.1571794166645
 20
200.760503870769
 10
199.1571794166645
 20
202.060503870769
 42
0.4142135623730118
 10
198.9571794166646
 20
202.2605038707689
 10
198.3571794166645
 20
202.2605038707689
 42
0.4142135623730118
 10
198.1571794166645
 20
202.060503870769
 10
198.1571794166645
 20
201.260503870769
 10
196.1571794166646
 20
201.260503870769
 10
196.1571794166646
 20
206.3605038707689
 42
0.9999999999999998
 10
196.1571794166646
 20
207.160503870769
 10
196.1571794166646
 20
212.260503870769
 10
198.1571794166645
 20
212.260503870769
 10
198.1571794166645
 20
211.460503870769
 42
0.4142135623728455
 10
198.3571794166645
 20
211.260503870769
 10
198.9571794166646
 20
211.260503870769
 42
0.4142135623728453
 10
199.1571794166645
 20
211.460503870769
 10
199.1571794166645
 20
212.7605038707689
 42
0.4142135623730951
 10
198.1571794166645
 20
213.760503870769
 10
196.4571794166647
 20
213.760503870769
 10
196.4571794166645
 20
230.3605038707691
 10
208.5071794166647
 20
230.3605038707686
 10
208.5071794166647
 20
229.5105038707687
 42
0.414213562373012
 10
208.7071794166647
 20
229.3105038707687
 10
216.6071794166646
 20
229.3105038707687
 10
216.6071794166646
 20
224.960503870769
 42
0.4142135623728455
 10
216.8071794166646
 20
224.760503870769
 10
217.9071794166646
 20
224.760503870769
 42
0.4142135623730118
 10
218.1071794166646
 20
224.9605038707689
 10
218.1071794166646
 20
229.3105038707687
 42
0.4142135623730951
 10
216.6071794166646
 20
230.8105038707687
 10
215.2946380254823
 20
230.8105038707687
 10
215.2946380254823
 20
231.3105038707687
 42
0.657763010441712
 10
213.7769242989604
 20
231.9650493253142
 42
-0.3973597071194602
 10
211.2374345343701
 20
231.9650493253141
 42
0.1432248589116724
 10
210.7874190434673
 20
232.1947421315162
 42
-0.2959768337492813
 10
210.7874190434681
 20
234.4262656100212
 42
0.1432248589116831
 10
211.2374345343696
 20
234.6559584162235
 42
-0.3973597071194223
 10
213.7769242989602
 20
234.6559584162234
 42
0.6006744515322297
 10
215.2826218615389
 20
235.1639272460893
 42
0.3983200018818864
 10
217.4571794166646
 20
237.4605038707687
 10
217.4571794166648
 20
238.4605038707689
 42
-0.4142135623730951
 10
217.9571794166648
 20
238.9605038707689
 10
221.6571794166646
 20
238.9605038707689
 10
221.6571794166646
 20
238.760503870769
 42
0.4142135623728455
 10
221.8571794166646
 20
238.5605038707689
 10
229.4571794166645
 20
238.5605038707689
 42
0.4142135623729286
 10
229.6571794166646
 20
238.760503870769
 10
229.6571794166646
 20
238.9605038707689
 10
234.4571794166646
 20
238.9605038707689
 42
0.4142135623728453
 10
234.6571794166646
 20
239.1605038707689
 10
234.6571794166646
 20
239.3605038707689
 10
240.782308840381
 20
239.3605038707689
 42
0.5993632334830349
 10
242.287434534369
 20
238.8559584162234
 42
-0.3973597071195353
  0
HATCH
  5
5B86
330
36E0
100
AcDbEntity
  8
APL Hatch
100
AcDbHatch
 10
0.0
 20
0.0
 30
0.0
210
0.0
220
0.0
230
1.0
  2
SOLID
 70
     1
 71
     1
 91
        1
 92
        1
 93
      144
 72
     2
 10
245.4446380254818
 20
239.5105038707705
 40
0.9000000000014225
 50
226.6582417728268
 51
259.2612357600979
 73
     1
 72
     2
 10
243.5571794166642
 20
237.5105038707696
 40
2.049999999999971
 50
327.0249334069859
 51
392.9750665930549
 73
     0
 72
     2
 10
245.4446380254817
 20
235.5105038707705
 40
0.8999999999985508
 50
100.7387642399847
 51
133.3417582272588
 73
     1
 72
     2
 10
243.557179416664
 20
237.5105038707694
 40
1.850000000000651
 50
46.65824177277285
 51
133.3417582272221
 73
     0
 72
     2
 10
241.6697208078459
 20
235.5105038707689
 40
0.8999999999999918
 50
46.65824177277566
 51
170.4059317731335
 73
     1
 72
     1
 10
240.782308840381
 20
235.660503870769
 11
240.3071794166645
 21
235.660503870769
 72
     2
 10
240.3071794166645
 20
235.410503870769
 40
0.25
 50
90.0
 51
180.0
 73
     1
 72
     1
 10
240.0571794166646
 20
235.410503870769
 11
240.0571794166646
 21
234.4105038707691
 72
     2
 10
240.3071794166645
 20
234.4105038707691
 40
0.25
 50
180.0
 51
270.0
 73
     1
 72
     1
 10
240.3071794166645
 20
234.160503870769
 11
247.6571794166646
 21
234.1605038707689
 72
     1
 10
247.6571794166646
 20
234.1605038707689
 11
247.6571794166646
 21
224.960503870769
 72
     2
 10
247.8571794166647
 20
224.9605038707691
 40
0.2000000000001023
 50
180.0000000000163
 51
269.9999999999674
 73
     1
 72
     1
 10
247.8571794166646
 20
224.760503870769
 11
248.7571794166649
 21
224.760503870769
 72
     1
 10
248.7571794166649
 20
224.760503870769
 11
249.1571794166646
 21
225.160503870769
 72
     1
 10
249.1571794166646
 20
225.160503870769
 11
262.7571824166651
 21
225.160503870769
 72
     1
 10
262.7571824166651
 20
225.160503870769
 11
263.1571824166647
 21
224.760503870769
 72
     1
 10
263.1571824166647
 20
224.760503870769
 11
264.9071794166648
 21
224.760503870769
 72
     2
 10
264.9071794166648
 20
225.5105038707689
 40
0.75
 50
270.0
 51
450.0
 73
     1
 72
     1
 10
264.9071794166648
 20
226.260503870769
 11
249.1571794166646
 21
226.260503870769
 72
     1
 10
249.1571794166646
 20
226.260503870769
 11
249.1571794166649
 21
234.360503870769
 72
     2
 10
247.857179416665
 20
234.360503870769
 40
1.299999999999897
 50
359.9999999999975
 51
450.0000000000049
 73
     1
 72
     1
 10
247.8571794166648
 20
235.660503870769
 11
247.4814627907343
 21
235.660503870769
 72
     2
 10
247.4814627907343
 20
236.160503870769
 40
0.5
 50
90.00000000000325
 51
198.9838243850384
 73
     0
 72
     2
 10
243.5571794166647
 20
237.5105038707689
 40
3.649999999999852
 50
341.0161756149603
 51
387.0125826341198
 73
     1
 72
     2
 10
247.2544426473673
 20
239.3953764401733
 40
0.4999999999999973
 50
152.9874173658788
 51
249.4752670041154
 73
     0
 72
     2
 10
245.9571794166649
 20
242.8605038707688
 40
3.199999999999662
 50
290.5247329958711
 51
360.0000000000036
 73
     1
 72
     1
 10
249.1571794166646
 20
242.860503870769
 11
249.1571794166646
 21
245.7605038707689
 72
     1
 10
249.1571794166646
 20
245.7605038707689
 11
252.4571794166647
 21
245.760503870769
 72
     2
 10
252.4571794166648
 20
246.460503870769
 40
0.6999999999999887
 50
269.9999999999954
 51
455.0148164792156
 73
     1
 72
     1
 10
252.3959900701673
 20
247.1578243594076
 11
248.9610247293112
 21
246.8564087436709
 72
     2
 10
249.0571794166648
 20
245.7606194043817
 40
1.099999999999999
 50
95.01481647922753
 51
180.0000000000029
 73
     1
 72
     1
 10
247.9571794166647
 20
245.7606194043816
 11
247.9571794166647
 21
242.860503870769
 72
     2
 10
245.9571794166647
 20
242.860503870769
 40
2.0
 50
360.0
 51
450.0
 73
     0
 72
     1
 10
245.9571794166647
 20
240.860503870769
 11
235.6571794166646
 21
240.860503870769
 72
     2
 10
235.6571794166646
 20
241.860503870769
 40
1.0
 50
90.0
 51
180.0
 73
     0
 72
     1
 10
234.6571794166646
 20
241.860503870769
 11
234.6571794166646
 21
262.560503870769
 72
     2
 10
234.4571794166646
 20
262.560503870769
 40
0.1999999999999886
 50
0.0
 51
89.99999999998371
 73
     1
 72
     1
 10
234.4571794166646
 20
262.7605038707689
 11
232.5571794166648
 21
262.760503870769
 72
     2
 10
232.5571794166649
 20
262.560503870769
 40
0.1999999999999886
 50
90.00000000001628
 51
180.0
 73
     1
 72
     1
 10
232.3571794166649
 20
262.560503870769
 11
232.3571794166649
 21
260.7605038707689
 72
     1
 10
232.3571794166649
 20
260.7605038707689
 11
231.1571794166646
 21
260.7605038707689
 72
     2
 10
231.1571794166646
 20
260.2605038707689
 40
0.5
 50
90.0
 51
180.0
 73
     1
 72
     1
 10
230.6571794166646
 20
260.2605038707689
 11
230.6571794166646
 21
258.7105038707689
 72
     2
 10
231.1571794166646
 20
258.7105038707689
 40
0.5
 50
180.0
 51
360.0
 73
     1
 72
     1
 10
231.6571794166646
 20
258.7105038707689
 11
231.6571794166646
 21
259.4605038707689
 72
     1
 10
231.6571794166646
 20
259.4605038707689
 11
233.1571794166646
 21
259.4605038707689
 72
     1
 10
233.1571794166646
 20
259.4605038707689
 11
233.1571794166646
 21
253.9605038707689
 72
     1
 10
233.1571794166646
 20
253.9605038707689
 11
231.6571794166646
 21
253.9605038707689
 72
     1
 10
231.6571794166646
 20
253.9605038707689
 11
231.6571794166646
 21
254.7105038707689
 72
     2
 10
231.1571794166646
 20
254.7105038707689
 40
0.5
 50
0.0
 51
180.0
 73
     1
 72
     1
 10
230.6571794166646
 20
254.7105038707689
 11
230.6571794166646
 21
253.1605038707689
 72
     2
 10
231.1571794166646
 20
253.1605038707689
 40
0.5
 50
180.0
 51
270.0
 73
     1
 72
     1
 10
231.1571794166646
 20
252.6605038707689
 11
232.8571794166649
 21
252.6605038707689
 72
     1
 10
232.8571794166649
 20
252.6605038707689
 11
232.8571794166649
 21
247.260503870769
 72
     1
 10
232.8571794166649
 20
247.260503870769
 11
231.1571794166647
 21
247.260503870769
 72
     2
 10
231.1571794166647
 20
246.760503870769
 40
0.5
 50
90.0
 51
270.0
 73
     1
 72
     1
 10
231.1571794166647
 20
246.2605038707689
 11
232.8571794166649
 21
246.2605038707689
 72
     1
 10
232.8571794166649
 20
246.2605038707689
 11
232.8571794166649
 21
242.260503870769
 72
     1
 10
232.8571794166649
 20
242.260503870769
 11
230.8571794166645
 21
242.260503870769
 72
     2
 10
230.8571794166646
 20
242.060503870769
 40
0.1999999999999886
 50
90.00000000001628
 51
180.0
 73
     1
 72
     1
 10
230.6571794166647
 20
242.060503870769
 11
230.6571794166646
 21
240.760503870769
 72
     1
 10
230.6571794166646
 20
240.760503870769
 11
226.0571794166647
 21
240.760503870769
 72
     1
 10
226.0571794166647
 20
240.760503870769
 11
225.6571794166646
 21
240.3605038707689
 72
     1
 10
225.6571794166646
 20
240.3605038707689
 11
225.2571794166649
 21
240.760503870769
 72
     1
 10
225.2571794166649
 20
240.760503870769
 11
212.657179416665
 21
240.760503870769
 72
     2
 10
212.6571794166648
 20
240.2605038707688
 40
0.5000000000001137
 50
89.99999999997395
 51
269.9999999999739
 73
     1
 72
     1
 10
212.6571794166646
 20
239.7605038707687
 11
215.1571794166646
 21
239.7605038707687
 72
     2
 10
215.1571794166646
 20
239.2605038707687
 40
0.5
 50
270.0
 51
360.0
 73
     0
 72
     1
 10
215.6571794166646
 20
239.2605038707687
 11
215.6571794166646
 21
237.4605038707687
 72
     2
 10
215.1571794166646
 20
237.4605038707687
 40
0.5
 50
360.0
 51
450.0
 73
     0
 72
     1
 10
215.1571794166646
 20
236.9605038707687
 11
212.5071794166647
 21
236.9605038707687
 72
     2
 10
212.5071794166647
 20
233.3105038707687
 40
3.649999999999977
 50
90.0
 51
180.0
 73
     1
 72
     1
 10
208.8571794166647
 20
233.3105038707687
 11
208.8571794166646
 21
232.810503870769
 72
     2
 10
208.6071794166646
 20
232.810503870769
 40
0.25
 50
360.0
 51
450.0
 73
     0
 72
     1
 10
208.6071794166646
 20
232.560503870769
 11
204.0571794166647
 21
232.560503870769
 72
     1
 10
204.0571794166647
 20
232.560503870769
 11
203.6571794166646
 21
232.1605038707691
 72
     1
 10
203.6571794166646
 20
232.1605038707691
 11
203.2571794166645
 21
232.560503870769
 72
     1
 10
203.2571794166645
 20
232.560503870769
 11
197.4571794166645
 21
232.560503870769
 72
     2
 10
197.4571794166645
 20
233.560503870769
 40
1.0
 50
90.0
 51
180.0
 73
     0
 72
     1
 10
196.4571794166645
 20
233.560503870769
 11
196.4571794166647
 21
236.060503870769
 72
     2
 10
196.2571794166647
 20
236.060503870769
 40
0.1999999999999886
 50
0.0000000000162844
 51
90.0
 73
     1
 72
     1
 10
196.2571794166647
 20
236.260503870769
 11
196.1571794166646
 21
236.260503870769
 72
     1
 10
196.1571794166646
 20
236.260503870769
 11
196.1571794166646
 21
239.260503870769
 72
     1
 10
196.1571794166646
 20
239.260503870769
 11
196.9071794166645
 21
239.260503870769
 72
     2
 10
196.9071794166645
 20
239.510503870769
 40
0.2500000000000568
 50
270.000000000013
 51
371.5369590328156
 73
     1
 72
     2
 10
195.682434545273
 20
239.260503870769
 40
1.499999999999934
 50
11.53695903281644
 51
90.0
 73
     1
 72
     1
 10
195.682434545273
 20
240.760503870769
 11
194.9071794166646
 21
240.760503870769
 72
     2
 10
194.9071794166646
 20
240.510503870769
 40
0.25
 50
90.0
 51
180.0
 73
     1
 72
     1
 10
194.6571794166646
 20
240.510503870769
 11
194.6571794166646
 21
200.760503870769
 72
     2
 10
195.6571794166645
 20
200.760503870769
 40
1.0
 50
180.0
 51
270.0
 73
     1
 72
     1
 10
195.6571794166645
 20
199.7605038707689
 11
198.1571794166645
 21
199.7605038707689
 72
     2
 10
198.1571794166645
 20
200.760503870769
 40
1.0
 50
270.0
 51
360.0
 73
     1
 72
     1
 10
199.1571794166645
 20
200.760503870769
 11
199.1571794166645
 21
202.060503870769
 72
     2
 10
198.9571794166646
 20
202.060503870769
 40
0.1999999999999886
 50
0.0000000000162844
 51
90.0
 73
     1
 72
     1
 10
198.9571794166646
 20
202.2605038707689
 11
198.3571794166645
 21
202.2605038707689
 72
     2
 10
198.3571794166645
 20
202.060503870769
 40
0.1999999999999886
 50
90.0
 51
179.9999999999837
 73
     1
 72
     1
 10
198.1571794166645
 20
202.060503870769
 11
198.1571794166645
 21
201.260503870769
 72
     1
 10
198.1571794166645
 20
201.260503870769
 11
196.1571794166646
 21
201.260503870769
 72
     1
 10
196.1571794166646
 20
201.260503870769
 11
196.1571794166646
 21
206.3605038707689
 72
     2
 10
196.1571794166646
 20
206.7605038707689
 40
0.4000000000000341
 50
270.0
 51
450.0
 73
     1
 72
     1
 10
196.1571794166646
 20
207.160503870769
 11
196.1571794166646
 21
212.260503870769
 72
     1
 10
196.1571794166646
 20
212.260503870769
 11
198.1571794166645
 21
212.260503870769
 72
     1
 10
198.1571794166645
 20
212.260503870769
 11
198.1571794166645
 21
211.460503870769
 72
     2
 10
198.3571794166646
 20
211.460503870769
 40
0.2000000000001023
 50
180.0000000000163
 51
269.9999999999674
 73
     1
 72
     1
 10
198.3571794166645
 20
211.260503870769
 11
198.9571794166646
 21
211.260503870769
 72
     2
 10
198.9571794166645
 20
211.460503870769
 40
0.2000000000001023
 50
270.0000000000326
 51
359.9999999999837
 73
     1
 72
     1
 10
199.1571794166645
 20
211.460503870769
 11
199.1571794166645
 21
212.7605038707689
 72
     2
 10
198.1571794166645
 20
212.7605038707689
 40
1.0
 50
0.0
 51
90.0
 73
     1
 72
     1
 10
198.1571794166645
 20
213.760503870769
 11
196.4571794166647
 21
213.760503870769
 72
     1
 10
196.4571794166647
 20
213.760503870769
 11
196.4571794166645
 21
230.3605038707691
 72
     1
 10
196.4571794166645
 20
230.3605038707691
 11
208.5071794166647
 21
230.3605038707686
 72
     1
 10
208.5071794166647
 20
230.3605038707686
 11
208.5071794166647
 21
229.5105038707687
 72
     2
 10
208.7071794166647
 20
229.5105038707687
 40
0.2000000000000455
 50
180.0000000000163
 51
270.0
 73
     1
 72
     1
 10
208.7071794166647
 20
229.3105038707687
 11
216.6071794166646
 21
229.3105038707687
 72
     1
 10
216.6071794166646
 20
229.3105038707687
 11
216.6071794166646
 21
224.960503870769
 72
     2
 10
216.8071794166647
 20
224.9605038707691
 40
0.2000000000001023
 50
180.0000000000163
 51
269.9999999999674
 73
     1
 72
     1
 10
216.8071794166646
 20
224.760503870769
 11
217.9071794166646
 21
224.760503870769
 72
     2
 10
217.9071794166646
 20
224.960503870769
 40
0.2000000000000455
 50
270.0
 51
359.9999999999837
 73
     1
 72
     1
 10
218.1071794166646
 20
224.9605038707689
 11
218.1071794166646
 21
229.3105038707687
 72
     2
 10
216.6071794166646
 20
229.3105038707687
 40
1.5
 50
0.0
 51
90.0
 73
     1
 72
     1
 10
216.6071794166646
 20
230.8105038707687
 11
215.2946380254823
 21
230.8105038707687
 72
     1
 10
215.2946380254823
 20
230.8105038707687
 11
215.2946380254823
 21
231.3105038707687
 72
     2
 10
214.3946380254824
 20
231.3105038707688
 40
0.8999999999998919
 50
359.9999999999964
 51
493.341758227219
 73
     1
 72
     2
 10
212.5071794166652
 20
233.3105038707685
 40
1.849999999999593
 50
46.65824177278063
 51
133.341758227215
 73
     0
 72
     2
 10
210.6197208078475
 20
231.3105038707671
 40
0.9000000000014225
 50
46.65824177282679
 51
79.26123576009786
 73
     1
 72
     2
 10
212.5071794166651
 20
233.3105038707681
 40
2.049999999999971
 50
147.0249334069858
 51
212.9750665930549
 73
     0
 72
     2
 10
210.6197208078472
 20
235.3105038707681
 40
0.8999999999995306
 50
280.7387642399932
 51
313.341758227267
 73
     1
 72
     2
 10
212.5071794166648
 20
233.3105038707687
 40
1.849999999999963
 50
226.658241772789
 51
313.3417582272159
 73
     0
 72
     2
 10
214.3946380254824
 20
235.3105038707688
 40
0.9000000000000309
 50
226.658241772773
 51
350.6268906309589
 73
     1
 72
     2
 10
215.1571794166647
 20
237.4605038707687
 40
2.299999999999914
 50
273.1264742241181
 51
360.0
 73
     1
 72
     1
 10
217.4571794166646
 20
237.4605038707687
 11
217.4571794166648
 21
238.4605038707689
 72
     2
 10
217.9571794166648
 20
238.4605038707689
 40
0.5
 50
180.0
 51
270.0
 73
     0
 72
     1
 10
217.9571794166648
 20
238.9605038707689
 11
221.6571794166646
 21
238.9605038707689
 72
     1
 10
221.6571794166646
 20
238.9605038707689
 11
221.6571794166646
 21
238.760503870769
 72
     2
 10
221.8571794166647
 20
238.760503870769
 40
0.2000000000001023
 50
180.0000000000163
 51
269.9999999999674
 73
     1
 72
     1
 10
221.8571794166646
 20
238.5605038707689
 11
229.4571794166645
 21
238.5605038707689
 72
     2
 10
229.4571794166645
 20
238.760503870769
 40
0.2000000000001023
 50
270.0000000000163
 51
359.9999999999837
 73
     1
 72
     1
 10
229.6571794166646
 20
238.760503870769
 11
229.6571794166646
 21
238.9605038707689
 72
     1
 10
229.6571794166646
 20
238.9605038707689
 11
234.4571794166646
 21
238.9605038707689
 72
     2
 10
234.4571794166645
 20
239.160503870769
 40
0.2000000000001023
 50
270.0000000000326
 51
359.9999999999837
 73
     1
 72
     1
 10
234.6571794166646
 20
239.1605038707689
 11
234.6571794166646
 21
239.3605038707689
 72
     1
 10
234.6571794166646
 20
239.3605038707689
 11
240.782308840381
 21
239.3605038707689
 72
     2
 10
241.6697208078463
 20
239.5105038707692
 40
0.9000000000004636
 50
189.5940682268723
 51
313.341758227233
 73
     1
 72
     2
 10
243.5571794166642
 20
237.5105038707695
 40
1.849999999999345
 50
226.6582417727734
 51
313.3417582272216
 73
     0
 97
        1
330
5B85
 75
     0
 76
     1
 98
        1
 10
0.0
 20
0.0
  0
ENDBLK
  5
36E2
330
36E0
100
AcDbEntity
  8
0
100
AcDbBlockEnd
  0
BLOCK
  5
36F2
330
36F1
100
AcDbEntity
  8
0
100
AcDbBlockBegin
  2
08630
 70
     0
 10
-17.4261114729422
 20
630.6343283014046
 30
0.0
  3
08630
  1
08630.dwg
  0
LWPOLYLINE
  5
5B88
102
{ACAD_REACTORS
330
5B89
102
}
330
36F1
100
AcDbEntity
  8
APL Joinery
  6
Continuous
100
AcDbPolyline
 90
       40
 70
     1
 43
0.0
 10
-1.526111472942091
 20
629.5343283014045
 42
0.4142135623730451
 10
0.0738885270575338
 20
627.9343283014043
 10
1.113938033221871
 20
627.9343283014038
 42
3.927182716064285
 10
1.113938033221643
 20
629.0343283014042
 10
0.0738885270577042
 20
629.0343283014045
 42
-0.4142135623731284
 10
-0.4261114729423526
 20
629.5343283014044
 10
-0.4261114729422389
 20
632.8036933827943
 10
4.073888527057647
 20
637.3036933827943
 10
4.073888527057647
 20
642.5343283014045
 10
6.073888527057874
 20
642.5343283014044
 42
0.4142135623730951
 10
6.573888527057874
 20
643.0343283014046
 10
6.573888527057647
 20
644.5843283014047
 42
0.9999999999999998
 10
5.573888527057874
 20
644.5843283014045
 10
5.573888527057647
 20
643.8343283014043
 10
4.073888527057647
 20
643.8343283014045
 10
4.073888527057874
 20
649.3343283014046
 10
5.573888527057647
 20
649.3343283014045
 10
5.573888527057874
 20
648.5843283014046
 42
0.9999999999999998
 10
6.573888527057647
 20
648.5843283014046
 10
6.573888527057874
 20
650.1343283014046
 42
0.4142135623730951
 10
6.073888527057647
 20
650.6343283014043
 10
4.873888527057829
 20
650.6343283014046
 10
4.873888527057829
 20
652.1343283014048
 42
0.6681786379192748
 10
4.020335136464495
 20
652.4878816919979
 10
-17.3417968978915
 20
631.1257496576417
 42
0.6681786379192588
 10
-17.13824350729814
 20
630.6343283014046
 10
-15.17611147294221
 20
630.6343283014046
 42
-0.4142135623730951
 10
-14.92611147294221
 20
630.3843283014046
 10
-14.92611147294221
 20
629.2807749108012
 10
-15.35288816823888
 20
628.8539982155047
 42
0.4142135623730715
 10
-15.35288816823728
 20
628.500444824913
 10
-14.25288816823885
 20
627.4004448249144
 42
0.6681786379193812
 10
-13.82611147294219
 20
627.5772215202111
 10
-13.82611147294219
 20
631.299703347391
 42
0.3113104180177044
 10
-14.14829401363691
 20
631.7670158243977
 42
-0.543903169065067
 10
-14.32402994492506
 20
632.5878816919979
 10
2.120335136464461
 20
649.0322467733872
 42
-0.6681786379192989
 10
2.973888527057738
 20
648.6786933827939
 10
2.973888527057738
 20
637.7593283014048
 10
-1.526111472942147
 20
633.2593283014047
  0
HATCH
  5
5B89
330
36F1
100
AcDbEntity
  8
APL Hatch
100
AcDbHatch
 10
0.0
 20
0.0
 30
0.0
210
0.0
220
0.0
230
1.0
  2
SOLID
 70
     1
 71
     1
 91
        1
 92
        1
 93
       40
 72
     2
 10
0.0738885270579829
 20
629.5343283014044
 40
1.600000000000073
 50
179.9999999999959
 51
269.9999999999839
 73
     1
 72
     1
 10
0.0738885270575338
 20
627.9343283014043
 11
1.113938033221871
 21
627.9343283014038
 72
     2
 10
2.123888527057846
 20
628.4843283014042
 40
1.149999999999991
 50
208.5718781423323
 51
511.428121857693
 73
     1
 72
     1
 10
1.113938033221643
 20
629.0343283014042
 11
0.0738885270577043
 21
629.0343283014045
 72
     2
 10
0.0738885270576474
 20
629.5343283014044
 40
0.5
 50
89.99999999999349
 51
180.0
 73
     0
 72
     1
 10
-0.4261114729423526
 20
629.5343283014044
 11
-0.4261114729422389
 21
632.8036933827943
 72
     1
 10
-0.4261114729422389
 20
632.8036933827943
 11
4.073888527057647
 21
637.3036933827943
 72
     1
 10
4.073888527057647
 20
637.3036933827943
 11
4.073888527057647
 21
642.5343283014045
 72
     1
 10
4.073888527057647
 20
642.5343283014045
 11
6.073888527057874
 21
642.5343283014044
 72
     2
 10
6.073888527057761
 20
643.0343283014045
 40
0.5000000000001137
 50
270.000000000013
 51
360.000000000013
 73
     1
 72
     1
 10
6.573888527057874
 20
643.0343283014046
 11
6.573888527057647
 21
644.5843283014047
 72
     2
 10
6.073888527057761
 20
644.5843283014046
 40
0.4999999999998864
 50
0.0000000000130276
 51
180.000000000013
 73
     1
 72
     1
 10
5.573888527057874
 20
644.5843283014045
 11
5.573888527057647
 21
643.8343283014043
 72
     1
 10
5.573888527057647
 20
643.8343283014043
 11
4.073888527057647
 21
643.8343283014045
 72
     1
 10
4.073888527057647
 20
643.8343283014045
 11
4.073888527057874
 21
649.3343283014046
 72
     1
 10
4.073888527057874
 20
649.3343283014046
 11
5.573888527057647
 21
649.3343283014045
 72
     1
 10
5.573888527057647
 20
649.3343283014045
 11
5.573888527057874
 21
648.5843283014046
 72
     2
 10
6.073888527057761
 20
648.5843283014046
 40
0.4999999999998864
 50
180.0
 51
360.0
 73
     1
 72
     1
 10
6.573888527057647
 20
648.5843283014046
 11
6.573888527057874
 21
650.1343283014046
 72
     2
 10
6.073888527057874
 20
650.1343283014043
 40
0.5
 50
0.0000000000260551
 51
90.00000000002605
 73
     1
 72
     1
 10
6.073888527057647
 20
650.6343283014043
 11
4.873888527057829
 21
650.6343283014046
 72
     1
 10
4.873888527057829
 20
650.6343283014046
 11
4.873888527057829
 21
652.1343283014048
 72
     2
 10
4.373888527057827
 20
652.1343283014047
 40
0.5000000000000018
 50
0.0000000000130276
 51
135.000000000009
 73
     1
 72
     1
 10
4.020335136464495
 20
652.4878816919979
 11
-17.3417968978915
 21
631.1257496576417
 72
     2
 10
-17.13824350729821
 20
630.9221962670486
 40
0.2878679656439413
 50
135.000000000022
 51
270.0000000000141
 73
     1
 72
     1
 10
-17.13824350729814
 20
630.6343283014046
 11
-15.17611147294221
 21
630.6343283014046
 72
     2
 10
-15.17611147294221
 20
630.3843283014046
 40
0.25
 50
270.0
 51
360.0
 73
     0
 72
     1
 10
-14.92611147294221
 20
630.3843283014046
 11
-14.92611147294221
 21
629.2807749108012
 72
     1
 10
-14.92611147294221
 20
629.2807749108012
 11
-15.35288816823888
 21
628.8539982155047
 72
     2
 10
-15.17611147294225
 20
628.6772215202097
 40
0.2499999999988062
 50
135.0000000002694
 51
225.0000000002648
 73
     1
 72
     1
 10
-15.35288816823728
 20
628.500444824913
 11
-14.25288816823885
 21
627.4004448249144
 72
     2
 10
-14.07611147294219
 20
627.577221520211
 40
0.2499999999999555
 50
224.999999999983
 51
360.000000000026
 73
     1
 72
     1
 10
-13.82611147294219
 20
627.5772215202111
 11
-13.82611147294219
 21
631.299703347391
 72
     2
 10
-14.32611147294202
 20
631.299703347391
 40
0.4999999999998313
 50
0.0
 51
69.16763791366536
 73
     1
 72
     2
 10
-13.97047655433168
 20
632.2343283014046
 40
0.500000000000077
 50
110.8323620863383
 51
224.9999999999967
 73
     0
 72
     1
 10
-14.32402994492506
 20
632.5878816919979
 11
2.120335136464461
 21
649.0322467733872
 72
     2
 10
2.473888527057748
 20
648.6786933827939
 40
0.4999999999999708
 50
224.9999999999946
 51
360.0
 73
     0
 72
     1
 10
2.973888527057738
 20
648.6786933827939
 11
2.973888527057738
 21
637.7593283014048
 72
     1
 10
2.973888527057738
 20
637.7593283014048
 11
-1.526111472942147
 21
633.2593283014047
 72
     1
 10
-1.526111472942147
 20
633.2593283014047
 11
-1.526111472942091
 21
629.5343283014045
 97
        1
330
5B88
 75
     0
 76
     1
 98
        1
 10
0.0
 20
0.0
  0
ENDBLK
  5
36F3
330
36F1
100
AcDbEntity
  8
0
100
AcDbBlockEnd
  0
BLOCK
  5
3D9F
330
3D9E
100
AcDbEntity
  8
0
 48
3.0
100
AcDbBlockBegin
  2
9010312r
 70
     0
 10
399.4634067278245
 20
339.4121540145172
 30
0.0
  3
9010312r
  1
9010312r.dwg
  0
LWPOLYLINE
  5
5B8B
330
3D9E
100
AcDbEntity
  8
APL Joinery
  6
Continuous
 62
   252
100
AcDbPolyline
 90
       28
 70
   128
 43
0.0
 10
395.7634067278242
 20
336.2999919725366
 10
395.7634067278242
 20
343.1621540145172
 42
-0.7673269879789622
 10
396.2299130787703
 20
343.2871540145172
 10
396.7850145808851
 20
342.3256900094965
 10
399.2931562636775
 20
341.6536354710895
 42
-0.3626955242591878
 10
399.4775957926651
 20
341.3914870691883
 10
399.3134067278246
 20
339.4121540145172
 10
397.7634067278242
 20
339.4121540145172
 10
397.7634067278242
 20
336.5121540145171
 10
399.0135696498364
 20
336.5121540145171
 10
399.2752560951169
 20
337.3376963843301
 42
-0.6640183420487276
 10
399.7341578851304
 20
337.3798010733406
 42
-0.250000000000001
 10
399.7341578851305
 20
333.1445069556935
 42
-0.6640183420487097
 10
399.2752560951171
 20
333.1866116447042
 10
399.0135696498364
 20
334.0121540145171
 10
397.4635696498362
 20
334.0121540145171
 10
397.1898787608678
 20
334.2858449034854
 42
0.6681785464135807
 10
396.7631020655712
 20
334.1090682714504
 10
396.7631016544432
 20
332.4843569389277
 10
396.2607415896308
 20
329.0715154000631
 42
-0.9294717386060577
 10
395.7634067278242
 20
329.1079223518048
 10
395.7634067278242
 20
334.5749919747145
 42
-0.3563939586926081
 10
396.5634067278242
 20
335.5547878718279
 42
0.3563939586925715
 10
396.7634067278242
 20
335.7997368461061
 10
396.7634067278242
 20
339.3871540145172
 42
0.9999999999999998
 10
396.7134067278242
 20
339.3871540145172
 10
396.7134067278242
 20
336.2999919725366
 42
-0.9999999999999998
 10
395.76340673218
 20
336.2999919725366
  0
ENDBLK
  5
3DA0
330
3D9E
100
AcDbEntity
  8
0
 48
3.0
100
AcDbBlockEnd
  0
BLOCK
  5
407C
330
407B
100
AcDbEntity
  8
0
 48
3.0
100
AcDbBlockBegin
  2
08654
 70
     0
 10
285.5380701241845
 20
-33.61988893666332
 30
0.0
  3
08654
  1
08654.dwg
  0
LWPOLYLINE
  5
5B8E
102
{ACAD_REACTORS
330
5B90
102
}
330
407B
100
AcDbEntity
  8
APL Joinery
  6
Continuous
100
AcDbPolyline
 90
       17
 70
     1
 43
0.0
 10
285.5380701241836
 20
-33.96066860782362
 42
1.09698396122225
 10
281.8617872104062
 20
-73.61988893666342
 10
284.0380701241847
 20
-73.61988893666375
 10
284.0380701241846
 20
-102.1198889366637
 42
-0.4142135623730951
 10
283.5380701241845
 20
-102.6198889366637
 10
283.0380701241845
 20
-102.6198889366632
 42
0.4142135623730951
 10
282.5380701241845
 20
-103.1198889366636
 10
282.5380701241845
 20
-118.1198889366636
 42
0.4142135623730951
 10
283.0380701241845
 20
-118.6198889366636
 10
288.0380701241845
 20
-118.6198889366633
 42
0.4142135623730951
 10
288.5380701241845
 20
-118.1198889366636
 10
288.5380701241845
 20
-103.1198889366637
 42
0.4142135623730951
 10
288.0380701241845
 20
-102.6198889366635
 10
287.5380701241846
 20
-102.6198889366637
 42
-0.4142135623730951
 10
287.0380701241845
 20
-102.1198889366637
 10
287.0380701241845
 20
-73.6198889366633
 10
289.2143530379619
 20
-73.61988893666361
 42
1.09698396122225
  0
LWPOLYLINE
  5
5B8F
102
{ACAD_REACTORS
330
5B90
102
}
330
407B
100
AcDbEntity
  8
APL Joinery
  6
Continuous
100
AcDbPolyline
 90
        2
 70
     1
 43
0.0
 10
285.5380701241851
 20
-36.51039029006779
 42
1.237691609274153
 10
285.5380701241851
 20
-70.72938758325904
 42
1.237691609274153
  0
HATCH
  5
5B90
330
407B
100
AcDbEntity
  8
APL Hatch
100
AcDbHatch
 10
0.0
 20
0.0
 30
0.0
210
0.0
220
0.0
230
1.0
  2
SOLID
 70
     1
 71
     1
 91
        2
 92
        1
 93
       17
 72
     2
 10
281.8617872104062
 20
-53.61988893666342
 40
19.99999999999998
 50
79.40799763730187
 51
269.9999999999998
 73
     1
 72
     1
 10
281.8617872104062
 20
-73.61988893666342
 11
284.0380701241847
 21
-73.61988893666375
 72
     1
 10
284.0380701241847
 20
-73.61988893666375
 11
284.0380701241846
 21
-102.1198889366637
 72
     2
 10
283.5380701241845
 20
-102.1198889366637
 40
0.5000000000000569
 50
360.0
 51
450.0
 73
     0
 72
     1
 10
283.5380701241845
 20
-102.6198889366637
 11
283.0380701241845
 21
-102.6198889366632
 72
     2
 10
283.0380701241848
 20
-103.1198889366634
 40
0.5000000000002274
 50
90.00000000002605
 51
180.000000000026
 73
     1
 72
     1
 10
282.5380701241845
 20
-103.1198889366636
 11
282.5380701241845
 21
-118.1198889366636
 72
     2
 10
283.0380701241845
 20
-118.1198889366636
 40
0.5
 50
180.0
 51
270.0
 73
     1
 72
     1
 10
283.0380701241845
 20
-118.6198889366636
 11
288.0380701241845
 21
-118.6198889366633
 72
     2
 10
288.0380701241847
 20
-118.1198889366635
 40
0.4999999999998295
 50
269.9999999999935
 51
359.999999999987
 73
     1
 72
     1
 10
288.5380701241845
 20
-118.1198889366636
 11
288.5380701241845
 21
-103.1198889366637
 72
     2
 10
288.0380701241844
 20
-103.1198889366636
 40
0.5000000000001137
 50
359.999999999987
 51
449.999999999987
 73
     1
 72
     1
 10
288.0380701241845
 20
-102.6198889366635
 11
287.5380701241846
 21
-102.6198889366637
 72
     2
 10
287.5380701241845
 20
-102.1198889366637
 40
0.5
 50
89.99999999999349
 51
179.9999999999935
 73
     0
 72
     1
 10
287.0380701241845
 20
-102.1198889366637
 11
287.0380701241845
 21
-73.6198889366633
 72
     1
 10
287.0380701241845
 20
-73.6198889366633
 11
289.2143530379619
 21
-73.61988893666361
 72
     2
 10
289.2143530379615
 20
-53.61988893666348
 40
20.00000000000014
 50
270.0000000000013
 51
460.5920023626998
 73
     1
 97
        1
330
5B8E
 92
       16
 93
        2
 72
     2
 10
281.8617872104062
 20
-53.61988893666342
 40
17.5
 50
77.8733516063599
 51
282.1266483936401
 73
     1
 72
     2
 10
289.214353037964
 20
-53.61988893666342
 40
17.5
 50
257.8733516063599
 51
462.1266483936401
 73
     1
 97
        1
330
5B8F
 75
     0
 76
     1
 98
        1
 10
0.0
 20
0.0
  0
ENDBLK
  5
407D
330
407B
100
AcDbEntity
  8
0
 48
3.0
100
AcDbBlockEnd
  0
BLOCK
  5
4082
330
4081
100
AcDbEntity
  8
0
 48
3.0
100
AcDbBlockBegin
  2
08653
 70
     0
 10
372.2831161352452
 20
-83.80054446613575
 30
0.0
  3
08653
  1
08653.dwg
  0
LWPOLYLINE
  5
5B92
102
{ACAD_REACTORS
330
5B93
102
}
330
4081
100
AcDbEntity
  8
APL Joinery
  6
Continuous
100
AcDbPolyline
 90
       86
 70
     1
 43
0.0
 10
355.2269363599626
 20
-69.90497929327332
 42
-0.0052277464714219
 10
355.5212113733389
 20
-69.55138488555625
 42
-1.0
 10
357.0450208971486
 20
-70.84676302924542
 42
0.1210524916957545
 10
352.7769432957384
 20
-79.38362006613569
 42
-0.8944271909996508
 10
352.2831161352444
 20
-79.32840851113565
 10
352.2831161352436
 20
-54.0505444661359
 42
-0.4142135623730617
 10
352.5331161352441
 20
-53.80054446613588
 10
353.3083712638529
 20
-53.8005444661357
 42
-0.3563939586925882
 10
354.7780651095229
 20
-55.00054446613539
 42
-0.4744978678080214
 10
354.5331161352441
 20
-55.30054446613565
 10
353.7831161352442
 20
-55.30054446613565
 10
353.7831161352447
 20
-58.30054446613565
 10
357.4752295823117
 20
-58.30054446613591
 42
0.2989320946561008
 10
357.9340110947133
 20
-57.99933964685856
 42
-0.6565321642986537
 10
364.632221175775
 20
-57.99933964685868
 42
0.2989320946561019
 10
365.0910026881762
 20
-58.30054446613599
 10
366.4831161352437
 20
-58.30054446613565
 10
366.4831161352437
 20
-57.80054446613585
 42
-0.4142135623730617
 10
366.6831161352437
 20
-57.60054446613583
 10
372.7831161352439
 20
-57.60054446613591
 42
0.4142135623730951
 10
373.2831161352438
 20
-57.10054446613594
 10
373.2831161352436
 20
-55.30054446613604
 42
0.4142135623730617
 10
372.7831161352439
 20
-54.80054446613621
 10
370.2831161352439
 20
-54.80054446613618
 42
-1.000000000000056
 10
370.2831161352439
 20
-53.80054446613616
 10
388.2831161352439
 20
-53.80054446613565
 10
388.2831161352438
 20
-52.5005444661359
 42
-0.4142135623730451
 10
388.4831161352438
 20
-52.30054446613587
 10
390.4831161352438
 20
-52.30054446613542
 10
390.4831161352436
 20
-48.30054446613559
 10
388.7831161352439
 20
-48.30054446613559
 42
-0.9999999999999998
 10
388.7831161352439
 20
-47.30054446613576
 10
390.4831161352436
 20
-47.30054446613559
 10
390.4831161352432
 20
-41.90054446613578
 10
388.7831161352438
 20
-41.90054446613558
 42
-0.4142135623730617
 10
388.2831161352439
 20
-41.40054446613561
 10
388.2831161352439
 20
-39.85054446613541
 42
-0.9999999999999714
 10
389.2831161352441
 20
-39.85054446613612
 10
389.2831161352441
 20
-40.6005444661356
 10
390.7831161352437
 20
-40.60054446613583
 10
390.7831161352439
 20
-35.10054446613583
 10
389.2831161352439
 20
-35.10054446613583
 10
389.2831161352442
 20
-35.85054446613586
 42
-1.000000000000028
 10
388.2831161352435
 20
-35.85054446613566
 10
388.2831161352441
 20
-34.30054446613545
 42
-0.4142135623731784
 10
388.7831161352442
 20
-33.80054446613554
 10
389.9831161352435
 20
-33.80054446613542
 10
389.9831161352442
 20
-32.00054446613562
 42
-0.4142135623728786
 10
390.1831161352443
 20
-31.80054446613571
 10
392.0831161352442
 20
-31.80054446613591
 42
-0.4142135623729951
 10
392.2831161352442
 20
-32.00054446613592
 10
392.283116135244
 20
-79.32840851113579
 42
-0.8944271909995935
 10
391.7892889747509
 20
-79.38362006613617
 42
0.1210524916957749
 10
387.5212113733399
 20
-70.84676302924492
 42
-0.9999999999999998
 10
389.0450208971496
 20
-69.55138488555661
 42
-0.0052277464713798
 10
389.3392959105255
 20
-69.9049792932723
 42
0.7056217694413501
 10
389.7831161352442
 20
-69.74707514358101
 10
389.783116135244
 20
-55.6005444661356
 10
387.2073995093135
 20
-55.60054446613609
 42
0.5149445451952346
 10
386.7345942835229
 20
-56.26319506854589
 42
-0.2788550286926799
 10
385.9376615897892
 20
-59.95571680147635
 42
-0.9999999999999998
 10
384.6285706806989
 20
-58.72028934843163
 42
2.318729304408709
 10
381.9376615897899
 20
-58.72028934843156
 42
-1.00000000000008
 10
380.6285706806984
 20
-59.95571680147614
 42
-0.2788550286926469
 10
379.8316379869663
 20
-56.26319506854569
 42
0.5149445451952172
 10
379.3588327611748
 20
-55.60054446613583
 10
376.0831161352435
 20
-55.60054446613566
 42
0.4142135623730617
 10
375.0831161352441
 20
-56.60054446613583
 10
375.0831161352435
 20
-63.76857002525746
 42
-0.4525431742514854
 10
374.8573735609867
 20
-63.96690640586008
 42
0.0174092603861272
 10
373.4712349471261
 20
-63.83586631473929
 42
-0.3969089563095929
 10
373.2831161352449
 20
-63.63621953322535
 10
373.2831161352435
 20
-59.40054446613601
 10
368.283116135244
 20
-59.40054446613601
 10
368.2831161352437
 20
-59.90054446613616
 42
-0.4142135623729286
 10
368.0831161352437
 20
-60.10054446613605
 10
365.2705965427197
 20
-60.10054446613569
 42
0.3341698574915227
 10
364.790177216518
 20
-60.46199024926817
 42
-0.1194820035419355
 10
363.9376615897897
 20
-61.9557168014753
 42
-0.9999999999999998
 10
362.6285706806992
 20
-60.72028934843101
 42
2.318729304408709
 10
359.9376615897891
 20
-60.72028934843135
 42
-0.9999999999999998
 10
358.628570680699
 20
-61.95571680147539
 42
-0.1194820035419389
 10
357.7760550539701
 20
-60.46199024926877
 42
0.3341698574915056
 10
357.295635727769
 20
-60.1005444661356
 10
354.7831161352435
 20
-60.1005444661356
 10
354.7831161352442
 20
-69.74707514358073
 42
0.7056217694414651
  0
HATCH
  5
5B93
330
4081
100
AcDbEntity
  8
APL Hatch
100
AcDbHatch
 10
0.0
 20
0.0
 30
0.0
210
0.0
220
0.0
230
1.0
  2
SOLID
 70
     1
 71
     1
 91
        1
 92
        1
 93
       86
 72
     2
 10
372.28311613518
 20
-83.80054446606552
 40
21.99999999990565
 50
219.1694932217933
 51
220.3675935441527
 73
     0
 72
     2
 10
356.2831161352438
 20
-70.19907395740083
 40
1.000000000000065
 50
220.3675935441852
 51
400.3675935441858
 73
     0
 72
     2
 10
372.2831161352448
 20
-83.80054446613556
 40
20.00000000000029
 50
139.632406455818
 51
167.2412595831137
 73
     1
 72
     2
 10
352.5331161352446
 20
-79.32840851113559
 40
0.2500000000000737
 50
12.75874041690632
 51
179.999999999987
 73
     0
 72
     1
 10
352.2831161352444
 20
-79.32840851113565
 11
352.2831161352436
 21
-54.0505444661359
 72
     2
 10
352.5331161352439
 20
-54.05054446613616
 40
0.2500000000003411
 50
180.0000000000586
 51
270.0000000000391
 73
     0
 72
     1
 10
352.5331161352441
 20
-53.80054446613588
 11
353.3083712638529
 21
-53.8005444661357
 72
     2
 10
353.3083712638531
 20
-55.30054446613561
 40
1.499999999999907
 50
269.9999999999935
 51
348.4630409671751
 73
     0
 72
     2
 10
354.5331161352442
 20
-55.05054446613529
 40
0.2500000000003688
 50
348.4630409672241
 51
450.000000000026
 73
     0
 72
     1
 10
354.5331161352441
 20
-55.30054446613565
 11
353.7831161352442
 21
-55.30054446613565
 72
     1
 10
353.7831161352442
 20
-55.30054446613565
 11
353.7831161352447
 21
-58.30054446613565
 72
     1
 10
353.7831161352447
 20
-58.30054446613565
 11
357.4752295823117
 21
-58.30054446613591
 72
     2
 10
357.4752295823117
 20
-57.80054446613572
 40
0.5000000000001848
 50
270.0000000000065
 51
336.5723734912939
 73
     1
 72
     2
 10
361.2831161352442
 20
-59.45054446613566
 40
3.650000000000349
 50
203.4276265087167
 51
336.5723734912845
 73
     0
 72
     2
 10
365.0910026881765
 20
-57.80054446613612
 40
0.499999999999883
 50
203.4276265086832
 51
269.9999999999674
 73
     1
 72
     1
 10
365.0910026881762
 20
-58.30054446613599
 11
366.4831161352437
 21
-58.30054446613565
 72
     1
 10
366.4831161352437
 20
-58.30054446613565
 11
366.4831161352437
 21
-57.80054446613585
 72
     2
 10
366.6831161352437
 20
-57.80054446613587
 40
0.2000000000000455
 50
180.0000000000061
 51
270.0
 73
     0
 72
     1
 10
366.6831161352437
 20
-57.60054446613583
 11
372.7831161352439
 21
-57.60054446613591
 72
     2
 10
372.7831161352439
 20
-57.10054446613593
 40
0.4999999999999858
 50
270.0
 51
359.9999999999984
 73
     1
 72
     1
 10
373.2831161352438
 20
-57.10054446613594
 11
373.2831161352436
 21
-55.30054446613604
 72
     2
 10
372.7831161352438
 20
-55.30054446613604
 40
0.4999999999998295
 50
0.0
 51
89.99999999999349
 73
     1
 72
     1
 10
372.7831161352439
 20
-54.80054446613621
 11
370.2831161352439
 21
-54.80054446613618
 72
     2
 10
370.2831161352438
 20
-54.30054446613617
 40
0.5000000000000142
 50
89.99999999998697
 51
270.0000000000065
 73
     0
 72
     1
 10
370.2831161352439
 20
-53.80054446613616
 11
388.2831161352439
 21
-53.80054446613565
 72
     1
 10
388.2831161352439
 20
-53.80054446613565
 11
388.2831161352438
 21
-52.5005444661359
 72
     2
 10
388.4831161352438
 20
-52.5005444661359
 40
0.1999999999999886
 50
180.0
 51
270.0
 73
     0
 72
     1
 10
388.4831161352438
 20
-52.30054446613587
 11
390.4831161352438
 21
-52.30054446613542
 72
     1
 10
390.4831161352438
 20
-52.30054446613542
 11
390.4831161352436
 21
-48.30054446613559
 72
     1
 10
390.4831161352436
 20
-48.30054446613559
 11
388.7831161352439
 21
-48.30054446613559
 72
     2
 10
388.7831161352439
 20
-47.80054446613568
 40
0.4999999999999148
 50
90.0
 51
270.0
 73
     0
 72
     1
 10
388.7831161352439
 20
-47.30054446613576
 11
390.4831161352436
 21
-47.30054446613559
 72
     1
 10
390.4831161352436
 20
-47.30054446613559
 11
390.4831161352432
 21
-41.90054446613578
 72
     1
 10
390.4831161352432
 20
-41.90054446613578
 11
388.7831161352438
 21
-41.90054446613558
 72
     2
 10
388.7831161352439
 20
-41.4005444661356
 40
0.4999999999999858
 50
90.00000000000651
 51
179.9999999999984
 73
     0
 72
     1
 10
388.2831161352439
 20
-41.40054446613561
 11
388.2831161352439
 21
-39.85054446613541
 72
     2
 10
388.783116135244
 20
-39.85054446613577
 40
0.5000000000001137
 50
180.0000000000423
 51
360.0000000000391
 73
     0
 72
     1
 10
389.2831161352441
 20
-39.85054446613612
 11
389.2831161352441
 21
-40.6005444661356
 72
     1
 10
389.2831161352441
 20
-40.6005444661356
 11
390.7831161352437
 21
-40.60054446613583
 72
     1
 10
390.7831161352437
 20
-40.60054446613583
 11
390.7831161352439
 21
-35.10054446613583
 72
     1
 10
390.7831161352439
 20
-35.10054446613583
 11
389.2831161352439
 21
-35.10054446613583
 72
     1
 10
389.2831161352439
 20
-35.10054446613583
 11
389.2831161352442
 21
-35.85054446613586
 72
     2
 10
388.7831161352439
 20
-35.85054446613578
 40
0.5000000000003411
 50
0.0000000000097707
 51
180.000000000013
 73
     0
 72
     1
 10
388.2831161352435
 20
-35.85054446613566
 11
388.2831161352441
 21
-34.30054446613545
 72
     2
 10
388.7831161352441
 20
-34.30054446613548
 40
0.4999999999999432
 50
180.0000000000032
 51
270.0000000000196
 73
     0
 72
     1
 10
388.7831161352442
 20
-33.80054446613554
 11
389.9831161352435
 21
-33.80054446613542
 72
     1
 10
389.9831161352435
 20
-33.80054446613542
 11
389.9831161352442
 21
-32.00054446613562
 72
     2
 10
390.1831161352443
 20
-32.00054446613576
 40
0.2000000000000455
 50
180.0000000000407
 51
270.0
 73
     0
 72
     1
 10
390.1831161352443
 20
-31.80054446613571
 11
392.0831161352442
 21
-31.80054446613591
 72
     2
 10
392.0831161352442
 20
-32.00054446613594
 40
0.2000000000000384
 50
270.0000000000163
 51
359.9999999999939
 73
     0
 72
     1
 10
392.2831161352442
 20
-32.00054446613592
 11
392.283116135244
 21
-79.32840851113579
 72
     2
 10
392.0331161352443
 20
-79.32840851113593
 40
0.2499999999996589
 50
359.9999999999675
 51
527.2412595830388
 73
     0
 72
     2
 10
372.2831161352451
 20
-83.8005444661359
 40
19.9999999999997
 50
12.75874041688622
 51
40.36759354418657
 73
     1
 72
     2
 10
388.2831161352447
 20
-70.19907395740077
 40
0.9999999999998321
 50
139.6324064558355
 51
319.6324064558356
 73
     0
 72
     2
 10
372.2831161352389
 20
-83.80054446615936
 40
22.00000000001924
 50
319.6324064557793
 51
320.830506778129
 73
     0
 72
     2
 10
389.5331161352444
 20
-69.74707514358079
 40
0.2499999999997987
 50
219.169493221837
 51
359.9999999999479
 73
     1
 72
     1
 10
389.7831161352442
 20
-69.74707514358101
 11
389.783116135244
 21
-55.6005444661356
 72
     1
 10
389.783116135244
 20
-55.6005444661356
 11
387.2073995093135
 21
-55.60054446613609
 72
     2
 10
387.2073995093141
 20
-56.10054446613583
 40
0.4999999999997442
 50
90.00000000006513
 51
198.9838243851003
 73
     1
 72
     2
 10
383.2831161352443
 20
-57.45054446613562
 40
3.650000000000212
 50
341.0161756149713
 51
403.3417582272383
 73
     0
 72
     2
 10
385.2831161352441
 20
-59.33800307495399
 40
0.8999999999999218
 50
43.34175822724598
 51
223.3417582272432
 73
     0
 72
     2
 10
383.2831161352445
 20
-57.45054446613622
 40
1.849999999999806
 50
316.6582417727775
 51
583.3417582272174
 73
     1
 72
     2
 10
381.2831161352442
 20
-59.3380030749539
 40
0.9000000000003154
 50
316.6582417727802
 51
496.6582417727898
 73
     0
 72
     2
 10
383.2831161352445
 20
-57.45054446613664
 40
3.650000000000239
 50
136.6582417727886
 51
198.9838243850488
 73
     0
 72
     2
 10
379.3588327611747
 20
-56.10054446613594
 40
0.500000000000103
 50
341.0161756149506
 51
449.999999999987
 73
     1
 72
     1
 10
379.3588327611748
 20
-55.60054446613583
 11
376.0831161352435
 21
-55.60054446613566
 72
     2
 10
376.083116135244
 20
-56.60054446613546
 40
0.999999999999801
 50
90.00000000002932
 51
180.0000000000212
 73
     1
 72
     1
 10
375.0831161352441
 20
-56.60054446613583
 11
375.0831161352435
 21
-63.76857002525746
 72
     2
 10
374.8831161352439
 20
-63.76857002525767
 40
0.1999999999996476
 50
359.9999999999389
 51
457.3952204071684
 73
     0
 72
     2
 10
372.2831161352494
 20
-83.80054446612266
 40
19.99999999998649
 50
82.60477959279258
 51
86.5942851540703
 73
     1
 72
     2
 10
373.4831161352449
 20
-63.63621953322528
 40
0.2000000000000358
 50
93.40571484592581
 51
179.9999999999796
 73
     0
 72
     1
 10
373.2831161352449
 20
-63.63621953322535
 11
373.2831161352435
 21
-59.40054446613601
 72
     1
 10
373.2831161352435
 20
-59.40054446613601
 11
368.283116135244
 21
-59.40054446613601
 72
     1
 10
368.283116135244
 20
-59.40054446613601
 11
368.2831161352437
 21
-59.90054446613616
 72
     2
 10
368.0831161352437
 20
-59.90054446613603
 40
0.2000000000000455
 50
0.0000000000386755
 51
90.0
 73
     0
 72
     1
 10
368.0831161352437
 20
-60.10054446613605
 11
365.2705965427197
 21
-60.10054446613569
 72
     2
 10
365.2705965427197
 20
-60.60054446613555
 40
0.4999999999998721
 50
90.0
 51
163.9122974618441
 73
     1
 72
     2
 10
361.2831161352446
 20
-59.45054446613514
 40
3.649999999999942
 50
16.08770253817025
 51
43.34175822722995
 73
     0
 72
     2
 10
363.2831161352444
 20
-61.33800307495316
 40
0.8999999999998944
 50
43.34175822722833
 51
223.3417582272308
 73
     0
 72
     2
 10
361.283116135244
 20
-59.45054446613529
 40
1.850000000000595
 50
316.6582417727875
 51
583.3417582272276
 73
     1
 72
     2
 10
359.2831161352441
 20
-61.33800307495338
 40
0.8999999999995999
 50
316.6582417727652
 51
496.6582417727679
 73
     0
 72
     2
 10
361.2831161352427
 20
-59.45054446613426
 40
3.649999999999583
 50
136.6582417727436
 51
163.9122974618038
 73
     0
 72
     2
 10
357.2956357277683
 20
-60.60054446613546
 40
0.4999999999998374
 50
16.08770253807304
 51
89.99999999991532
 73
     1
 72
     1
 10
357.295635727769
 20
-60.1005444661356
 11
354.7831161352435
 21
-60.1005444661356
 72
     1
 10
354.7831161352435
 20
-60.1005444661356
 11
354.7831161352442
 21
-69.74707514358073
 72
     2
 10
355.033116135244
 20
-69.74707514358124
 40
0.2499999999998295
 50
179.9999999998827
 51
320.8305067780127
 73
     1
 97
        1
330
5B92
 75
     0
 76
     1
 98
        1
 10
0.0
 20
0.0
  0
ENDBLK
  5
4083
330
4081
100
AcDbEntity
  8
0
 48
3.0
100
AcDbBlockEnd
  0
BLOCK
  5
462F
330
462A
100
AcDbEntity
  8
0
 48
3.0
100
AcDbBlockBegin
  2
a4 specifiers manual
 70
     0
 10
0.0
 20
0.0
 30
0.0
  3
a4 specifiers manual
  1

  0
LINE
  5
462B
330
462A
100
AcDbEntity
  8
0
100
AcDbLine
 10
-0.0000008078504834
 20
0.0000001108869583
 30
0.0
 11
353.9999991921495
 21
0.0000001108869583
 31
0.0
  0
LINE
  5
462C
330
462A
100
AcDbEntity
  8
0
100
AcDbLine
 10
353.9999991921495
 20
482.0000001108869
 30
0.0
 11
-0.0000008078504834
 21
482.0000001108869
 31
0.0
  0
LINE
  5
462D
330
462A
100
AcDbEntity
  8
0
100
AcDbLine
 10
-0.0000008078504834
 20
482.0000001108869
 30
0.0
 11
-0.0000008078504834
 21
0.0000001108869583
 31
0.0
  0
LINE
  5
462E
330
462A
100
AcDbEntity
  8
0
100
AcDbLine
 10
353.9999991921495
 20
0.0000001108869583
 30
0.0
 11
353.9999991921495
 21
482.0000001108869
 31
0.0
  0
ENDBLK
  5
4630
330
462A
100
AcDbEntity
  8
0
 48
3.0
100
AcDbBlockEnd
  0
BLOCK
  5
4635
330
4634
100
AcDbEntity
  8
0
 48
3.0
100
AcDbBlockBegin
  2
08652
 70
     0
 10
556.8205248231063
 20
-43.82487155856654
 30
0.0
  3
08652
  1
08652.dwg
  0
LWPOLYLINE
  5
5B95
102
{ACAD_REACTORS
330
5B97
102
}
330
4634
100
AcDbEntity
  8
APL Joinery
  6
Continuous
100
AcDbPolyline
 90
       87
 70
     1
 43
0.0
 10
531.2205248231062
 20
-45.62487155856675
 42
0.4142135623729619
 10
531.0205248231063
 20
-45.82487155856671
 10
531.0205248231063
 20
-46.32487155856654
 10
518.3205248231063
 20
-46.32487155856654
 10
518.3205248231063
 20
-43.32487155856654
 10
519.0705248231061
 20
-43.32487155856654
 42
0.4744978678081294
 10
519.3154737973847
 20
-43.02487155856655
 42
0.3563939586926033
 10
517.8457799517148
 20
-41.82487155856654
 10
517.0705248231063
 20
-41.82487155856654
 42
0.4142135623730951
 10
516.8205248231063
 20
-42.07487155856654
 10
516.8205248231063
 20
-83.32487155856654
 42
0.4142135623730951
 10
517.3205248231063
 20
-83.82487155856654
 10
558.5705248231063
 20
-83.82487155856654
 42
0.4142135623730951
 10
558.8205248231063
 20
-83.57487155856654
 10
558.8205248231063
 20
-82.79961642995818
 42
0.3563939586925876
 10
557.6205248231064
 20
-81.32992258428823
 42
0.4744978678081307
 10
557.3205248231063
 20
-81.57487155856655
 10
557.3205248231063
 20
-82.32487155856654
 10
554.3205248231063
 20
-82.32487155856654
 10
554.3205248231063
 20
-69.62487155856639
 10
554.820524823106
 20
-69.62487155856644
 42
0.4142135623730951
 10
555.0205248231061
 20
-69.42487155856645
 10
555.0205248231061
 20
-63.32487155856643
 42
-0.4142135623730951
 10
555.5205248231061
 20
-62.82487155856642
 10
557.3205248231063
 20
-62.82487155856642
 42
-0.4142135623730951
 10
557.8205248231063
 20
-63.32487155856643
 10
557.8205248231063
 20
-65.82487155856643
 42
0.9999999999999998
 10
558.8205248231063
 20
-65.82487155856643
 10
558.8205248231063
 20
-47.82487155856654
 10
560.1205248231064
 20
-47.82487155856654
 42
0.4142135623730951
 10
560.3205248231063
 20
-47.62487155856655
 10
560.3205248231063
 20
-45.6248715585665
 10
564.3205248231063
 20
-45.6248715585665
 10
564.3205248231063
 20
-47.32487155856648
 42
0.9999999999999998
 10
565.3205248231063
 20
-47.32487155856648
 10
565.3205248231063
 20
-45.6248715585665
 10
570.7205248231064
 20
-45.6248715585665
 10
570.7205248231064
 20
-47.32487155856654
 42
0.4142135623730951
 10
571.2205248231064
 20
-47.82487155856654
 10
572.7705248231063
 20
-47.82487155856654
 42
0.9999999999999998
 10
572.7705248231063
 20
-46.82487155856654
 10
572.0205248231064
 20
-46.82487155856654
 10
572.0205248231064
 20
-45.32487155856654
 10
577.5205248231063
 20
-45.32487155856654
 10
577.5205248231063
 20
-46.82487155856654
 10
576.7705248231063
 20
-46.82487155856654
 42
0.9999999999999998
 10
576.7705248231063
 20
-47.82487155856654
 10
578.3205248231062
 20
-47.82487155856654
 42
0.4142135623730951
 10
578.8205248231063
 20
-47.32487155856654
 10
578.8205248231063
 20
-46.1248715585665
 10
580.6205248231064
 20
-46.1248715585665
 42
0.4142135623730951
 10
580.8205248231063
 20
-45.92487155856651
 10
580.8205248231063
 20
-44.02487155856657
 42
0.4142135623729951
 10
580.6205248231062
 20
-43.82487155856654
 10
556.8205248231063
 20
-43.82487155856654
 10
556.8205248231063
 20
-20.02487155856657
 42
0.4142135623729951
 10
556.6205248231063
 20
-19.82487155856654
 10
554.7205248231063
 20
-19.82487155856657
 42
0.4142135623729619
 10
554.5205248231063
 20
-20.02487155856653
 10
554.5205248231063
 20
-21.82487155856654
 10
553.3205248231062
 20
-21.82487155856654
 42
0.4142135623730951
 10
552.8205248231063
 20
-22.32487155856654
 10
552.8205248231063
 20
-23.87487155856655
 42
0.9999999999999998
 10
553.8205248231063
 20
-23.87487155856655
 10
553.8205248231063
 20
-23.12487155856655
 10
555.3205248231063
 20
-23.12487155856655
 10
555.3205248231063
 20
-28.62487155856655
 10
553.8205248231063
 20
-28.62487155856655
 10
553.8205248231063
 20
-27.87487155856656
 42
0.9999999999999998
 10
552.8205248231063
 20
-27.87487155856656
 10
552.8205248231063
 20
-29.42487155856657
 42
0.4142135623730951
 10
553.3205248231062
 20
-29.92487155856657
 10
555.0205248231064
 20
-29.92487155856657
 10
555.0205248231064
 20
-35.32487155856654
 10
553.3205248231062
 20
-35.32487155856654
 42
0.9999999999999998
 10
553.3205248231062
 20
-36.32487155856654
 10
555.0205248231064
 20
-36.32487155856654
 10
555.0205248231064
 20
-40.32487155856654
 10
553.0205248231062
 20
-40.32487155856651
 42
0.4142135623729619
 10
552.8205248231063
 20
-40.52487155856647
 10
552.8205248231063
 20
-41.82487155856654
 10
534.8205248231063
 20
-41.82487155856676
 42
0.9999999999999998
 10
534.8205248231063
 20
-42.82487155856677
 10
537.3205248231063
 20
-42.82487155856677
 42
-0.4142135623730951
 10
537.8205248231063
 20
-43.32487155856677
 10
537.8205248231063
 20
-45.12487155856672
 42
-0.4142135623730951
 10
537.3205248231063
 20
-45.62487155856672
  0
LWPOLYLINE
  5
5B96
102
{ACAD_REACTORS
330
5B97
102
}
330
4634
100
AcDbEntity
  8
APL Joinery
  6
Continuous
100
AcDbPolyline
 90
       50
 70
     1
 43
0.0
 10
556.3578742206967
 20
-49.37339341028838
 42
0.2788550286926724
 10
552.6653524877663
 20
-50.17032610402111
 42
0.999999999999939
 10
553.9007799408108
 20
-51.47941701311196
 42
-2.318729304408709
 10
553.9007799408105
 20
-54.17032610402106
 42
0.9999999999999998
 10
552.6653524877663
 20
-55.47941701311203
 42
0.2788550286926612
 10
556.3578742206967
 20
-56.27634970684468
 42
-0.5149445451952551
 10
557.0205248231063
 20
-56.7491549326362
 10
557.0205248231063
 20
-61.02487155856647
 10
555.5205248231061
 20
-61.02487155856647
 42
0.4142135623730951
 10
553.2205248231061
 20
-63.32487155856643
 10
553.2205248231061
 20
-67.82487155856642
 10
552.7205248231062
 20
-67.82487155856654
 42
0.4142135623731617
 10
552.5205248231063
 20
-68.02487155856647
 10
552.5205248231063
 20
-70.90058818449671
 42
-0.5149445451952192
 10
551.8578742206966
 20
-71.37339341028845
 42
0.2788550286926612
 10
548.1653524877663
 20
-72.17032610402114
 42
0.9999999999999998
 10
549.4007799408108
 20
-73.47941701311208
 42
-2.318729304408836
 10
549.4007799408105
 20
-76.17032610402107
 42
0.9999999999999998
 10
548.1653524877664
 20
-77.479417013112
 42
0.2788550286926612
 10
551.8578742206967
 20
-78.27634970684468
 42
-0.5149445451952152
 10
552.5205248231063
 20
-78.7491549326362
 10
552.5205248231063
 20
-82.02487155856658
 10
519.1205248231063
 20
-82.02487155856658
 42
-0.4142135623730951
 10
518.6205248231062
 20
-81.52487155856659
 10
518.6205248231062
 20
-48.1248715585665
 10
521.8962414490367
 20
-48.1248715585665
 42
-0.5149445451952551
 10
522.3690466748283
 20
-48.78752216097617
 42
0.2788550286926612
 10
523.1659793685607
 20
-52.48004389390637
 42
0.9999999999999998
 10
524.4750702776517
 20
-51.24461644086204
 42
-2.318729304408839
 10
527.1659793685607
 20
-51.24461644086211
 42
0.999999999999939
 10
528.4750702776517
 20
-52.48004389390641
 42
0.2788550286926529
 10
529.2720029713846
 20
-48.78752216097627
 42
-0.5149445451951604
 10
529.7448081971761
 20
-48.1248715585665
 10
532.6205248231063
 20
-48.1248715585665
 42
0.4142135623730951
 10
532.8205248231063
 20
-47.9248715585665
 10
532.8205248231063
 20
-47.42487155856679
 10
537.3205248231063
 20
-47.42487155856679
 42
0.4142135623730951
 10
539.6205248231062
 20
-45.12487155856677
 10
539.6205248231062
 20
-43.62487155856655
 10
543.8962414490369
 20
-43.62487155856655
 42
-0.5149445451951964
 10
544.3690466748283
 20
-44.28752216097625
 42
0.2788550286926612
 10
545.1659793685608
 20
-47.98004389390637
 42
0.9999999999999998
 10
546.4750702776517
 20
-46.74461644086204
 42
-2.318729304408839
 10
549.1659793685608
 20
-46.74461644086211
 42
0.9999999999999793
 10
550.4750702776517
 20
-47.98004389390633
 42
0.2788550286926529
 10
551.2720029713845
 20
-44.28752216097626
 42
-0.5149445451951622
 10
551.744808197176
 20
-43.62487155856661
 10
554.0749404108346
 20
-43.62487155856655
 10
557.0205248231063
 20
-46.57045597083822
 10
557.0205248231063
 20
-48.9005881844968
 42
-0.5149445451951653
  0
HATCH
  5
5B97
330
4634
100
AcDbEntity
  8
APL Hatch
100
AcDbHatch
 10
0.0
 20
0.0
 30
0.0
210
0.0
220
0.0
230
1.0
  2
SOLID
 70
     1
 71
     1
 91
        2
 92
        1
 93
       87
 72
     2
 10
531.2205248231062
 20
-45.82487155856674
 40
0.1999999999999886
 50
90.0
 51
179.9999999999918
 73
     1
 72
     1
 10
531.0205248231063
 20
-45.82487155856671
 11
531.0205248231063
 21
-46.32487155856654
 72
     1
 10
531.0205248231063
 20
-46.32487155856654
 11
518.3205248231063
 21
-46.32487155856654
 72
     1
 10
518.3205248231063
 20
-46.32487155856654
 11
518.3205248231063
 21
-43.32487155856654
 72
     1
 10
518.3205248231063
 20
-43.32487155856654
 11
519.0705248231061
 21
-43.32487155856654
 72
     2
 10
519.0705248231063
 20
-43.0748715585665
 40
0.2500000000000426
 50
269.9999999999739
 51
371.5369590327996
 73
     1
 72
     2
 10
517.8457799517148
 20
-43.32487155856653
 40
1.499999999999983
 50
11.53695903281468
 51
90.0
 73
     1
 72
     1
 10
517.8457799517148
 20
-41.82487155856654
 11
517.0705248231063
 21
-41.82487155856654
 72
     2
 10
517.0705248231063
 20
-42.07487155856654
 40
0.25
 50
90.0
 51
180.0
 73
     1
 72
     1
 10
516.8205248231063
 20
-42.07487155856654
 11
516.8205248231063
 21
-83.32487155856654
 72
     2
 10
517.3205248231063
 20
-83.32487155856654
 40
0.5
 50
180.0
 51
270.0
 73
     1
 72
     1
 10
517.3205248231063
 20
-83.82487155856654
 11
558.5705248231063
 21
-83.82487155856654
 72
     2
 10
558.5705248231063
 20
-83.57487155856654
 40
0.25
 50
270.0
 51
360.0
 73
     1
 72
     1
 10
558.8205248231063
 20
-83.57487155856654
 11
558.8205248231063
 21
-82.79961642995818
 72
     2
 10
557.3205248231063
 20
-82.79961642995814
 40
1.5
 50
359.9999999999989
 51
438.463040967182
 73
     1
 72
     2
 10
557.5705248231064
 20
-81.57487155856655
 40
0.2499999999999888
 50
78.46304096719463
 51
180.0
 73
     1
 72
     1
 10
557.3205248231063
 20
-81.57487155856655
 11
557.3205248231063
 21
-82.32487155856654
 72
     1
 10
557.3205248231063
 20
-82.32487155856654
 11
554.3205248231063
 21
-82.32487155856654
 72
     1
 10
554.3205248231063
 20
-82.32487155856654
 11
554.3205248231063
 21
-69.62487155856639
 72
     1
 10
554.3205248231063
 20
-69.62487155856639
 11
554.820524823106
 21
-69.62487155856644
 72
     2
 10
554.820524823106
 20
-69.42487155856642
 40
0.200000000000017
 50
270.0
 51
359.9999999999919
 73
     1
 72
     1
 10
555.0205248231061
 20
-69.42487155856645
 11
555.0205248231061
 21
-63.32487155856643
 72
     2
 10
555.5205248231061
 20
-63.32487155856643
 40
0.5
 50
180.0
 51
270.0
 73
     0
 72
     1
 10
555.5205248231061
 20
-62.82487155856642
 11
557.3205248231063
 21
-62.82487155856642
 72
     2
 10
557.3205248231063
 20
-63.32487155856643
 40
0.5
 50
270.0
 51
360.0
 73
     0
 72
     1
 10
557.8205248231063
 20
-63.32487155856643
 11
557.8205248231063
 21
-65.82487155856643
 72
     2
 10
558.3205248231063
 20
-65.82487155856643
 40
0.5
 50
180.0
 51
360.0
 73
     1
 72
     1
 10
558.8205248231063
 20
-65.82487155856643
 11
558.8205248231063
 21
-47.82487155856654
 72
     1
 10
558.8205248231063
 20
-47.82487155856654
 11
560.1205248231064
 21
-47.82487155856654
 72
     2
 10
560.1205248231064
 20
-47.62487155856658
 40
0.1999999999999602
 50
270.0
 51
360.0000000000081
 73
     1
 72
     1
 10
560.3205248231063
 20
-47.62487155856655
 11
560.3205248231063
 21
-45.6248715585665
 72
     1
 10
560.3205248231063
 20
-45.6248715585665
 11
564.3205248231063
 21
-45.6248715585665
 72
     1
 10
564.3205248231063
 20
-45.6248715585665
 11
564.3205248231063
 21
-47.32487155856648
 72
     2
 10
564.8205248231063
 20
-47.32487155856648
 40
0.5
 50
180.0
 51
360.0
 73
     1
 72
     1
 10
565.3205248231063
 20
-47.32487155856648
 11
565.3205248231063
 21
-45.6248715585665
 72
     1
 10
565.3205248231063
 20
-45.6248715585665
 11
570.7205248231064
 21
-45.6248715585665
 72
     1
 10
570.7205248231064
 20
-45.6248715585665
 11
570.7205248231064
 21
-47.32487155856654
 72
     2
 10
571.2205248231064
 20
-47.32487155856654
 40
0.5
 50
180.0
 51
270.0
 73
     1
 72
     1
 10
571.2205248231064
 20
-47.82487155856654
 11
572.7705248231063
 21
-47.82487155856654
 72
     2
 10
572.7705248231063
 20
-47.32487155856654
 40
0.5
 50
270.0
 51
450.0
 73
     1
 72
     1
 10
572.7705248231063
 20
-46.82487155856654
 11
572.0205248231064
 21
-46.82487155856654
 72
     1
 10
572.0205248231064
 20
-46.82487155856654
 11
572.0205248231064
 21
-45.32487155856654
 72
     1
 10
572.0205248231064
 20
-45.32487155856654
 11
577.5205248231063
 21
-45.32487155856654
 72
     1
 10
577.5205248231063
 20
-45.32487155856654
 11
577.5205248231063
 21
-46.82487155856654
 72
     1
 10
577.5205248231063
 20
-46.82487155856654
 11
576.7705248231063
 21
-46.82487155856654
 72
     2
 10
576.7705248231063
 20
-47.32487155856654
 40
0.5
 50
90.0
 51
270.0
 73
     1
 72
     1
 10
576.7705248231063
 20
-47.82487155856654
 11
578.3205248231062
 21
-47.82487155856654
 72
     2
 10
578.3205248231062
 20
-47.32487155856654
 40
0.5
 50
270.0
 51
360.0
 73
     1
 72
     1
 10
578.8205248231063
 20
-47.32487155856654
 11
578.8205248231063
 21
-46.1248715585665
 72
     1
 10
578.8205248231063
 20
-46.1248715585665
 11
580.6205248231064
 21
-46.1248715585665
 72
     2
 10
580.6205248231064
 20
-45.92487155856654
 40
0.1999999999999602
 50
270.0
 51
360.0000000000081
 73
     1
 72
     1
 10
580.8205248231063
 20
-45.92487155856651
 11
580.8205248231063
 21
-44.02487155856657
 72
     2
 10
580.6205248231062
 20
-44.02487155856661
 40
0.2000000000000455
 50
0.0000000000142489
 51
90.0
 73
     1
 72
     1
 10
580.6205248231062
 20
-43.82487155856654
 11
556.8205248231063
 21
-43.82487155856654
 72
     1
 10
556.8205248231063
 20
-43.82487155856654
 11
556.8205248231063
 21
-20.02487155856657
 72
     2
 10
556.6205248231063
 20
-20.02487155856661
 40
0.2000000000000455
 50
0.0000000000122133
 51
90.0
 73
     1
 72
     1
 10
556.6205248231063
 20
-19.82487155856654
 11
554.7205248231063
 21
-19.82487155856657
 72
     2
 10
554.7205248231063
 20
-20.02487155856656
 40
0.1999999999999922
 50
90.0
 51
179.9999999999908
 73
     1
 72
     1
 10
554.5205248231063
 20
-20.02487155856653
 11
554.5205248231063
 21
-21.82487155856654
 72
     1
 10
554.5205248231063
 20
-21.82487155856654
 11
553.3205248231062
 21
-21.82487155856654
 72
     2
 10
553.3205248231062
 20
-22.32487155856654
 40
0.5
 50
90.0
 51
180.0
 73
     1
 72
     1
 10
552.8205248231063
 20
-22.32487155856654
 11
552.8205248231063
 21
-23.87487155856655
 72
     2
 10
553.3205248231062
 20
-23.87487155856655
 40
0.5
 50
180.0
 51
360.0
 73
     1
 72
     1
 10
553.8205248231063
 20
-23.87487155856655
 11
553.8205248231063
 21
-23.12487155856655
 72
     1
 10
553.8205248231063
 20
-23.12487155856655
 11
555.3205248231063
 21
-23.12487155856655
 72
     1
 10
555.3205248231063
 20
-23.12487155856655
 11
555.3205248231063
 21
-28.62487155856655
 72
     1
 10
555.3205248231063
 20
-28.62487155856655
 11
553.8205248231063
 21
-28.62487155856655
 72
     1
 10
553.8205248231063
 20
-28.62487155856655
 11
553.8205248231063
 21
-27.87487155856656
 72
     2
 10
553.3205248231062
 20
-27.87487155856656
 40
0.5
 50
0.0
 51
180.0
 73
     1
 72
     1
 10
552.8205248231063
 20
-27.87487155856656
 11
552.8205248231063
 21
-29.42487155856657
 72
     2
 10
553.3205248231062
 20
-29.42487155856657
 40
0.5
 50
180.0
 51
270.0
 73
     1
 72
     1
 10
553.3205248231062
 20
-29.92487155856657
 11
555.0205248231064
 21
-29.92487155856657
 72
     1
 10
555.0205248231064
 20
-29.92487155856657
 11
555.0205248231064
 21
-35.32487155856654
 72
     1
 10
555.0205248231064
 20
-35.32487155856654
 11
553.3205248231062
 21
-35.32487155856654
 72
     2
 10
553.3205248231062
 20
-35.82487155856654
 40
0.5
 50
90.0
 51
270.0
 73
     1
 72
     1
 10
553.3205248231062
 20
-36.32487155856654
 11
555.0205248231064
 21
-36.32487155856654
 72
     1
 10
555.0205248231064
 20
-36.32487155856654
 11
555.0205248231064
 21
-40.32487155856654
 72
     1
 10
555.0205248231064
 20
-40.32487155856654
 11
553.0205248231062
 21
-40.32487155856651
 72
     2
 10
553.0205248231062
 20
-40.5248715585665
 40
0.1999999999999886
 50
90.0
 51
179.9999999999918
 73
     1
 72
     1
 10
552.8205248231063
 20
-40.52487155856647
 11
552.8205248231063
 21
-41.82487155856654
 72
     1
 10
552.8205248231063
 20
-41.82487155856654
 11
534.8205248231063
 21
-41.82487155856676
 72
     2
 10
534.8205248231063
 20
-42.32487155856676
 40
0.5
 50
90.0
 51
270.0
 73
     1
 72
     1
 10
534.8205248231063
 20
-42.82487155856677
 11
537.3205248231063
 21
-42.82487155856677
 72
     2
 10
537.3205248231063
 20
-43.32487155856677
 40
0.5
 50
270.0
 51
360.0
 73
     0
 72
     1
 10
537.8205248231063
 20
-43.32487155856677
 11
537.8205248231063
 21
-45.12487155856672
 72
     2
 10
537.3205248231063
 20
-45.12487155856672
 40
0.5
 50
360.0
 51
450.0
 73
     0
 72
     1
 10
537.3205248231063
 20
-45.62487155856672
 11
531.2205248231062
 21
-45.62487155856675
 97
        1
330
5B95
 92
       16
 93
       50
 72
     2
 10
555.1705248231062
 20
-52.82487155856664
 40
3.65000000000013
 50
71.01617561495753
 51
133.3417582272225
 73
     1
 72
     2
 10
553.2830662142885
 20
-50.8248715585665
 40
0.8999999999999804
 50
133.3417582272275
 51
313.3417582272293
 73
     1
 72
     2
 10
555.1705248231061
 20
-52.82487155856662
 40
1.849999999999919
 50
226.6582417727853
 51
493.3417582272244
 73
     0
 72
     2
 10
553.2830662142885
 20
-54.82487155856655
 40
0.8999999999999745
 50
46.6582417727821
 51
226.6582417727768
 73
     1
 72
     2
 10
555.1705248231061
 20
-52.82487155856633
 40
3.650000000000159
 50
226.6582417727807
 51
288.9838243850437
 73
     1
 72
     2
 10
556.5205248231064
 20
-56.74915493263618
 40
0.4999999999999973
 50
251.0161756149507
 51
360.0000000000016
 73
     0
 72
     1
 10
557.0205248231063
 20
-56.7491549326362
 11
557.0205248231063
 21
-61.02487155856647
 72
     1
 10
557.0205248231063
 20
-61.02487155856647
 11
555.5205248231061
 21
-61.02487155856647
 72
     2
 10
555.5205248231061
 20
-63.32487155856643
 40
2.299999999999954
 50
90.0
 51
180.0
 73
     1
 72
     1
 10
553.2205248231061
 20
-63.32487155856643
 11
553.2205248231061
 21
-67.82487155856642
 72
     1
 10
553.2205248231061
 20
-67.82487155856642
 11
552.7205248231062
 21
-67.82487155856654
 72
     2
 10
552.7205248231061
 20
-68.02487155856645
 40
0.1999999999999034
 50
89.99999999996743
 51
180.0000000000081
 73
     1
 72
     1
 10
552.5205248231063
 20
-68.02487155856647
 11
552.5205248231063
 21
-70.90058818449671
 72
     2
 10
552.0205248231063
 20
-70.90058818449676
 40
0.5000000000001137
 50
359.9999999999935
 51
468.9838243850306
 73
     0
 72
     2
 10
550.6705248231062
 20
-74.82487155856674
 40
3.650000000000127
 50
71.01617561495941
 51
133.3417582272217
 73
     1
 72
     2
 10
548.7830662142885
 20
-72.82487155856661
 40
0.9000000000000422
 50
133.3417582272238
 51
313.341758227229
 73
     1
 72
     2
 10
550.6705248231062
 20
-74.82487155856668
 40
1.849999999999956
 50
226.6582417727815
 51
493.3417582272281
 73
     0
 72
     2
 10
548.7830662142885
 20
-76.82487155856654
 40
0.8999999999999642
 50
46.65824177278147
 51
226.6582417727808
 73
     1
 72
     2
 10
550.6705248231063
 20
-74.8248715585664
 40
3.65000000000016
 50
226.6582417727782
 51
288.9838243850407
 73
     1
 72
     2
 10
552.0205248231064
 20
-78.74915493263621
 40
0.5000000000000242
 50
251.0161756149518
 51
359.9999999999984
 73
     0
 72
     1
 10
552.5205248231063
 20
-78.7491549326362
 11
552.5205248231063
 21
-82.02487155856658
 72
     1
 10
552.5205248231063
 20
-82.02487155856658
 11
519.1205248231063
 21
-82.02487155856658
 72
     2
 10
519.1205248231063
 20
-81.52487155856659
 40
0.5
 50
90.0
 51
180.0
 73
     0
 72
     1
 10
518.6205248231062
 20
-81.52487155856659
 11
518.6205248231062
 21
-48.1248715585665
 72
     1
 10
518.6205248231062
 20
-48.1248715585665
 11
521.8962414490367
 21
-48.1248715585665
 72
     2
 10
521.8962414490367
 20
-48.62487155856653
 40
0.5000000000000356
 50
270.0
 51
378.9838243850379
 73
     0
 72
     2
 10
525.8205248231064
 20
-49.9748715585668
 40
3.649999999999966
 50
161.0161756149551
 51
223.3417582272172
 73
     1
 72
     2
 10
523.8205248231063
 20
-51.86233016738421
 40
0.9000000000000696
 50
223.341758227219
 51
403.3417582272243
 73
     1
 72
     2
 10
525.8205248231063
 20
-49.97487155856657
 40
1.849999999999974
 50
136.6582417727796
 51
403.3417582272242
 73
     0
 72
     2
 10
527.8205248231063
 20
-51.86233016738422
 40
0.9000000000000355
 50
136.6582417727832
 51
316.6582417727747
 73
     1
 72
     2
 10
525.8205248231063
 20
-49.97487155856648
 40
3.650000000000046
 50
316.6582417727763
 51
378.9838243850374
 73
     1
 72
     2
 10
529.7448081971761
 20
-48.62487155856659
 40
0.5000000000000799
 50
161.0161756149582
 51
269.999999999987
 73
     0
 72
     1
 10
529.7448081971761
 20
-48.1248715585665
 11
532.6205248231063
 21
-48.1248715585665
 72
     2
 10
532.6205248231063
 20
-47.92487155856647
 40
0.200000000000017
 50
270.0
 51
359.9999999999919
 73
     1
 72
     1
 10
532.8205248231063
 20
-47.9248715585665
 11
532.8205248231063
 21
-47.42487155856679
 72
     1
 10
532.8205248231063
 20
-47.42487155856679
 11
537.3205248231063
 21
-47.42487155856679
 72
     2
 10
537.3205248231063
 20
-45.12487155856681
 40
2.299999999999982
 50
270.0
 51
360.0000000000008
 73
     1
 72
     1
 10
539.6205248231062
 20
-45.12487155856677
 11
539.6205248231062
 21
-43.62487155856655
 72
     1
 10
539.6205248231062
 20
-43.62487155856655
 11
543.8962414490369
 21
-43.62487155856655
 72
     2
 10
543.8962414490368
 20
-44.12487155856659
 40
0.5000000000000427
 50
270.000000000013
 51
378.9838243850395
 73
     0
 72
     2
 10
547.8205248231064
 20
-45.47487155856685
 40
3.649999999999954
 50
161.0161756149556
 51
223.3417582272167
 73
     1
 72
     2
 10
545.8205248231063
 20
-47.36233016738421
 40
0.9000000000000696
 50
223.341758227219
 51
403.3417582272243
 73
     1
 72
     2
 10
547.8205248231063
 20
-45.47487155856657
 40
1.849999999999974
 50
136.6582417727796
 51
403.3417582272242
 73
     0
 72
     2
 10
549.8205248231063
 20
-47.36233016738419
 40
0.9000000000000209
 50
136.6582417727842
 51
316.6582417727776
 73
     1
 72
     2
 10
547.8205248231063
 20
-45.47487155856652
 40
3.649999999999958
 50
316.6582417727777
 51
378.9838243850388
 73
     1
 72
     2
 10
551.7448081971762
 20
-44.12487155856668
 40
0.500000000000155
 50
161.0161756149732
 51
269.999999999987
 73
     0
 72
     1
 10
551.744808197176
 20
-43.62487155856661
 11
554.0749404108346
 21
-43.62487155856655
 72
     1
 10
554.0749404108346
 20
-43.62487155856655
 11
557.0205248231063
 21
-46.57045597083822
 72
     1
 10
557.0205248231063
 20
-46.57045597083822
 11
557.0205248231063
 21
-48.9005881844968
 72
     2
 10
556.5205248231063
 20
-48.90058818449677
 40
0.5
 50
0.0000000000024427
 51
108.9838243850333
 73
     0
 97
        1
330
5B96
 75
     0
 76
     1
 98
        1
 10
0.0
 20
0.0
  0
ENDBLK
  5
4636
330
4634
100
AcDbEntity
  8
0
 48
3.0
100
AcDbBlockEnd
  0
BLOCK
  5
4646
330
4645
100
AcDbEntity
  8
0
 48
3.0
100
AcDbBlockBegin
  2
9010240l
 70
     0
 10
121.7743665915091
 20
318.4609762649906
 30
0.0
  3
9010240l
  1
9010240l.dwg
  0
LWPOLYLINE
  5
5B99
330
4645
100
AcDbEntity
  8
APL Joinery
  6
Continuous
 62
   252
100
AcDbPolyline
 90
       30
 70
   129
 43
0.0
 10
125.4743665915089
 20
314.4561557475136
 42
-0.2835524870706119
 10
125.639679738777
 20
314.7242218805875
 42
0.0902645523985048
 10
127.3754845981152
 20
316.3445044937532
 42
0.161319204780224
 10
127.4743665871533
 20
316.6430079967175
 10
127.4743665871533
 20
317.3876867032266
 42
0.7182204474982408
 10
127.1151731138881
 20
317.5087546100796
 42
-0.1023621877757452
 10
125.7724514164482
 20
316.3391728353994
 42
-0.5736819561067553
 10
125.4743665915088
 20
316.5134696142469
 10
125.4743665915089
 20
317.4272819212232
 42
-0.2007459679516776
 10
125.6233155046325
 20
317.7833200293
 10
127.3629395678818
 20
319.4985772006699
 42
0.1718314268301038
 10
127.4743665871533
 20
319.8132373961948
 10
127.4743665871533
 20
321.0651669139914
 42
0.4607623830565128
 10
127.1854567012142
 20
321.3121203929631
 10
121.9854567055696
 20
320.4579297439622
 42
0.39414290722904
 10
121.7753179169858
 20
320.1891873293035
 10
121.9265167932934
 20
318.4609762649903
 10
123.4743665871533
 20
318.4609762649903
 10
123.4743665871533
 20
315.5609762649902
 10
122.9743665871533
 20
315.5609762649902
 42
0.5486826681767499
 10
122.7478103958356
 20
315.2052772007768
 10
124.4491917600105
 20
311.5585232326624
 42
0.5205046449868776
 10
125.12771125539
 20
311.4389506414458
 10
125.4743665915089
 20
311.7856059775647
 42
0.0847796409423414
 10
127.3739886902729
 20
313.5798636206071
 42
0.1626006128156405
 10
127.4743665871533
 20
313.880366823083
 10
127.4743665871533
 20
314.5348039882088
 42
0.6868018179313476
 10
127.1259119882316
 20
314.668823509395
 42
-0.0728137603887277
 10
125.7781723137974
 20
313.554024525722
 42
-0.5847457288354972
 10
125.4743665915089
 20
313.7249758989839
  0
ENDBLK
  5
4647
330
4645
100
AcDbEntity
  8
0
 48
3.0
100
AcDbBlockEnd
  0
BLOCK
  5
4654
330
4653
100
AcDbEntity
  8
0
 48
3.0
100
AcDbBlockBegin
  2
6Glass
 70
     0
 10
101.8368839708302
 20
399.4111348733001
 30
0.0
  3
6Glass
  1
6Glass.dwg
  0
LINE
  5
5374
330
4653
100
AcDbEntity
  8
APL Joinery
 62
     7
100
AcDbLine
 10
95.33688397083029
 20
412.4111348732999
 30
0.0
 11
95.33688397083029
 21
392.4111348733
 31
0.0
  0
LINE
  5
5375
330
4653
100
AcDbEntity
  8
APL Joinery
 62
     7
100
AcDbLine
 10
89.33688397083029
 20
412.4111348732999
 30
0.0
 11
95.33688397083029
 21
412.4111348732999
 31
0.0
  0
LINE
  5
5376
330
4653
100
AcDbEntity
  8
APL Joinery
 62
     8
100
AcDbLine
 10
93.33688397083028
 20
412.4111348732999
 30
0.0
 11
93.33688397083028
 21
392.4111348733
 31
0.0
  0
LINE
  5
5377
330
4653
100
AcDbEntity
  8
APL Joinery
 62
     7
100
AcDbLine
 10
89.33688397083029
 20
412.4111348732999
 30
0.0
 11
89.33688397083029
 21
392.4111348733
 31
0.0
  0
LINE
  5
5378
330
4653
100
AcDbEntity
  8
APL Joinery
 62
     8
100
AcDbLine
 10
91.33688397083028
 20
412.4111348732999
 30
0.0
 11
91.33688397083028
 21
392.4111348733
 31
0.0
  0
ENDBLK
  5
4655
330
4653
100
AcDbEntity
  8
0
 48
3.0
100
AcDbBlockEnd
  0
BLOCK
  5
465D
330
4658
100
AcDbEntity
  8
0
 48
3.0
100
AcDbBlockBegin
  2
08630Glaze
 70
     0
 10
0.0
 20
0.0
 30
0.0
  3
08630Glaze
  1

  0
INSERT
  5
4659
330
4658
100
AcDbEntity
  8
APL Joinery
100
AcDbBlockReference
  2
08630
 10
0.0
 20
0.0
 30
0.0
 43
2.0
  0
INSERT
  5
465A
330
4658
100
AcDbEntity
  8
APL Joinery
 48
3.0
100
AcDbBlockReference
  2
6Glass
 10
40.50000225423514
 20
18.99987984172827
 30
0.0
 41
-1.0
 50
180.0
  0
INSERT
  5
465B
330
4658
100
AcDbEntity
  8
APL Joinery
100
AcDbBlockReference
  2
9010312r
 10
37.70000000000027
 20
20.0
 30
0.0
 43
2.0
  0
INSERT
  5
465C
330
4658
100
AcDbEntity
  8
APL Joinery
 48
3.0
100
AcDbBlockReference
  2
9010240l
 10
22.30000000000015
 20
19.99999999999969
 30
0.0
  0
ENDBLK
  5
465E
330
4658
100
AcDbEntity
  8
0
 48
3.0
100
AcDbBlockEnd
  0
BLOCK
  5
507A
330
5079
100
AcDbEntity
  8
0
 48
3.0
100
AcDbBlockBegin
  2
19mmliner
 70
     0
 10
110.739951507863
 20
355.7623510830485
 30
0.0
  3
19mmliner
  1
19mmliner.dwg
  0
LINE
  5
537A
330
5079
100
AcDbEntity
  8
APL Joinery
 62
     3
100
AcDbLine
 10
110.739951507863
 20
336.7623510830484
 30
0.0
 11
160.7399515078631
 21
336.7623510830485
 31
0.0
  0
LINE
  5
537B
330
5079
100
AcDbEntity
  8
APL Joinery
 62
     3
100
AcDbLine
 10
110.739951507863
 20
355.7623510830485
 30
0.0
 11
177.7399515078631
 21
355.7623510830485
 31
0.0
  0
LINE
  5
537C
330
5079
100
AcDbEntity
  8
APL Joinery
 62
     8
100
AcDbLine
 10
136.9304814615635
 20
338.5194764502585
 30
0.0
 11
148.1588522325407
 21
350.7651184192899
 31
0.0
  0
SPLINE
  5
537D
330
5079
100
AcDbEntity
  8
APL Joinery
 62
     8
100
AcDbSpline
210
0.0
220
0.0
230
1.0
 70
     8
 71
     3
 72
    14
 73
    10
 74
     8
 42
0.0000000001
 43
0.0000000001
 44
0.0000000001
 40
0.0
 40
0.0
 40
0.0
 40
0.0
 40
8.267050822299994
 40
20.90203347130239
 40
31.18486054127779
 40
41.04700630219173
 40
47.37085711970707
 40
52.62972264650577
 40
55.04603969815228
 40
55.04603969815228
 40
55.04603969815228
 40
55.04603969815228
 10
112.962024863876
 20
352.4416363673449
 30
0.0
 10
115.710435231041
 20
352.6547702152513
 30
0.0
 10
122.6593903931888
 20
353.1936480954732
 30
0.0
 10
133.0603500725692
 20
353.1446097782715
 30
0.0
 10
143.9830780527489
 20
353.7000992866996
 30
0.0
 10
152.8130144084047
 20
352.2948735856875
 30
0.0
 10
159.402266048835
 20
349.3943549626646
 30
0.0
 10
163.2730412780899
 20
346.7537889098187
 30
0.0
 10
165.2352067994704
 20
345.1119730676722
 30
0.0
 10
165.8529398578057
 20
344.5950931661851
 30
0.0
 11
112.962024863876
 21
352.4416363673449
 31
0.0
 11
121.2107623821955
 21
352.9915987772956
 31
0.0
 11
133.8426794995448
 21
353.2699088220463
 31
0.0
 11
144.1252702312661
 21
353.3396253547937
 31
0.0
 11
153.8351469582417
 21
351.6132960245525
 31
0.0
 11
159.6232888309603
 21
349.0660420475272
 31
0.0
 11
163.9838780752223
 21
346.1264964922112
 31
0.0
 11
165.8529398578057
 21
344.5950931661851
 31
0.0
  0
SPLINE
  5
537E
330
5079
100
AcDbEntity
  8
APL Joinery
 62
     8
100
AcDbSpline
210
0.0
220
0.0
230
1.0
 70
     8
 71
     3
 72
    13
 73
     9
 74
     7
 42
0.0000000001
 43
0.0000000001
 44
0.0000000001
 40
0.0
 40
0.0
 40
0.0
 40
0.0
 40
7.873644080568313
 40
17.07129258656329
 40
24.77081643184663
 40
33.27528257512341
 40
39.90117587444498
 40
45.52268627951728
 40
45.52268627951728
 40
45.52268627951728
 40
45.52268627951728
 10
117.2336493875612
 20
346.4777841475926
 30
0.0
 10
119.8422678032878
 20
346.8000537066384
 30
0.0
 10
125.4981607755736
 20
347.4987845456142
 30
0.0
 10
133.7781962604838
 20
347.1223878341504
 30
0.0
 10
142.2036965073619
 20
346.5273623865884
 30
0.0
 10
149.7800610034507
 20
345.0750496880203
 30
0.0
 10
155.8214982068499
 20
341.4387446299347
 30
0.0
 10
158.650253791137
 20
338.4840976402127
 30
0.0
 10
159.9486415420667
 20
337.1279262265049
 30
0.0
 11
117.2336493875612
 21
346.4777841475926
 31
0.0
 11
125.0702377681257
 21
347.2407740958025
 31
0.0
 11
134.2660784444942
 21
347.0584219785152
 31
0.0
 11
141.9373280562645
 21
346.3991823877746
 31
0.0
 11
150.2087695760063
 21
344.4220128028292
 31
0.0
 11
155.8982514277181
 21
341.0260949190992
 31
0.0
 11
159.9486415420667
 21
337.1279262265049
 31
0.0
  0
LINE
  5
537F
330
5079
100
AcDbEntity
  8
APL Joinery
 62
     3
100
AcDbLine
 10
110.739951507863
 20
336.7623510830484
 30
0.0
 11
110.739951507863
 21
355.7623510830485
 31
0.0
  0
LINE
  5
5380
330
5079
100
AcDbEntity
  8
APL Joinery
 62
     8
100
AcDbLine
 10
130.1934589989773
 20
339.0760965397599
 30
0.0
 11
127.6670755755074
 21
350.2084983297885
 31
0.0
  0
SPLINE
  5
5381
330
5079
100
AcDbEntity
  8
APL Joinery
 62
     8
100
AcDbSpline
210
0.0
220
0.0
230
1.0
 70
     8
 71
     3
 72
    15
 73
    11
 74
     9
 42
0.0000000001
 43
0.0000000001
 44
0.0000000001
 40
0.0
 40
0.0
 40
0.0
 40
0.0
 40
4.844139449286539
 40
10.54193621031332
 40
16.07410556410715
 40
19.51351901015936
 40
22.27929741151003
 40
25.6710732269026
 40
27.95241956603697
 40
30.23778869522836
 40
30.23778869522836
 40
30.23778869522836
 40
30.23778869522836
 10
115.8770369925237
 20
337.0554560822224
 30
0.0
 10
117.1487211363271
 20
338.1096881093439
 30
0.0
 10
119.9161916569408
 20
340.4039339495252
 30
0.0
 10
125.4540610404964
 20
340.8199775377686
 30
0.0
 10
130.238054618822
 20
341.7249569545736
 30
0.0
 10
134.1816997355666
 20
341.426500736041
 30
0.0
 10
137.2886936906936
 20
340.6778211815542
 30
0.0
 10
140.1492368439622
 20
340.581128745862
 30
0.0
 10
142.5350224188241
 20
339.1458380938952
 30
0.0
 10
143.2897884662015
 20
337.8009584142327
 30
0.0
 10
143.6675039241498
 20
337.1279262265049
 30
0.0
 11
115.8770369925237
 21
337.0554560822224
 31
0.0
 11
119.8746185322385
 21
339.7913341565277
 31
0.0
 11
125.4579300570243
 21
340.9277849241204
 31
0.0
 11
130.9542151154868
 21
341.556870224519
 31
0.0
 11
134.3846942728782
 21
341.3091251870553
 31
0.0
 11
137.1049409005003
 21
340.8093367815391
 31
0.0
 11
140.4461645861669
 21
340.2259265791753
 31
0.0
 11
142.3805274829412
 21
339.0164716181847
 31
0.0
 11
143.6675039241498
 21
337.1279262265049
 31
0.0
  0
LINE
  5
5382
330
5079
100
AcDbEntity
  8
APL Joinery
 62
     8
100
AcDbLine
 10
122.8950179978421
 20
338.2411664055077
 30
0.0
 11
112.4454077587423
 21
345.190146322691
 31
0.0
  0
LINE
  5
5383
330
5079
100
AcDbEntity
  8
APL Joinery
 62
     3
100
AcDbLine
 10
177.7399515078631
 20
336.7623510830485
 30
0.0
 11
170.7399515078631
 21
336.7623510830485
 31
0.0
  0
SPLINE
  5
5384
330
5079
100
AcDbEntity
  8
APL Joinery
 62
     8
100
AcDbSpline
210
0.0
220
0.0
230
1.0
 70
     8
 71
     3
 72
    11
 73
     7
 74
     5
 42
0.0000000001
 43
0.0000000001
 44
0.0000000001
 40
0.0
 40
0.0
 40
0.0
 40
0.0
 40
4.077163776164723
 40
7.378903861023069
 40
10.95052549711435
 40
14.90356917242528
 40
14.90356917242528
 40
14.90356917242528
 40
14.90356917242528
 10
165.2821176582808
 20
355.2180791353014
 30
0.0
 10
166.5726858318287
 20
354.7818781738363
 30
0.0
 10
168.9083728440546
 20
353.9924360185927
 30
0.0
 10
172.0610412556228
 20
352.0900882102073
 30
0.0
 10
174.6875300120783
 20
349.5844033021437
 30
0.0
 10
176.2507024700006
 20
347.6216106372748
 30
0.0
 10
177.0719069678068
 20
346.5904677480291
 30
0.0
 11
165.2821176582808
 21
355.2180791353014
 31
0.0
 11
169.0893137398045
 21
353.7591334699317
 31
0.0
 11
171.9114927001994
 21
352.0454259384479
 31
0.0
 11
174.5358983769054
 21
349.6228289939545
 31
0.0
 11
177.0719069678068
 21
346.5904677480291
 31
0.0
  0
LINE
  5
5385
330
5079
100
AcDbEntity
  8
APL Joinery
 62
     3
100
AcDbLine
 10
160.7399515078631
 20
343.7623510830484
 30
0.0
 11
170.7399515078631
 21
343.7623510830484
 31
0.0
  0
LINE
  5
5386
330
5079
100
AcDbEntity
  8
APL Joinery
 62
     8
100
AcDbLine
 10
145.9131780783453
 20
339.6327166292613
 30
0.0
 11
175.1069420828859
 21
352.7132887325449
 31
0.0
  0
LINE
  5
5387
330
5079
100
AcDbEntity
  8
APL Joinery
 62
     3
100
AcDbLine
 10
160.7399515078631
 20
336.7623510830485
 30
0.0
 11
160.7399515078631
 21
343.7623510830484
 31
0.0
  0
LINE
  5
5388
330
5079
100
AcDbEntity
  8
APL Joinery
 62
     3
100
AcDbLine
 10
170.7399515078631
 20
336.7623510830485
 30
0.0
 11
170.7399515078631
 21
343.7623510830484
 31
0.0
  0
LINE
  5
5389
330
5079
100
AcDbEntity
  8
APL Joinery
 62
     3
100
AcDbLine
 10
177.7399515078631
 20
336.7623510830485
 30
0.0
 11
177.7399515078631
 21
355.7623510830485
 31
0.0
  0
ENDBLK
  5
507B
330
5079
100
AcDbEntity
  8
0
 48
3.0
100
AcDbBlockEnd
  0
BLOCK
  5
5319
330
5318
100
AcDbEntity
  8
0
 48
3.0
100
AcDbBlockBegin
  2
vantage a4 SM border
 70
     0
 10
0.0
 20
0.0
 30
0.0
  3
vantage a4 SM border
  1
vantage a4 SM border.dwg
  0
TEXT
  5
5B9C
330
5318
100
AcDbEntity
  8
APL Border
100
AcDbText
 10
11.59500000000003
 20
3.979818213543524
 30
0.0
 40
1.5
  1
VANTAGE SPECIFIER'S GUIDE 2011:1     ARCHITECTURAL PROFILES LTD. NB. TECHNICAL SPECIFICATIONS SUBJECT TO CHANGE WITHOUT NOTICE.
 41
1.175568529931163
  7
Arial-Regular
 72
     5
 11
189.595
 21
3.979818213543524
 31
0.0
100
AcDbText
  0
LINE
  5
5B9D
330
5318
100
AcDbEntity
  8
APL Border
100
AcDbLine
 10
11.59500000000003
 20
6.189999999999997
 30
0.0
 11
189.595
 21
6.189999999999997
 31
0.0
  0
MTEXT
  5
5B9E
330
5318
100
AcDbEntity
  8
APL Border
100
AcDbMText
 10
57.55102029361978
 20
3.879818213543526
 30
0.0
 40
1.5
 41
0.0
 71
     8
 72
     5
  1
{\fCommercialPi BT|b0|i0|c2|p18;a}
  7
Arial-Regular
 73
     1
 44
1.0
1001
ACAD
1000
MTEXTBEGIN
1070
    73
1070
     1
1070
    44
1040
1.0
1070
    74
1070
     0
1000
MTEXTEND
  0
LINE
  5
5B9F
330
5318
100
AcDbEntity
  8
APL Border
100
AcDbLine
 10
189.595
 20
268.19
 30
0.0
 11
142.595
 21
268.19
 31
0.0
  0
LINE
  5
5BA0
330
5318
100
AcDbEntity
  8
APL Border
100
AcDbLine
 10
189.595
 20
282.19
 30
0.0
 11
189.595
 21
254.19
 31
0.0
  0
LINE
  5
5BA1
330
5318
100
AcDbEntity
  8
APL Border
100
AcDbLine
 10
166.095
 20
268.19
 30
0.0
 11
166.095
 21
254.19
 31
0.0
  0
LINE
  5
5BA2
330
5318
100
AcDbEntity
  8
APL Border
100
AcDbLine
 10
189.595
 20
254.19
 30
0.0
 11
24.99473224900737
 21
254.19
 31
0.0
  0
LINE
  5
5BA3
330
5318
100
AcDbEntity
  8
APL Border
100
AcDbLine
 10
189.595
 20
282.19
 30
0.0
 11
24.99473224900737
 21
282.19
 31
0.0
  0
LINE
  5
5BA4
330
5318
100
AcDbEntity
  8
APL Border
100
AcDbLine
 10
142.595
 20
282.19
 30
0.0
 11
142.595
 21
254.19
 31
0.0
  0
TEXT
  5
5BA5
330
5318
100
AcDbEntity
  8
APL Border
100
AcDbText
 10
147.845
 20
273.69
 30
0.0
 40
2.5
  1
CAD REF.
  7
Arial-Regular
100
AcDbText
  0
TEXT
  5
5BA6
330
5318
100
AcDbEntity
  8
APL Border
100
AcDbText
 10
149.6877694406548
 20
262.19
 30
0.0
 40
2.5
  1
DATE
  7
Arial-Regular
 72
     1
 11
154.345
 21
262.19
 31
0.0
100
AcDbText
  0
TEXT
  5
5BA7
330
5318
100
AcDbEntity
  8
APL Border
100
AcDbText
 10
172.1185334242838
 20
262.19
 30
0.0
 40
2.5
  1
SCALE
  7
Arial-Regular
 72
     1
 11
177.845
 21
262.19
 31
0.0
100
AcDbText
  0
INSERT
  5
5BA8
102
{ACAD_XDICTIONARY
360
5BA9
102
}
330
5318
100
AcDbEntity
  8
APL Border
100
AcDbBlockReference
  2
vantage black & white logo
 10
24.99473224900737
 20
256.19
 30
0.0
 41
0.5
 42
0.5
 43
0.5
  0
LINE
  5
5BED
330
5318
100
AcDbEntity
  8
APL Border
100
AcDbLine
 10
24.99473224900737
 20
256.19
 30
0.0
 11
24.99473224900737
 21
254.19
 31
0.0
  0
LINE
  5
5BEE
330
5318
100
AcDbEntity
  8
APL Border
100
AcDbLine
 10
24.99473224900716
 20
279.6304177948761
 30
0.0
 11
24.99473224900737
 21
282.19
 31
0.0
  0
ENDBLK
  5
531A
330
5318
100
AcDbEntity
  8
0
 48
3.0
100
AcDbBlockEnd
  0
BLOCK
  5
5A74
330
5A69
100
AcDbEntity
  8
0
 48
3.0
100
AcDbBlockBegin
  2
vantage a4 SM attributes (4)
 70
     2
 10
0.0
 20
0.0
 30
0.0
  3
vantage a4 SM attributes (4)
  1

  0
ATTDEF
  5
5A6A
330
5A69
100
AcDbEntity
  8
APL Border
100
AcDbText
 10
41.78979785863009
 20
276.19
 30
0.0
 40
3.5
  1
DRAWING TITLE LINE 1
  7
Arial-Bold
100
AcDbAttributeDefinition
  3
Drawing Title Line 1
  2
DRAWINGTITLE_1
 70
     0
1001
AcDbBlockRepETag
1070
     1
1071
        0
1005
0
  0
ATTDEF
  5
5A6B
330
5A69
100
AcDbEntity
  8
APL Border
100
AcDbText
 10
41.78979785863009
 20
270.19
 30
0.0
 40
3.5
  1
DRAWING TITLE LINE 2
  7
Arial-Bold
100
AcDbAttributeDefinition
  3
Drawing Title Line 2
  2
DRAWINGTITLE_2
 70
     0
1001
AcDbBlockRepETag
1070
     1
1071
        1
1005
0
  0
ATTDEF
  5
5A6C
330
5A69
100
AcDbEntity
  8
APL Border
100
AcDbText
 10
41.78979785863009
 20
264.19
 30
0.0
 40
3.5
  1
DRAWING TITLE LINE 3
  7
Arial-Bold
100
AcDbAttributeDefinition
  3
Drawing Title Line 3
  2
DRAWINGTITLE_3
 70
     0
1001
AcDbBlockRepETag
1070
     1
1071
        2
1005
0
  0
ATTDEF
  5
5A6D
330
5A69
100
AcDbEntity
  8
APL Border
100
AcDbText
 10
41.78979785863009
 20
258.19
 30
0.0
 40
3.0
  1
CROSS SECTION
  7
Arial-Regular
100
AcDbAttributeDefinition
  3
Drawing Title Line 4
  2
DRAWINGTITLE_4
 70
     0
1001
AcDbBlockRepETag
1070
     1
1071
        3
1005
0
  0
ATTDEF
  5
5A6E
330
5A69
100
AcDbEntity
  8
APL Border
100
AcDbText
 10
165.845
 20
273.69
 30
0.0
 40
2.5
  1
AW123-456
  7
Arial-Regular
100
AcDbAttributeDefinition
  3
CAD Reference
  2
AW12-0
 70
     0
1001
AcDbBlockRepETag
1070
     1
1071
        4
1005
0
  0
ATTDEF
  5
5A6F
330
5A69
100
AcDbEntity
  8
APL Border
100
AcDbText
 10
147.5475920873124
 20
257.1899999999999
 30
0.0
 40
2.5
  1
25.07.08
  7
Arial-Regular
 72
     1
 11
154.345
 21
257.1899999999999
 31
0.0
100
AcDbAttributeDefinition
  3
Date
  2
25.07.08
 70
     0
1001
AcDbBlockRepETag
1070
     1
1071
        5
1005
0
  0
ATTDEF
  5
5A70
330
5A69
100
AcDbEntity
  8
APL Border
100
AcDbText
 10
175.4174761255116
 20
257.1899999999999
 30
0.0
 40
2.5
  1
1:2
  7
Arial-Regular
 72
     1
 11
177.845
 21
257.1899999999999
 31
0.0
100
AcDbAttributeDefinition
  3
Scale
  2
1:2
 70
     0
1001
AcDbBlockRepETag
1070
     1
1071
        6
1005
0
  0
ATTDEF
  5
5A71
330
5A69
100
AcDbEntity
  8
APL Border
100
AcDbText
 10
189.595
 20
1.189999999999997
 30
0.0
 40
3.75
  1

  7
Arial-Bold
 72
     2
 11
189.595
 21
1.189999999999997
 31
0.0
100
AcDbAttributeDefinition
  3
Page Number (Right)
  2
1.2.34
 70
     0
1001
AcDbBlockRepETag
1070
     1
1071
        7
1005
0
  0
ATTDEF
  5
5A72
330
5A69
100
AcDbEntity
  8
APL Border
100
AcDbText
 10
11.59500000000003
 20
1.189999999999997
 30
0.0
 40
3.75
  1

  7
Arial-Bold
100
AcDbAttributeDefinition
  3
Page Number (Left)
  2
1.2.34
 70
     0
1001
AcDbBlockRepETag
1070
     1
1071
        8
1005
0
  0
ENDBLK
  5
5A75
330
5A69
100
AcDbEntity
  8
0
 48
3.0
100
AcDbBlockEnd
  0
BLOCK
  5
5BAD
330
5BAA
100
AcDbEntity
  8
0
 62
     9
100
AcDbBlockBegin
  2
vantage black & white logo
 70
     0
 10
0.0
 20
0.0
 30
0.0
  3
vantage black & white logo
  1

  0
SPLINE
  5
5BAE
102
{ACAD_REACTORS
330
5BDE
102
}
330
5BAA
100
AcDbEntity
  8
APL Border
 62
     8
100
AcDbSpline
210
0.0
220
0.0
230
1.0
 70
     8
 71
     3
 72
    16
 73
    12
 74
    10
 42
0.0000000001
 43
0.0000000001
 44
0.0000000001
 40
0.0
 40
0.0
 40
0.0
 40
0.0
 40
0.1978277931646383
 40
0.361463118001824
 40
0.5540499897785108
 40
0.7796220130725381
 40
0.979106605438038
 40
1.222151590302332
 40
1.40748727220097
 40
1.607226525619232
 40
1.815049166761618
 40
1.815049166761618
 40
1.815049166761618
 40
1.815049166761618
 10
-6.679452083611295
 20
24.89125032803118
 30
0.0
 10
-6.685371732996674
 20
24.82559351525051
 30
0.0
 10
-6.696187882184245
 20
24.70562798418881
 30
0.0
 10
-6.721757155054659
 20
24.52229576436942
 30
0.0
 10
-6.768469983285688
 20
24.33480615160983
 30
0.0
 10
-6.86071972339088
 20
24.14153771241002
 30
0.0
 10
-7.051789745146238
 20
24.01851519430105
 30
0.0
 10
-7.233921808197289
 20
23.91285203345822
 30
0.0
 10
-7.443451931375125
 20
23.87675735439051
 30
0.0
 10
-7.641222718647389
 20
23.88093312949101
 30
0.0
 10
-7.776581895343343
 20
23.89281010788354
 30
0.0
 10
-7.845603808282817
 20
23.89886637823479
 30
0.0
 11
-6.679452083611295
 21
24.89125032803118
 31
0.0
 11
-6.698967886443824
 21
24.69438750983487
 31
0.0
 11
-6.7229873764864
 21
24.53252465544059
 31
0.0
 11
-6.771947617386814
 21
24.34626516442952
 31
0.0
 11
-6.880972027936735
 21
24.14879006322128
 31
0.0
 11
-7.039699899396197
 21
24.02796140183178
 31
0.0
 11
-7.25666078222261
 21
23.91842218515177
 31
0.0
 11
-7.438645676318543
 21
23.88333923622035
 31
0.0
 11
-7.638384704687155
 21
23.88303939885124
 31
0.0
 11
-7.845603808282817
 21
23.89886637823479
 31
0.0
1001
AcDbBlockRepETag
1070
     1
1071
      590
1005
5BAE
  0
SPLINE
  5
5BAF
102
{ACAD_REACTORS
330
5BDE
102
}
330
5BAA
100
AcDbEntity
  8
APL Border
 62
     8
100
AcDbSpline
210
0.0
220
0.0
230
1.0
 70
     8
 71
     3
 72
    11
 73
     7
 74
     5
 42
0.0000000001
 43
0.0000000001
 44
0.0000000001
 40
0.0
 40
0.0
 40
0.0
 40
0.0
 40
0.0680840587483313
 40
0.1752723045973904
 40
0.2784233367375334
 40
0.4826852714337078
 40
0.4826852714337078
 40
0.4826852714337078
 40
0.4826852714337078
 10
-7.465264214605014
 20
24.80065518845331
 30
0.0
 10
-7.468646137215252
 20
24.77808681972154
 30
0.0
 10
-7.47735239504952
 20
24.719987903891
 30
0.0
 10
-7.524447891091254
 20
24.63752792323728
 30
0.0
 10
-7.635129760920157
 20
24.54333837224584
 30
0.0
 10
-7.743266182308203
 20
24.55714977626708
 30
0.0
 10
-7.815117916056323
 20
24.56632682606847
 30
0.0
 11
-7.465264214605014
 21
24.80065518845331
 31
0.0
 11
-7.478569823577657
 21
24.73388393846117
 31
0.0
 11
-7.530473398252325
 21
24.64010046985295
 31
0.0
 11
-7.611072397370236
 21
24.57572705319073
 31
0.0
 11
-7.815117916056323
 21
24.56632682606847
 31
0.0
1001
AcDbBlockRepETag
1070
     1
1071
      593
1005
5BAF
  0
SPLINE
  5
5BB0
102
{ACAD_REACTORS
330
5BDE
102
}
330
5BAA
100
AcDbEntity
  8
APL Border
 62
     8
100
AcDbSpline
210
0.0
220
0.0
230
1.0
 70
     8
 71
     3
 72
    20
 73
    16
 74
     0
 42
0.0000000001
 43
0.0000000001
 40
0.0
 40
0.0
 40
0.0
 40
0.0
 40
0.1774120264923274
 40
0.3258093286713144
 40
0.4834060703451958
 40
0.6311237014699663
 40
0.811161917566129
 40
0.9605198197290178
 40
1.289502400757101
 40
1.459697744220917
 40
1.604754171475458
 40
1.794797311213428
 40
2.030760379210173
 40
2.301729078160567
 40
2.393267743077617
 40
2.393267743077617
 40
2.393267743077617
 40
2.393267743077617
 10
5.780015564168593
 20
26.87985997284487
 30
0.0
 10
5.839056126904296
 20
26.87337384475878
 30
0.0
 10
5.947481505327601
 20
26.86146235781404
 30
0.0
 10
6.098807931884806
 20
26.80185114122353
 30
0.0
 10
6.227972759762906
 20
26.72168911843352
 30
0.0
 10
6.347510602881385
 20
26.61140356622764
 30
0.0
 10
6.442310149474394
 20
26.48207375794227
 30
0.0
 10
6.536759215535255
 20
26.28338234239492
 30
0.0
 10
6.578465181725675
 20
26.06469589684353
 30
0.0
 10
6.553150099427256
 20
25.85079503063701
 30
0.0
 10
6.524121382020268
 20
25.68499989147718
 30
0.0
 10
6.464236525716046
 20
25.50199988960434
 30
0.0
 10
6.327150620479812
 20
25.31187331731421
 30
0.0
 10
6.179477266233362
 20
25.17172660684537
 30
0.0
 10
6.072729148555964
 20
25.11631253421805
 30
0.0
 10
6.045077525535504
 20
25.10350570839811
 30
0.0
1001
AcDbBlockRepETag
1070
     1
1071
      594
1005
5BB0
  0
SPLINE
  5
5BB1
102
{ACAD_REACTORS
330
5BDE
102
}
330
5BAA
100
AcDbEntity
  8
APL Border
 62
     8
100
AcDbSpline
210
0.0
220
0.0
230
1.0
 70
     8
 71
     3
 72
    17
 73
    13
 74
    11
 42
0.0000000001
 43
0.0000000001
 44
0.0000000001
 40
0.0
 40
0.0
 40
0.0
 40
0.0
 40
0.0975027714782739
 40
0.2117924486065133
 40
0.317678689712162
 40
0.4843960423119905
 40
0.5983164751676271
 40
0.7475672999664091
 40
0.8854036234346642
 40
1.040732215041493
 40
1.197661337444246
 40
1.243973057737614
 40
1.243973057737614
 40
1.243973057737614
 40
1.243973057737614
 10
5.580769717272147
 20
26.18861664944085
 30
0.0
 10
5.613502616848285
 20
26.1875961553427
 30
0.0
 10
5.684603990133519
 20
26.18537947021098
 30
0.0
 10
5.781919321100519
 20
26.1258482190374
 30
0.0
 10
5.832561030472812
 20
26.0011917111029
 30
0.0
 10
5.820388894698232
 20
25.86817511516085
 30
0.0
 10
5.765298612935113
 20
25.7349784962169
 30
0.0
 10
5.67725421213275
 20
25.62965962372396
 30
0.0
 10
5.546675458142082
 20
25.55725132865025
 30
0.0
 10
5.401760839408257
 20
25.51345804330555
 30
0.0
 10
5.281860155064943
 20
25.50729075876586
 30
0.0
 10
5.21427201805345
 20
25.50302975767877
 30
0.0
 10
5.198870965514487
 20
25.50205881951548
 30
0.0
 11
5.580769717272147
 21
26.18861664944085
 31
0.0
 11
5.67764963039707
 21
26.17761333726443
 31
0.0
 11
5.774085473546278
 21
26.11627608549865
 31
0.0
 11
5.81791994770495
 21
26.01988918322082
 31
0.0
 11
5.809153052873227
 21
25.85340249542595
 31
0.0
 11
5.765318578714499
 21
25.74825305939683
 31
0.0
 11
5.668882735565347
 21
25.63434108961652
 31
0.0
 11
5.55010046754208
 21
25.56441523695462
 31
0.0
 11
5.401316428353624
 21
25.51980267086244
 31
0.0
 11
5.245093480229996
 21
25.50493189624708
 31
0.0
 11
5.198870965514487
 21
25.50205881951548
 31
0.0
1001
AcDbBlockRepETag
1070
     1
1071
      595
1005
5BB1
  0
SPLINE
  5
5BB2
102
{ACAD_REACTORS
330
5BE8
330
5BE9
102
}
330
5BAA
100
AcDbEntity
  8
APL Border
 62
     8
100
AcDbSpline
210
0.0
220
0.0
230
1.0
 70
     8
 71
     3
 72
    25
 73
    21
 74
     0
 42
0.0000000001
 43
0.0000000001
 40
0.0289432764998855
 40
0.0289432764998855
 40
0.0289432764998855
 40
0.0289432764998855
 40
0.7134165119202287
 40
1.411731005087882
 40
2.041147618059464
 40
3.036171077105474
 40
3.957911241576911
 40
4.83592253147705
 40
5.676684481733094
 40
6.271141751551381
 40
6.974058201941041
 40
7.825808739104269
 40
8.5265481701528
 40
9.125733480364379
 40
9.891766509798275
 40
10.6767880070383
 40
11.66821110410527
 40
12.42950909475574
 40
13.09855121203093
 40
13.70132750762923
 40
13.70132750762923
 40
13.70132750762923
 40
13.70132750762923
 10
13.141643811855
 20
43.40554077871886
 30
0.0
 10
12.91988216430481
 20
43.459256627421
 30
0.0
 10
12.47168844867874
 20
43.5669624691983
 30
0.0
 10
11.80600758681791
 20
43.66484839798013
 30
0.0
 10
11.02988777388427
 20
43.6649333207477
 30
0.0
 10
10.1361516270939
 20
43.55263717791944
 30
0.0
 10
9.306733533720876
 20
43.19741938393827
 30
0.0
 10
8.599762003673276
 20
42.45478219212527
 30
0.0
 10
8.236440109363229
 20
41.77191325718488
 30
0.0
 10
8.073464067873601
 20
41.07996170309042
 30
0.0
 10
8.007035995439764
 20
40.3638923215899
 30
0.0
 10
7.98103501985804
 20
39.60493317412716
 30
0.0
 10
8.107710769833204
 20
38.92055182387923
 30
0.0
 10
8.442098079777224
 20
38.21445924826959
 30
0.0
 10
9.036296716232907
 20
37.66873436641545
 30
0.0
 10
9.909689132144507
 20
37.42421376773082
 30
0.0
 10
10.75775873959412
 20
37.35554609345542
 30
0.0
 10
11.56487972715851
 20
37.38454149767491
 30
0.0
 10
12.23983007222788
 20
37.44815687239099
 30
0.0
 10
12.66077873273661
 20
37.49837935861893
 30
0.0
 10
12.86026661033734
 20
37.52234731786496
 30
0.0
1001
AcDbBlockRepETag
1070
     1
1071
      596
1005
5BB2
  0
SPLINE
  5
5BB3
102
{ACAD_REACTORS
330
5BE8
330
5BE9
102
}
330
5BAA
100
AcDbEntity
  8
APL Border
 62
     8
100
AcDbSpline
210
0.0
220
0.0
230
1.0
 70
     8
 71
     3
 72
    19
 73
    15
 74
     0
 42
0.0000000001
 43
0.0000000001
 40
1.529304964685563
 40
1.529304964685563
 40
1.529304964685563
 40
1.529304965389289
 40
2.032016958536417
 40
2.556791262130423
 40
2.964493033520332
 40
3.465275586793771
 40
4.160836826595903
 40
4.71800698457321
 40
5.304510401169525
 40
5.733359288828643
 40
6.099728421126306
 40
6.422629926283571
 40
6.722447272622213
 40
6.957123473755099
 40
6.957123473755099
 40
6.957123473755099
 40
6.957123473755099
 10
11.64369617822672
 20
42.03297741382947
 30
0.0
 10
11.47589856643677
 20
42.04574754506741
 30
0.0
 10
11.13485165915975
 20
42.01473204050012
 30
0.0
 10
10.65553906793815
 20
41.91613810684326
 30
0.0
 10
10.23036575101369
 20
41.67654609785123
 30
0.0
 10
9.854221329784113
 20
41.27113304911427
 30
0.0
 10
9.717431528044755
 20
40.66388266631498
 30
0.0
 10
9.641062203095145
 20
40.05806431643046
 30
0.0
 10
9.716968816830743
 20
39.48770259248511
 30
0.0
 10
10.00680770225198
 20
39.09661486818469
 30
0.0
 10
10.3797311442331
 20
38.98358798973799
 30
0.0
 10
10.70216182646531
 20
38.92661434152812
 30
0.0
 10
10.99026249243499
 20
38.92783484269152
 30
0.0
 10
11.24302802126629
 20
38.95177692242413
 30
0.0
 10
11.33360452536307
 20
38.96406177273881
 30
0.0
1001
AcDbBlockRepETag
1070
     1
1071
      597
1005
5BB3
  0
LWPOLYLINE
  5
5BB4
102
{ACAD_REACTORS
330
5BE5
102
}
330
5BAA
100
AcDbEntity
  8
APL Border
 62
     8
100
AcDbPolyline
 90
       12
 70
     1
 43
0.0
 10
14.13627631352983
 20
43.61979184908029
 10
18.38986203356285
 20
43.61979184908029
 10
18.21321428445671
 20
41.9726305274507
 10
15.84058876400877
 20
41.9726305274507
 10
15.75340373709809
 20
41.15966911198297
 10
17.71732334684157
 20
41.15966911198297
 10
17.56969663746741
 20
39.57967635988449
 10
15.58395939694927
 20
39.57967635988449
 10
15.5052467299167
 20
38.84571591422678
 10
17.87787225036464
 20
38.84571591422678
 10
17.72077299807506
 20
37.38083558975206
 10
13.46718727804204
 20
37.38083558975206
1001
AcDbBlockRepETag
1070
     1
1071
      599
1005
5BB4
  0
LWPOLYLINE
  5
5BB5
102
{ACAD_REACTORS
330
5BE8
330
5BE9
102
}
330
5BAA
100
AcDbEntity
  8
APL Border
 62
     8
100
AcDbPolyline
 90
        2
 70
     0
 43
0.0
 10
13.141643811855
 20
43.40554077871887
 10
13.141643811855
 20
41.76981947766621
1001
AcDbBlockRepETag
1070
     1
1071
      600
1005
5BB5
  0
LWPOLYLINE
  5
5BB6
102
{ACAD_REACTORS
330
5BE8
330
5BE9
102
}
330
5BAA
100
AcDbEntity
  8
APL Border
 62
     8
100
AcDbPolyline
 90
        6
 70
     0
 43
0.0
 10
11.33358781659778
 20
38.96390597096916
 10
11.39962533929804
 20
39.57967635988449
 10
10.96889270630695
 20
39.57967635988449
 10
11.12639005748273
 20
41.04826877857415
 10
13.23839963312048
 20
41.04826877857415
 10
12.86026661033734
 20
37.52234731786496
1001
AcDbBlockRepETag
1070
     1
1071
      601
1005
5BB6
  0
LWPOLYLINE
  5
5BB7
102
{ACAD_REACTORS
330
5BE2
102
}
330
5BAA
100
AcDbEntity
  8
APL Border
 62
     8
100
AcDbPolyline
 90
        8
 70
     1
 43
0.0
 10
3.105743226874893
 20
43.61998313276061
 10
2.929095477768755
 20
41.97282181113101
 10
1.466301152475638
 20
41.97282181113101
 10
0.9741138955425029
 20
37.38339558452146
 10
-0.867968570535281
 20
37.38102687343238
 10
-0.3755272841536326
 20
41.97282181113101
 10
-1.891167362926863
 20
41.97282181113101
 10
-1.725754035154749
 20
43.61998313276061
1001
AcDbBlockRepETag
1070
     1
1071
      604
1005
5BB7
  0
LWPOLYLINE
  5
5BB8
102
{ACAD_REACTORS
330
5BE1
102
}
330
5BAA
100
AcDbEntity
  8
APL Border
 62
     8
100
AcDbPolyline
 90
       10
 70
     1
 43
0.0
 10
-4.228474015381578
 20
40.14164596649268
 10
-3.855464624526035
 20
43.61979184908029
 10
-2.181839912298443
 20
43.61979184908029
 10
-2.850928947786229
 20
37.38083558975206
 10
-5.032306754624556
 20
37.38083558975206
 10
-6.131920885667284
 20
40.6246666384634
 10
-6.479801476178323
 20
37.38083558975206
 10
-8.135186891292875
 20
37.38083558975206
 10
-7.466097855805088
 20
43.61979184908029
 10
-5.40751765387219
 20
43.61979184908029
1001
AcDbBlockRepETag
1070
     1
1071
      605
1005
5BB8
  0
LWPOLYLINE
  5
5BB9
102
{ACAD_REACTORS
330
5BE8
102
}
330
5BAA
100
AcDbEntity
  8
APL Border
  6
Continuous
 62
     8
100
AcDbPolyline
 90
        8
 70
     1
 43
0.0
 10
-8.449177928734428
 20
37.38083558975206
 10
-9.847253547555595
 20
43.61979184908029
 10
-12.02298966350147
 20
43.61979184908029
 10
-14.82679588919473
 20
37.38083558975206
 10
-12.95240022532295
 20
37.38083558975206
 10
-12.35252874042399
 20
38.71565392391761
 10
-10.64639685172309
 20
38.71565392391761
 10
-10.34727999772013
 20
37.38083558975206
1001
AcDbBlockRepETag
1070
     1
1071
      606
1005
5BB9
  0
LWPOLYLINE
  5
5BBA
330
5BAA
100
AcDbEntity
  8
APL Border
  6
Continuous
 62
     8
100
AcDbPolyline
 90
        7
 70
     1
 43
0.0
 10
-18.99614352503855
 20
43.61979184908029
 10
-17.7875751270476
 20
37.38083558975206
 10
-15.77022638070494
 20
37.38083558975206
 10
-12.96642015501169
 20
43.61979184908029
 10
-14.7664201550117
 20
43.61979184908029
 10
-16.54136876356097
 20
39.42215966960597
 10
-17.19614352503853
 20
43.61979184908029
1001
AcDbBlockRepETag
1070
     1
1071
      608
1005
5BBA
  0
LWPOLYLINE
  5
5BBB
102
{ACAD_REACTORS
330
5BEB
102
}
330
5BAA
100
AcDbEntity
  8
APL Border
  6
Continuous
 62
     8
100
AcDbPolyline
 90
        4
 70
     1
 43
0.0
 10
16.33779773177886
 20
35.29789574745093
 10
-16.33747952551644
 20
35.29789574745093
 10
-12.98884796421711
 20
29.49789574745094
 10
12.98916617047902
 20
29.49789574745094
1001
AcDbBlockRepETag
1070
     1
1071
      609
1005
5BBB
  0
LWPOLYLINE
  5
5BBC
102
{ACAD_REACTORS
330
5BDE
102
}
330
5BAA
100
AcDbEntity
  8
APL Border
 62
     8
100
AcDbPolyline
 90
        9
 70
     1
 43
0.0
 10
7.455500104221528
 20
25.00957443408062
 10
6.800478684667126
 20
26.87985997284487
 10
7.607536311785906
 20
26.87985997284487
 10
7.963471882016364
 20
25.86355557445326
 10
8.538893993587493
 20
26.87985997284487
 10
9.414203966725494
 20
26.87985997284487
 10
8.232331174709315
 20
25.00957443408062
 10
8.120338037129926
 20
23.87985997284487
 10
7.343506966642138
 20
23.87985997284487
1001
AcDbBlockRepETag
1070
     1
1071
      611
1005
5BBC
  0
LWPOLYLINE
  5
5BBD
102
{ACAD_REACTORS
330
5BDE
102
}
330
5BAA
100
AcDbEntity
  8
APL Border
 62
     8
100
AcDbPolyline
 90
        4
 70
     1
 43
0.0
 10
12.20974330707307
 20
28.14789574745094
 10
8.850698786449385
 20
22.32985997284487
 10
-8.850380580188158
 20
22.32985997284487
 10
-12.20942510081127
 20
28.14789574745094
1001
AcDbBlockRepETag
1070
     1
1071
      613
1005
5BBD
  0
LWPOLYLINE
  5
5BBE
102
{ACAD_REACTORS
330
5BDE
102
}
330
5BAA
100
AcDbEntity
  8
APL Border
 62
     8
100
AcDbPolyline
 90
        6
 70
     0
 43
0.0
 10
5.580769717272147
 20
26.18861664944085
 10
5.137953374950967
 20
26.18861664944085
 10
4.909077041159065
 20
23.87985997284487
 10
4.132245970671277
 20
23.87985997284487
 10
4.429648034880159
 20
26.87985997284487
 10
5.793677369303878
 20
26.87985997284487
1001
AcDbBlockRepETag
1070
     1
1071
      614
1005
5BBE
  0
LWPOLYLINE
  5
5BBF
102
{ACAD_REACTORS
330
5BEB
102
}
330
5BAA
100
AcDbEntity
  8
APL Border
  6
Continuous
 62
     8
100
AcDbPolyline
 90
        4
 70
     1
 43
0.0
 10
1.119422795136273
 20
34.02289574745092
 10
0.3425917246484857
 20
34.02289574745092
 10
0.0451896604396041
 20
31.02289574745093
 10
0.8220207309273916
 20
31.02289574745093
1001
AcDbBlockRepETag
1070
     1
1071
      620
1005
5BBF
  0
LWPOLYLINE
  5
5BC0
102
{ACAD_REACTORS
330
5BDE
102
}
330
5BAA
100
AcDbEntity
  8
APL Border
 62
     8
100
AcDbPolyline
 90
        4
 70
     0
 43
0.0
 10
6.045077525535504
 20
25.1035057083981
 10
6.339444173005233
 20
23.87985997284487
 10
5.532386545886623
 20
23.87985997284487
 10
5.142141867913778
 20
25.50205881951548
1001
AcDbBlockRepETag
1070
     1
1071
      621
1005
5BC0
  0
LWPOLYLINE
  5
5BC1
102
{ACAD_REACTORS
330
5BDF
102
}
330
5BAA
100
AcDbEntity
  8
APL Border
 62
     8
100
AcDbPolyline
 90
        4
 70
     1
 43
0.0
 10
0.0001591031300165
 20
7.000275566930961
 10
3.563095122801513
 20
13.17146177711931
 10
-0.9450856774407441
 20
20.97985997284487
 10
-8.070957716782203
 20
20.97985997284487
1001
AcDbBlockRepETag
1070
     1
1071
      622
1005
5BC1
  0
LWPOLYLINE
  5
5BC2
102
{ACAD_REACTORS
330
5BE3
102
}
330
5BAA
100
AcDbEntity
  8
APL Border
 62
     8
100
AcDbPolyline
 90
        3
 70
     1
 43
0.0
 10
0.8484489512626112
 20
20.97985997284487
 10
4.459862437153191
 20
14.72470832814346
 10
8.071275923043373
 20
20.97985997284487
1001
AcDbBlockRepETag
1070
     1
1071
      623
1005
5BC2
  0
LWPOLYLINE
  5
5BC3
102
{ACAD_REACTORS
330
5BDE
102
}
330
5BAA
100
AcDbEntity
  8
APL Border
 62
     8
100
AcDbPolyline
 90
        4
 70
     0
 43
0.0
 10
-7.465264214605014
 20
24.80065518845331
 10
-7.259144283007998
 20
26.87985997284487
 10
-6.48231321252021
 20
26.87985997284487
 10
-6.679452083611295
 20
24.89125032803118
1001
AcDbBlockRepETag
1070
     1
1071
      626
1005
5BC3
  0
LWPOLYLINE
  5
5BC4
102
{ACAD_REACTORS
330
5BDE
102
}
330
5BAA
100
AcDbEntity
  8
APL Border
 62
     8
100
AcDbPolyline
 90
        4
 70
     0
 43
0.0
 10
-7.845603808282817
 20
23.89886637823479
 10
-8.399876560405061
 20
23.98304774476413
 10
-8.399876560405061
 20
24.64579492155148
 10
-7.81511791605564
 20
24.56632682606838
1001
AcDbBlockRepETag
1070
     1
1071
      627
1005
5BC4
  0
LWPOLYLINE
  5
5BC5
102
{ACAD_REACTORS
330
5BEB
102
}
330
5BAA
100
AcDbEntity
  8
APL Border
  6
Continuous
 62
     8
100
AcDbPolyline
 90
        6
 70
     1
 43
0.0
 10
-7.549934049473819
 20
34.02289574745092
 10
-8.326765119961606
 20
34.02289574745092
 10
-8.624167184170488
 20
31.02289574745093
 10
-6.770246795158442
 20
31.02289574745093
 10
-6.700109532938455
 20
31.73039516316516
 10
-7.777198851462713
 20
31.73039516316516
1001
AcDbBlockRepETag
1070
     1
1071
      628
1005
5BC5
  0
LWPOLYLINE
  5
5BC6
102
{ACAD_REACTORS
330
5BEB
102
}
330
5BAA
100
AcDbEntity
  8
APL Border
  6
Continuous
 62
     8
100
AcDbPolyline
 90
        3
 70
     1
 43
0.0
 10
-10.14693849009504
 20
33.12550842600547
 10
-10.00044093617224
 20
32.51653621849665
 10
-10.45444607654239
 20
32.51653621849665
1001
AcDbBlockRepETag
1070
     1
1071
      629
1005
5BC6
  0
LWPOLYLINE
  5
5BC7
102
{ACAD_REACTORS
330
5BEB
102
}
330
5BAA
100
AcDbEntity
  8
APL Border
  6
Continuous
 62
     8
100
AcDbPolyline
 90
        8
 70
     1
 43
0.0
 10
-8.834065309397374
 20
31.02289574745093
 10
-9.555761072109191
 20
34.02289574745092
 10
-10.50084997043805
 20
34.02289574745092
 10
-12.01573480092304
 20
31.02289574745093
 10
-11.20867717380426
 20
31.02289574745093
 10
-10.74455961985978
 20
31.94201027933759
 10
-9.862229957552528
 20
31.94201027933759
 10
-9.641122936515984
 20
31.02289574745093
1001
AcDbBlockRepETag
1070
     1
1071
      630
1005
5BC7
  0
LWPOLYLINE
  5
5BC8
102
{ACAD_REACTORS
330
5BE4
102
}
330
5BAA
100
AcDbEntity
  8
APL Border
 62
     8
100
AcDbPolyline
 90
        3
 70
     1
 43
0.0
 10
0.0000000003145431
 20
4.000000000000009
 10
23.60256143704041
 20
44.88083558975217
 10
-23.60256142783933
 20
44.88083558975206
1001
AcDbBlockRepETag
1070
     1
1071
      631
1005
5BC8
  0
LWPOLYLINE
  5
5BC9
102
{ACAD_REACTORS
330
5BE4
102
}
330
5BAA
100
AcDbEntity
  8
APL Border
 62
     8
100
AcDbPolyline
 90
        3
 70
     1
 43
0.0
 10
27.06666305249243
 20
46.88083558975206
 10
-27.06666304266244
 20
46.88083558975206
 10
-0.0000000000000284
 20
0.0000000000000238
1001
AcDbBlockRepETag
1070
     1
1071
      703
1005
5BC9
  0
LWPOLYLINE
  5
5BCA
102
{ACAD_REACTORS
330
5BE8
330
5BEA
102
}
330
5BAA
100
AcDbEntity
  8
APL Border
  6
Continuous
 62
     8
100
AcDbPolyline
 90
        8
 70
     1
 43
0.0
 10
7.980630193374565
 20
37.38083558975206
 10
6.582554574553398
 20
43.61979184908029
 10
4.406818458607517
 20
43.61979184908029
 10
1.603012232914267
 20
37.38083558975206
 10
3.477407896786047
 20
37.38083558975206
 10
4.077279381685002
 20
38.71565392391761
 10
5.783411270385897
 20
38.71565392391761
 10
6.082528124388858
 20
37.38083558975206
1001
AcDbBlockRepETag
1070
     1
1071
      760
1005
5BCA
  0
LWPOLYLINE
  5
5BCB
102
{ACAD_REACTORS
330
5BE8
330
5BEA
102
}
330
5BAA
100
AcDbEntity
  8
APL Border
  6
Continuous
 62
     8
100
AcDbPolyline
 90
        3
 70
     1
 43
0.0
 10
5.206046831612667
 20
41.69367581194667
 10
5.552066120962537
 20
40.14955389030274
 10
4.512113667606024
 20
40.14955389030274
1001
AcDbBlockRepETag
1070
     1
1071
      761
1005
5BCB
  0
LWPOLYLINE
  5
5BCC
102
{ACAD_REACTORS
330
5BEB
102
}
330
5BAA
100
AcDbEntity
  8
APL Border
  6
Continuous
 62
     8
100
AcDbPolyline
 90
        4
 70
     1
 43
0.0
 10
5.615530392135354
 20
34.02289574745092
 10
4.838699321647567
 20
34.02289574745092
 10
4.541297257438685
 20
31.02289574745093
 10
5.318128327926473
 20
31.02289574745093
1001
AcDbBlockRepETag
1070
     1
1071
      785
1005
5BCC
  0
LWPOLYLINE
  5
5BCD
102
{ACAD_REACTORS
330
5BEB
102
}
330
5BAA
100
AcDbEntity
  8
APL Border
 62
     8
100
AcDbPolyline
 90
       13
 70
     0
 43
0.0
 10
-5.535628094882099
 20
32.1870929174454
 10
-5.353790768486447
 20
34.02289574745092
 10
-6.130425112774389
 20
34.0248801943346
 10
-6.333826921263238
 20
31.9730940808461
 42
0.1695250701542156
 10
-6.106840682758871
 20
31.39301551086222
 42
0.0826087127293405
 10
-5.813961912619959
 20
31.13108995311734
 42
0.1017056431856583
 10
-5.510404689928634
 20
31.02488019433462
 10
-4.760057203160528
 20
31.0248801943346
 42
0.1918846087154957
 10
-4.136172756560569
 20
31.41919793838074
 42
0.1021851328841131
 10
-3.889225876952792
 20
31.97309408084612
 10
-3.685824068463887
 20
34.0248801943346
 10
-4.462655138951674
 20
34.0248801943346
 10
-4.65073703420694
 20
32.12763147393075
1001
AcDbBlockRepETag
1070
     1
1071
      866
1005
5BCD
  0
SPLINE
  5
5BCE
102
{ACAD_REACTORS
330
5BEB
102
}
330
5BAA
100
AcDbEntity
  8
APL Border
 62
     8
100
AcDbSpline
210
0.0
220
0.0
230
1.0
 70
     8
 71
     3
 72
    24
 73
    20
 74
    18
 42
0.0000000001
 43
0.0000000001
 44
0.0000000001
 40
0.0
 40
0.0
 40
0.0
 40
0.0
 40
0.1612668085855933
 40
0.2532303870616441
 40
0.3214574742553387
 40
0.4101806452459026
 40
0.5031588697521256
 40
0.5664511009171887
 40
0.624871878778038
 40
0.6731644290699905
 40
0.7797386132933425
 40
0.9206747739903356
 40
1.025058962643435
 40
1.116412352300609
 40
1.212929457806147
 40
1.276240530363035
 40
1.339961572016457
 40
1.386280507025952
 40
1.435584820291647
 40
1.435584820291647
 40
1.435584820291647
 40
1.435584820291647
 10
-5.535628094882099
 20
32.1870929174454
 30
0.0
 10
-5.53213414748617
 20
32.13312332644234
 30
0.0
 10
-5.526647751003197
 20
32.04837718097616
 30
0.0
 10
-5.488860432547518
 20
31.94683424540268
 30
0.0
 10
-5.447171648840961
 20
31.8753242559261
 30
0.0
 10
-5.395818187958767
 20
31.80737001333622
 30
0.0
 10
-5.320761662408248
 20
31.77062767698265
 30
0.0
 10
-5.254477128417399
 20
31.74466351916423
 30
0.0
 10
-5.200112096792143
 20
31.72723210184819
 30
0.0
 10
-5.128888988289486
 20
31.72198763189771
 30
0.0
 10
-5.030042811850907
 20
31.72786870372271
 30
0.0
 10
-4.915707066470194
 20
31.75812586881066
 30
0.0
 10
-4.815771266393483
 20
31.81405298527761
 30
0.0
 10
-4.754740567305573
 20
31.89193427605802
 30
0.0
 10
-4.714673995441981
 20
31.96546823314959
 30
0.0
 10
-4.683526695854578
 20
32.03313813212702
 30
0.0
 10
-4.662006183068958
 20
32.08703079743258
 30
0.0
 10
-4.651792807669443
 20
32.13930455656534
 30
0.0
 10
-4.647206914869654
 20
32.17083533130903
 30
0.0
 10
-4.644842382192905
 20
32.1870929174454
 30
0.0
 11
-5.535628094882099
 21
32.1870929174454
 31
0.0
 11
-5.515298846223288
 21
32.02711258990369
 31
0.0
 11
-5.483433995220536
 21
31.94084596230824
 31
0.0
 11
-5.44947766231354
 21
31.88166908437061
 31
0.0
 11
-5.392321718875223
 21
31.8138089399536
 31
0.0
 11
-5.311535231450477
 21
31.76778184269665
 31
0.0
 11
-5.252609732475718
 21
31.74468006578604
 31
0.0
 11
-5.196420818688864
 21
31.72868652792477
 31
0.0
 11
-5.148347479287053
 21
31.72409039341204
 31
0.0
 11
-5.041949649235618
 21
31.73021889267523
 31
0.0
 11
-4.906104524581394
 21
31.76775692005663
 31
0.0
 11
-4.816802280674096
 21
31.82180475140893
 31
0.0
 11
-4.758009512288197
 21
31.89172507883507
 31
0.0
 11
-4.710553499371997
 21
31.97576958188711
 31
0.0
 11
-4.684063009443377
 21
32.03327215445256
 31
0.0
 11
-4.662061522518769
 21
32.09307437617135
 31
0.0
 11
-4.652346246099511
 21
32.13836297456555
 31
0.0
 11
-4.644842382192905
 21
32.1870929174454
 31
0.0
1001
AcDbBlockRepETag
1070
     1
1071
      827
1005
5BCE
  0
LWPOLYLINE
  5
5BCF
102
{ACAD_REACTORS
330
5BEB
102
}
330
5BAA
100
AcDbEntity
  8
APL Border
 62
     8
100
AcDbPolyline
 90
       13
 70
     0
 43
0.0
 10
6.787553510813182
 20
32.18510847056172
 10
6.969390837208834
 20
34.02091130056725
 10
6.192756492920892
 20
34.02289574745092
 10
5.989354684432043
 20
31.97110963396243
 42
0.1695250701542156
 10
6.21634092293641
 20
31.39103106397854
 42
0.0826087127293405
 10
6.509219693075323
 20
31.12910550623367
 42
0.1017056431856583
 10
6.812776915766647
 20
31.02289574745094
 10
7.563124402534754
 20
31.02289574745093
 42
0.1918846087154957
 10
8.187008849134713
 20
31.41721349149707
 42
0.1021851328841131
 10
8.433955728742489
 20
31.97110963396244
 10
8.637357537231395
 20
34.02289574745092
 10
7.860526466743607
 20
34.02289574745092
 10
7.672444571488341
 20
32.12564702704707
1001
AcDbBlockRepETag
1070
     1
1071
      837
1005
5BCF
  0
LWPOLYLINE
  5
5BD0
102
{ACAD_REACTORS
330
5BEB
102
}
330
5BAA
100
AcDbEntity
  8
APL Border
  6
Continuous
 62
     8
100
AcDbPolyline
 90
       13
 70
     1
 43
0.0
 10
-1.295012624591635
 20
34.02807364104484
 10
-0.1975458970834154
 20
34.0280551402308
 10
-0.4949479612922972
 20
31.0280551402308
 10
-1.115886909891884
 20
31.0280551402308
 10
-0.9222174129992311
 20
32.98166797820307
 10
-1.611942464131544
 20
31.0280551402308
 10
-2.344230471214956
 20
31.0280551402308
 10
-2.63016252924163
 20
32.98166797820306
 10
-2.823832026134283
 20
31.0280551402308
 10
-3.44477097473387
 20
31.0280551402308
 10
-3.147349004861581
 20
34.02825593571061
 10
-2.047349004861558
 20
34.02825593571061
 10
-1.8272453185659
 20
32.52441131541936
1001
AcDbBlockRepETag
1070
     1
1071
      867
1005
5BD0
  0
LWPOLYLINE
  5
5BD1
102
{ACAD_REACTORS
330
5BEB
102
}
330
5BAA
100
AcDbEntity
  8
APL Border
  6
Continuous
 62
     8
100
AcDbPolyline
 90
       10
 70
     1
 43
0.0
 10
1.724974710806094
 20
34.02289574745092
 10
1.427552740933805
 20
31.02269495197112
 10
2.048491689533392
 20
31.02269495197112
 10
2.231899581960561
 20
32.87279534971117
 10
3.051434648859952
 20
31.02269495197112
 10
3.902826396438257
 20
31.02269495197112
 10
4.200228460647139
 20
34.02269495197112
 10
3.580266230192904
 20
34.02269495197112
 10
3.395920304875374
 20
32.17298478610545
 10
2.576558098165463
 20
34.02269495197112
1001
AcDbBlockRepETag
1070
     1
1071
      616
1005
5BD1
  0
LWPOLYLINE
  5
5BD2
102
{ACAD_REACTORS
330
5BEB
102
}
330
5BAA
100
AcDbEntity
  8
APL Border
  6
Continuous
 62
     8
100
AcDbPolyline
 90
       13
 70
     1
 43
0.0
 10
11.01183437133605
 20
34.02271345278515
 10
12.10930109884427
 20
34.02269495197111
 10
11.81189903463539
 20
31.02269495197111
 10
11.1909600860358
 20
31.02269495197111
 10
11.38462958292845
 20
32.97630778994339
 10
10.69490453179614
 20
31.02269495197111
 10
9.962616524712728
 20
31.02269495197111
 10
9.676684466686054
 20
32.97630778994338
 10
9.483014969793401
 20
31.02269495197111
 10
8.862076021193814
 20
31.02269495197111
 10
9.159497991066103
 20
34.02289574745092
 10
10.25949799106612
 20
34.02289574745092
 10
10.47960167736178
 20
32.51905112715967
1001
AcDbBlockRepETag
1070
     1
1071
      847
1005
5BD2
  0
SPLINE
  5
5BD3
102
{ACAD_REACTORS
330
5BEB
102
}
330
5BAA
100
AcDbEntity
  8
APL Border
 62
     8
100
AcDbSpline
210
0.0
220
0.0
230
1.0
 70
     8
 71
     3
 72
    24
 73
    20
 74
    18
 42
0.0000000001
 43
0.0000000001
 44
0.0000000001
 40
0.0
 40
0.0
 40
0.0
 40
0.0
 40
0.1612668085856004
 40
0.2532303870616512
 40
0.3214574742553458
 40
0.4101806452458731
 40
0.5031588697521455
 40
0.5664511009172086
 40
0.6248718787780579
 40
0.6731644290699537
 40
0.7797386132933625
 40
0.9206747739903555
 40
1.025058962643406
 40
1.116412352300617
 40
1.212929457806155
 40
1.276240530363043
 40
1.339961572016455
 40
1.386280507025956
 40
1.435584820291643
 40
1.435584820291643
 40
1.435584820291643
 40
1.435584820291643
 10
6.787553510813182
 20
32.18510847056172
 30
0.0
 10
6.791047458209138
 20
32.13113887955867
 30
0.0
 10
6.796533854692151
 20
32.04639273409249
 30
0.0
 10
6.834321173147815
 20
31.94484979851901
 30
0.0
 10
6.876009956854381
 20
31.87333980904243
 30
0.0
 10
6.927363417736518
 20
31.80538556645249
 30
0.0
 10
7.002419943287081
 20
31.76864323009899
 30
0.0
 10
7.068704477277941
 20
31.74267907228054
 30
0.0
 10
7.123069508903178
 20
31.72524765496453
 30
0.0
 10
7.194292617405833
 20
31.72000318501402
 30
0.0
 10
7.293138793844411
 20
31.72588425683905
 30
0.0
 10
7.407474539225143
 20
31.75614142192696
 30
0.0
 10
7.507410339301799
 20
31.81206853839397
 30
0.0
 10
7.568441038389779
 20
31.88994982917432
 30
0.0
 10
7.608507610253345
 20
31.96348378626594
 30
0.0
 10
7.639654909840773
 20
32.03115368524333
 30
0.0
 10
7.661175422626328
 20
32.08504635054892
 30
0.0
 10
7.671388798025919
 20
32.13732010968165
 30
0.0
 10
7.675974690825655
 20
32.16885088442535
 30
0.0
 10
7.678339223502376
 20
32.18510847056172
 30
0.0
 11
6.787553510813182
 21
32.18510847056172
 31
0.0
 11
6.80788275947205
 21
32.02512814302002
 31
0.0
 11
6.839747610474802
 21
31.93886151542456
 31
0.0
 11
6.873703943381798
 21
31.87968463748693
 31
0.0
 11
6.930859886820059
 21
31.81182449306993
 31
0.0
 11
7.011646374244861
 21
31.76579739581298
 31
0.0
 11
7.07057187321962
 21
31.74269561890237
 31
0.0
 11
7.126760787006475
 21
31.72670208104109
 31
0.0
 11
7.174834126408228
 21
31.72210594652836
 31
0.0
 11
7.28123195645972
 21
31.72823444579155
 31
0.0
 11
7.417077081113944
 21
31.76577247317295
 31
0.0
 11
7.506379325021185
 21
31.81982030452526
 31
0.0
 11
7.565172093407142
 21
31.88974063195139
 31
0.0
 11
7.612628106323342
 21
31.97378513500343
 31
0.0
 11
7.639118596251961
 21
32.03128770756889
 31
0.0
 11
7.661120083176541
 21
32.09108992928768
 31
0.0
 11
7.670835359595827
 21
32.13637852768188
 31
0.0
 11
7.678339223502376
 21
32.18510847056172
 31
0.0
1001
AcDbBlockRepETag
1070
     1
1071
      848
1005
5BD3
  0
LWPOLYLINE
  5
5BD4
102
{ACAD_REACTORS
330
5BDE
102
}
330
5BAA
100
AcDbEntity
  8
APL Border
  6
Continuous
 62
     8
100
AcDbPolyline
 90
        4
 70
     1
 43
0.0
 10
-1.87552020613694
 20
26.87985997284487
 10
-2.652351276624727
 20
26.87985997284487
 10
-2.949753340833609
 20
23.87985997284487
 10
-2.172922270345821
 20
23.87985997284487
1001
AcDbBlockRepETag
1070
     1
1071
      851
1005
5BD4
  0
LWPOLYLINE
  5
5BD5
102
{ACAD_REACTORS
330
5BDE
102
}
330
5BAA
100
AcDbEntity
  8
APL Border
  6
Continuous
 62
     8
100
AcDbPolyline
 90
       10
 70
     1
 43
0.0
 10
-1.269968290467119
 20
26.87985997284487
 10
-1.567390260339408
 20
23.87965917736506
 10
-0.9464513117398212
 20
23.87965917736506
 10
-0.7630434193126519
 20
25.72975957510511
 10
0.0564916475867392
 20
23.87965917736506
 10
0.9078833951650437
 20
23.87965917736506
 10
1.205285459373925
 20
26.87965917736506
 10
0.5853232289196911
 20
26.87965917736506
 10
0.4009773036021614
 20
25.0299490114994
 10
-0.41838490310775
 20
26.87965917736506
1001
AcDbBlockRepETag
1070
     1
1071
      852
1005
5BD5
  0
LWPOLYLINE
  5
5BD6
102
{ACAD_REACTORS
330
5BDE
102
}
330
5BAA
100
AcDbEntity
  8
APL Border
 62
     8
100
AcDbPolyline
 90
       13
 70
     0
 43
0.0
 10
1.882971499788112
 20
26.87985997284487
 10
3.847979515363789
 20
26.87985997284487
 10
3.788499102522024
 20
26.27985997284487
 10
2.600322157434135
 20
26.27985997284487
 10
2.540562294183217
 20
25.67704105755032
 10
3.542578834455781
 20
25.67704105755032
 10
3.476410183919
 20
25.07985997284487
 10
2.474393643646379
 20
25.07985997284487
 10
2.421932428393546
 20
24.48037956726917
 10
3.610109373481435
 20
24.48037956726917
 10
3.550577451154907
 20
23.87985997284487
 10
1.58556943557923
 20
23.87985997284487
 10
1.882971499788112
 20
26.87985997284487
1001
AcDbBlockRepETag
1070
     1
1071
      864
1005
5BD6
  0
LINE
  5
5BD7
102
{ACAD_REACTORS
330
5BDE
102
}
330
5BAA
100
AcDbEntity
  8
APL Border
 62
     8
100
AcDbLine
 10
5.198870965514487
 20
25.50205881951548
 30
0.0
 11
5.142141867913778
 21
25.50205881951548
 31
0.0
1001
AcDbBlockRepETag
1070
     1
1071
      865
1005
5BD7
  0
SPLINE
  5
5BD8
102
{ACAD_REACTORS
330
5BDE
102
}
330
5BAA
100
AcDbEntity
  8
APL Border
 62
     8
100
AcDbSpline
210
0.0
220
0.0
230
1.0
 70
     8
 71
     3
 72
    25
 73
    21
 74
     0
 42
0.0000000001
 43
0.0000000001
 40
0.0
 40
0.0
 40
0.0
 40
0.0
 40
0.3463130802699203
 40
0.6043703055549736
 40
0.8524756959462802
 40
1.099102870182333
 40
1.318598063912852
 40
1.521064627602771
 40
1.694788988362445
 40
1.912615757663666
 40
2.142780600046976
 40
2.483378398179008
 40
2.873129106540456
 40
3.09179617846886
 40
3.322387155839943
 40
3.509181810940893
 40
3.69147909649244
 40
3.927844502409028
 40
4.143063657146388
 40
4.406491840702669
 40
4.406491840702669
 40
4.406491840702669
 40
4.406491840702669
 10
-5.114032196843737
 20
23.8798599728377
 30
0.0
 10
-5.228982970363915
 20
23.89503832123493
 30
0.0
 10
-5.429589987754155
 20
23.92152690506636
 30
0.0
 10
-5.693675021857103
 20
24.03567408988205
 30
0.0
 10
-5.892941488864977
 20
24.19306688135278
 30
0.0
 10
-6.036314150572081
 20
24.38541826526996
 30
0.0
 10
-6.137502326421099
 20
24.58575647986304
 30
0.0
 10
-6.184089306330008
 20
24.77995730666768
 30
0.0
 10
-6.209030826709039
 20
24.97670983726675
 30
0.0
 10
-6.206060891535827
 20
25.18442176502657
 30
0.0
 10
-6.186178297010457
 20
25.44676950423098
 30
0.0
 10
-6.128537036390639
 20
25.76177491648128
 30
0.0
 10
-6.024273636684796
 20
26.06592307272473
 30
0.0
 10
-5.858617591962229
 20
26.29271170654482
 30
0.0
 10
-5.725334295882049
 20
26.45803039682342
 30
0.0
 10
-5.575727893531166
 20
26.59168695454355
 30
0.0
 10
-5.409633372236157
 20
26.70740493083671
 30
0.0
 10
-5.217340570729675
 20
26.79721770551459
 30
0.0
 10
-4.988026372094168
 20
26.86731869684436
 30
0.0
 10
-4.849424991220388
 20
26.87777876054341
 30
0.0
 10
-4.7645039250757
 20
26.87985997283595
 30
0.0
1001
AcDbBlockRepETag
1070
     1
1071
      875
1005
5BD8
  0
ELLIPSE
  5
5BD9
102
{ACAD_REACTORS
330
5BDD
330
5BDE
102
}
330
5BAA
100
AcDbEntity
  8
APL Border
 62
     8
100
AcDbEllipse
 10
-4.728528852722632
 20
25.3825150979867
 30
0.0
 11
-0.2732326585474372
 21
-0.8283682112856686
 31
0.0
210
0.0
220
0.0
230
-1.0
 40
0.767138872147242
 41
0.0
 42
6.283185307179586
1001
AcDbBlockRepETag
1070
     1
1071
      876
1005
5BD9
  0
SPLINE
  5
5BDA
102
{ACAD_REACTORS
330
5BDE
102
}
330
5BAA
100
AcDbEntity
  8
APL Border
 62
     8
100
AcDbSpline
210
0.0
220
0.0
230
1.0
 70
     8
 71
     3
 72
    26
 73
    22
 74
     0
 42
0.0000000001
 43
0.0000000001
 40
4.60284491300692
 40
4.60284491300692
 40
4.60284491300692
 40
4.60284491300692
 40
4.695921259854779
 40
4.963507654731998
 40
5.182979392648435
 40
5.397234555269768
 40
5.619529682274728
 40
5.869260387557257
 40
6.093250787730498
 40
6.263427758207029
 40
6.582064557968705
 40
6.800458868269094
 40
7.179401531729983
 40
7.575889850719137
 40
7.787844664578662
 40
8.01909420716162
 40
8.205730502580088
 40
8.387453763945252
 40
8.621856230932909
 40
8.833419194479944
 40
8.988019761194074
 40
8.988019761194074
 40
8.988019761194074
 40
8.988019761194074
 10
-4.486699891621668
 20
26.8798599728377
 30
0.0
 10
-4.440001835107608
 20
26.87954742494388
 30
0.0
 10
-4.335540249228728
 20
26.87475925711838
 30
0.0
 10
-4.164200665084621
 20
26.85307202884131
 30
0.0
 10
-3.96932086400659
 20
26.77880589501945
 30
0.0
 10
-3.766465201232762
 20
26.6658847706859
 30
0.0
 10
-3.60114437794968
 20
26.50570040783856
 30
0.0
 10
-3.471205788265336
 20
26.31143584383913
 30
0.0
 10
-3.381388817883674
 20
26.11392472080339
 30
0.0
 10
-3.317144182132551
 20
25.88552622199355
 30
0.0
 10
-3.281793375658168
 20
25.65006475492956
 30
0.0
 10
-3.30137826591374
 20
25.34538614523087
 30
0.0
 10
-3.327064239225308
 20
25.0112478652753
 30
0.0
 10
-3.471288581215731
 20
24.71021445059323
 30
0.0
 10
-3.60460091530777
 20
24.4641890220082
 30
0.0
 10
-3.737092402415015
 20
24.29954990084814
 30
0.0
 10
-3.882945983371143
 20
24.16225529150343
 30
0.0
 10
-4.046861838463826
 20
24.04508050911121
 30
0.0
 10
-4.233796525969012
 20
23.94884265716423
 30
0.0
 10
-4.427631511903911
 20
23.89220734010023
 30
0.0
 10
-4.549580407823555
 20
23.882511578974
 30
0.0
 10
-4.601116794093542
 20
23.87985997285202
 30
0.0
1001
AcDbBlockRepETag
1070
     1
1071
      877
1005
5BDA
  0
LWPOLYLINE
  5
5BDB
102
{ACAD_REACTORS
330
5BDE
102
}
330
5BAA
100
AcDbEntity
  8
APL Border
 62
     8
100
AcDbPolyline
 90
        2
 70
     0
 43
0.0
 10
-4.764503925211641
 20
26.8798599728377
 10
-4.486699891621924
 20
26.8798599728377
1001
AcDbBlockRepETag
1070
     1
1071
      878
1005
5BDB
  0
LWPOLYLINE
  5
5BDC
102
{ACAD_REACTORS
330
5BDE
102
}
330
5BAA
100
AcDbEntity
  8
APL Border
 62
     8
100
AcDbPolyline
 90
        2
 70
     0
 43
0.0
 10
-5.114032196843737
 20
23.8798599728377
 10
-4.601116794093513
 20
23.87985997285202
1001
AcDbBlockRepETag
1070
     1
1071
      879
1005
5BDC
  0
HATCH
  5
5BDD
330
5BAA
100
AcDbEntity
  8
APL Border
 62
     8
100
AcDbHatch
 10
0.0
 20
0.0
 30
0.0
210
0.0
220
0.0
230
1.0
  2
SOLID
 70
     1
 71
     1
 91
        1
 92
        5
 93
        1
 72
     3
 10
-4.728528852722632
 20
25.3825150979867
 11
-0.2732326585474372
 21
-0.8283682112856686
 40
0.767138872147242
 50
0.0
 51
360.0
 73
     0
 97
        1
330
5BD9
 75
     0
 76
     1
 47
0.0172809346375552
 98
        1
 10
-4.520972790815363
 20
25.15086651129009
1001
ACAD
1010
0.0
1020
0.0
1030
0.0
1001
AcDbBlockRepETag
1070
     1
1071
      880
1005
5BDD
  0
HATCH
  5
5BDE
330
5BAA
100
AcDbEntity
  8
APL Border
 62
     8
100
AcDbHatch
 10
0.0
 20
0.0
 30
0.0
210
0.0
220
0.0
230
1.0
  2
SOLID
 70
     1
 71
     1
 91
        9
 92
        7
 72
     0
 73
     1
 93
        4
 10
-12.20942510081127
 20
28.14789574745095
 10
-8.85038058018816
 20
22.32985997284487
 10
8.850698786449385
 20
22.32985997284487
 10
12.20974330707306
 20
28.14789574745094
 97
        1
330
5BBD
 92
       20
 93
        4
 72
     4
 94
        3
 73
     0
 74
     0
 95
       25
 96
       21
 40
0.0
 40
0.0
 40
0.0
 40
0.0
 40
0.3463130802699203
 40
0.6043703055549736
 40
0.8524756959462802
 40
1.099102870182333
 40
1.318598063912852
 40
1.521064627602771
 40
1.694788988362445
 40
1.912615757663666
 40
2.142780600046976
 40
2.483378398179008
 40
2.873129106540456
 40
3.09179617846886
 40
3.322387155839943
 40
3.509181810940893
 40
3.69147909649244
 40
3.927844502409028
 40
4.143063657146388
 40
4.406491840702669
 40
4.406491840702669
 40
4.406491840702669
 40
4.406491840702669
 10
-5.114032196843737
 20
23.8798599728377
 10
-5.228982970363915
 20
23.89503832123493
 10
-5.429589987754155
 20
23.92152690506636
 10
-5.693675021857103
 20
24.03567408988205
 10
-5.892941488864977
 20
24.19306688135278
 10
-6.036314150572081
 20
24.38541826526996
 10
-6.137502326421099
 20
24.58575647986304
 10
-6.184089306330008
 20
24.77995730666768
 10
-6.209030826709039
 20
24.97670983726675
 10
-6.206060891535827
 20
25.18442176502657
 10
-6.186178297010457
 20
25.44676950423098
 10
-6.128537036390639
 20
25.76177491648128
 10
-6.024273636684796
 20
26.06592307272473
 10
-5.858617591962229
 20
26.29271170654482
 10
-5.725334295882049
 20
26.45803039682342
 10
-5.575727893531166
 20
26.59168695454355
 10
-5.409633372236157
 20
26.70740493083671
 10
-5.217340570729675
 20
26.79721770551459
 10
-4.988026372094168
 20
26.86731869684436
 10
-4.849424991220388
 20
26.87777876054341
 10
-4.7645039250757
 20
26.87985997283595
 72
     1
 10
-4.764503925020689
 20
26.87985997283771
 11
-4.486699891621347
 21
26.8798599728377
 72
     4
 94
        3
 73
     0
 74
     0
 95
       26
 96
       22
 40
4.60284491300692
 40
4.60284491300692
 40
4.60284491300692
 40
4.60284491300692
 40
4.695921259854779
 40
4.963507654731998
 40
5.182979392648435
 40
5.397234555269768
 40
5.619529682274728
 40
5.869260387557257
 40
6.093250787730498
 40
6.263427758207029
 40
6.582064557968705
 40
6.800458868269094
 40
7.179401531729983
 40
7.575889850719137
 40
7.787844664578662
 40
8.01909420716162
 40
8.205730502580088
 40
8.387453763945252
 40
8.621856230932909
 40
8.833419194479944
 40
8.988019761194074
 40
8.988019761194074
 40
8.988019761194074
 40
8.988019761194074
 10
-4.486699891621668
 20
26.8798599728377
 10
-4.440001835107608
 20
26.87954742494388
 10
-4.335540249228728
 20
26.87475925711838
 10
-4.164200665084621
 20
26.85307202884131
 10
-3.96932086400659
 20
26.77880589501945
 10
-3.766465201232762
 20
26.6658847706859
 10
-3.60114437794968
 20
26.50570040783856
 10
-3.471205788265336
 20
26.31143584383913
 10
-3.381388817883674
 20
26.11392472080339
 10
-3.317144182132551
 20
25.88552622199355
 10
-3.281793375658168
 20
25.65006475492956
 10
-3.30137826591374
 20
25.34538614523087
 10
-3.327064239225308
 20
25.0112478652753
 10
-3.471288581215731
 20
24.71021445059323
 10
-3.60460091530777
 20
24.4641890220082
 10
-3.737092402415015
 20
24.29954990084814
 10
-3.882945983371143
 20
24.16225529150343
 10
-4.046861838463826
 20
24.04508050911121
 10
-4.233796525969012
 20
23.94884265716423
 10
-4.427631511903911
 20
23.89220734010023
 10
-4.549580407823555
 20
23.882511578974
 10
-4.601116794093542
 20
23.87985997285202
 72
     1
 10
-4.601116794093525
 20
23.87985997285202
 11
-5.114032196843729
 21
23.8798599728377
 97
        4
330
5BD8
330
5BDB
330
5BDA
330
5BDC
 92
        4
 93
        1
 72
     3
 10
-4.728528852722632
 20
25.3825150979867
 11
-0.2732326585474372
 21
-0.8283682112856686
 40
0.767138872147242
 50
0.0
 51
360.0
 73
     0
 97
        1
330
5BD9
 92
       20
 93
        8
 72
     1
 10
-6.482313212520211
 20
26.87985997284487
 11
-6.679452083611267
 21
24.89125032803125
 72
     4
 94
        3
 73
     0
 74
     0
 95
       16
 96
       12
 40
0.0
 40
0.0
 40
0.0
 40
0.0
 40
0.1978277931646383
 40
0.361463118001824
 40
0.5540499897785108
 40
0.7796220130725381
 40
0.979106605438038
 40
1.222151590302332
 40
1.40748727220097
 40
1.607226525619232
 40
1.815049166761618
 40
1.815049166761618
 40
1.815049166761618
 40
1.815049166761618
 10
-6.679452083611295
 20
24.89125032803118
 10
-6.685371732996685
 20
24.82559351525052
 10
-6.696187882184318
 20
24.70562798418881
 10
-6.721757155054632
 20
24.52229576436942
 10
-6.768469983285655
 20
24.33480615160982
 10
-6.860719723390843
 20
24.14153771241002
 10
-7.051789745146265
 20
24.01851519430106
 10
-7.233921808197266
 20
23.91285203345821
 10
-7.443451931375136
 20
23.87675735439051
 10
-7.641222718647384
 20
23.88093312949101
 10
-7.776581895343355
 20
23.89281010788354
 10
-7.845603808282817
 20
23.89886637823479
 72
     1
 10
-7.845603808282787
 20
23.89886637823479
 11
-8.399876560405061
 21
23.98304774476413
 72
     1
 10
-8.399876560405061
 20
23.98304774476413
 11
-8.399876560405061
 21
24.64579492155148
 72
     1
 10
-8.399876560405061
 20
24.64579492155148
 11
-7.815117916056302
 21
24.56632682606845
 72
     4
 94
        3
 73
     0
 74
     0
 95
       11
 96
        7
 40
0.0
 40
0.0
 40
0.0
 40
0.0
 40
0.2042619346961744
 40
0.3074129668363174
 40
0.4146012126853764
 40
0.4826852714337078
 40
0.4826852714337078
 40
0.4826852714337078
 40
0.4826852714337078
 10
-7.815117916056323
 20
24.56632682606847
 10
-7.743266182308218
 20
24.55714977626708
 10
-7.635129760920136
 20
24.54333837224583
 10
-7.524447891091284
 20
24.63752792323729
 10
-7.477352395049535
 20
24.71998790389099
 10
-7.468646137215245
 20
24.77808681972154
 10
-7.465264214605014
 20
24.80065518845331
 72
     1
 10
-7.465264214605014
 20
24.80065518845333
 11
-7.259144283007996
 21
26.87985997284487
 72
     1
 10
-7.259144283007996
 20
26.87985997284487
 11
-6.482313212520211
 21
26.87985997284487
 97
        4
330
5BC3
330
5BAE
330
5BC4
330
5BAF
 92
       22
 72
     0
 73
     1
 93
        4
 10
-2.652351276624725
 20
26.87985997284486
 10
-1.87552020613694
 20
26.87985997284486
 10
-2.172922270345821
 20
23.87985997284487
 10
-2.949753340833609
 20
23.87985997284487
 97
        1
330
5BD4
 92
       22
 72
     0
 73
     1
 93
       10
 10
-1.269968290467114
 20
26.87985997284487
 10
-0.4183849031077484
 20
26.87965917736506
 10
0.4009773036021615
 20
25.0299490114994
 10
0.5853232289196909
 20
26.87965917736506
 10
1.205285459373925
 20
26.87965917736506
 10
0.9078833951650439
 20
23.87965917736506
 10
0.056491647586738
 20
23.87965917736506
 10
-0.7630434193126518
 20
25.72975957510511
 10
-0.946451311739821
 20
23.87965917736506
 10
-1.567390260339408
 20
23.87965917736506
 97
        1
330
5BD5
 92
       22
 72
     0
 73
     1
 93
       12
 10
1.882971499788112
 20
26.87985997284486
 10
3.847979515363789
 20
26.87985997284486
 10
3.788499102522024
 20
26.27985997284486
 10
2.600322157434135
 20
26.27985997284487
 10
2.540562294183218
 20
25.67704105755032
 10
3.542578834455781
 20
25.67704105755032
 10
3.476410183919
 20
25.07985997284487
 10
2.47439364364638
 20
25.07985997284487
 10
2.421932428393546
 20
24.48037956726917
 10
3.610109373481436
 20
24.48037956726917
 10
3.550577451154907
 20
23.87985997284487
 10
1.585569435579231
 20
23.87985997284487
 97
        1
330
5BD6
 92
       20
 93
       11
 72
     1
 10
4.429648034880159
 20
26.87985997284486
 11
5.780015564168562
 21
26.87985997284487
 72
     4
 94
        3
 73
     0
 74
     0
 95
       20
 96
       16
 40
0.0
 40
0.0
 40
0.0
 40
0.0
 40
0.1774120264923274
 40
0.3258093286713144
 40
0.4834060703451958
 40
0.6311237014699663
 40
0.811161917566129
 40
0.9605198197290178
 40
1.289502400757101
 40
1.459697744220917
 40
1.604754171475458
 40
1.794797311213428
 40
2.030760379210173
 40
2.301729078160567
 40
2.393267743077617
 40
2.393267743077617
 40
2.393267743077617
 40
2.393267743077617
 10
5.780015564168593
 20
26.87985997284487
 10
5.839056126904296
 20
26.87337384475878
 10
5.947481505327601
 20
26.86146235781404
 10
6.098807931884806
 20
26.80185114122353
 10
6.227972759762906
 20
26.72168911843352
 10
6.347510602881385
 20
26.61140356622764
 10
6.442310149474394
 20
26.48207375794227
 10
6.536759215535255
 20
26.28338234239492
 10
6.578465181725675
 20
26.06469589684353
 10
6.553150099427256
 20
25.85079503063701
 10
6.524121382020268
 20
25.68499989147718
 10
6.464236525716046
 20
25.50199988960434
 10
6.327150620479812
 20
25.31187331731421
 10
6.179477266233362
 20
25.17172660684537
 10
6.072729148555964
 20
25.11631253421805
 10
6.045077525535504
 20
25.10350570839811
 72
     1
 10
6.045077525535502
 20
25.1035057083981
 11
6.339444173005232
 21
23.87985997284487
 72
     1
 10
6.339444173005232
 20
23.87985997284487
 11
5.532386545886621
 21
23.87985997284487
 72
     1
 10
5.532386545886621
 20
23.87985997284487
 11
5.142141867913776
 21
25.50205881951548
 72
     1
 10
5.142141867913776
 20
25.50205881951548
 11
5.19887096551445
 21
25.50205881951548
 72
     4
 94
        3
 73
     0
 74
     0
 95
       17
 96
       13
 40
0.0
 40
0.0
 40
0.0
 40
0.0
 40
0.0463117202933683
 40
0.2032408426961212
 40
0.3585694343029505
 40
0.4964057577712057
 40
0.6456565825699876
 40
0.7595770154256244
 40
0.9262943680254526
 40
1.032180609131101
 40
1.14647028625934
 40
1.243973057737614
 40
1.243973057737614
 40
1.243973057737614
 40
1.243973057737614
 10
5.198870965514487
 20
25.50205881951548
 10
5.214272018053407
 20
25.50302975767877
 10
5.28186015506489
 20
25.50729075876586
 10
5.40176083940824
 20
25.51345804330556
 10
5.546675458142118
 20
25.55725132865025
 10
5.67725421213268
 20
25.62965962372397
 10
5.765298612935083
 20
25.7349784962169
 10
5.820388894698254
 20
25.86817511516085
 10
5.832561030472788
 20
26.0011917111029
 10
5.781919321100474
 20
26.1258482190374
 10
5.684603990133524
 20
26.18537947021099
 10
5.613502616848251
 20
26.1875961553427
 10
5.580769717272147
 20
26.18861664944085
 72
     1
 10
5.580769717272125
 20
26.18861664944085
 11
5.137953374950967
 21
26.18861664944085
 72
     1
 10
5.137953374950967
 20
26.18861664944085
 11
4.909077041159065
 21
23.87985997284487
 72
     1
 10
4.909077041159065
 20
23.87985997284487
 11
4.132245970671278
 21
23.87985997284487
 72
     1
 10
4.132245970671278
 20
23.87985997284487
 11
4.429648034880159
 21
26.87985997284486
 97
        5
330
5BBE
330
5BB0
330
5BC0
330
5BD7
330
5BB1
 92
       22
 72
     0
 73
     1
 93
        9
 10
6.800478684667179
 20
26.87985997284487
 10
7.607536311785904
 20
26.87985997284487
 10
7.963471882016363
 20
25.86355557445326
 10
8.538893993587493
 20
26.87985997284487
 10
9.414203966725493
 20
26.87985997284487
 10
8.232331174709315
 20
25.00957443408062
 10
8.120338037129924
 20
23.87985997284486
 10
7.343506966642139
 20
23.87985997284486
 10
7.455500104221528
 20
25.00957443408062
 97
        1
330
5BBC
 75
     0
 76
     1
 47
0.0276408434878157
 98
        9
 10
-5.110068937762804
 20
27.30829258594788
 10
-5.110068937762804
 20
27.30829258594788
 10
-5.110068937762804
 20
27.30829258594788
 10
-5.110068937762804
 20
27.30829258594788
 10
-5.110068937762804
 20
27.30829258594788
 10
-5.110068937762804
 20
27.30829258594788
 10
-5.110068937762804
 20
27.30829258594788
 10
-5.110068937762804
 20
27.30829258594788
 10
-5.110068937762804
 20
27.30829258594788
1001
ACAD
1010
0.0
1020
0.0
1030
0.0
1001
AcDbBlockRepETag
1070
     1
1071
      881
1005
5BDE
  0
HATCH
  5
5BDF
330
5BAA
100
AcDbEntity
  8
APL Border
 62
     8
100
AcDbHatch
 10
0.0
 20
0.0
 30
0.0
210
0.0
220
0.0
230
1.0
  2
SOLID
 70
     1
 71
     1
 91
        1
 92
        7
 72
     0
 73
     1
 93
        4
 10
0.0001591031300169
 20
7.000275566930961
 10
3.563095122801513
 20
13.17146177711931
 10
-0.9450856774407473
 20
20.97985997284487
 10
-8.070957716782199
 20
20.97985997284487
 97
        1
330
5BC1
 75
     0
 76
     1
 47
0.0707162833847576
 98
        3
 10
-2.675438732228172
 20
16.47794635472378
 10
6.312751868664321
 20
42.28939048605213
 10
-9.894301834166896
 20
39.60217176706084
1001
ACAD
1010
0.0
1020
0.0
1030
0.0
1001
AcDbBlockRepETag
1070
     1
1071
      883
1005
5BDF
  0
HATCH
  5
5BE0
330
5BAA
100
AcDbEntity
  8
APL Border
 62
     8
100
AcDbHatch
 10
0.0
 20
0.0
 30
0.0
210
0.0
220
0.0
230
1.0
  2
SOLID
 70
     1
 71
     0
 91
        1
 92
        7
 72
     0
 73
     1
 93
        7
 10
-12.96642015501169
 20
43.61979184908029
 10
-14.7664201550117
 20
43.61979184908029
 10
-16.54136876356097
 20
39.42215966960598
 10
-17.19614352503853
 20
43.61979184908029
 10
-18.99614352503854
 20
43.61979184908029
 10
-17.7875751270476
 20
37.38083558975206
 10
-15.77022638070493
 20
37.38083558975206
 97
        0
 75
     0
 76
     1
 47
0.0707162833847576
 98
        3
 10
6.249678794057444
 20
42.28939048605213
 10
-9.957374908773772
 20
39.60217176706084
 10
-16.39773218462096
 20
38.68285940442952
1001
ACAD
1010
0.0
1020
0.0
1030
0.0
1001
AcDbBlockRepETag
1070
     1
1071
      884
1005
5BE0
  0
HATCH
  5
5BE1
330
5BAA
100
AcDbEntity
  8
APL Border
 62
     8
100
AcDbHatch
 10
0.0
 20
0.0
 30
0.0
210
0.0
220
0.0
230
1.0
  2
SOLID
 70
     1
 71
     1
 91
        1
 92
        7
 72
     0
 73
     1
 93
       10
 10
-2.850928947786229
 20
37.38083558975206
 10
-2.181839912298442
 20
43.6197918490803
 10
-3.855464624526036
 20
43.61979184908029
 10
-4.228474015381578
 20
40.14164596649268
 10
-5.40751765387219
 20
43.61979184908029
 10
-7.466097855805088
 20
43.61979184908029
 10
-8.135186891292875
 20
37.38083558975206
 10
-6.479801476178323
 20
37.38083558975206
 10
-6.131920885667285
 20
40.6246666384634
 10
-5.032306754624555
 20
37.38083558975206
 97
        1
330
5BB8
 75
     0
 76
     1
 47
0.0707162833847576
 98
        3
 10
6.312751868664321
 20
42.28939048605213
 10
-5.364819983741796
 20
40.80434854252457
 10
-9.894301834166896
 20
39.60217176706084
1001
ACAD
1010
0.0
1020
0.0
1030
0.0
1001
AcDbBlockRepETag
1070
     1
1071
      886
1005
5BE1
  0
HATCH
  5
5BE2
330
5BAA
100
AcDbEntity
  8
APL Border
 62
     8
100
AcDbHatch
 10
0.0
 20
0.0
 30
0.0
210
0.0
220
0.0
230
1.0
  2
SOLID
 70
     1
 71
     1
 91
        1
 92
        7
 72
     0
 73
     1
 93
        8
 10
2.929095477768755
 20
41.97282181113101
 10
3.105743226874893
 20
43.6199831327606
 10
-1.725754035154748
 20
43.61998313276061
 10
-1.891167362926863
 20
41.97282181113101
 10
-0.3755272841536335
 20
41.97282181113101
 10
-0.8679685705352806
 20
37.38102687343239
 10
0.9741138955425025
 20
37.38339558452146
 10
1.466301152475638
 20
41.97282181113101
 97
        1
330
5BB7
 75
     0
 76
     1
 47
0.0707162833847576
 98
        3
 10
6.461508006627583
 20
42.28958176973246
 10
0.3042431306128051
 20
42.36029787294049
 10
-9.745545696203633
 20
39.60236305074117
1001
ACAD
1010
0.0
1020
0.0
1030
0.0
1001
AcDbBlockRepETag
1070
     1
1071
      887
1005
5BE2
  0
HATCH
  5
5BE3
330
5BAA
100
AcDbEntity
  8
APL Border
 62
     8
100
AcDbHatch
 10
0.0
 20
0.0
 30
0.0
210
0.0
220
0.0
230
1.0
  2
SOLID
 70
     1
 71
     1
 91
        1
 92
        7
 72
     0
 73
     1
 93
        3
 10
8.071275923043375
 20
20.97985997284487
 10
0.8484489512626126
 20
20.97985997284487
 10
4.459862437153192
 20
14.72470832814346
 97
        1
330
5BC2
 75
     0
 76
     1
 47
0.0707162833847576
 98
        3
 10
4.897289869501349
 20
18.17513736310713
 10
6.312751868664321
 20
42.28939048605213
 10
-9.894301834166896
 20
39.60217176706084
1001
ACAD
1010
0.0
1020
0.0
1030
0.0
1001
AcDbBlockRepETag
1070
     1
1071
      891
1005
5BE3
  0
HATCH
  5
5BE4
330
5BAA
100
AcDbEntity
  8
APL Border
 62
     8
100
AcDbHatch
 10
0.0
 20
0.0
 30
0.0
210
0.0
220
0.0
230
1.0
  2
SOLID
 70
     1
 71
     1
 91
        2
 92
       16
 93
        3
 72
     1
 10
0.0000000003145431
 20
4.000000000000009
 11
23.60256143704041
 21
44.88083558975217
 72
     1
 10
23.60256143704041
 20
44.88083558975217
 11
-23.60256142783933
 21
44.88083558975206
 72
     1
 10
-23.60256142783933
 20
44.88083558975206
 11
0.0000000003145431
 21
4.000000000000007
 97
        1
330
5BC8
 92
        1
 93
        3
 72
     1
 10
27.06666305249243
 20
46.88083558975206
 11
-27.06666304266244
 21
46.88083558975206
 72
     1
 10
-27.06666304266244
 20
46.88083558975206
 11
-0.0000000000000284
 21
0.0000000000000213
 72
     1
 10
-0.0000000000000284
 20
0.0000000000000238
 11
27.06666305249243
 21
46.88083558975206
 97
        1
330
5BC9
 75
     0
 76
     1
 98
        1
 10
-236.5641112216887
 20
1.231020082252661
1001
ACAD
1010
0.0
1020
0.0
1030
0.0
1001
AcDbBlockRepETag
1070
     1
1071
      892
1005
5BE4
  0
HATCH
  5
5BE5
330
5BAA
100
AcDbEntity
  8
APL Border
 62
     8
100
AcDbHatch
 10
0.0
 20
0.0
 30
0.0
210
0.0
220
0.0
230
1.0
  2
SOLID
 70
     1
 71
     1
 91
        1
 92
        7
 72
     0
 73
     1
 93
       12
 10
15.84058876400877
 20
41.9726305274507
 10
18.21321428445671
 20
41.9726305274507
 10
18.38986203356285
 20
43.61979184908029
 10
14.13627631352983
 20
43.61979184908029
 10
13.46718727804204
 20
37.38083558975206
 10
17.72077299807506
 20
37.38083558975207
 10
17.87787225036464
 20
38.84571591422678
 10
15.50524672991671
 20
38.84571591422678
 10
15.58395939694927
 20
39.5796763598845
 10
17.56969663746741
 20
39.57967635988449
 10
17.71732334684157
 20
41.15966911198297
 10
15.75340373709809
 20
41.15966911198297
 97
        1
330
5BB4
 75
     0
 76
     1
 47
0.0265225354961204
 98
        1
 10
15.74642260871314
 20
42.54140343148856
1001
ACAD
1010
0.0
1020
0.0
1030
0.0
1001
AcDbBlockRepETag
1070
     1
1071
      895
1005
5BE5
  0
SPLINE
  5
5BE6
102
{ACAD_REACTORS
330
5BE8
330
5BE9
102
}
330
5BAA
100
AcDbEntity
  8
APL Border
 62
     8
100
AcDbSpline
210
0.0
220
0.0
230
1.0
 70
     8
 71
     3
 72
    12
 73
     8
 74
     0
 42
0.0000000001
 43
0.0000000001
 40
0.0
 40
0.0
 40
0.0
 40
0.0
 40
0.6153828260925694
 40
0.6153828260925694
 40
1.184895113366773
 40
1.184895113366773
 40
1.406874102447421
 40
1.406874102447421
 40
1.406874102447421
 40
1.406874102447421
 10
13.141643811855
 20
41.76981947766621
 30
0.0
 10
12.65093549588437
 20
41.90084145687704
 30
0.0
 10
12.40139116615246
 20
41.94113120867605
 30
0.0
 10
12.08548087756223
 20
41.99544455363318
 30
0.0
 10
11.92864742837253
 20
42.01465504085827
 30
0.0
 10
11.75444086026641
 20
42.02973960983341
 30
0.0
 10
11.75444086026641
 20
42.02973960983341
 30
0.0
 10
11.64369617822672
 20
42.03297741382947
 30
0.0
1001
AcDbBlockRepETag
1070
     1
1071
      898
1005
5BE6
  0
LWPOLYLINE
  5
5BE7
102
{ACAD_REACTORS
330
5BE8
102
}
330
5BAA
100
AcDbEntity
  8
APL Border
  6
Continuous
 62
     8
100
AcDbPolyline
 90
        3
 70
     1
 43
0.0
 10
-11.22376129049633
 20
41.69367581194667
 10
-10.87774200114645
 20
40.14955389030274
 10
-11.91769445450297
 20
40.14955389030274
1001
AcDbBlockRepETag
1070
     1
1071
      902
1005
5BE7
  0
HATCH
  5
5BE8
330
5BAA
100
AcDbEntity
  8
APL Border
 62
     8
100
AcDbHatch
 10
0.0
 20
0.0
 30
0.0
210
0.0
220
0.0
230
1.0
  2
SOLID
 70
     1
 71
     1
 91
        2
 92
        7
 72
     0
 73
     1
 93
        8
 10
-9.847253547555595
 20
43.61979184908029
 10
-12.02298966350147
 20
43.61979184908029
 10
-14.82679588919472
 20
37.38083558975206
 10
-12.95240022532295
 20
37.38083558975206
 10
-12.352528740424
 20
38.71565392391761
 10
-10.64639685172309
 20
38.71565392391761
 10
-10.34727999772013
 20
37.38083558975206
 10
-8.449177928734428
 20
37.38083558975207
 97
        1
330
5BB9
 92
       22
 72
     0
 73
     1
 93
        3
 10
-11.22376129049633
 20
41.69367581194668
 10
-10.87774200114645
 20
40.14955389030274
 10
-11.91769445450297
 20
40.14955389030274
 97
        1
330
5BE7
 75
     0
 76
     1
 47
0.0464409783890934
 98
        3
 10
-10.7866676671747
 20
42.18285929720354
 10
-10.7866676671747
 20
42.18285929720354
 10
4.318789658947025
 20
41.34692151769582
1001
ACAD
1010
0.0
1020
0.0
1030
0.0
1001
AcDbBlockRepETag
1070
     1
1071
      903
1005
5BE8
  0
HATCH
  5
5BE9
330
5BAA
100
AcDbEntity
  8
APL Border
 62
     8
100
AcDbHatch
 10
0.0
 20
0.0
 30
0.0
210
0.0
220
0.0
230
1.0
  2
SOLID
 70
     1
 71
     1
 91
        1
 92
        5
 93
        9
 72
     4
 94
        3
 73
     0
 74
     0
 95
       25
 96
       21
 40
0.0289432764998855
 40
0.0289432764998855
 40
0.0289432764998855
 40
0.0289432764998855
 40
0.7134165119202287
 40
1.411731005087882
 40
2.041147618059464
 40
3.036171077105474
 40
3.957911241576911
 40
4.83592253147705
 40
5.676684481733094
 40
6.271141751551381
 40
6.974058201941041
 40
7.825808739104269
 40
8.5265481701528
 40
9.125733480364379
 40
9.891766509798275
 40
10.6767880070383
 40
11.66821110410527
 40
12.42950909475574
 40
13.09855121203093
 40
13.70132750762923
 40
13.70132750762923
 40
13.70132750762923
 40
13.70132750762923
 10
13.141643811855
 20
43.40554077871886
 10
12.91988216430481
 20
43.459256627421
 10
12.47168844867874
 20
43.5669624691983
 10
11.80600758681791
 20
43.66484839798013
 10
11.02988777388427
 20
43.6649333207477
 10
10.1361516270939
 20
43.55263717791944
 10
9.306733533720876
 20
43.19741938393827
 10
8.599762003673276
 20
42.45478219212527
 10
8.236440109363229
 20
41.77191325718488
 10
8.073464067873601
 20
41.07996170309042
 10
8.007035995439764
 20
40.3638923215899
 10
7.98103501985804
 20
39.60493317412716
 10
8.107710769833204
 20
38.92055182387923
 10
8.442098079777224
 20
38.21445924826959
 10
9.036296716232907
 20
37.66873436641545
 10
9.909689132144507
 20
37.42421376773082
 10
10.75775873959412
 20
37.35554609345542
 10
11.56487972715851
 20
37.38454149767491
 10
12.23983007222788
 20
37.44815687239099
 10
12.66077873273661
 20
37.49837935861893
 10
12.86026661033734
 20
37.52234731786496
 72
     1
 10
12.86026661033734
 20
37.52234731786496
 11
13.23839963312048
 21
41.04826877857415
 72
     1
 10
13.23839963312048
 20
41.04826877857415
 11
11.12639005748273
 21
41.04826877857415
 72
     1
 10
11.12639005748273
 20
41.04826877857415
 11
10.96889270630695
 21
39.57967635988449
 72
     1
 10
10.96889270630695
 20
39.57967635988449
 11
11.39962533929804
 21
39.57967635988449
 72
     1
 10
11.39962533929804
 20
39.57967635988449
 11
11.33360452536307
 21
38.96406177273883
 72
     4
 94
        3
 73
     0
 74
     0
 95
       19
 96
       15
 40
1.529304964685562
 40
1.529304964685562
 40
1.529304964685562
 40
1.529304964685562
 40
1.763981165818448
 40
2.06379851215709
 40
2.386700017314354
 40
2.753069149612017
 40
3.181918037271135
 40
3.768421453867451
 40
4.325591611844758
 40
5.021152851646889
 40
5.521935404920329
 40
5.929637176310238
 40
6.454411479904243
 40
6.957123473051371
 40
6.957123473755098
 40
6.957123473755098
 40
6.957123473755098
 10
11.33360452536307
 20
38.96406177273881
 10
11.24302802126629
 20
38.95177692242413
 10
10.99026249243499
 20
38.92783484269152
 10
10.70216182646531
 20
38.92661434152812
 10
10.3797311442331
 20
38.98358798973799
 10
10.00680770225198
 20
39.09661486818469
 10
9.716968816830743
 20
39.48770259248511
 10
9.641062203095145
 20
40.05806431643046
 10
9.717431528044755
 20
40.66388266631498
 10
9.854221329784113
 20
41.27113304911427
 10
10.23036575101369
 20
41.67654609785123
 10
10.65553906793815
 20
41.91613810684326
 10
11.13485165915975
 20
42.01473204050012
 10
11.47589856643677
 20
42.04574754506741
 10
11.64369617822672
 20
42.03297741382947
 72
     4
 94
        3
 73
     0
 74
     0
 95
       12
 96
        8
 40
0.0
 40
0.0
 40
0.0
 40
0.0
 40
0.2219789890806476
 40
0.2219789890806476
 40
0.7914912763548521
 40
0.7914912763548521
 40
1.406874102447421
 40
1.406874102447421
 40
1.406874102447421
 40
1.406874102447421
 10
11.64369617822672
 20
42.03297741382947
 10
11.75444086026641
 20
42.02973960983341
 10
11.75444086026641
 20
42.02973960983341
 10
11.92864742837253
 20
42.01465504085827
 10
12.08548087756223
 20
41.99544455363318
 10
12.40139116615246
 20
41.94113120867605
 10
12.65093549588437
 20
41.90084145687704
 10
13.141643811855
 20
41.76981947766621
 72
     1
 10
13.14164381185501
 20
41.76981947766621
 11
13.141643811855
 21
43.40554077871886
 97
        5
330
5BB2
330
5BB6
330
5BB3
330
5BE6
330
5BB5
 75
     0
 76
     1
 47
0.0464409783890934
 98
        3
 10
-10.7866676671747
 20
42.18285929720354
 10
4.318789658947025
 20
41.34692151769582
 10
10.26801654887663
 20
42.50794595375691
1001
ACAD
1010
0.0
1020
0.0
1030
0.0
1001
AcDbBlockRepETag
1070
     1
1071
      904
1005
5BE9
  0
HATCH
  5
5BEA
330
5BAA
100
AcDbEntity
  8
APL Border
 62
     8
100
AcDbHatch
 10
0.0
 20
0.0
 30
0.0
210
0.0
220
0.0
230
1.0
  2
SOLID
 70
     1
 71
     1
 91
        2
 92
        7
 72
     0
 73
     1
 93
        8
 10
6.582554574553399
 20
43.61979184908029
 10
4.406818458607519
 20
43.6197918490803
 10
1.603012232914266
 20
37.38083558975206
 10
3.477407896786048
 20
37.38083558975206
 10
4.077279381684999
 20
38.71565392391761
 10
5.783411270385895
 20
38.71565392391761
 10
6.082528124388858
 20
37.38083558975206
 10
7.980630193374566
 20
37.38083558975207
 97
        1
330
5BCA
 92
       22
 72
     0
 73
     1
 93
        3
 10
5.206046831612668
 20
41.69367581194667
 10
5.552066120962536
 20
40.14955389030274
 10
4.512113667606024
 20
40.14955389030274
 97
        1
330
5BCB
 75
     0
 76
     1
 47
0.0464409783890934
 98
        3
 10
-10.7866676671747
 20
42.18285929720354
 10
4.318789658947025
 20
41.34692151769582
 10
4.318789658947025
 20
41.34692151769582
1001
ACAD
1010
0.0
1020
0.0
1030
0.0
1001
AcDbBlockRepETag
1070
     1
1071
      905
1005
5BEA
  0
HATCH
  5
5BEB
330
5BAA
100
AcDbEntity
  8
APL Border
 62
     8
100
AcDbHatch
 10
0.0
 20
0.0
 30
0.0
210
0.0
220
0.0
230
1.0
  2
SOLID
 70
     1
 71
     1
 91
       11
 92
        7
 72
     0
 73
     1
 93
        4
 10
-16.33747952551644
 20
35.29789574745092
 10
-12.98884796421712
 20
29.49789574745095
 10
12.98916617047902
 20
29.49789574745094
 10
16.33779773177886
 20
35.29789574745093
 97
        1
330
5BBB
 92
       22
 72
     0
 73
     1
 93
        8
 10
-10.50084997043805
 20
34.02289574745092
 10
-9.555761072109191
 20
34.02289574745092
 10
-8.834065309397374
 20
31.02289574745093
 10
-9.641122936515984
 20
31.02289574745093
 10
-9.86222995755253
 20
31.94201027933759
 10
-10.74455961985978
 20
31.94201027933758
 10
-11.20867717380426
 20
31.02289574745093
 10
-12.01573480092304
 20
31.02289574745093
 97
        1
330
5BC7
 92
        6
 72
     0
 73
     1
 93
        3
 10
-10.14693849009504
 20
33.12550842600547
 10
-10.00044093617224
 20
32.51653621849666
 10
-10.45444607654239
 20
32.51653621849665
 97
        1
330
5BC6
 92
       22
 72
     0
 73
     1
 93
        6
 10
-8.326765119961606
 20
34.02289574745092
 10
-7.549934049473819
 20
34.02289574745092
 10
-7.777198851462713
 20
31.73039516316516
 10
-6.700109532938454
 20
31.73039516316516
 10
-6.770246795158442
 20
31.02289574745093
 10
-8.624167184170486
 20
31.02289574745092
 97
        1
330
5BC5
 92
       20
 93
       13
 72
     1
 10
-6.13042511277439
 20
34.02488019433461
 11
-5.353790768486449
 21
34.02289574745093
 72
     1
 10
-5.353790768486449
 20
34.02289574745093
 11
-5.5356280948821
 21
32.18709291744541
 72
     4
 94
        3
 73
     0
 74
     0
 95
       24
 96
       20
 40
0.0
 40
0.0
 40
0.0
 40
0.0
 40
0.1612668085855933
 40
0.2532303870616441
 40
0.3214574742553387
 40
0.4101806452459026
 40
0.5031588697521256
 40
0.5664511009171887
 40
0.624871878778038
 40
0.6731644290699905
 40
0.7797386132933425
 40
0.9206747739903356
 40
1.025058962643435
 40
1.116412352300609
 40
1.212929457806147
 40
1.276240530363035
 40
1.339961572016457
 40
1.386280507025952
 40
1.435584820291647
 40
1.435584820291647
 40
1.435584820291647
 40
1.435584820291647
 10
-5.535628094882099
 20
32.1870929174454
 10
-5.53213414748617
 20
32.13312332644234
 10
-5.526647751003197
 20
32.04837718097616
 10
-5.488860432547518
 20
31.94683424540268
 10
-5.447171648840961
 20
31.8753242559261
 10
-5.395818187958767
 20
31.80737001333622
 10
-5.320761662408248
 20
31.77062767698265
 10
-5.254477128417399
 20
31.74466351916423
 10
-5.200112096792143
 20
31.72723210184819
 10
-5.128888988289486
 20
31.72198763189771
 10
-5.030042811850907
 20
31.72786870372271
 10
-4.915707066470194
 20
31.75812586881066
 10
-4.815771266393483
 20
31.81405298527762
 10
-4.754740567305573
 20
31.89193427605802
 10
-4.71467399544198
 20
31.96546823314959
 10
-4.683526695854578
 20
32.03313813212702
 10
-4.662006183068958
 20
32.08703079743258
 10
-4.651792807669443
 20
32.13930455656534
 10
-4.647206914869654
 20
32.17083533130903
 10
-4.644842382192905
 20
32.1870929174454
 72
     1
 10
-4.644842382192908
 20
32.18709291744538
 11
-4.462655138951674
 21
34.0248801943346
 72
     1
 10
-4.462655138951674
 20
34.0248801943346
 11
-3.685824068463886
 21
34.0248801943346
 72
     1
 10
-3.685824068463886
 20
34.0248801943346
 11
-3.889225876952792
 21
31.97309408084612
 72
     2
 10
-5.35367831607159
 20
32.29400281725688
 40
1.499200908332752
 50
12.35998596222624
 51
34.57361697223234
 73
     0
 72
     2
 10
-4.942942423735221
 20
32.00494866311196
 40
0.9969860617863467
 50
34.29038331790704
 51
79.42991665428312
 73
     0
 72
     1
 10
-4.760057203160528
 20
31.0248801943346
 11
-5.510404689928634
 21
31.02488019433462
 72
     2
 10
-5.403812384664131
 20
31.8164328281441
 40
0.7986973717449786
 50
97.66944495435136
 51
120.898786067779
 73
     0
 72
     2
 10
-5.173141343771899
 20
32.14234761068797
 40
1.197202176515717
 50
122.3618931068037
 51
141.2515245137382
 73
     0
 72
     2
 10
-5.389471681131198
 20
32.00817328375058
 40
0.9450065449727091
 50
139.3862736078239
 51
177.8726579657922
 73
     0
 72
     1
 10
-6.333826921263238
 20
31.9730940808461
 11
-6.13042511277439
 21
34.02488019433461
 97
        2
330
5BCD
330
5BCE
 92
       22
 72
     0
 73
     1
 93
       13
 10
-3.14734900486158
 20
34.02825593571061
 10
-2.047349004861559
 20
34.02825593571061
 10
-1.827245318565901
 20
32.52441131541936
 10
-1.295012624591634
 20
34.02807364104484
 10
-0.1975458970834157
 20
34.0280551402308
 10
-0.4949479612922965
 20
31.0280551402308
 10
-1.115886909891883
 20
31.02805514023081
 10
-0.9222174129992312
 20
32.98166797820307
 10
-1.611942464131546
 20
31.02805514023081
 10
-2.344230471214956
 20
31.0280551402308
 10
-2.630162529241629
 20
32.98166797820306
 10
-2.823832026134283
 20
31.02805514023081
 10
-3.444770974733871
 20
31.0280551402308
 97
        1
330
5BD0
 92
       22
 72
     0
 73
     1
 93
        4
 10
0.342591724648486
 20
34.02289574745092
 10
1.119422795136273
 20
34.02289574745092
 10
0.822020730927392
 20
31.02289574745093
 10
0.045189660439604
 20
31.02289574745093
 97
        1
330
5BBF
 92
       22
 72
     0
 73
     1
 93
       10
 10
1.724974710806094
 20
34.02289574745093
 10
2.57655809816546
 20
34.02269495197112
 10
3.395920304875375
 20
32.17298478610545
 10
3.580266230192904
 20
34.02269495197112
 10
4.200228460647139
 20
34.02269495197112
 10
3.902826396438257
 20
31.02269495197112
 10
3.051434648859951
 20
31.02269495197112
 10
2.231899581960561
 20
32.87279534971117
 10
2.048491689533392
 20
31.02269495197111
 10
1.427552740933804
 20
31.02269495197111
 97
        1
330
5BD1
 92
       22
 72
     0
 73
     1
 93
        4
 10
4.838699321647566
 20
34.02289574745092
 10
5.615530392135354
 20
34.02289574745092
 10
5.318128327926473
 20
31.02289574745093
 10
4.541297257438685
 20
31.02289574745093
 97
        1
330
5BCC
 92
       20
 93
       13
 72
     1
 10
6.192756492920892
 20
34.02289574745092
 11
6.969390837208833
 21
34.02091130056725
 72
     1
 10
6.969390837208833
 20
34.02091130056725
 11
6.787553510813181
 21
32.18510847056173
 72
     4
 94
        3
 73
     0
 74
     0
 95
       24
 96
       20
 40
0.0
 40
0.0
 40
0.0
 40
0.0
 40
0.1612668085856004
 40
0.2532303870616512
 40
0.3214574742553458
 40
0.4101806452458731
 40
0.5031588697521455
 40
0.5664511009172086
 40
0.6248718787780579
 40
0.6731644290699537
 40
0.7797386132933625
 40
0.9206747739903555
 40
1.025058962643406
 40
1.116412352300617
 40
1.212929457806155
 40
1.276240530363043
 40
1.339961572016455
 40
1.386280507025956
 40
1.435584820291643
 40
1.435584820291643
 40
1.435584820291643
 40
1.435584820291643
 10
6.787553510813182
 20
32.18510847056172
 10
6.791047458209138
 20
32.13113887955868
 10
6.796533854692151
 20
32.04639273409249
 10
6.834321173147815
 20
31.944849798519
 10
6.876009956854381
 20
31.87333980904244
 10
6.927363417736517
 20
31.80538556645249
 10
7.002419943287081
 20
31.76864323009899
 10
7.068704477277941
 20
31.74267907228055
 10
7.123069508903178
 20
31.72524765496452
 10
7.194292617405833
 20
31.72000318501404
 10
7.293138793844411
 20
31.72588425683904
 10
7.407474539225143
 20
31.75614142192696
 10
7.507410339301799
 20
31.81206853839398
 10
7.568441038389779
 20
31.88994982917431
 10
7.608507610253345
 20
31.96348378626593
 10
7.639654909840775
 20
32.03115368524333
 10
7.661175422626328
 20
32.08504635054892
 10
7.671388798025919
 20
32.13732010968165
 10
7.675974690825655
 20
32.16885088442535
 10
7.678339223502376
 20
32.18510847056172
 72
     1
 10
7.678339223502373
 20
32.1851084705617
 11
7.860526466743608
 21
34.02289574745092
 72
     1
 10
7.860526466743608
 20
34.02289574745092
 11
8.637357537231395
 21
34.02289574745092
 72
     1
 10
8.637357537231395
 20
34.02289574745092
 11
8.433955728742489
 21
31.97110963396244
 72
     2
 10
6.969503289623695
 20
32.29201837037321
 40
1.499200908332751
 50
12.35998596222655
 51
34.57361697220028
 73
     0
 72
     2
 10
7.38023918196006
 20
32.00296421622829
 40
0.9969860617863467
 50
34.2903833178587
 51
79.42991665428322
 73
     0
 72
     1
 10
7.563124402534754
 20
31.02289574745093
 11
6.812776915766647
 21
31.02289574745094
 72
     2
 10
6.919369221031151
 20
31.81444838126043
 40
0.7986973717449786
 50
97.66944495435136
 51
120.898786067779
 73
     0
 72
     2
 10
7.150040261923383
 20
32.14036316380429
 40
1.197202176515717
 50
122.3618931068037
 51
141.2515245137382
 73
     0
 72
     2
 10
6.933709924564084
 20
32.0061888368669
 40
0.9450065449727091
 50
139.3862736078239
 51
177.8726579657922
 73
     0
 72
     1
 10
5.989354684432043
 20
31.97110963396243
 11
6.192756492920892
 21
34.02289574745092
 97
        2
330
5BCF
330
5BD3
 92
       22
 72
     0
 73
     1
 93
       13
 10
9.159497991066102
 20
34.02289574745092
 10
10.25949799106612
 20
34.02289574745092
 10
10.47960167736178
 20
32.51905112715967
 10
11.01183437133604
 20
34.02271345278515
 10
12.10930109884427
 20
34.02269495197111
 10
11.81189903463539
 20
31.02269495197112
 10
11.1909600860358
 20
31.02269495197111
 10
11.38462958292845
 20
32.97630778994339
 10
10.69490453179614
 20
31.02269495197111
 10
9.962616524712728
 20
31.02269495197112
 10
9.676684466686056
 20
32.97630778994339
 10
9.4830149697934
 20
31.02269495197111
 10
8.862076021193814
 20
31.02269495197111
 97
        1
330
5BD2
 75
     0
 76
     1
 47
0.0356978143457059
 98
       11
 10
-12.74387987022192
 20
34.13164800304253
 10
-12.74387987022192
 20
34.13164800304253
 10
-12.74387987022192
 20
34.13164800304253
 10
-12.74387987022192
 20
34.13164800304253
 10
-12.74387987022192
 20
34.13164800304253
 10
-12.74387987022192
 20
34.13164800304253
 10
-12.74387987022192
 20
34.13164800304253
 10
-12.74387987022192
 20
34.13164800304253
 10
-12.74387987022192
 20
34.13164800304253
 10
-12.74387987022192
 20
34.13164800304253
 10
-12.74387987022192
 20
34.13164800304253
1001
ACAD
1010
0.0
1020
0.0
1030
0.0
1001
AcDbBlockRepETag
1070
     1
1071
      906
1005
5BEB
  0
ENDBLK
  5
5BEC
330
5BAA
100
AcDbEntity
  8
0
 62
     9
100
AcDbBlockEnd
  0
ENDSEC
  0
SECTION
  2
ENTITIES
  0
INSERT
  5
36EE
330
1F
100
AcDbEntity
  8
APL Joinery
100
AcDbBlockReference
  2
08600
 10
23.40591721341889
 20
62.29120290370861
 30
0.0
 41
-1.0
 50
270.0
  0
INSERT
  5
4080
330
1F
100
AcDbEntity
  8
APL Joinery
 48
3.0
100
AcDbBlockReference
  2
08654
 10
149.5533855758365
 20
98.12573779252218
 30
0.0
 50
9.999999999999937
  0
INSERT
  5
4086
330
1F
100
AcDbEntity
  8
APL Joinery
 48
3.0
100
AcDbBlockReference
  2
08653
 10
149.405917213419
 20
77.79120290370994
 30
0.0
 50
90.0
  0
INSERT
  5
4087
330
1F
100
AcDbEntity
  8
APL Joinery
 48
3.0
100
AcDbBlockReference
  2
08653
 10
156.6467810449293
 20
79.06796256084129
 30
0.0
 41
-1.0
 50
290.0
  0
INSERT
  5
4377
330
1F
100
AcDbEntity
  8
APL Joinery
 48
3.0
100
AcDbBlockReference
  2
08653
 10
289.9884838619366
 20
128.959072620517
 30
0.0
 41
-1.0
 50
310.0
  0
INSERT
  5
437C
330
1F
100
AcDbEntity
  8
APL Joinery
 48
3.0
100
AcDbBlockReference
  2
08654
 10
276.804729467106
 20
144.4414392393191
 30
0.0
 50
29.99999999999993
  0
INSERT
  5
4380
330
1F
100
AcDbEntity
  8
APL Joinery
 48
3.0
100
AcDbBlockReference
  2
08653
 10
283.6209750722752
 20
125.2827897067386
 30
0.0
 50
110.0
  0
INSERT
  5
4631
330
1F
100
AcDbEntity
  8
0
 48
3.0
100
AcDbBlockReference
  2
a4 specifiers manual
 10
0.0
 20
0.0
 30
0.0
  0
INSERT
  5
4F7A
330
1F
100
AcDbEntity
  8
APL Joinery
100
AcDbBlockReference
  2
08600
 10
192.6782770338368
 20
438.4044826328707
 30
0.0
 50
180.0
  0
INSERT
  5
4F7B
330
1F
100
AcDbEntity
  8
APL Joinery
100
AcDbBlockReference
  2
08600
 10
27.1785173503801
 20
272.9047229494157
 30
0.0
 41
-1.0
 50
270.0
  0
TEXT
  5
4F80
330
1F
100
AcDbEntity
  8
APL Notes
100
AcDbText
 10
7.754915713272328
 20
284.9047229494157
 30
0.0
 40
5.0
  1
08600
  7
Arial-Bold
 72
     2
 11
27.1785173503801
 21
284.9047229494157
 31
0.0
100
AcDbText
  0
TEXT
  5
4F84
330
1F
100
AcDbEntity
  8
APL Notes
100
AcDbText
 10
186.4128964416082
 20
323.5772103228289
 30
0.0
 40
5.0
  1
08630
  7
Arial-Bold
100
AcDbText
  0
INSERT
  5
4F99
330
1F
100
AcDbEntity
  8
APL Joinery
 48
3.0
100
AcDbBlockReference
  2
08652
 10
157.1782770338369
 20
308.4047229494137
 30
0.0
 50
90.0
  0
INSERT
  5
5066
330
1F
100
AcDbEntity
  8
APL Joinery
 48
3.0
100
AcDbBlockReference
  2
08630Glaze
 10
44.40591721341888
 20
57.79120290370858
 30
0.0
 41
-1.0
 50
270.0
  0
INSERT
  5
5068
330
1F
100
AcDbEntity
  8
APL Joinery
 48
3.0
100
AcDbBlockReference
  2
08630Glaze
 10
119.405917213419
 20
57.79120290370858
 30
0.0
 50
90.0
  0
INSERT
  5
506C
330
1F
100
AcDbEntity
  8
APL Joinery
 48
3.0
100
AcDbBlockReference
  2
08630Glaze
 10
191.6779625350191
 20
70.53471444489305
 30
0.0
 41
-1.0
 50
290.0
  0
INSERT
  5
506D
330
1F
100
AcDbEntity
  8
APL Joinery
 48
3.0
100
AcDbBlockReference
  2
08630Glaze
 10
262.2705993152143
 20
96.22833299125211
 30
0.0
 50
110.0000000000036
  0
INSERT
  5
506E
330
1F
100
AcDbEntity
  8
APL Joinery
 48
3.0
100
AcDbBlockReference
  2
08630Glaze
 10
325.8255693492358
 20
132.9218120487332
 30
0.0
 41
-1.0
 50
309.9999999999964
  0
INSERT
  5
506F
330
1F
100
AcDbEntity
  8
APL Joinery
 48
3.0
100
AcDbBlockReference
  2
08630Glaze
 10
48.17851735038011
 20
268.4047229494157
 30
0.0
 41
-1.0
 50
270.0
  0
INSERT
  5
5071
330
1F
100
AcDbEntity
  8
APL Joinery
 48
3.0
100
AcDbBlockReference
  2
08630Glaze
 10
155.178277033837
 20
268.4047229494157
 30
0.0
 50
90.0
  0
INSERT
  5
5074
330
1F
100
AcDbEntity
  8
APL Joinery
 48
3.0
100
AcDbBlockReference
  2
08630Glaze
 10
197.1782770338369
 20
417.4044826328707
 30
0.0
 50
180.0
  0
INSERT
  5
5078
330
1F
100
AcDbEntity
  8
APL Joinery
 48
3.0
100
AcDbBlockReference
  2
08630Glaze
 10
197.1782770338369
 20
310.4047229494137
 30
0.0
 41
-1.0
  0
INSERT
  5
507D
330
1F
100
AcDbEntity
  8
APL Joinery
 48
3.0
100
AcDbBlockReference
  2
19mmliner
 10
49.40591721341888
 20
112.2912029037085
 30
0.0
 41
-1.0
 50
270.0
  0
INSERT
  5
507E
330
1F
100
AcDbEntity
  8
APL Joinery
 48
3.0
100
AcDbBlockReference
  2
19mmliner
 10
53.17851735038016
 20
322.9047229494157
 30
0.0
 41
-1.0
 50
270.0
  0
INSERT
  5
507F
330
1F
100
AcDbEntity
  8
APL Joinery
 48
3.0
100
AcDbBlockReference
  2
19mmliner
 10
142.6782770338368
 20
412.4044826328706
 30
0.0
 50
180.0
  0
LINE
  5
5085
330
1F
100
AcDbEntity
  8
APL Joinery
 62
     7
 48
3.0
100
AcDbLine
 10
74.1783971921086
 20
302.4047252036509
 30
0.0
 11
99.1783971921086
 21
302.4047252036509
 31
0.0
  0
LINE
  5
5086
330
1F
100
AcDbEntity
  8
APL Joinery
 62
     8
 48
3.0
100
AcDbLine
 10
74.1783971921086
 20
300.4047252036509
 30
0.0
 11
99.1783971921086
 21
300.4047252036509
 31
0.0
  0
LINE
  5
5087
330
1F
100
AcDbEntity
  8
APL Joinery
 62
     8
 48
3.0
100
AcDbLine
 10
74.1783971921086
 20
298.4047252036509
 30
0.0
 11
99.1783971921086
 21
298.4047252036509
 31
0.0
  0
LINE
  5
5088
330
1F
100
AcDbEntity
  8
APL Joinery
 62
     7
 48
3.0
100
AcDbLine
 10
74.1783971921086
 20
296.4047252036509
 30
0.0
 11
99.1783971921086
 21
296.4047252036509
 31
0.0
  0
LINE
  5
5089
330
1F
100
AcDbEntity
  8
APL Joinery
 62
     7
 48
3.0
100
AcDbLine
 10
104.1783971921085
 20
302.4047252036509
 30
0.0
 11
129.1783971921085
 21
302.4047252036509
 31
0.0
  0
LINE
  5
508A
330
1F
100
AcDbEntity
  8
APL Joinery
 62
     8
 48
3.0
100
AcDbLine
 10
104.1783971921085
 20
300.4047252036509
 30
0.0
 11
129.1783971921085
 21
300.4047252036509
 31
0.0
  0
LINE
  5
508B
330
1F
100
AcDbEntity
  8
APL Joinery
 62
     8
 48
3.0
100
AcDbLine
 10
104.1783971921085
 20
298.4047252036509
 30
0.0
 11
129.1783971921085
 21
298.4047252036509
 31
0.0
  0
LINE
  5
508C
330
1F
100
AcDbEntity
  8
APL Joinery
 62
     7
 48
3.0
100
AcDbLine
 10
104.1783971921085
 20
296.4047252036509
 30
0.0
 11
129.1783971921085
 21
296.4047252036509
 31
0.0
  0
LINE
  5
508D
330
1F
100
AcDbEntity
  8
APL Joinery
 62
     7
 48
3.0
100
AcDbLine
 10
163.1782747796017
 20
336.4046027911422
 30
0.0
 11
163.1782747796017
 21
361.4046027911422
 31
0.0
  0
LINE
  5
508E
330
1F
100
AcDbEntity
  8
APL Joinery
 62
     8
 48
3.0
100
AcDbLine
 10
165.1782747796017
 20
336.4046027911422
 30
0.0
 11
165.1782747796017
 21
361.4046027911422
 31
0.0
  0
LINE
  5
508F
330
1F
100
AcDbEntity
  8
APL Joinery
 62
     8
 48
3.0
100
AcDbLine
 10
167.1782747796017
 20
336.4046027911422
 30
0.0
 11
167.1782747796017
 21
361.4046027911422
 31
0.0
  0
LINE
  5
5090
330
1F
100
AcDbEntity
  8
APL Joinery
 62
     7
 48
3.0
100
AcDbLine
 10
169.1782747796017
 20
336.4046027911422
 30
0.0
 11
169.1782747796017
 21
361.4046027911422
 31
0.0
  0
LINE
  5
5091
330
1F
100
AcDbEntity
  8
APL Joinery
 62
     7
 48
3.0
100
AcDbLine
 10
163.1782747796017
 20
391.4046027911422
 30
0.0
 11
163.1782747796017
 21
366.4046027911422
 31
0.0
  0
LINE
  5
5092
330
1F
100
AcDbEntity
  8
APL Joinery
 62
     8
 48
3.0
100
AcDbLine
 10
165.1782747796017
 20
391.4046027911422
 30
0.0
 11
165.1782747796017
 21
366.4046027911422
 31
0.0
  0
LINE
  5
5093
330
1F
100
AcDbEntity
  8
APL Joinery
 62
     8
 48
3.0
100
AcDbLine
 10
167.1782747796017
 20
391.4046027911422
 30
0.0
 11
167.1782747796017
 21
366.4046027911422
 31
0.0
  0
LINE
  5
5094
330
1F
100
AcDbEntity
  8
APL Joinery
 62
     7
 48
3.0
100
AcDbLine
 10
169.1782747796017
 20
391.4046027911422
 30
0.0
 11
169.1782747796017
 21
366.4046027911422
 31
0.0
  0
LINE
  5
5098
330
1F
100
AcDbEntity
  8
APL Joinery
 62
     7
 48
3.0
100
AcDbLine
 10
70.40579705514733
 20
91.79120515794378
 30
0.0
 11
79.90591721341906
 21
91.79120515794378
 31
0.0
  0
LINE
  5
5099
330
1F
100
AcDbEntity
  8
APL Joinery
 62
     8
 48
3.0
100
AcDbLine
 10
70.40579705514733
 20
89.79120515794377
 30
0.0
 11
79.90591721341906
 21
89.79120515794377
 31
0.0
  0
LINE
  5
509A
330
1F
100
AcDbEntity
  8
APL Joinery
 62
     8
 48
3.0
100
AcDbLine
 10
70.40579705514733
 20
87.79120515794378
 30
0.0
 11
79.90591721341906
 21
87.79120515794378
 31
0.0
  0
LINE
  5
509B
330
1F
100
AcDbEntity
  8
APL Joinery
 62
     7
 48
3.0
100
AcDbLine
 10
70.40579705514733
 20
85.79120515794377
 30
0.0
 11
79.90591721341906
 21
85.79120515794377
 31
0.0
  0
LINE
  5
509C
330
1F
100
AcDbEntity
  8
APL Joinery
 62
     7
 48
3.0
100
AcDbLine
 10
93.40603737169079
 20
91.79120515794378
 30
0.0
 11
83.90591721341905
 21
91.79120515794378
 31
0.0
  0
LINE
  5
509D
330
1F
100
AcDbEntity
  8
APL Joinery
 62
     8
 48
3.0
100
AcDbLine
 10
93.40603737169079
 20
89.79120515794377
 30
0.0
 11
83.90591721341905
 21
89.79120515794377
 31
0.0
  0
LINE
  5
509E
330
1F
100
AcDbEntity
  8
APL Joinery
 62
     8
 48
3.0
100
AcDbLine
 10
93.40603737169079
 20
87.79120515794378
 30
0.0
 11
83.90591721341905
 21
87.79120515794378
 31
0.0
  0
LINE
  5
509F
330
1F
100
AcDbEntity
  8
APL Joinery
 62
     7
 48
3.0
100
AcDbLine
 10
93.40603737169079
 20
85.79120515794377
 30
0.0
 11
83.90591721341905
 21
85.79120515794377
 31
0.0
  0
LINE
  5
50A0
330
1F
100
AcDbEntity
  8
APL Joinery
 62
     7
 48
3.0
100
AcDbLine
 10
228.2621393025079
 20
113.6472458616254
 30
0.0
 11
219.3349464932007
 21
110.3980134034819
 31
0.0
  0
LINE
  5
50A1
330
1F
100
AcDbEntity
  8
APL Joinery
 62
     8
 48
3.0
100
AcDbLine
 10
227.5780990158565
 20
115.5266311031971
 30
0.0
 11
218.6509062065493
 21
112.2773986450537
 31
0.0
  0
LINE
  5
50A2
330
1F
100
AcDbEntity
  8
APL Joinery
 62
     8
 48
3.0
100
AcDbLine
 10
226.8940587292052
 20
117.4060163447689
 30
0.0
 11
217.9668659198978
 21
114.1567838866255
 31
0.0
  0
LINE
  5
50A3
330
1F
100
AcDbEntity
  8
APL Joinery
 62
     7
 48
3.0
100
AcDbLine
 10
226.2100184425538
 20
119.2854015863407
 30
0.0
 11
217.2828256332465
 21
116.0361691281973
 31
0.0
  0
LINE
  5
50A4
330
1F
100
AcDbEntity
  8
APL Joinery
 62
     7
 48
3.0
100
AcDbLine
 10
206.5332929794992
 20
105.7385925751048
 30
0.0
 11
215.4604857888065
 21
108.9878250332482
 31
0.0
  0
LINE
  5
50A5
330
1F
100
AcDbEntity
  8
APL Joinery
 62
     8
 48
3.0
100
AcDbLine
 10
205.8492526928478
 20
107.6179778166766
 30
0.0
 11
214.7764455021551
 21
110.86721027482
 31
0.0
  0
LINE
  5
50A6
330
1F
100
AcDbEntity
  8
APL Joinery
 62
     8
 48
3.0
100
AcDbLine
 10
205.1652124061964
 20
109.4973630582484
 30
0.0
 11
214.0924052155037
 21
112.7465955163918
 31
0.0
  0
LINE
  5
50A7
330
1F
100
AcDbEntity
  8
APL Joinery
 62
     7
 48
3.0
100
AcDbLine
 10
204.481172119545
 20
111.3767482998202
 30
0.0
 11
213.4083649288523
 21
114.6259807579636
 31
0.0
  0
LINE
  5
50FE
330
1F
100
AcDbEntity
  8
APL Notes
 62
     2
100
AcDbLine
 10
319.2323021838934
 20
411.0627298532015
 30
0.0
 11
319.2323021838934
 21
361.43036319747
 31
0.0
  0
LINE
  5
50FF
330
1F
100
AcDbEntity
  8
APL Notes
 62
     2
100
AcDbLine
 10
317.1698021838934
 20
408.117174589296
 30
0.0
 11
317.1698021838934
 21
362.8745412450276
 31
0.0
  0
LINE
  5
5100
330
1F
100
AcDbEntity
  8
APL Notes
 62
     2
100
AcDbLine
 10
281.5003655342167
 20
395.1345613757696
 30
0.0
 11
281.5003655342166
 21
349.8919280315011
 31
0.0
  0
LINE
  5
5101
330
1F
100
AcDbEntity
  8
APL Notes
 62
     2
100
AcDbLine
 10
229.9378655342167
 20
396.4463727675954
 30
0.0
 11
229.9378655342167
 21
347.0787394233272
 31
0.0
  0
LINE
  5
5102
330
1F
100
AcDbEntity
  8
APL Notes
 62
     2
100
AcDbLine
 10
232.0003655342166
 20
394.3838727675956
 30
0.0
 11
232.0003655342166
 21
349.1412394233272
 31
0.0
  0
LINE
  5
5103
330
1F
100
AcDbEntity
  8
APL Notes
 62
     2
100
AcDbLine
 10
277.3753655342167
 20
394.3838727675956
 30
0.0
 11
277.3753655342166
 21
349.1412394233272
 31
0.0
  0
LINE
  5
5104
330
1F
100
AcDbEntity
  8
APL Notes
 62
     2
100
AcDbLine
 10
279.8015399319275
 20
347.078739423327
 30
0.0
 11
319.2323021838934
 21
361.43036319747
 31
0.0
  0
LINE
  5
5105
330
1F
100
AcDbEntity
  8
APL Notes
 62
     2
100
AcDbLine
 10
279.4378655342163
 20
349.1412394233269
 30
0.0
 11
317.1698021838934
 21
362.8745412450276
 31
0.0
  0
LINE
  5
5106
330
1F
100
AcDbEntity
  8
APL Notes
 62
     2
100
AcDbLine
 10
229.9378655342167
 20
347.0787394233272
 30
0.0
 11
279.8015399319278
 21
347.0787394233272
 31
0.0
  0
LINE
  5
5107
330
1F
100
AcDbEntity
  8
APL Notes
 62
     2
100
AcDbLine
 10
232.0003655342166
 20
349.1412394233272
 30
0.0
 11
279.4378655342166
 21
349.1412394233272
 31
0.0
  0
LINE
  5
5108
330
1F
100
AcDbEntity
  8
APL Notes
 62
     2
100
AcDbLine
 10
232.0003655342166
 20
349.1412394233272
 30
0.0
 11
229.9378655342167
 21
347.0787394233272
 31
0.0
  0
LINE
  5
5109
330
1F
100
AcDbEntity
  8
APL Notes
 62
     8
100
AcDbLine
 10
268.0941155342168
 20
371.1807477675955
 30
0.0
 11
279.4378655342168
 21
371.1807477675955
 31
0.0
  0
LINE
  5
510A
330
1F
100
AcDbEntity
  8
APL Notes
 62
     2
100
AcDbLine
 10
317.1698021838934
 20
362.8745412450276
 30
0.0
 11
319.2323021838934
 21
361.43036319747
 31
0.0
  0
LINE
  5
510B
330
1F
100
AcDbEntity
  8
APL Notes
 62
     2
100
AcDbLine
 10
279.0741911365054
 20
396.4463727675956
 30
0.0
 11
319.2323021838934
 21
411.0627298532015
 31
0.0
  0
LINE
  5
510C
330
1F
100
AcDbEntity
  8
APL Notes
 62
     2
100
AcDbLine
 10
279.4378655342167
 20
394.3838727675956
 30
0.0
 11
317.1698021838934
 21
408.117174589296
 31
0.0
  0
LINE
  5
510D
330
1F
100
AcDbEntity
  8
APL Notes
 62
     2
100
AcDbLine
 10
232.0003655342166
 20
394.3838727675956
 30
0.0
 11
279.4378655342168
 21
394.3838727675957
 31
0.0
  0
LINE
  5
510E
330
1F
100
AcDbEntity
  8
APL Notes
 62
     2
100
AcDbLine
 10
229.9378655342167
 20
396.4463727675956
 30
0.0
 11
279.0741911365055
 21
396.4463727675957
 31
0.0
  0
LINE
  5
5112
330
1F
100
AcDbEntity
  8
APL Notes
 62
     3
100
AcDbLine
 10
232.0003655342166
 20
394.3838727675956
 30
0.0
 11
229.9378655342167
 21
396.4463727675954
 31
0.0
  0
LINE
  5
5113
330
1F
100
AcDbEntity
  8
APL Notes
 62
     2
100
AcDbLine
 10
317.1698021838934
 20
408.117174589296
 30
0.0
 11
319.2323021838934
 21
411.0627298532015
 31
0.0
  0
LINE
  5
5117
330
1F
100
AcDbEntity
  8
APL Notes
 62
     2
100
AcDbLine
 10
279.4378655342168
 20
394.3838727675957
 30
0.0
 11
279.4378655342168
 21
349.1412394233272
 31
0.0
  0
LINE
  5
5118
330
1F
100
AcDbEntity
  8
APL Notes
 62
     8
100
AcDbLine
 10
279.4378655342168
 20
371.1807477675955
 30
0.0
 11
289.1478894245921
 21
374.7149074377056
 31
0.0
  0
LEADER
  5
5119
330
1F
100
AcDbEntity
  8
APL Notes
 62
     8
100
AcDbLeader
  3
ISO-25
 76
     2
 10
220.3753655342166
 20
356.1807477675955
 30
0.0
 10
220.3753655342166
 20
371.1807477675955
 30
0.0
1001
ACAD
1000
DSTYLE
1002
{
1070
   147
1040
0.625
1070
    77
1070
     0
1002
}
  0
LINE
  5
511A
330
1F
100
AcDbEntity
  8
APL Notes
 62
     8
100
AcDbLine
 10
249.5316155342166
 20
371.1807477675955
 30
0.0
 11
220.3753655342166
 21
371.1807477675955
 31
0.0
  0
LEADER
  5
511B
330
1F
100
AcDbEntity
  8
APL Notes
 62
     8
100
AcDbLeader
  3
ISO-25
 76
     2
 10
330.5909772686074
 20
374.7989578290067
 30
0.0
 10
330.5909772686074
 20
389.7989578290067
 30
0.0
211
-1.0
221
0.0
231
0.0
210
0.0
220
0.0
230
-1.0
1001
ACAD
1000
DSTYLE
1002
{
1070
   147
1040
0.625
1070
    77
1070
     0
1002
}
  0
LINE
  5
511C
330
1F
100
AcDbEntity
  8
APL Notes
 62
     8
100
AcDbLine
 10
330.5909772686074
 20
389.7989578290067
 30
0.0
 11
302.7583159257404
 21
379.6686975597916
 31
0.0
  0
LINE
  5
511D
330
1F
100
AcDbEntity
  8
APL Notes
 62
     2
100
AcDbLine
 10
196.6402259983438
 20
153.425654769441
 30
0.0
 11
235.898809283667
 21
167.7146105247594
 31
0.0
  0
LINE
  5
511E
330
1F
100
AcDbEntity
  8
APL Notes
 62
     2
100
AcDbLine
 10
233.836309283667
 20
169.1587885723169
 30
0.0
 11
235.898809283667
 21
167.7146105247594
 31
0.0
  0
LINE
  5
511F
330
1F
100
AcDbEntity
  8
APL Notes
 62
     2
100
AcDbLine
 10
195.5685192696363
 20
202.6679520760602
 30
0.0
 11
235.898809283667
 21
217.3469771804909
 31
0.0
  0
LINE
  5
5120
330
1F
100
AcDbEntity
  8
APL Notes
 62
     2
100
AcDbLine
 10
233.836309283667
 20
214.4014219165853
 30
0.0
 11
235.898809283667
 21
217.3469771804909
 31
0.0
  0
LINE
  5
5122
330
1F
100
AcDbEntity
  8
APL Notes
 62
     2
100
AcDbLine
 10
157.9231319367496
 20
193.9357372030372
 30
0.0
 11
157.9231319367495
 21
148.6931038587689
 31
0.0
  0
LINE
  5
5123
330
1F
100
AcDbEntity
  8
APL Notes
 62
     2
100
AcDbLine
 10
106.3606319367496
 20
195.6345628053259
 30
0.0
 11
106.3606319367496
 21
146.2669294610577
 31
0.0
  0
LINE
  5
5124
330
1F
100
AcDbEntity
  8
APL Notes
 62
     2
100
AcDbLine
 10
233.836309283667
 20
214.4014219165853
 30
0.0
 11
233.836309283667
 21
169.1587885723169
 31
0.0
  0
LINE
  5
5125
330
1F
100
AcDbEntity
  8
APL Notes
 62
     2
100
AcDbLine
 10
196.1043726339903
 20
200.6681200948849
 30
0.0
 11
233.836309283667
 21
214.4014219165853
 31
0.0
  0
LINE
  5
5128
330
1F
100
AcDbEntity
  8
APL Notes
 62
     2
100
AcDbLine
 10
108.4231319367495
 20
193.572062805326
 30
0.0
 11
106.3606319367496
 21
195.6345628053259
 31
0.0
  0
LINE
  5
5129
330
1F
100
AcDbEntity
  8
APL Notes
 62
     2
100
AcDbLine
 10
106.3606319367496
 20
146.2669294610577
 30
0.0
 11
156.0410773052717
 21
146.2669294610577
 31
0.0
  0
LINE
  5
512A
330
1F
100
AcDbEntity
  8
APL Notes
 62
     2
100
AcDbLine
 10
108.4231319367495
 20
148.3294294610577
 30
0.0
 11
155.8606319367495
 21
148.3294294610577
 31
0.0
  0
LINE
  5
512B
330
1F
100
AcDbEntity
  8
APL Notes
 62
     2
100
AcDbLine
 10
108.4231319367495
 20
193.572062805326
 30
0.0
 11
155.8606319367497
 21
193.5720628053262
 31
0.0
  0
LINE
  5
512C
330
1F
100
AcDbEntity
  8
APL Notes
 62
     8
100
AcDbLine
 10
125.9543819367495
 20
177.5548806841422
 30
0.0
 11
97.87918517019688
 21
177.5548806841422
 31
0.0
  0
LINE
  5
512D
330
1F
100
AcDbEntity
  8
APL Notes
 62
     2
100
AcDbLine
 10
108.4231319367495
 20
193.572062805326
 30
0.0
 11
108.4231319367495
 21
148.3294294610577
 31
0.0
  0
LINE
  5
512E
330
1F
100
AcDbEntity
  8
APL Notes
 62
     2
100
AcDbLine
 10
108.4231319367495
 20
148.3294294610577
 30
0.0
 11
106.3606319367496
 21
146.2669294610577
 31
0.0
  0
LEADER
  5
512F
330
1F
100
AcDbEntity
  8
APL Notes
 62
     8
100
AcDbLeader
  3
ISO-25
 76
     2
 10
97.87918517019688
 20
162.5548806841422
 30
0.0
 10
97.87918517019688
 20
177.5548806841422
 30
0.0
1001
ACAD
1000
DSTYLE
1002
{
1070
   147
1040
0.625
1070
    77
1070
     0
1002
}
  0
LINE
  5
5133
330
1F
100
AcDbEntity
  8
APL Notes
 62
     2
100
AcDbLine
 10
153.7981319367496
 20
193.572062805326
 30
0.0
 11
153.7981319367495
 21
148.3294294610577
 31
0.0
  0
LINE
  5
5134
330
1F
100
AcDbEntity
  8
APL Notes
 62
     2
100
AcDbLine
 10
155.8606319367497
 20
193.5720628053262
 30
0.0
 11
155.8606319367497
 21
148.3294294610577
 31
0.0
  0
LINE
  5
5135
330
1F
100
AcDbEntity
  8
APL Notes
 62
     2
100
AcDbLine
 10
196.1043726339899
 20
155.4254867506163
 30
0.0
 11
233.836309283667
 21
169.1587885723169
 31
0.0
  0
LINE
  5
5136
330
1F
100
AcDbEntity
  8
APL Notes
 62
     8
100
AcDbLine
 10
196.1043726339903
 20
184.650937973701
 30
0.0
 11
205.8143965243653
 21
188.1850976438112
 31
0.0
  0
LINE
  5
5137
330
1F
100
AcDbEntity
  8
APL Notes
 62
     8
100
AcDbLine
 10
144.5168819367497
 20
177.5548806841422
 30
0.0
 11
155.8606319367497
 21
177.5548806841422
 31
0.0
  0
LINE
  5
5139
330
1F
100
AcDbEntity
  8
APL Notes
 62
     2
100
AcDbLine
 10
106.3606319367496
 20
195.634562805326
 30
0.0
 11
155.6801865682281
 21
195.6345628053262
 31
0.0
  0
LINE
  5
513A
330
1F
100
AcDbEntity
  8
APL Notes
 62
     2
100
AcDbLine
 10
235.898809283667
 20
217.3469771804909
 30
0.0
 11
235.898809283667
 21
167.7146105247594
 31
0.0
  0
LEADER
  5
513B
330
1F
100
AcDbEntity
  8
APL Notes
 62
     8
100
AcDbLeader
  3
ISO-25
 76
     2
 10
205.8143965243653
 20
173.1850976438112
 30
0.0
 10
205.8143965243653
 20
188.1850976438112
 30
0.0
211
-1.0
221
0.0
231
0.0
210
0.0
220
0.0
230
-1.0
1001
ACAD
1000
DSTYLE
1002
{
1070
   147
1040
0.625
1070
    77
1070
     0
1002
}
  0
LINE
  5
513C
330
1F
100
AcDbEntity
  8
APL Notes
 62
     2
100
AcDbLine
 10
196.1043726339903
 20
200.6681200948849
 30
0.0
 11
196.1043726339902
 21
155.4254867506164
 31
0.0
  0
LINE
  5
513D
330
1F
100
AcDbEntity
  8
APL Notes
 62
     2
100
AcDbLine
 10
194.0418726339903
 20
200.3044456971737
 30
0.0
 11
194.0418726339902
 21
155.0618123529052
 31
0.0
  0
LINE
  5
513E
330
1F
100
AcDbEntity
  8
APL Notes
 62
     2
100
AcDbLine
 10
198.1668726339903
 20
201.4188087030589
 30
0.0
 11
198.1668726339902
 21
156.1761753587905
 31
0.0
  0
LINE
  5
513F
330
1F
100
AcDbEntity
  8
APL Notes
 62
     2
100
AcDbLine
 10
196.1043726339903
 20
200.6681200948849
 30
0.0
 11
155.8606319367499
 21
193.5720628053262
 31
0.0
  0
LINE
  5
5140
330
1F
100
AcDbEntity
  8
APL Notes
 62
     2
100
AcDbLine
 10
155.8606319367495
 20
148.3294294610577
 30
0.0
 11
196.1043726339899
 21
155.4254867506163
 31
0.0
  0
LINE
  5
5141
330
1F
100
AcDbEntity
  8
APL Notes
 62
     2
100
AcDbLine
 10
156.0410773052717
 20
146.2669294610577
 30
0.0
 11
196.6402259983441
 21
153.425654769441
 31
0.0
  0
LINE
  5
5142
330
1F
100
AcDbEntity
  8
APL Notes
 62
     2
100
AcDbLine
 10
195.5685192696364
 20
202.6679520760602
 30
0.0
 11
155.680186568228
 21
195.6345628053262
 31
0.0
  0
LINE
  5
5143
330
1F
100
AcDbEntity
  8
APL Notes
 62
     8
100
AcDbLine
 10
155.8606319367497
 20
177.5548806841422
 30
0.0
 11
165.7967725836429
 21
179.3068903643035
 31
0.0
  0
LINE
  5
5144
330
1F
100
AcDbEntity
  8
APL Notes
 62
     8
100
AcDbLine
 10
196.1043726339903
 20
184.650937973701
 30
0.0
 11
185.835154559052
 21
182.8401977563103
 31
0.0
  0
MTEXT
  5
5145
330
1F
100
AcDbEntity
  8
APL Notes
100
AcDbMText
 10
239.4398068005852
 20
339.0623211629349
 30
0.0
 40
5.0
 41
76.62608147261801
 71
     1
 72
     5
  1
90º CORNER OPTION
  7
Arial-Bold
 73
     1
 44
1.0
1001
ACAD
1000
MTEXTBEGIN
1070
    73
1070
     1
1070
    44
1040
1.0
1070
    74
1070
     0
1000
MTEXTEND
  0
MTEXT
  5
5146
330
1F
100
AcDbEntity
  8
APL Notes
100
AcDbMText
 10
151.3418265259658
 20
140.662200042538
 30
0.0
 40
5.0
 41
54.50694705746702
 71
     1
 72
     5
  1
FACET OPTION
  7
Arial-Bold
 73
     1
 44
1.0
1001
ACAD
1000
MTEXTBEGIN
1070
    73
1070
     1
1070
    44
1040
1.0
1070
    74
1070
     0
1000
MTEXTEND
  0
TEXT
  5
514C
330
1F
100
AcDbEntity
  8
APL Notes
100
AcDbText
 10
95.83273881927516
 20
155.4281734933774
 30
0.0
 40
5.0
  1
B
  7
Arial-Bold
100
AcDbText
  0
TEXT
  5
514D
330
1F
100
AcDbEntity
  8
APL Notes
100
AcDbText
 10
203.9974024554317
 20
166.7208768983382
 30
0.0
 40
5.0
  1
B
  7
Arial-Bold
100
AcDbText
  0
TEXT
  5
5150
330
1F
100
AcDbEntity
  8
APL Notes
100
AcDbText
 10
217.7485868494106
 20
349.7442190938187
 30
0.0
 40
5.0
  1
A
  7
Arial-Bold
100
AcDbText
  0
TEXT
  5
5151
330
1F
100
AcDbEntity
  8
APL Notes
100
AcDbText
 10
328.0955193366449
 20
368.3380523003371
 30
0.0
 40
5.0
  1
A
  7
Arial-Bold
100
AcDbText
  0
TEXT
  5
5360
330
1F
100
AcDbEntity
  8
APL Notes
100
AcDbText
 10
199.4611270802696
 20
272.1701035416444
 30
0.0
 40
5.0
  1
span requirements
  7
Arial-Regular
100
AcDbText
  0
TEXT
  5
5361
330
1F
100
AcDbEntity
  8
APL Notes
100
AcDbText
 10
199.1782770338369
 20
279.6238173711335
 30
0.0
 40
5.0
  1
Refer to tables for
  7
Arial-Regular
100
AcDbText
  0
TEXT
  5
5362
330
1F
100
AcDbEntity
  8
APL Notes
100
AcDbText
 10
199.4575542574636
 20
287.6235820000918
 30
0.0
 40
5.0
  1
08652 90%%D Corner Post
  7
Arial-Bold
100
AcDbText
  0
LWPOLYLINE
  5
5363
330
1F
100
AcDbEntity
  8
APL Notes
100
AcDbPolyline
 90
        4
 70
     1
 43
0.3
 10
131.3812933128284
 20
352.06852228411
 10
131.3812933128284
 20
363.06852228411
 10
80.3812933128284
 20
363.06852228411
 10
80.3812933128284
 20
352.06852228411
  0
TEXT
  5
5364
330
1F
100
AcDbEntity
  8
APL Notes
100
AcDbText
 10
83.38129331282841
 20
355.06852228411
 30
0.0
 40
5.0
  1
SECTION A-A
  7
Arial-Bold
100
AcDbText
  0
LWPOLYLINE
  5
5365
330
1F
100
AcDbEntity
  8
APL Notes
100
AcDbPolyline
 90
        4
 70
     1
 43
0.3
 10
274.6251703205363
 20
45.92527081375138
 10
274.6251703205363
 20
56.92527081375138
 10
223.6251703205363
 20
56.92527081375138
 10
223.6251703205363
 20
45.92527081375138
  0
TEXT
  5
5366
330
1F
100
AcDbEntity
  8
APL Notes
100
AcDbText
 10
226.6251703205362
 20
48.92527081375135
 30
0.0
 40
5.0
  1
SECTION B-B
  7
Arial-Bold
100
AcDbText
  0
TEXT
  5
5367
330
1F
100
AcDbEntity
  8
APL Notes
100
AcDbText
 10
171.5001493564492
 20
14.13014035994575
 30
0.0
 40
5.0
  1
span requirements
  7
Arial-Regular
100
AcDbText
  0
TEXT
  5
5368
330
1F
100
AcDbEntity
  8
APL Notes
100
AcDbText
 10
171.6909464056743
 20
21.58385418943482
 30
0.0
 40
5.0
  1
Refer to tables for
  7
Arial-Regular
100
AcDbText
  0
TEXT
  5
5369
330
1F
100
AcDbEntity
  8
APL Notes
100
AcDbText
 10
171.8817434548995
 20
29.03756801892388
 30
0.0
 40
5.0
  1
08654 Pipe
  7
Arial-Bold
100
AcDbText
  0
TEXT
  5
53EF
330
1F
100
AcDbEntity
  8
APL Notes
100
AcDbText
 10
6.997753366751179
 20
277.9047229494157
 30
0.0
 40
5.0
  1
Frame
  7
Arial-Regular
 72
     2
 11
27.1785173503801
 21
277.9047229494157
 31
0.0
100
AcDbText
  0
TEXT
  5
53F1
330
1F
100
AcDbEntity
  8
APL Notes
100
AcDbText
 10
173.254675396729
 20
449.8261693242129
 30
0.0
 40
5.0
  1
08600
  7
Arial-Bold
 72
     2
 11
192.6782770338368
 21
449.8261693242129
 31
0.0
100
AcDbText
  0
TEXT
  5
53F2
330
1F
100
AcDbEntity
  8
APL Notes
100
AcDbText
 10
59.3510047237952
 20
272.1701035416444
 30
0.0
 40
5.0
  1
08630
  7
Arial-Bold
100
AcDbText
  0
TEXT
  5
53F4
330
1F
100
AcDbEntity
  8
APL Notes
100
AcDbText
 10
125.2199779278162
 20
272.1701035416444
 30
0.0
 40
5.0
  1
08630
  7
Arial-Bold
100
AcDbText
  0
TEXT
  5
53F6
330
1F
100
AcDbEntity
  8
APL Notes
100
AcDbText
 10
186.4128964416082
 20
399.3002080834665
 30
0.0
 40
5.0
  1
08630
  7
Arial-Bold
100
AcDbText
  0
TEXT
  5
53F9
330
1F
100
AcDbEntity
  8
APL Notes
100
AcDbText
 10
59.35457754660126
 20
256.7166250831971
 30
0.0
 40
5.0
  1
Bead
  7
Arial-Regular
100
AcDbText
  0
TEXT
  5
53FA
330
1F
100
AcDbEntity
  8
APL Notes
100
AcDbText
 10
59.07172750016854
 20
264.1703389126862
 30
0.0
 40
5.0
  1
Sloped
  7
Arial-Regular
100
AcDbText
  0
TEXT
  5
5409
330
1F
100
AcDbEntity
  8
APL Notes
100
AcDbText
 10
55.57840458683404
 20
61.55658349593728
 30
0.0
 40
5.0
  1
08630
  7
Arial-Bold
100
AcDbText
  0
TEXT
  5
540B
330
1F
100
AcDbEntity
  8
APL Notes
100
AcDbText
 10
55.5819774096401
 20
46.10310503748998
 30
0.0
 40
5.0
  1
Bead
  7
Arial-Regular
100
AcDbText
  0
TEXT
  5
540C
330
1F
100
AcDbEntity
  8
APL Notes
100
AcDbText
 10
55.29912736320738
 20
53.55681886697905
 30
0.0
 40
5.0
  1
Sloped
  7
Arial-Regular
100
AcDbText
  0
TEXT
  5
540E
330
1F
100
AcDbEntity
  8
APL Notes
100
AcDbText
 10
89.44761810739834
 20
61.55658349593728
 30
0.0
 40
5.0
  1
08630
  7
Arial-Bold
100
AcDbText
  0
TEXT
  5
540F
330
1F
100
AcDbEntity
  8
APL Notes
100
AcDbText
 10
3.982315576311112
 20
67.29120290370861
 30
0.0
 40
5.0
  1
08600
  7
Arial-Bold
 72
     2
 11
23.40591721341889
 21
67.29120290370861
 31
0.0
100
AcDbText
  0
TEXT
  5
5411
330
1F
100
AcDbEntity
  8
APL Notes
100
AcDbText
 10
229.3041066288771
 20
95.52326596096071
 30
0.0
 40
5.0
  1
08630
  7
Arial-Bold
100
AcDbText
  0
TEXT
  5
5412
330
1F
100
AcDbEntity
  8
APL Notes
100
AcDbText
 10
179.566328223666
 20
59.12644006724173
 30
0.0
 40
5.0
  1
08653
  7
Arial-Bold
 11
179.566328223666
 21
64.12644006724173
 31
0.0
100
AcDbText
 73
     3
  0
TEXT
  5
5413
330
1F
100
AcDbEntity
  8
APL Notes
100
AcDbText
 10
179.566328223666
 20
52.12644006724173
 30
0.0
 40
5.0
  1
Pipe Chair
  7
Arial-Regular
 11
179.566328223666
 21
57.12644006724173
 31
0.0
100
AcDbText
 73
     3
  0
TEXT
  5
5414
330
1F
100
AcDbEntity
  8
APL Notes
100
AcDbText
 10
127.2948492359189
 20
50.79120290370861
 30
0.0
 40
5.0
  1
08653
  7
Arial-Bold
 11
127.2948492359189
 21
55.79120290370861
 31
0.0
100
AcDbText
 73
     3
  0
TEXT
  5
5417
330
1F
100
AcDbEntity
  8
APL Notes
100
AcDbText
 10
198.4946894625316
 20
77.47207888012187
 30
0.0
 40
5.0
  1
08630
  7
Arial-Bold
100
AcDbText
  0
TEXT
  5
5418
330
1F
100
AcDbEntity
  8
APL Notes
100
AcDbText
 10
274.3822336265662
 20
93.63660736889952
 30
0.0
 40
5.0
  1
08653
  7
Arial-Bold
 11
274.3822336265662
 21
98.63660736889952
 31
0.0
100
AcDbText
 73
     3
  0
TEXT
  5
5419
330
1F
100
AcDbEntity
  8
APL Notes
100
AcDbText
 10
315.9520745956631
 20
117.6369662425776
 30
0.0
 40
5.0
  1
08653
  7
Arial-Bold
 11
315.9520745956631
 21
122.6369662425776
 31
0.0
100
AcDbText
 73
     3
  0
TEXT
  5
541C
330
1F
100
AcDbEntity
  8
APL Notes
100
AcDbText
 10
329.4643379592138
 20
148.3501084824814
 30
0.0
 40
5.0
  1
08630
  7
Arial-Bold
100
AcDbText
  0
TEXT
  5
541D
330
1F
100
AcDbEntity
  8
APL Notes
100
AcDbText
 10
319.9028056784594
 20
79.25748314791697
 30
0.0
 40
5.0
  1
08654
  7
Arial-Bold
100
AcDbText
  0
LINE
  5
56B8
330
1F
100
AcDbEntity
  8
APL Joinery
 62
     7
 48
3.0
100
AcDbLine
 10
327.7445783035381
 20
171.0834587985108
 30
0.0
 11
335.0220925597444
 21
177.1900183267815
 31
0.0
  0
LINE
  5
56B9
330
1F
100
AcDbEntity
  8
APL Joinery
 62
     8
 48
3.0
100
AcDbLine
 10
326.4590030841649
 20
172.6155476847486
 30
0.0
 11
333.7365173403711
 21
178.7221072130194
 31
0.0
  0
LINE
  5
56BA
330
1F
100
AcDbEntity
  8
APL Joinery
 62
     8
 48
3.0
100
AcDbLine
 10
325.1734278647917
 20
174.1476365709865
 30
0.0
 11
332.450942120998
 21
180.2541960992573
 31
0.0
  0
LINE
  5
56BB
330
1F
100
AcDbEntity
  8
APL Joinery
 62
     7
 48
3.0
100
AcDbLine
 10
323.8878526454186
 20
175.6797254572244
 30
0.0
 11
331.1653669016248
 21
181.7862849854952
 31
0.0
  0
VIEWPORT
  5
5315
102
{ACAD_XDICTIONARY
360
5B29
102
}
330
530D
100
AcDbEntity
 67
     1
  8
0
 48
3.0
100
AcDbViewport
 10
99.91724538803099
 20
143.1184201240539
 30
0.0
 40
430.1964563810208
 41
299.4231128286808
 68
     1
 69
     1
 12
99.91724538803099
 22
143.1184201240539
 13
0.0
 23
0.0
 14
10.0
 24
10.0
 15
10.0
 25
10.0
 16
0.0
 26
0.0
 36
1.0
 17
0.0
 27
0.0
 37
0.0
 42
50.0
 43
0.0
 44
0.0
 45
299.4231128286808
 50
0.0
 51
0.0
 72
 20000
 90
    32800
  1

281
     0
 71
     1
 74
     0
110
0.0
120
0.0
130
0.0
111
1.0
121
0.0
131
0.0
112
0.0
122
1.0
132
0.0
 79
     0
146
0.0
  0
VIEWPORT
  5
5317
102
{ACAD_XDICTIONARY
360
5B2B
102
}
330
530D
100
AcDbEntity
 67
     1
  8
0
 48
3.0
100
AcDbViewport
 10
100.595
 20
131.1899999999999
 30
0.0
 40
178.0
 41
241.9999999999999
 68
     2
 69
     2
 12
177.0000024892073
 22
241.0000045446581
 13
0.0
 23
0.0
 14
1.0
 24
1.0
 15
1.0
 25
1.0
 16
0.0
 26
0.0
 36
1.0
 17
0.0
 27
0.0
 37
0.0
 42
50.0
 43
0.0
 44
0.0
 45
483.9999999999998
 50
0.0
 51
0.0
 72
   100
 90
    32864
  1

281
     0
 71
     1
 74
     0
110
0.0
120
0.0
130
0.0
111
1.0
121
0.0
131
0.0
112
0.0
122
1.0
132
0.0
 79
     0
146
0.0
  0
INSERT
  5
531C
330
530D
100
AcDbEntity
 67
     1
  8
APL Border
 48
3.0
100
AcDbBlockReference
  2
vantage a4 SM border
 10
0.0
 20
0.0
 30
0.0
  0
INSERT
  5
5A76
330
530D
100
AcDbEntity
 67
     1
  8
APL Border
100
AcDbBlockReference
 66
     1
  2
vantage a4 SM attributes (4)
 10
0.0
 20
0.0
 30
0.0
  0
ATTRIB
  5
5A78
330
5A76
100
AcDbEntity
 67
     1
  8
APL Border
100
AcDbText
 10
41.78979785863009
 20
276.19
 30
0.0
 40
3.5
  1
40MM WINDOW SERIES
  7
Arial-Bold
100
AcDbAttribute
  2
DRAWINGTITLE_1
 70
     0
1001
AcDbBlockRepETag
1070
     1
1071
        0
1005
0
  0
ATTRIB
  5
5A79
330
5A76
100
AcDbEntity
 67
     1
  8
APL Border
100
AcDbText
 10
41.78979785863009
 20
270.19
 30
0.0
 40
3.5
  1
90° CORNER WINDOW
  7
Arial-Bold
100
AcDbAttribute
  2
DRAWINGTITLE_2
 70
     0
1001
AcDbBlockRepETag
1070
     1
1071
        1
1005
0
  0
ATTRIB
  5
5A7A
330
5A76
100
AcDbEntity
 67
     1
  8
APL Border
100
AcDbText
 10
41.78979785863009
 20
264.19
 30
0.0
 40
3.5
  1
FACET WINDOW
  7
Arial-Bold
100
AcDbAttribute
  2
DRAWINGTITLE_3
 70
     0
1001
AcDbBlockRepETag
1070
     1
1071
        2
1005
0
  0
ATTRIB
  5
5A7B
330
5A76
100
AcDbEntity
 67
     1
  8
APL Border
100
AcDbText
 10
41.78979785863009
 20
258.19
 30
0.0
 40
3.0
  1
CROSS SECTION
  7
Arial-Regular
100
AcDbAttribute
  2
DRAWINGTITLE_4
 70
     0
1001
AcDbBlockRepETag
1070
     1
1071
        3
1005
0
  0
ATTRIB
  5
5A7C
330
5A76
100
AcDbEntity
 67
     1
  8
APL Border
100
AcDbText
 10
165.845
 20
273.69
 30
0.0
 40
2.5
  1
VC4006-0
  7
Arial-Regular
100
AcDbAttribute
  2
AW12-0
 70
     0
1001
AcDbBlockRepETag
1070
     1
1071
        4
1005
0
  0
ATTRIB
  5
5A7D
330
5A76
100
AcDbEntity
 67
     1
  8
APL Border
100
AcDbText
 10
147.5475920873124
 20
257.1899999999999
 30
0.0
 40
2.5
  1
01.06.11
  7
Arial-Regular
 72
     1
 11
154.345
 21
257.1899999999999
 31
0.0
100
AcDbAttribute
  2
25.07.08
 70
     0
1001
AcDbBlockRepETag
1070
     1
1071
        5
1005
0
  0
ATTRIB
  5
5A7E
330
5A76
100
AcDbEntity
 67
     1
  8
APL Border
100
AcDbText
 10
175.4174761255116
 20
257.1899999999999
 30
0.0
 40
2.5
  1
1:2
  7
Arial-Regular
 72
     1
 11
177.845
 21
257.1899999999999
 31
0.0
100
AcDbAttribute
  2
1:2
 70
     0
1001
AcDbBlockRepETag
1070
     1
1071
        6
1005
0
  0
ATTRIB
  5
5A7F
330
5A76
100
AcDbEntity
 67
     1
  8
APL Border
100
AcDbText
 10
189.595
 20
1.189999999999997
 30
0.0
 40
3.75
  1

  7
Arial-Bold
 72
     2
 11
189.595
 21
1.189999999999997
 31
0.0
100
AcDbAttribute
  2
1.2.34
 70
     0
1001
AcDbBlockRepETag
1070
     1
1071
        7
1005
0
  0
ATTRIB
  5
5A80
330
5A76
100
AcDbEntity
 67
     1
  8
APL Border
100
AcDbText
 10
11.59500000000003
 20
1.189999999999997
 30
0.0
 40
3.75
  1

  7
Arial-Bold
100
AcDbAttribute
  2
1.2.34
 70
     0
1001
AcDbBlockRepETag
1070
     1
1071
        8
1005
0
  0
SEQEND
  5
5A77
330
5A76
100
AcDbEntity
 67
     1
  8
APL Border
  0
ENDSEC
  0
SECTION
  2
OBJECTS
  0
DICTIONARY
  5
C
330
0
100
AcDbDictionary
281
     1
  3
ACAD_COLOR
350
557D
  3
ACAD_GROUP
350
D
  3
ACAD_LAYOUT
350
1A
  3
ACAD_MATERIAL
350
5553
  3
ACAD_MLEADERSTYLE
350
55A2
  3
ACAD_MLINESTYLE
350
17
  3
ACAD_PLOTSETTINGS
350
19
  3
ACAD_PLOTSTYLENAME
350
E
  3
ACAD_SCALELIST
350
5580
  3
ACAD_TABLESTYLE
350
557E
  3
ACAD_VISUALSTYLE
350
556C
  3
AcadDim
350
86
  3
ACDB_RECOMPOSE_DATA
350
570C
  3
ACDBHEADERROUNDTRIPXREC
350
5FAD
  3
AcDbVariableDictionary
350
3B
  3
AEC_PROPERTY_SET_DEFS
350
5878
  3
DWGPROPS
350
5FAC
  0
DICTIONARY
  5
570E
330
8
100
AcDbDictionary
280
     1
281
     1
  3
ACAD_XREC_ROUNDTRIP
360
5B1B
  0
DICTIONARY
  5
55C4
330
2
100
AcDbDictionary
280
     1
281
     1
  3
ACAD_LAYERSTATES
360
55C5
  0
DICTIONARY
  5
55E8
330
10
100
AcDbDictionary
280
     1
281
     1
  3
ACAD_XREC_ROUNDTRIP
360
5B1C
  3
ADSK_XREC_LAYER_RECONCILED
360
55E9
  0
DICTIONARY
  5
55EA
330
2B
100
AcDbDictionary
280
     1
281
     1
  3
ACAD_XREC_ROUNDTRIP
360
5B1F
  3
ADSK_XREC_LAYER_RECONCILED
360
55EB
  0
DICTIONARY
  5
55EC
330
75
100
AcDbDictionary
280
     1
281
     1
  3
ACAD_XREC_ROUNDTRIP
360
5B20
  3
ADSK_XREC_LAYER_RECONCILED
360
55ED
  0
DICTIONARY
  5
55EE
330
5173
100
AcDbDictionary
280
     1
281
     1
  3
ACAD_XREC_ROUNDTRIP
360
5B21
  3
ADSK_XREC_LAYER_RECONCILED
360
55EF
  0
DICTIONARY
  5
55F2
330
55AC
100
AcDbDictionary
280
     1
281
     1
  3
ACAD_XREC_ROUNDTRIP
360
5B3A
  3
ADSK_XREC_LAYER_RECONCILED
360
55F3
  0
DICTIONARY
  5
461C
330
1F
100
AcDbDictionary
280
     1
281
     1
  3
ACAD_SORTENTS
360
461D
  0
DICTIONARY
  5
5A73
330
5A69
100
AcDbDictionary
280
     1
281
     1
  0
DICTIONARY
  5
5BAB
330
5BAA
100
AcDbDictionary
280
     1
281
     1
  3
ACAD_SORTENTS
360
5BAC
  0
DICTIONARY
  5
5BA9
330
5BA8
100
AcDbDictionary
280
     1
281
     1
  0
DICTIONARY
  5
5B29
330
5315
100
AcDbDictionary
280
     1
281
     1
  3
ACAD_XREC_ROUNDTRIP
360
5B2A
  0
DICTIONARY
  5
5B2B
330
5317
100
AcDbDictionary
280
     1
281
     1
  3
ACAD_XREC_ROUNDTRIP
360
5B2C
  0
DICTIONARY
  5
557D
102
{ACAD_REACTORS
330
C
102
}
330
C
100
AcDbDictionary
281
     1
  0
DICTIONARY
  5
D
102
{ACAD_REACTORS
330
C
102
}
330
C
100
AcDbDictionary
281
     1
  0
DICTIONARY
  5
1A
102
{ACAD_REACTORS
330
C
102
}
330
C
100
AcDbDictionary
281
     1
  3
Model
350
22
  3
Vantage A4
350
530E
  0
DICTIONARY
  5
5553
102
{ACAD_REACTORS
330
C
102
}
330
C
100
AcDbDictionary
281
     1
  3
ByBlock
350
555C
  3
ByLayer
350
5554
  3
Global
350
5564
  0
DICTIONARY
  5
55A2
102
{ACAD_REACTORS
330
C
102
}
330
C
100
AcDbDictionary
281
     1
  3
Standard
350
5B03
  0
DICTIONARY
  5
17
102
{ACAD_REACTORS
330
C
102
}
330
C
100
AcDbDictionary
281
     1
  3
Standard
350
18
  0
DICTIONARY
  5
19
102
{ACAD_REACTORS
330
C
102
}
330
C
100
AcDbDictionary
281
     1
  3
A4 Specifier Manual Hardcopy
350
52C4
  3
A4 Specifier Manual PDF
350
52C5
  0
ACDBDICTIONARYWDFLT
  5
E
102
{ACAD_REACTORS
330
C
102
}
330
C
100
AcDbDictionary
281
     1
  3
Normal
350
F
100
AcDbDictionaryWithDefault
340
F
  0
DICTIONARY
  5
5580
102
{ACAD_REACTORS
330
C
102
}
330
C
100
AcDbDictionary
281
     1
  3
A0
350
5581
  3
A1
350
5582
  3
A2
350
5583
  3
A3
350
5584
  3
A4
350
5585
  3
A5
350
5586
  3
A6
350
5587
  3
A7
350
5588
  3
A8
350
5589
  3
A9
350
558A
  3
B0
350
558B
  3
B1
350
558C
  3
B2
350
558D
  3
B3
350
558E
  3
B4
350
558F
  3
B5
350
5590
  3
B6
350
5591
  3
B7
350
5592
  3
B8
350
5593
  3
B9
350
5594
  3
C0
350
5595
  3
C1
350
5596
  3
C2
350
5597
  3
C3
350
5598
  3
C4
350
5599
  3
C5
350
559A
  3
C6
350
559B
  3
C7
350
559C
  3
C8
350
559D
  3
C9
350
559E
  3
D0
350
559F
  3
D1
350
55A0
  3
D2
350
55A1
  0
DICTIONARY
  5
557E
102
{ACAD_REACTORS
330
C
102
}
330
C
100
AcDbDictionary
281
     1
  3
Standard
350
557F
  0
DICTIONARY
  5
556C
102
{ACAD_REACTORS
330
C
102
}
330
C
100
AcDbDictionary
281
     1
  3
2dWireframe
350
5572
  3
3D Hidden
350
5574
  3
3dWireframe
350
5573
  3
Basic
350
5571
  3
Brighten
350
5578
  3
ColorChange
350
557C
  3
Conceptual
350
5575
  3
Dim
350
5577
  3
Facepattern
350
557B
  3
Flat
350
556D
  3
FlatWithEdges
350
556E
  3
Gouraud
350
556F
  3
GouraudWithEdges
350
5570
  3
Linepattern
350
557A
  3
Realistic
350
5576
  3
Thicken
350
5579
  0
XRECORD
  5
86
102
{ACAD_REACTORS
330
C
102
}
330
C
100
AcDbXrecord
280
     1
 90
   990106
  3

 60
     0
 61
     0
 62
     1
 63
     3
 64
     0
 65
     0
 66
     0
 67
     3
 68
     1
 69
     0
 70
     0
 71
     0
 72
     0
 40
8.188652110585962
170
     0
  0
XRECORD
  5
570C
102
{ACAD_REACTORS
330
C
102
}
330
C
100
AcDbXrecord
280
     1
 90
        1
330
557F
  0
DICTIONARY
  5
5FAD
102
{ACAD_REACTORS
330
C
102
}
330
C
100
AcDbDictionary
281
     1
  0
DICTIONARY
  5
3B
102
{ACAD_REACTORS
330
C
102
}
330
C
100
AcDbDictionary
281
     1
  3
CANNOSCALE
350
573E
  3
CMLEADERSTYLE
350
573D
  3
CTABLESTYLE
350
573C
  3
DIMASSOC
350
3D
  3
HIDETEXT
350
3C
  3
INDEXCTL
350
573F
  3
PROJECTNAME
350
5B7B
  3
SORTENTS
350
461F
  0
DICTIONARY
  5
5878
102
{ACAD_REACTORS
330
C
102
}
330
C
100
AcDbDictionary
281
     1
  0
XRECORD
  5
5FAC
102
{ACAD_REACTORS
330
C
102
}
330
C
100
AcDbXrecord
280
     1
  1
DWGPROPS COOKIE
  2

  3

  4

  6

  7

  8
homer
  9

300
=
301
=
302
=
303
=
304
=
305
=
306
=
307
=
308
=
309
=
 40
2.328663067129629
 41
2452286.590325035
 42
2455660.553215857
  1

 90
        0
  0
XRECORD
  5
5B1B
102
{ACAD_REACTORS
330
570E
102
}
330
570E
100
AcDbXrecord
280
     1
102
VTR_0.000_0.000_1.000_1.000_VISUALSTYLE
340
5572
102
VTR_0.000_0.000_1.000_1.000_GRIDDISPLAY
 70
     3
102
VTR_0.000_0.000_1.000_1.000_GRIDMAJOR
 70
     5
102
VTR_0.000_0.000_1.000_1.000_DEFAULTLIGHTING
280
     1
102
VTR_0.000_0.000_1.000_1.000_DEFAULTLIGHTINGTYPE
 70
     1
102
VTR_0.000_0.000_1.000_1.000_BRIGHTNESS
141
0.0
102
VTR_0.000_0.000_1.000_1.000_CONTRAST
142
0.0
  0
DICTIONARY
  5
55C5
102
{ACAD_REACTORS
330
55C4
102
}
330
55C4
100
AcDbDictionary
281
     1
  0
XRECORD
  5
5B1C
102
{ACAD_REACTORS
330
55E8
102
}
330
55E8
100
AcDbXrecord
280
     1
102
MATERIAL
340
5564
  0
XRECORD
  5
55E9
102
{ACAD_REACTORS
330
55E8
102
}
330
55E8
100
AcDbXrecord
280
     1
290
     1
  0
XRECORD
  5
5B1F
102
{ACAD_REACTORS
330
55EA
102
}
330
55EA
100
AcDbXrecord
280
     1
102
MATERIAL
340
5564
  0
XRECORD
  5
55EB
102
{ACAD_REACTORS
330
55EA
102
}
330
55EA
100
AcDbXrecord
280
     1
290
     1
  0
XRECORD
  5
5B20
102
{ACAD_REACTORS
330
55EC
102
}
330
55EC
100
AcDbXrecord
280
     1
102
MATERIAL
340
5564
  0
XRECORD
  5
55ED
102
{ACAD_REACTORS
330
55EC
102
}
330
55EC
100
AcDbXrecord
280
     1
290
     1
  0
XRECORD
  5
5B21
102
{ACAD_REACTORS
330
55EE
102
}
330
55EE
100
AcDbXrecord
280
     1
102
MATERIAL
340
5564
  0
XRECORD
  5
55EF
102
{ACAD_REACTORS
330
55EE
102
}
330
55EE
100
AcDbXrecord
280
     1
290
     1
  0
XRECORD
  5
5B3A
102
{ACAD_REACTORS
330
55F2
102
}
330
55F2
100
AcDbXrecord
280
     1
102
MATERIAL
340
5564
  0
XRECORD
  5
55F3
102
{ACAD_REACTORS
330
55F2
102
}
330
55F2
100
AcDbXrecord
280
     1
290
     1
  0
SORTENTSTABLE
  5
461D
102
{ACAD_REACTORS
330
461C
102
}
330
461C
100
AcDbSortentsTable
330
1F
331
36EE
  5
36EE
331
437C
  5
4379
331
4086
  5
4080
331
4080
  5
4003
331
4377
  5
42A6
331
4380
  5
437B
331
4087
  5
4086
  0
SORTENTSTABLE
  5
5BAC
102
{ACAD_REACTORS
330
5BAB
102
}
330
5BAB
100
AcDbSortentsTable
330
5BAA
  0
XRECORD
  5
5B2A
102
{ACAD_REACTORS
330
5B29
102
}
330
5B29
100
AcDbXrecord
280
     1
102
VISUALSTYLE
340
5572
102
GRIDDISPLAY
 70
     0
102
GRIDMAJOR
 70
     5
102
DEFAULTLIGHTING
280
     1
102
DEFAULTLIGHTINGTYPE
 70
     1
102
BRIGHTNESS
141
0.0
102
CONTRAST
142
0.0
102
SHADEPLOT
 70
     0
  0
XRECORD
  5
5B2C
102
{ACAD_REACTORS
330
5B2B
102
}
330
5B2B
100
AcDbXrecord
280
     1
102
VISUALSTYLE
340
5572
102
GRIDDISPLAY
 70
     0
102
GRIDMAJOR
 70
     5
102
DEFAULTLIGHTING
280
     1
102
DEFAULTLIGHTINGTYPE
 70
     1
102
BRIGHTNESS
141
0.0
102
CONTRAST
142
0.0
102
SHADEPLOT
 70
     0
  0
LAYOUT
  5
22
102
{ACAD_XDICTIONARY
360
5FAE
102
}
102
{ACAD_REACTORS
330
1A
102
}
330
1A
100
AcDbPlotSettings
  1

  2
A4 Specifier Manual.pc3
  4
A4
  6

 40
6.0
 41
5.0
 42
6.97332763671875
 43
5.96832275390625
 44
209.9733276367187
 45
296.9683227539062
 46
10.5
 47
1.0
 48
55.19893561856474
 49
77.41415496436935
140
329.6878846931311
141
251.7976535946928
142
1.0
143
2.0
 70
 11952
 72
     1
 73
     0
 74
     1
  7
A4 Specifier Manual.ctb
 75
    17
147
0.5
148
2.776315889388001
149
26.16512822630762
100
AcDbLayout
  1
Model
 70
     1
 71
     0
 10
0.0
 20
0.0
 11
12.0
 21
9.0
 12
0.0
 22
0.0
 32
0.0
 14
0.0
 24
0.0
 34
0.0
 15
0.0
 25
0.0
 35
0.0
146
0.0
 13
0.0
 23
0.0
 33
0.0
 16
1.0
 26
0.0
 36
0.0
 17
0.0
 27
1.0
 37
0.0
 76
     0
330
1F
331
5447
  0
LAYOUT
  5
530E
102
{ACAD_XDICTIONARY
360
55C9
102
}
102
{ACAD_REACTORS
330
1A
102
}
330
1A
100
AcDbPlotSettings
  1

  2
\\Aplfp01\APL Technical HP5100 PSLaser
  4
A4
  6

 40
5.027082920074462
 41
5.408084392547607
 42
5.70440673828125
 43
5.365753173828125
 44
209.8886566162109
 45
297.0530090332031
 46
0.0
 47
0.0
 48
0.0
 49
0.0
140
0.0
141
0.0
142
1.0
143
1.0
 70
   176
 72
     1
 73
     0
 74
     5
  7
A4 Specifier Manual.ctb
 75
    16
147
1.0
148
0.0
149
0.0
100
AcDbLayout
  1
Vantage A4
 70
     1
 71
     1
 10
-5.027082920074462
 20
-5.408084392547607
 11
204.8615736961365
 21
291.6449246406555
 12
0.0
 22
0.0
 32
0.0
 14
11.46014299460751
 24
3.285575844812797
 34
-0.0015258207003583
 15
189.6073677543587
 25
282.2033753668244
 35
0.0000000349246037
146
0.0
 13
0.0
 23
0.0
 33
0.0
 16
1.0
 26
0.0
 36
0.0
 17
0.0
 27
1.0
 37
0.0
 76
     0
330
530D
331
5315
1001
ACAD_PSEXT
1000
\\Aplfp01\APL Technical HP5100 PSLaser
1000
HP LaserJet 5100 PS
1000
APL Technical Office
1000

1070
     0
  0
MATERIAL
  5
555C
102
{ACAD_XDICTIONARY
360
555D
102
}
102
{ACAD_REACTORS
330
5553
102
}
330
5553
100
AcDbMaterial
  1
ByBlock
 72
     0
 73
     2
 43
0.0008202099737533
 43
0.0
 43
0.0
 43
0.0
 43
0.0
 43
0.0008202099737533
 43
0.0
 43
0.0
 43
0.0
 43
0.0
 43
1.0
 43
0.0
 43
0.0
 43
0.0
 43
0.0
 43
1.0
 77
     0
 78
     2
 47
0.0008202099737533
 47
0.0
 47
0.0
 47
0.0
 47
0.0
 47
0.0008202099737533
 47
0.0
 47
0.0
 47
0.0
 47
0.0
 47
1.0
 47
0.0
 47
0.0
 47
0.0
 47
0.0
 47
1.0
171
     0
172
     2
 49
0.0008202099737533
 49
0.0
 49
0.0
 49
0.0
 49
0.0
 49
0.0008202099737533
 49
0.0
 49
0.0
 49
0.0
 49
0.0
 49
1.0
 49
0.0
 49
0.0
 49
0.0
 49
0.0
 49
1.0
175
     0
176
     2
142
0.0008202099737533
142
0.0
142
0.0
142
0.0
142
0.0
142
0.0008202099737533
142
0.0
142
0.0
142
0.0
142
0.0
142
1.0
142
0.0
142
0.0
142
0.0
142
0.0
142
1.0
179
     0
270
     2
144
0.0008202099737533
144
0.0
144
0.0
144
0.0
144
0.0
144
0.0008202099737533
144
0.0
144
0.0
144
0.0
144
0.0
144
1.0
144
0.0
144
0.0
144
0.0
144
0.0
144
1.0
274
     2
147
0.0008202099737533
147
0.0
147
0.0
147
0.0
147
0.0
147
0.0008202099737533
147
0.0
147
0.0
147
0.0
147
0.0
147
1.0
147
0.0
147
0.0
147
0.0
147
0.0
147
1.0
  0
MATERIAL
  5
5554
102
{ACAD_XDICTIONARY
360
5555
102
}
102
{ACAD_REACTORS
330
5553
102
}
330
5553
100
AcDbMaterial
  1
ByLayer
 72
     0
 73
     2
 43
0.0008202099737533
 43
0.0
 43
0.0
 43
0.0
 43
0.0
 43
0.0008202099737533
 43
0.0
 43
0.0
 43
0.0
 43
0.0
 43
1.0
 43
0.0
 43
0.0
 43
0.0
 43
0.0
 43
1.0
 77
     0
 78
     2
 47
0.0008202099737533
 47
0.0
 47
0.0
 47
0.0
 47
0.0
 47
0.0008202099737533
 47
0.0
 47
0.0
 47
0.0
 47
0.0
 47
1.0
 47
0.0
 47
0.0
 47
0.0
 47
0.0
 47
1.0
171
     0
172
     2
 49
0.0008202099737533
 49
0.0
 49
0.0
 49
0.0
 49
0.0
 49
0.0008202099737533
 49
0.0
 49
0.0
 49
0.0
 49
0.0
 49
1.0
 49
0.0
 49
0.0
 49
0.0
 49
0.0
 49
1.0
175
     0
176
     2
142
0.0008202099737533
142
0.0
142
0.0
142
0.0
142
0.0
142
0.0008202099737533
142
0.0
142
0.0
142
0.0
142
0.0
142
1.0
142
0.0
142
0.0
142
0.0
142
0.0
142
1.0
179
     0
270
     2
144
0.0008202099737533
144
0.0
144
0.0
144
0.0
144
0.0
144
0.0008202099737533
144
0.0
144
0.0
144
0.0
144
0.0
144
1.0
144
0.0
144
0.0
144
0.0
144
0.0
144
1.0
274
     2
147
0.0008202099737533
147
0.0
147
0.0
147
0.0
147
0.0
147
0.0008202099737533
147
0.0
147
0.0
147
0.0
147
0.0
147
1.0
147
0.0
147
0.0
147
0.0
147
0.0
147
1.0
  0
MATERIAL
  5
5564
102
{ACAD_XDICTIONARY
360
5565
102
}
102
{ACAD_REACTORS
330
5553
102
}
330
5553
100
AcDbMaterial
  1
Global
 72
     0
 73
     2
 43
0.0008202099737533
 43
0.0
 43
0.0
 43
0.0
 43
0.0
 43
0.0008202099737533
 43
0.0
 43
0.0
 43
0.0
 43
0.0
 43
1.0
 43
0.0
 43
0.0
 43
0.0
 43
0.0
 43
1.0
 77
     0
 78
     2
 47
0.0008202099737533
 47
0.0
 47
0.0
 47
0.0
 47
0.0
 47
0.0008202099737533
 47
0.0
 47
0.0
 47
0.0
 47
0.0
 47
1.0
 47
0.0
 47
0.0
 47
0.0
 47
0.0
 47
1.0
171
     0
172
     2
 49
0.0008202099737533
 49
0.0
 49
0.0
 49
0.0
 49
0.0
 49
0.0008202099737533
 49
0.0
 49
0.0
 49
0.0
 49
0.0
 49
1.0
 49
0.0
 49
0.0
 49
0.0
 49
0.0
 49
1.0
175
     0
176
     2
142
0.0008202099737533
142
0.0
142
0.0
142
0.0
142
0.0
142
0.0008202099737533
142
0.0
142
0.0
142
0.0
142
0.0
142
1.0
142
0.0
142
0.0
142
0.0
142
0.0
142
1.0
179
     0
270
     2
144
0.0008202099737533
144
0.0
144
0.0
144
0.0
144
0.0
144
0.0008202099737533
144
0.0
144
0.0
144
0.0
144
0.0
144
1.0
144
0.0
144
0.0
144
0.0
144
0.0
144
1.0
274
     2
147
0.0008202099737533
147
0.0
147
0.0
147
0.0
147
0.0
147
0.0008202099737533
147
0.0
147
0.0
147
0.0
147
0.0
147
1.0
147
0.0
147
0.0
147
0.0
147
0.0
147
1.0
  0
ACAD_PROXY_OBJECT
  5
5B03
102
{ACAD_REACTORS
330
55A2
102
}
330
55A2
100
AcDbProxyObject
 90
      499
 91
      511
 95
   983063
 70
     0
 93
      618
310
40901902A4063FBFFFFFE000000000000002040AD7A3703D0AD73F4254DD185B99185C99000000000000000104090141901A00000000000004100000000000000041025764000000000000300FC0
340
14
340
0
340
11
340
0
 94
        0
1001
ACAD_MLEADERVER
1070
     2
1001
ACAD
1000
AcRTDxfName
1000
MLEADERSTYLE
1000
AcRTDxfName
1000
MLEADERSTYLE
1000
AcRTDxfName
1000
MLEADERSTYLE
  0
MLINESTYLE
  5
18
102
{ACAD_REACTORS
330
17
102
}
330
17
100
AcDbMlineStyle
  2
STANDARD
 70
     0
  3

 62
   256
 51
90.0
 52
90.0
 71
     2
 49
0.5
 62
   256
  6
BYLAYER
 49
-0.5
 62
   256
  6
BYLAYER
  0
PLOTSETTINGS
  5
52C4
102
{ACAD_XDICTIONARY
360
5FB0
102
}
102
{ACAD_REACTORS
330
19
102
}
330
19
100
AcDbPlotSettings
  1
A4 Specifier Manual Hardcopy
  2
A4 Specifier Manual.pc3
  4
A4
  6

 40
6.0
 41
5.0
 42
6.97332763671875
 43
5.96832275390625
 44
209.9733276367187
 45
296.9683227539062
 46
10.5
 47
-1.0
 48
55.19893561856474
 49
77.41415496436935
140
329.6878846931311
141
251.7976535946928
142
1.0
143
2.0
 70
  1712
 72
     1
 73
     0
 74
     1
  7
A4 specifier manual.ctb
 75
    17
147
0.5
148
2.225667800726114
149
26.13925412475783
  0
PLOTSETTINGS
  5
52C5
102
{ACAD_XDICTIONARY
360
5FB2
102
}
102
{ACAD_REACTORS
330
19
102
}
330
19
100
AcDbPlotSettings
  1
A4 Specifier Manual PDF
  2
Acrobat Distiller.pc3
  4
A4
  6

 40
3.174999952316284
 41
3.174999952316284
 42
3.175003051757812
 43
3.17498779296875
 44
209.9098358154297
 45
297.0318298339844
 46
12.0
 47
3.0
 48
55.19893561856474
 49
77.41415496436935
140
329.6878846931311
141
251.7976535946928
142
1.0
143
2.0
 70
  1712
 72
     1
 73
     0
 74
     1
  7
A4 Specifier Manual.ctb
 75
    17
147
0.5
148
2.231438335389952
149
26.15846035871732
  0
ACDBPLACEHOLDER
  5
F
102
{ACAD_REACTORS
330
E
102
}
330
E
  0
ACAD_PROXY_OBJECT
  5
5581
102
{ACAD_REACTORS
330
5580
102
}
330
5580
100
AcDbProxyObject
 90
      499
 91
      510
 95
   983063
 70
     0
 93
       49
310
904313A3100580
 94
        0
1001
ACAD
1000
AcRTDxfName
1000
SCALE
1000
AcRTDxfName
1000
SCALE
1000
AcRTDxfName
1000
SCALE
  0
ACAD_PROXY_OBJECT
  5
5582
102
{ACAD_REACTORS
330
5580
102
}
330
5580
100
AcDbProxyObject
 90
      499
 91
      510
 95
   983063
 70
     0
 93
      113
310
904313A32004000000000000004040
 94
        0
1001
ACAD
1000
AcRTDxfName
1000
SCALE
1000
AcRTDxfName
1000
SCALE
1000
AcRTDxfName
1000
SCALE
  0
ACAD_PROXY_OBJECT
  5
5583
102
{ACAD_REACTORS
330
5580
102
}
330
5580
100
AcDbProxyObject
 90
      499
 91
      510
 95
   983063
 70
     0
 93
      113
310
904313A34004000000000000104040
 94
        0
1001
ACAD
1000
AcRTDxfName
1000
SCALE
1000
AcRTDxfName
1000
SCALE
1000
AcRTDxfName
1000
SCALE
  0
ACAD_PROXY_OBJECT
  5
5584
102
{ACAD_REACTORS
330
5580
102
}
330
5580
100
AcDbProxyObject
 90
      499
 91
      510
 95
   983063
 70
     0
 93
      113
310
904313A35004000000000000144040
 94
        0
1001
ACAD
1000
AcRTDxfName
1000
SCALE
1000
AcRTDxfName
1000
SCALE
1000
AcRTDxfName
1000
SCALE
  0
ACAD_PROXY_OBJECT
  5
5585
102
{ACAD_REACTORS
330
5580
102
}
330
5580
100
AcDbProxyObject
 90
      499
 91
      510
 95
   983063
 70
     0
 93
      113
310
904313A38004000000000000204040
 94
        0
1001
ACAD
1000
AcRTDxfName
1000
SCALE
1000
AcRTDxfName
1000
SCALE
1000
AcRTDxfName
1000
SCALE
  0
ACAD_PROXY_OBJECT
  5
5586
102
{ACAD_REACTORS
330
5580
102
}
330
5580
100
AcDbProxyObject
 90
      499
 91
      510
 95
   983063
 70
     0
 93
      121
310
905313A3130004000000000000244001
 94
        0
1001
ACAD
1000
AcRTDxfName
1000
SCALE
1000
AcRTDxfName
1000
SCALE
1000
AcRTDxfName
1000
SCALE
  0
ACAD_PROXY_OBJECT
  5
5587
102
{ACAD_REACTORS
330
5580
102
}
330
5580
100
AcDbProxyObject
 90
      499
 91
      510
 95
   983063
 70
     0
 93
      121
310
905313A3136004000000000000304000
 94
        0
1001
ACAD
1000
AcRTDxfName
1000
SCALE
1000
AcRTDxfName
1000
SCALE
1000
AcRTDxfName
1000
SCALE
  0
ACAD_PROXY_OBJECT
  5
5588
102
{ACAD_REACTORS
330
5580
102
}
330
5580
100
AcDbProxyObject
 90
      499
 91
      510
 95
   983063
 70
     0
 93
      121
310
905313A3230004000000000000344001
 94
        0
1001
ACAD
1000
AcRTDxfName
1000
SCALE
1000
AcRTDxfName
1000
SCALE
1000
AcRTDxfName
1000
SCALE
  0
ACAD_PROXY_OBJECT
  5
5589
102
{ACAD_REACTORS
330
5580
102
}
330
5580
100
AcDbProxyObject
 90
      499
 91
      510
 95
   983063
 70
     0
 93
      121
310
905313A33300040000000000003E4000
 94
        0
1001
ACAD
1000
AcRTDxfName
1000
SCALE
1000
AcRTDxfName
1000
SCALE
1000
AcRTDxfName
1000
SCALE
  0
ACAD_PROXY_OBJECT
  5
558A
102
{ACAD_REACTORS
330
5580
102
}
330
5580
100
AcDbProxyObject
 90
      499
 91
      510
 95
   983063
 70
     0
 93
      121
310
905313A3430004000000000000444040
 94
        0
1001
ACAD
1000
AcRTDxfName
1000
SCALE
1000
AcRTDxfName
1000
SCALE
1000
AcRTDxfName
1000
SCALE
  0
ACAD_PROXY_OBJECT
  5
558B
102
{ACAD_REACTORS
330
5580
102
}
330
5580
100
AcDbProxyObject
 90
      499
 91
      510
 95
   983063
 70
     0
 93
      121
310
905313A3530004000000000000494001
 94
        0
1001
ACAD
1000
AcRTDxfName
1000
SCALE
1000
AcRTDxfName
1000
SCALE
1000
AcRTDxfName
1000
SCALE
  0
ACAD_PROXY_OBJECT
  5
558C
102
{ACAD_REACTORS
330
5580
102
}
330
5580
100
AcDbProxyObject
 90
      499
 91
      510
 95
   983063
 70
     0
 93
      129
310
906313A313030004000000000000594000
 94
        0
1001
ACAD
1000
AcRTDxfName
1000
SCALE
1000
AcRTDxfName
1000
SCALE
1000
AcRTDxfName
1000
SCALE
  0
ACAD_PROXY_OBJECT
  5
558D
102
{ACAD_REACTORS
330
5580
102
}
330
5580
100
AcDbProxyObject
 90
      499
 91
      510
 95
   983063
 70
     0
 93
      113
310
904323A31000000000000000010165
 94
        0
1001
ACAD
1000
AcRTDxfName
1000
SCALE
1000
AcRTDxfName
1000
SCALE
1000
AcRTDxfName
1000
SCALE
  0
ACAD_PROXY_OBJECT
  5
558E
102
{ACAD_REACTORS
330
5580
102
}
330
5580
100
AcDbProxyObject
 90
      499
 91
      510
 95
   983063
 70
     0
 93
      113
310
904343A31000000000000000410101
 94
        0
1001
ACAD
1000
AcRTDxfName
1000
SCALE
1000
AcRTDxfName
1000
SCALE
1000
AcRTDxfName
1000
SCALE
  0
ACAD_PROXY_OBJECT
  5
558F
102
{ACAD_REACTORS
330
5580
102
}
330
5580
100
AcDbProxyObject
 90
      499
 91
      510
 95
   983063
 70
     0
 93
      113
310
904383A31000000000000000810165
 94
        0
1001
ACAD
1000
AcRTDxfName
1000
SCALE
1000
AcRTDxfName
1000
SCALE
1000
AcRTDxfName
1000
SCALE
  0
ACAD_PROXY_OBJECT
  5
5590
102
{ACAD_REACTORS
330
5580
102
}
330
5580
100
AcDbProxyObject
 90
      499
 91
      510
 95
   983063
 70
     0
 93
      121
310
90531303A31000000000000000910120
 94
        0
1001
ACAD
1000
AcRTDxfName
1000
SCALE
1000
AcRTDxfName
1000
SCALE
1000
AcRTDxfName
1000
SCALE
  0
ACAD_PROXY_OBJECT
  5
5591
102
{ACAD_REACTORS
330
5580
102
}
330
5580
100
AcDbProxyObject
 90
      499
 91
      510
 95
   983063
 70
     0
 93
      129
310
9063130303A31000000000000001650100
 94
        0
1001
ACAD
1000
AcRTDxfName
1000
SCALE
1000
AcRTDxfName
1000
SCALE
1000
AcRTDxfName
1000
SCALE
  0
ACAD_PROXY_OBJECT
  5
5592
102
{ACAD_REACTORS
330
5580
102
}
330
5580
100
AcDbProxyObject
 90
      499
 91
      510
 95
   983063
 70
     0
 93
      265
310
90F312F31323822203D2031272D302200000000000000200FC000000000000284018
 94
        0
1001
ACAD
1000
AcRTDxfName
1000
SCALE
1000
AcRTDxfName
1000
SCALE
1000
AcRTDxfName
1000
SCALE
  0
ACAD_PROXY_OBJECT
  5
5593
102
{ACAD_REACTORS
330
5580
102
}
330
5580
100
AcDbProxyObject
 90
      499
 91
      510
 95
   983063
 70
     0
 93
      257
310
90E312F363422203D2031272D302200000000000000240FC000000000000284000
 94
        0
1001
ACAD
1000
AcRTDxfName
1000
SCALE
1000
AcRTDxfName
1000
SCALE
1000
AcRTDxfName
1000
SCALE
  0
ACAD_PROXY_OBJECT
  5
5594
102
{ACAD_REACTORS
330
5580
102
}
330
5580
100
AcDbProxyObject
 90
      499
 91
      510
 95
   983063
 70
     0
 93
      257
310
90E312F333222203D2031272D302200000000000000280FC000000000000284040
 94
        0
1001
ACAD
1000
AcRTDxfName
1000
SCALE
1000
AcRTDxfName
1000
SCALE
1000
AcRTDxfName
1000
SCALE
  0
ACAD_PROXY_OBJECT
  5
5595
102
{ACAD_REACTORS
330
5580
102
}
330
5580
100
AcDbProxyObject
 90
      499
 91
      510
 95
   983063
 70
     0
 93
      257
310
90E312F313622203D2031272D3022000000000000002C0FC000000000000284000
 94
        0
1001
ACAD
1000
AcRTDxfName
1000
SCALE
1000
AcRTDxfName
1000
SCALE
1000
AcRTDxfName
1000
SCALE
  0
ACAD_PROXY_OBJECT
  5
5596
102
{ACAD_REACTORS
330
5580
102
}
330
5580
100
AcDbProxyObject
 90
      499
 91
      510
 95
   983063
 70
     0
 93
      257
310
90E332F333222203D2031272D3022000000000000002E0FC000000000000284040
 94
        0
1001
ACAD
1000
AcRTDxfName
1000
SCALE
1000
AcRTDxfName
1000
SCALE
1000
AcRTDxfName
1000
SCALE
  0
ACAD_PROXY_OBJECT
  5
5597
102
{ACAD_REACTORS
330
5580
102
}
330
5580
100
AcDbProxyObject
 90
      499
 91
      510
 95
   983063
 70
     0
 93
      249
310
90D312F3822203D2031272D302200000000000000300FC000000000000284040
 94
        0
1001
ACAD
1000
AcRTDxfName
1000
SCALE
1000
AcRTDxfName
1000
SCALE
1000
AcRTDxfName
1000
SCALE
  0
ACAD_PROXY_OBJECT
  5
5598
102
{ACAD_REACTORS
330
5580
102
}
330
5580
100
AcDbProxyObject
 90
      499
 91
      510
 95
   983063
 70
     0
 93
      257
310
90E332F313622203D2031272D302200000000000000320FC000000000000284040
 94
        0
1001
ACAD
1000
AcRTDxfName
1000
SCALE
1000
AcRTDxfName
1000
SCALE
1000
AcRTDxfName
1000
SCALE
  0
ACAD_PROXY_OBJECT
  5
5599
102
{ACAD_REACTORS
330
5580
102
}
330
5580
100
AcDbProxyObject
 90
      499
 91
      510
 95
   983063
 70
     0
 93
      249
310
90D312F3422203D2031272D302200000000000000340FC000000000000284040
 94
        0
1001
ACAD
1000
AcRTDxfName
1000
SCALE
1000
AcRTDxfName
1000
SCALE
1000
AcRTDxfName
1000
SCALE
  0
ACAD_PROXY_OBJECT
  5
559A
102
{ACAD_REACTORS
330
5580
102
}
330
5580
100
AcDbProxyObject
 90
      499
 91
      510
 95
   983063
 70
     0
 93
      249
310
90D332F3822203D2031272D302200000000000000360FC000000000000284028
 94
        0
1001
ACAD
1000
AcRTDxfName
1000
SCALE
1000
AcRTDxfName
1000
SCALE
1000
AcRTDxfName
1000
SCALE
  0
ACAD_PROXY_OBJECT
  5
559B
102
{ACAD_REACTORS
330
5580
102
}
330
5580
100
AcDbProxyObject
 90
      499
 91
      510
 95
   983063
 70
     0
 93
      249
310
90D312F3222203D2031272D302200000000000000380FC000000000000284040
 94
        0
1001
ACAD
1000
AcRTDxfName
1000
SCALE
1000
AcRTDxfName
1000
SCALE
1000
AcRTDxfName
1000
SCALE
  0
ACAD_PROXY_OBJECT
  5
559C
102
{ACAD_REACTORS
330
5580
102
}
330
5580
100
AcDbProxyObject
 90
      499
 91
      510
 95
   983063
 70
     0
 93
      249
310
90D332F3422203D2031272D3022000000000000003A0FC000000000000284028
 94
        0
1001
ACAD
1000
AcRTDxfName
1000
SCALE
1000
AcRTDxfName
1000
SCALE
1000
AcRTDxfName
1000
SCALE
  0
ACAD_PROXY_OBJECT
  5
559D
102
{ACAD_REACTORS
330
5580
102
}
330
5580
100
AcDbProxyObject
 90
      499
 91
      510
 95
   983063
 70
     0
 93
      169
310
90B3122203D2031272D3022004000000000000284000
 94
        0
1001
ACAD
1000
AcRTDxfName
1000
SCALE
1000
AcRTDxfName
1000
SCALE
1000
AcRTDxfName
1000
SCALE
  0
ACAD_PROXY_OBJECT
  5
559E
102
{ACAD_REACTORS
330
5580
102
}
330
5580
100
AcDbProxyObject
 90
      499
 91
      510
 95
   983063
 70
     0
 93
      265
310
90F312D312F3222203D2031272D3022000000000000003E0FC000000000000284018
 94
        0
1001
ACAD
1000
AcRTDxfName
1000
SCALE
1000
AcRTDxfName
1000
SCALE
1000
AcRTDxfName
1000
SCALE
  0
ACAD_PROXY_OBJECT
  5
559F
102
{ACAD_REACTORS
330
5580
102
}
330
5580
100
AcDbProxyObject
 90
      499
 91
      510
 95
   983063
 70
     0
 93
      233
310
90B3322203D2031272D30220000000000000002100000000000000284000
 94
        0
1001
ACAD
1000
AcRTDxfName
1000
SCALE
1000
AcRTDxfName
1000
SCALE
1000
AcRTDxfName
1000
SCALE
  0
ACAD_PROXY_OBJECT
  5
55A0
102
{ACAD_REACTORS
330
5580
102
}
330
5580
100
AcDbProxyObject
 90
      499
 91
      510
 95
   983063
 70
     0
 93
      233
310
90B3622203D2031272D3022000000000000000610000000000000028405D
 94
        0
1001
ACAD
1000
AcRTDxfName
1000
SCALE
1000
AcRTDxfName
1000
SCALE
1000
AcRTDxfName
1000
SCALE
  0
ACAD_PROXY_OBJECT
  5
55A1
102
{ACAD_REACTORS
330
5580
102
}
330
5580
100
AcDbProxyObject
 90
      499
 91
      510
 95
   983063
 70
     0
 93
      257
310
90E31272D3022203D2031272D3022000000000000000A100000000000000284000
 94
        0
1001
ACAD
1000
AcRTDxfName
1000
SCALE
1000
AcRTDxfName
1000
SCALE
1000
AcRTDxfName
1000
SCALE
  0
TABLESTYLE
  5
557F
102
{ACAD_XDICTIONARY
360
570A
102
}
102
{ACAD_REACTORS
330
557E
102
}
330
557E
100
AcDbTableStyle
  3
Standard
 70
     0
 71
     0
 40
1.5
 41
1.5
280
     0
281
     0
  7
Standard
140
4.5
170
     2
 62
     0
 63
     7
283
     0
274
    -2
284
     1
 64
     0
275
    -2
285
     1
 65
     0
276
    -2
286
     1
 66
     0
277
    -2
287
     1
 67
     0
278
    -2
288
     1
 68
     0
279
    -2
289
     1
 69
     0
  7
Standard
140
6.0
170
     5
 62
     0
 63
     7
283
     0
274
    -2
284
     1
 64
     0
275
    -2
285
     1
 65
     0
276
    -2
286
     1
 66
     0
277
    -2
287
     1
 67
     0
278
    -2
288
     1
 68
     0
279
    -2
289
     1
 69
     0
  7
Standard
140
4.5
170
     5
 62
     0
 63
     7
283
     0
274
    -2
284
     1
 64
     0
275
    -2
285
     1
 65
     0
276
    -2
286
     1
 66
     0
277
    -2
287
     1
 67
     0
278
    -2
288
     1
 68
     0
279
    -2
289
     1
 69
     0
  0
ACAD_PROXY_OBJECT
  5
5572
102
{ACAD_REACTORS
330
556C
102
}
330
556C
100
AcDbProxyObject
 90
      499
 91
      508
 95
   983063
 70
     0
 93
      444
310
430C9915DA5C99599C985B59401049028333333333333E3BF0000000000000FB0107901411070040501600405405064090741402480A0340
 94
        0
1001
ACAD
1000
AcDbSavedByObjectVersion
1070
     0
1000
AcRTDxfName
1000
VISUALSTYLE
1000
AcRTDxfName
1000
VISUALSTYLE
1000
AcRTDxfName
1000
VISUALSTYLE
  0
ACAD_PROXY_OBJECT
  5
5574
102
{ACAD_REACTORS
330
556C
102
}
330
556C
100
AcDbProxyObject
 90
      499
 91
      508
 95
   983063
 70
     0
 93
      508
310
428CD108121A5919195B8010640502408333333333333E3BF0000000000000FB01079024090700405020000000000001110200405405064090740C02480A0340
 94
        0
1001
ACAD
1000
AcDbSavedByObjectVersion
1070
     0
1000
AcRTDxfName
1000
VISUALSTYLE
1000
AcRTDxfName
1000
VISUALSTYLE
1000
AcRTDxfName
1000
VISUALSTYLE
  0
ACAD_PROXY_OBJECT
  5
5573
102
{ACAD_REACTORS
330
556C
102
}
330
556C
100
AcDbProxyObject
 90
      499
 91
      508
 95
   983063
 70
     0
 93
      444
310
430CD915DA5C99599C985B59401059028333333333333E3BF0000000000000FB0107901411070040501600405405064090741402480A0340
 94
        0
1001
ACAD
1000
AcDbSavedByObjectVersion
1070
     0
1000
AcRTDxfName
1000
VISUALSTYLE
1000
AcRTDxfName
1000
VISUALSTYLE
1000
AcRTDxfName
1000
VISUALSTYLE
  0
ACAD_PROXY_OBJECT
  5
5571
102
{ACAD_REACTORS
330
556C
102
}
330
556C
100
AcDbProxyObject
 90
      499
 91
      508
 95
   983063
 70
     0
 93
      396
310
4190985CDA58C0107406404333333333333E3BF0000000000000FB0107A41107004050150841D405064090741402480A0354
 94
        0
1001
ACAD
1000
AcDbSavedByObjectVersion
1070
     0
1000
AcRTDxfName
1000
VISUALSTYLE
1000
AcRTDxfName
1000
VISUALSTYLE
1000
AcRTDxfName
1000
VISUALSTYLE
  0
ACAD_PROXY_OBJECT
  5
5578
102
{ACAD_REACTORS
330
556C
102
}
330
556C
100
AcDbProxyObject
 90
      499
 91
      508
 95
   983063
 70
     0
 93
      436
310
42509C9A59DA1D195B8010C409028333333333333E3BF0000000000000FB010790141107004050150841D405064090741402480A02995A
 94
        0
1001
ACAD
1000
AcDbSavedByObjectVersion
1070
     0
1000
AcRTDxfName
1000
VISUALSTYLE
1000
AcRTDxfName
1000
VISUALSTYLE
1000
AcRTDxfName
1000
VISUALSTYLE
  0
ACAD_PROXY_OBJECT
  5
557C
102
{ACAD_REACTORS
330
556C
102
}
330
556C
100
AcDbProxyObject
 90
      499
 91
      508
 95
   983063
 70
     0
 93
      460
310
4310DBDB1BDC90DA185B99D9401104090240C333333333333E3BF0000000000000FB0108901411070040501508421405064090741402480A0350
 94
        0
1001
ACAD
1000
AcDbSavedByObjectVersion
1070
     0
1000
AcRTDxfName
1000
VISUALSTYLE
1000
AcRTDxfName
1000
VISUALSTYLE
1000
AcRTDxfName
1000
VISUALSTYLE
  0
ACAD_PROXY_OBJECT
  5
5575
102
{ACAD_REACTORS
330
556C
102
}
330
556C
100
AcDbProxyObject
 90
      499
 91
      508
 95
   983063
 70
     0
 93
      508
310
42D0DBDB98D95C1D1D585B0010940D028333333333333E3BF0000000000000FB0107902409070040501000000000000111010841D405064090740C02480A0340
 94
        0
1001
ACAD
1000
AcDbSavedByObjectVersion
1070
     0
1000
AcRTDxfName
1000
VISUALSTYLE
1000
AcRTDxfName
1000
VISUALSTYLE
1000
AcRTDxfName
1000
VISUALSTYLE
  0
ACAD_PROXY_OBJECT
  5
5577
102
{ACAD_REACTORS
330
556C
102
}
330
556C
100
AcDbProxyObject
 90
      499
 91
      508
 95
   983063
 70
     0
 93
      420
310
41111A5B4010B409028333333333333E3BF0000000000000FB010790141107004050150841D405064090741402480A02677FFFFFD2
 94
        0
1001
ACAD
1000
AcDbSavedByObjectVersion
1070
     0
1000
AcRTDxfName
1000
VISUALSTYLE
1000
AcRTDxfName
1000
VISUALSTYLE
1000
AcRTDxfName
1000
VISUALSTYLE
  0
ACAD_PROXY_OBJECT
  5
557B
102
{ACAD_REACTORS
330
556C
102
}
330
556C
100
AcDbProxyObject
 90
      499
 91
      508
 95
   983063
 70
     0
 93
      452
310
43119858D95C185D1D195C9B8010F409028333333333333E3BF0000000000000FB010790141107004050150841D405064090741402480A0356
 94
        0
1001
ACAD
1000
AcDbSavedByObjectVersion
1070
     0
1000
AcRTDxfName
1000
VISUALSTYLE
1000
AcRTDxfName
1000
VISUALSTYLE
1000
AcRTDxfName
1000
VISUALSTYLE
  0
ACAD_PROXY_OBJECT
  5
556D
102
{ACAD_REACTORS
330
556C
102
}
330
556C
100
AcDbProxyObject
 90
      499
 91
      508
 95
   983063
 70
     0
 93
      396
310
41519B185D00240901404333333333333E3BF0000000000000F9010740A41107004050150841D405064090741402480A1B58
 94
        0
1001
ACAD
1000
AcDbSavedByObjectVersion
1070
     0
1000
AcRTDxfName
1000
VISUALSTYLE
1000
AcRTDxfName
1000
VISUALSTYLE
1000
AcRTDxfName
1000
VISUALSTYLE
  0
ACAD_PROXY_OBJECT
  5
556E
102
{ACAD_REACTORS
330
556C
102
}
330
556C
100
AcDbProxyObject
 90
      499
 91
      508
 95
   983063
 70
     0
 93
      484
310
43919B185D15DA5D1A115919D95CC010140901404333333333333E3BF0000000000000F9010740901411070040501600405405064090741402480A1B58
 94
        0
1001
ACAD
1000
AcDbSavedByObjectVersion
1070
     0
1000
AcRTDxfName
1000
VISUALSTYLE
1000
AcRTDxfName
1000
VISUALSTYLE
1000
AcRTDxfName
1000
VISUALSTYLE
  0
ACAD_PROXY_OBJECT
  5
556F
102
{ACAD_REACTORS
330
556C
102
}
330
556C
100
AcDbProxyObject
 90
      499
 91
      508
 95
   983063
 70
     0
 93
      420
310
4211DBDD5C985D590010240902404333333333333E3BF0000000000000F9010740A411070040501641D405064090741402480A1B58
 94
        0
1001
ACAD
1000
AcDbSavedByObjectVersion
1070
     0
1000
AcRTDxfName
1000
VISUALSTYLE
1000
AcRTDxfName
1000
VISUALSTYLE
1000
AcRTDxfName
1000
VISUALSTYLE
  0
ACAD_PROXY_OBJECT
  5
5570
102
{ACAD_REACTORS
330
556C
102
}
330
556C
100
AcDbProxyObject
 90
      499
 91
      508
 95
   983063
 70
     0
 93
      508
310
4451DBDD5C985D5915DA5D1A115919D95CC010340902404333333333333E3BF0000000000000F9010740901411070040501600405405064090741402480A1B50
 94
        0
1001
ACAD
1000
AcDbSavedByObjectVersion
1070
     0
1000
AcRTDxfName
1000
VISUALSTYLE
1000
AcRTDxfName
1000
VISUALSTYLE
1000
AcRTDxfName
1000
VISUALSTYLE
  0
ACAD_PROXY_OBJECT
  5
557A
102
{ACAD_REACTORS
330
556C
102
}
330
556C
100
AcDbProxyObject
 90
      499
 91
      508
 95
   983063
 70
     0
 93
      452
310
43131A5B995C185D1D195C9B8010E409028333333333333E3BF0000000000000FB010790141107004050750841D405064090741402483A0353
 94
        0
1001
ACAD
1000
AcDbSavedByObjectVersion
1070
     0
1000
AcRTDxfName
1000
VISUALSTYLE
1000
AcRTDxfName
1000
VISUALSTYLE
1000
AcRTDxfName
1000
VISUALSTYLE
  0
ACAD_PROXY_OBJECT
  5
5576
102
{ACAD_REACTORS
330
556C
102
}
330
556C
100
AcDbProxyObject
 90
      499
 91
      508
 95
   983063
 70
     0
 93
      428
310
429499585B1A5CDD1A58C0108409028333333333333E3BF0000000000000FB01079019070040501508421405064090741402480A1B49
 94
        0
1001
ACAD
1000
AcDbSavedByObjectVersion
1070
     0
1000
AcRTDxfName
1000
VISUALSTYLE
1000
AcRTDxfName
1000
VISUALSTYLE
1000
AcRTDxfName
1000
VISUALSTYLE
  0
ACAD_PROXY_OBJECT
  5
5579
102
{ACAD_REACTORS
330
556C
102
}
330
556C
100
AcDbProxyObject
 90
      499
 91
      508
 95
   983063
 70
     0
 93
      420
310
42151A1A58DAD95B8010D409028333333333333E3BF0000000000000FB010790141107004050150C41D405064090741402480A0352
 94
        0
1001
ACAD
1000
AcDbSavedByObjectVersion
1070
     0
1000
AcRTDxfName
1000
VISUALSTYLE
1000
AcRTDxfName
1000
VISUALSTYLE
1000
AcRTDxfName
1000
VISUALSTYLE
  0
DICTIONARYVAR
  5
573E
102
{ACAD_REACTORS
330
3B
102
}
330
3B
100
DictionaryVariables
280
     0
  1
1:1
  0
DICTIONARYVAR
  5
573D
102
{ACAD_REACTORS
330
3B
102
}
330
3B
100
DictionaryVariables
280
     0
  1
STANDARD
  0
DICTIONARYVAR
  5
573C
102
{ACAD_REACTORS
330
3B
102
}
330
3B
100
DictionaryVariables
280
     0
  1
STANDARD
  0
DICTIONARYVAR
  5
3D
102
{ACAD_REACTORS
330
3B
102
}
330
3B
100
DictionaryVariables
280
     0
  1
2
  0
DICTIONARYVAR
  5
3C
102
{ACAD_REACTORS
330
3B
102
}
330
3B
100
DictionaryVariables
280
     0
  1
1
  0
DICTIONARYVAR
  5
573F
102
{ACAD_REACTORS
330
3B
102
}
330
3B
100
DictionaryVariables
280
     0
  1
0
  0
DICTIONARYVAR
  5
5B7B
102
{ACAD_REACTORS
330
3B
102
}
330
3B
100
DictionaryVariables
280
     0
  1

  0
DICTIONARYVAR
  5
461F
102
{ACAD_REACTORS
330
3B
102
}
330
3B
100
DictionaryVariables
280
     0
  1
127
  0
DICTIONARY
  5
5FAE
330
22
100
AcDbDictionary
280
     1
281
     1
  3
ACAD_XREC_ROUNDTRIP
360
5FAF
  0
DICTIONARY
  5
55C9
330
530E
100
AcDbDictionary
280
     1
281
     1
  3
ACAD_XREC_ROUNDTRIP
360
5FB4
  3
ADSK_XREC_LAYOUTTHUMBNAIL
360
55CA
  0
DICTIONARY
  5
555D
330
555C
100
AcDbDictionary
280
     1
281
     1
  3
ACAD_XREC_ROUNDTRIP
360
5B36
  3
BUMPTILE
360
555F
  3
DIFFUSETILE
360
555E
  3
OPACITYTILE
360
5562
  3
REFLECTIONTILE
360
5561
  3
REFRACTIONTILE
360
5563
  3
SPECULARTILE
360
5560
  0
DICTIONARY
  5
5555
330
5554
100
AcDbDictionary
280
     1
281
     1
  3
ACAD_XREC_ROUNDTRIP
360
5B35
  3
BUMPTILE
360
5557
  3
DIFFUSETILE
360
5556
  3
OPACITYTILE
360
555A
  3
REFLECTIONTILE
360
5559
  3
REFRACTIONTILE
360
555B
  3
SPECULARTILE
360
5558
  0
DICTIONARY
  5
5565
330
5564
100
AcDbDictionary
280
     1
281
     1
  3
ACAD_XREC_ROUNDTRIP
360
5B37
  3
BUMPTILE
360
5567
  3
DIFFUSETILE
360
5566
  3
OPACITYTILE
360
556A
  3
REFLECTIONTILE
360
5569
  3
REFRACTIONTILE
360
556B
  3
SPECULARTILE
360
5568
  0
DICTIONARY
  5
5FB0
330
52C4
100
AcDbDictionary
280
     1
281
     1
  3
ACAD_XREC_ROUNDTRIP
360
5FB1
  0
DICTIONARY
  5
5FB2
330
52C5
100
AcDbDictionary
280
     1
281
     1
  3
ACAD_XREC_ROUNDTRIP
360
5FB3
  0
DICTIONARY
  5
570A
330
557F
100
AcDbDictionary
280
     1
281
     1
  3
ACAD_ROUNDTRIP_2008_TABLESTYLE_CELLSTYLEMAP
360
5B19
  3
ACAD_XREC_ROUNDTRIP
360
5B38
  0
XRECORD
  5
5FAF
102
{ACAD_REACTORS
330
5FAE
102
}
330
5FAE
100
AcDbXrecord
280
     1
102
SHADEPLOT
 70
     0
102
SHADEPLOTRESLEVEL
 70
     2
102
SHADEPLOTCUSTOMDPI
 70
   300
  0
XRECORD
  5
5FB4
102
{ACAD_REACTORS
330
55C9
102
}
330
55C9
100
AcDbXrecord
280
     1
102
SHADEPLOT
 70
     1
102
SHADEPLOTRESLEVEL
 70
     2
102
SHADEPLOTCUSTOMDPI
 70
   300
  0
XRECORD
  5
55CA
102
{ACAD_REACTORS
330
55C9
102
}
330
55C9
100
AcDbXrecord
280
     1
310
28000000630000008C0000000100080000000000B0360000000000000000000000010000000000000000000000000000FFFFFF000000000000000000000000000000000000000000000000000000000000000000330000006600000099000000CC000000FF00000000330000333300006633000099330000CC330000FF3300
310
0000660000336600006666000099660000CC660000FF66000000990000339900006699000099990000CC990000FF99000000CC000033CC000066CC000099CC0000CCCC0000FFCC000000FF000033FF000066FF000099FF0000CCFF0000FFFF000000003300330033006600330099003300CC003300FF003300003333003333
310
33006633330099333300CC333300FF33330000663300336633006666330099663300CC663300FF66330000993300339933006699330099993300CC993300FF99330000CC330033CC330066CC330099CC3300CCCC3300FFCC330000FF330033FF330066FF330099FF3300CCFF3300FFFF330000006600330066006600660099
310
006600CC006600FF00660000336600333366006633660099336600CC336600FF33660000666600336666006666660099666600CC666600FF66660000996600339966006699660099996600CC996600FF99660000CC660033CC660066CC660099CC6600CCCC6600FFCC660000FF660033FF660066FF660099FF6600CCFF6600
310
FFFF660000009900330099006600990099009900CC009900FF00990000339900333399006633990099339900CC339900FF33990000669900336699006666990099669900CC669900FF66990000999900339999006699990099999900CC999900FF99990000CC990033CC990066CC990099CC9900CCCC9900FFCC990000FF99
310
0033FF990066FF990099FF9900CCFF9900FFFF99000000CC003300CC006600CC009900CC00CC00CC00FF00CC000033CC003333CC006633CC009933CC00CC33CC00FF33CC000066CC003366CC006666CC009966CC00CC66CC00FF66CC000099CC003399CC006699CC009999CC00CC99CC00FF99CC0000CCCC0033CCCC0066CC
310
CC0099CCCC00CCCCCC00FFCCCC0000FFCC0033FFCC0066FFCC0099FFCC00CCFFCC00FFFFCC000000FF003300FF006600FF009900FF00CC00FF00FF00FF000033FF003333FF006633FF009933FF00CC33FF00FF33FF000066FF003366FF006666FF009966FF00CC66FF00FF66FF000099FF003399FF006699FF009999FF00CC
310
99FF00FF99FF0000CCFF0033CCFF0066CCFF0099CCFF00CCCCFF00FFCCFF0000FFFF0033FFFF0066FFFF0099FFFF00CCFFFF00FFFFFF00000000000D0D0D001A1A1A00282828003535350043434300505050005D5D5D006B6B6B00787878008686860093939300A1A1A100AEAEAE00BBBBBB00C9C9C900D6D6D600E4E4E400
310
F1F1F100FFFFFF0000000000000000000000000000000000000000000000000000000000000000000000000000000000F5F5F5F5F5F5F5F5F5F5F5F5F5F5F5F5F5F5F5F5F5F5F5F5F5F5F5F5F5F5F5F5F5F5F5F5F5F5F5F5F5F5F5F5F5F5F5F5F5F5F5F5F5F5F5F5F5F5F5F5F5F5F5F5F5F5F5F5F5F5F5F5F5F5F5F5F5F5F5
310
F5F5F5F5F5F5F5F5F5F5F5F5F5F5F5F5F5F5F5EF00E2E2E2E2E2E2E2E2E2E2E2E2E2E2E2E2E2E2E2E2E2E2E2E2E2E2E2E2E2E2E2E2E2E2E2E2E2E2E2E2E2E2E2E2E2E2E2E2E2E2E2E2E2E2E2E2E2E2E2E2E2E2E2E2E2E2E2E2E2E2E2E2E2E2E2E2E2E2E2E2E2E2E2E2E2E2E2E2E2E2E2E2E2E2E2E2E2F5EF00E2E2E2E2E2E2
310
E2E2E2E2E2E2E2E2E2E2E2E2E2E2E2E2E2E2E2E2E2E2E2E2E2E2E2E2E2E2E2E2E2E2E2E2E2E2E2E2E2E2E2E2E2E2E2E2E2E2E2E2E2E2E2E2E2E2E2E2E2E2E2E2E2E2E2E2E2E2E2E2E2E2E2E2E2E2E2E2E2E2E2E2E2E2E2E2E2E2E2F5EF00E2F5F5F5F5F5F5F5F5E2E2E2E2E2E2E2E2F5F5F5F5F5F5F5F5F5F5F5F5F5F5F5E2
310
E2E2E2E2E2E2E2E2F5F5F5F5F5F5F5F5F5F5F5F5F5F5E2E2E2E2E2E2E2E2E2F5F5F5F5F5F5F5F5F5F5F5F5F5F5F5E2E2E2E2E2E2E2E2F5F5F5F5F5F5F5F5E2E2F5EF00E2F5E2E2E2E2E2E2E2E2E2E2E2E2E2E2E2E2E2E2E2E2E2E2E2E2E2E2F5F5E2E2E2E2E2E2E2E2E2E2E2E2E2E2E2E2E2E2E2E2E2E2E2E2E2E2E2E2E2E2
310
E2E2E2E2E2E2E2E2E2E2E2E2E2E2E2E2E2E2E2E2E2E2E2E2E2E2E2E2E2E2E2E2E2E2F5E2E2F5EF00E2F5E2E2E2E2E2F5F5F5F5F5F5F5F5F5F5F5F5F5F5F5F5F5F5F5F5F5F5F5F5F5F5F5F5F5F5F5F5F5F5F5F5F5F5F5F5F5F5F5F5F5F5F5F5F5F5F5F5F5F5F5F5F5F5F5F5F5F5F5F5F5F5F5F5F5F5F5F5F5F5F5F5F5F5F5F5
310
F5F5F5E2E2E2E2F5E2E2F5EF00E2F5E2E2E2E2E2F5F5F5F5F5F5F5F5F5F5F5F5F5F5F5F5F5F5F5F5F5F5F5F5F5F5F5F5F5F5F5F5F5F5F5F5F5F5F5F5F5F5F5F5F5F5F5F5F5F5F5F5F5F5F5F5F5F5F5F5F5F5F5F5F5F5F5F5F5F5F5F5F5F5F5F5F5F5F5F5F5F5F5F5E2E2E2F5E2E2F5EF00E2F5E2E2E2E2E2E2E2E2E2E2E2E2
310
E2E2E2E2E2E2E2E2E2E2E2E2E2E2E2E2E2E2E2E2E2E2E2E2E2E2E2E2E2E2E2E2E2E2E2E2E2E2E2E2E2E2E2E2E2E2E2E2E2E2E2E2E2E2E2E2E2E2E2E2E2E2E2E2E2E2E2E2E2E2E2E2E2E2E2E2E2E2E2E2F5E2E2F5EF00E2F5E2E2E2E2E2EAEAEAEAEAEAEAEAEAEAEAEAEAEAEAEAEAEAEAEAEAEAEAEAEAEAEAEAEAEAEAEAEAEA
310
EAEAEAEAEAEAEAEAEAEAEAEAEAEAEAEAEAEAEAEAEAEAEAEAEAEAEAEAEAEAEAEAEAEAEAEAEAEAEAEAEAEAEAEAEAEAEAEAEAEAE2E2E2F5E2E2F5EF00E2F5E2E2E2E2E2EAE2E2E2E2E2E2E2E2E2E2E2E2E2E2E2E2E2E2E2E2E2E2E2E2E2E2E2E2E2E2E2E2E2E2E2E2E2E2E2E2E2E2E2E2E2E2E2E2E2E2E2E2E2E2E2E2E2E2E2E2
310
E2E2E2E2E2E2E2E2E2E2E2E2E2E2E2E2E2E2E2E2E2E2EAE2E2E2F5E2E2F5EF00E2F5E2E2E2E2E2EAE2E2E2E2E2E2E2E2E2E2E2E2E2E2E2E2E2E2E2E2E2E2E2E2E2E2E2E2E2E2E2E2E2E2E2E2E2E2E2E2E2E2E2E2E2E2E2E2E2E2E2E2E2E2E2E2E2E2E2E2E2E2E2E2E2E2E2E2E2E2E2E2E2E2E2E2E2E2E2E2E2E2EAE2E2E2F5
310
E2E2F5EF00E2F5E2E2E2E2E2EAE2E2E2E2E2E2E2E2E2E2E2E2E2E2E2E2E2E2E2E2E2E2E2E2E2E2E2E2E2E2E2E2E2E2E2E2E2EFEFF5F5F5F5F5F5F5F5F5F5F5F5F5F5E2E2E2E2E2E2E2E2E2E2E2E2E2E2E2E2E2E2E2E2E2E2E2E2E2E2E2E2E2EAE2E2E2F5E2E2F5EF00E2E2E2E2E2E2E2EAE2E2E2E2E2E2E2E2E2E2E2E2E2E2
310
E2E2E2E2E2E2E2E2E2E2E2E2E2E2E2E2E2E2E2E2E2E2E2EFEFF5F5F5F5F5F5F5F5F5F5F5F5F5F5E2E2E2E2E2E2E2E2E2E2E2E2E2E2E2E2E2E2E2E2E2E2E2E2E2E2E2E2E2EAE2E2E2E2E2E2F5EF00E2E2E2E2E2E2E2EAE2E2E2E2E2E2E2E2E2E2E2E2E2E2E2E2E2E2E2E2E2E2E2E2E2E2E2E2E2E2E2E2E2E2E2E2E2EFEFF5F5
310
F5F5F5F5F5F5F5F5F5F5F5E2E2E2E2E2E2E2E2E2E2E2E2E2E2E2E2E2E2E2E2E2E2E2E2E2E2E2E2E2E2EAE2E2E2E2E2E2F5EF00E2E2E2E2E2E2E2EAE2E2E2E2E2E2E2E2E2E2E2E2E2E2E2E2E2E2E2E2E2E2E2E2E2E2E2E2E2E2E2E2E2E2E2E2EFEFEFF5F5F5F5F5F5F5F5F5F5F5F5F5E2E2E2E2E2E2E2E2E2E2E2E2E2E2E2E2
310
E2E2E2E2E2E2E2E2E2E2E2E2E2E2EAE2E2E2E2E2E2F5EF00E2E2E2E2E2E2E2EAE2E2E2E2E2E2E2E2E2E2E2E2E2E2E2E2E2E2E2E2E2E2E2E2E2E2E2E2E2E2E2E2E2E2E2E2EFEFEFF5F5F5F5F5F5F5F5F5E2E2E2E2E2E2E2E2E2E2E2E2E2E2E2E2E2E2E2E2E2E2E2E2E2E2E2E2E2E2E2E2E2E2EAE2E2E2E2E2E2F5EF00E2E2E2
310
E2E2E2E2EAE2E2E2E2E2E2E2E2E2E2E2E2E2E2E2E2E2E2E2E2E2E2E2E2E2E2E2E2E2E2E2E2E2E2E2E2E2EFE2E2E2E2E2E2E2E2E2E2E2E2E2E2E2E2E2E2E2E2E2E2E2E2E2E2E2E2E2E2E2E2E2E2E2E2E2E2E2E2E2E2E2E2EAE2E2E2E2E2E2F5EF00E2E2E2E2E2E2E2EAE2E2E2E2E2E2E2E2E2E2E2E2E2E2E2E2E2E2E2E2E2E2
310
E2E2E2E2E2E2E2E2E2E2E2E2E2E2EFEFE2E2E2E2E2E2E2E2E2E2E2E2E2E2E2E2E2E2E2E2E2E2E2E2E2E2E2E2E2E2E2E2E2E2E2E2E2E2E2E2E2E2E2E2EAE2E2E2E2E2E2F5EF00E2E2E2E2E2E2E2EAE2E2E2E2E2E2E2E2E2E2E2E2F5F5F5F5E2E2E2E2E2E2E2E2E2E2E2E2E2E2E2E2E2E2E2E2EFEFE2E2E2E2E2E2E2E2E2E2E2
310
E2E2E2E2E2E2E2E2E2E2E2E2E2E2E2E2E2E2E2E2E2E2E2E2E2E2E2E2E2E2E2E2E2EAE2E2E2E2E2E2F5EF00E2E2E2E2E2E2E2EAE2E2E2E2E2E2E2E2E2E2E2E2F5F5F5F5E2E2E2E2E2E2E2E2E2E2E2E2E2F5F5F5F5E2E2E2EFE2E2E2E2E2E2E2E2E2E2E2E2E2E2F5F5F5F5F5F5F5F5F5F5F5F5F5E2E2E2E2E2E2E2E2E2E2E2E2
310
E2E2E2E2E2E2EAE2E2E2E2E2E2F5EF00E2E2E2E2E2E2E2EAE2E2E2E2E2E2E2E2E2E2E2E2F5F5F5F5F5E2E2E2E2E2E2E2E2E2E2E2E2F5F5F5F5E2E2E2EFE2E2E2E2F5F5F5F5F5F5F5F5E2E2F5F5F5F5F5F5F5F5F5F5F5F5F5E2E2E2E2E2E2E2E2E2E2E2E2E2E2E2E2E2E2EAE2E2E2E2E2E2F5EF00E2E2E2E2E2E2E2EAEFEFEF
310
EFEFEFEFEFEFEFEFE2F5F5F5F5F5E2E2E2E2E2E2E2E2E2E2EFEFEFEFEFEFEFE2EFEFE2E2E2E2F5F5F5F5F5F5F5F5E2E2F5F5F5F5F5F5F5F5F5F5F5F5F5E2E2E2E2E2E2E2E2E2E2E2E2E2E2E2E2E2E2EAE2E2E2E2E2E2F5EF00E2F5E2E2E2E2E2EAEFEFEFEFEFEFEFEFEFEFEFDCF5F5F5F5F5E2E2E2F5F5F5F5F5E2EFEFEFEF
310
EFEFEFEFEFEFEFEFEFDCE2F5F5F5F5F5E2E2E2E2E2E2E2E2E2E2E2E2E2E2E2E2E2E2E2E2E2E2E2E2E2E2E2E2E2E2E2E2E2E2E2E2EAE2E2E2F5E2E2F5EF00E2F5E2E2E2E2E2EAF5F5F5F5F5E2E2EFEFE2E2EFF5F5F5F5F5E2E2E2F5F5F5F5F5EFDCE2EFEFE2EFDCE2E2E2EFEFEFEFEFEFDCE2E2E2E2E2E2E2E2E2E2E2E2E2E2
310
E2E2E2E2E2E2E2E2E2E2E2E2E2E2E2E2E2E2E2E2E2E2E2E2E2EAE2E2E2F5E2E2F5EF00E2F5E2E2E2E2E2EAF5F5F5F5F5E2E2EFEFE2E2E2EFEFE2E2E2E2E2E2E2E2E2E2EFDCE2E2EFEFEFEFE2E2E2E2E2E2E2EFEFEFEFEFEFE2E2E2E2E2E2E2E2E2E2E2E2E2E2E2E2E2E2E2E2E2E2E2E2E2E2E2E2EFE2E2E2E2E2E2E2E2EAE2
310
E2E2F5E2E2F5EF00E2F5E2E2E2E2E2EAE2E2E2E2E2E2E2EFEFEFEFE2EFEFEFE2E2E2E2E2E2E2E2EFEFE2EFEFEFE2EFE2E2E2E2E2E2E2E2EFEFE2EFEFEFE2E2E2E2E2E2E2E2E2E2E2E2E2E2E2E2E2E2E2E2E2E2E2E2E2E2E2EFEFEFE2E2E2E2E2E2E2EAE2E2E2F5E2E2F5EF00E2F5E2E2E2E2E2EAE2E2E2E2E2E2E2EFEFEFEF
310
EFEFEFEFEFE2E2E2E2E2E2EFEFEFEFEFEFEFEFEFE2E2E2E2E2E2E2E2E2EFEFEFEFDCEFF5F5F5F5E2E2E2E2E2E2E2E2E2E2E2E2E2E2E2E2E2E2E2E2E2E2EFEFF5F5F5F5F5E2E2E2EAE2E2E2F5E2E2F5EF00E2F5E2E2E2E2E2EAE2E2E2E2E2E2EFEFEFEFE2E2ECECECECE2E2E2E2E2E2ECECECE2E2EFEFEFEFE2E2E2E2E2E2E2
310
E2E2EFEFEFEFE2EFEFE2E2E2E2E2E2E2E2E2E2E2E2E2E2E2E2E2E2E2E2E2E2E2E2EFEFEFF5F5F5F5F5E2E2E2EAE2E2E2F5E2E2F5EF00E2F5E2E2E2E2E2EAE2E2E2E2E2E2E2E2E2EFE2ECECECECECF5F5F5F5F5F5ECECECECECEFEFEFEFE2E2E2E2E2E2E2E2E2EFEFEFEFE2DCEFE2E2E2E2E2E2E2E2E2E2E2E2E2E2E2E2E2E2
310
E2E2E2E2E2E2E2EFEFE2E2E2E2E2E2E2E2EAE2E2E2F5E2E2F5EF00E2F5E2E2E2E2E2EAE2E2E2E2E2E2E2E2E2EFE2ECECECECECECECECECECECECECECECECEFEFEFEFEFEFE2E2E2E2E2E2EFEFEFEFE2EFE2EFE2E2E2E2E2E2E2E2E2E2E2E2E2E2E2E2F5F5F5F5F5E2E2E2EFEFE2E2E2E2E2E2E2E2E2EAE2E2E2F5E2E2F5EF00
310
E2F5E2E2E2E2E2EAE2E2E2E2E2E2E2E2E2EFEFEFECECECECE2E2E2E2E2E2ECECECEFEFEFEFEFEFEFEFEFEFEFEFEFEFDCEFEFEFE2EFEFEFEFE2E2E2E2E2F5F5F5F5E2E2E2EFEFDCF5F5F5F5F5E2E2EFEFE2E2E2E2E2E2E2E2E2E2EAE2E2E2F5E2E2F5EF00E2F5E2E2E2E2E2EAE2E2E2E2E2E2E2E2E2EFEFEFEFEFEFEFE2E2E2
310
E2E2E2EFEFEFEFEFEFEFEFEFEFEFEFEFEFEFEFEFE2EFEFEFECE2ECECECE2E2E2E2E2F5F5F5F5E2EFEFEFEFEFEFDCE2E2E2E2E2EFEFE2E2E2E2E2E2E2E2E2E2EAE2E2E2F5E2E2F5EF00E2F5E2E2E2E2E2EAE2E2E2E2E2E2E2E2EFEFE2E2E2E2E2E2E2E2E2E2E2E2E2E2E2E2E2E2E2E2E2E2E2E2E2E2E2EFEFEFEFEFE2ECECEC
310
ECECE2E2E2E2E2E2E2E2EFEFEFEFEFEFEFEFEFEFEFE2E2EFEFE2E2E2E2E2E2E2E2E2E2E2EAE2E2E2F5E2E2F5EF00E2F5E2E2E2E2E2EAE2E2E2E2E2E2E2E2EFEFE2E2E2E2E2E2E2E2E2E2E2E2E2E2E2E2E2E2E2E2E2E2E2E2E2E2E2E2E2EFEFEFEFECECECECECF5F5F5E2E2E2EFEFEFE2E2E2EFEFEFEFEFEFEFEFEFEFEFE2E2
310
E2E2E2E2E2E2E2E2E2EAE2E2E2F5E2E2F5EF00E2F5E2E2E2E2E2EAE2E2E2E2E2E2282828282828E2E2E2E2E2E2E2E2E2E2E2E2E2E2E2E2E2E2E2E2E2E2E2E2E2E2E2E2E2E2EFEFECECECF5ECECECF5F5F5ECECEFEFEFEFEFEFEFEFE2E2E2EFEFEFE2E2E2E2E2E2E2E2E2E2E2E2EAE2E2E2F5E2E2F5EF00E2F5E2E2E2E2E2EA
310
E2E2E2E2E2E2ECE2ECE2EC28E2E2E2E2E2E2E2E2E2E2E2E2E2E2E2E2E2E2E2E2E2E2E2E2E2E2E2E2E2E2E2E2E2EFEFE2F5F5F5ECECECECECECEFEFEFEFEFEFE2E2E2E2E2E2EFEFEFE2F5F5F5F5F5E2E2E2E2EAE2E2E2F5E2E2F5EF00E2F5E2E2E2E2E2EAE2E2E2E2E2E228ECECE2EC28E2E2E2E2E2E2E2E2E2E2E2E2E2E2E2
310
E2E2E2E2E2E2E2E2E2E2E2E2E2E2E2E2E2E2E2E2E2E2E2E2F5F5ECECECECECEFEFEFEFEFE2E2E2E2E2E2E2E2EFDCF5F5F5F5F5E2E2E2E2EAE2E2E2F5E2E2F5EF00E2F5E2E2E2E2E2EAE2E2E2E2E2E228ECE2ECEC28E2E2E2E2E2E2E2E2E2E2E2E2E2E2E2E2E2E2E2E2E2E2E2E2E2E2E2E2E2E2E2E2E2E2E2E2E2E2E2E2EFEC
310
ECECECECEFEFEFEFE2E2E2E2E2E2E2E2E2EFEFEFEFE2E2E2E2E2E2E2EAE2E2E2F5E2E2F5EF00E2F5E2E2E2E2E2EAE2E2E2E2E2E228ECE2ECEC28E2E2E2E2E2E2E2E2E2E2E2E2E2E2E2E2E2E2E2E2E2E2E2E2E2E2E2E2E2E2E2E2E2E2E2E2E2E2E2E2E2EFECEFEFEFEFEFE2EFEFE2E2E2E2E2E2E2E2EFEFEFEFEFE2E2E2E2E2
310
E2EAE2E2E2F5E2E2F5EF00E2E2E2E2E2E2E2EAE2E2E2E2E2E228ECECECEC28E2E2E2E2E2E2E2E2E2E2E2E2E2E2E2E2E2E2E2E2E2E2F5F5F5F5F5F5F5F5F5F5F5F5F5E2E2E2E2E2E2E2E2E2EFEFEFEFEFEFEFE2E2E2E2E2E2E2E2EFEFEFEFEFE2E2E2E2E2E2EAE2E2E2E2E2E2F5EF00E2E2E2E2E2E2E2EAE2E2E2E2E2E228EC
310
ECE2EC28E2E2E2E2E2E2E2E2E2E2E2E2E2E2E2E2E2E2E2E2E2E2F5F5F5F5F5F5F5F5F5F5F5F5F5E2E2E2E2E2E2E2E2E2E2E2EFEFEFEFEFEFE2E2E2E2E2E2EFEFDCEFEFEFEFE2E2E2E2E2EAE2E2E2E2E2E2F5EF00E2E2E2E2E2E2E2EAE2E2E2E2E2E228ECECE2EC28E2E2E2E2E2E2E2E2E2E2E2E2E2E2E2E2E2E2E2E2E2E2E2
310
E2E2E2E2E2E2E2E2E2E2E2E2E2E2E2E2E2E2E2E2E2E2E2E2E2E2E2EFEFEFEFE2E2E2E2EFEFEFEFE2EFEFE2E2E2E2E2EAE2E2E2E2E2E2F5EF00E2E2E2E2E2E2E2EAE2E2E2E2E2E2ECECECE2EC28E2E2E2E2E2E2E2E2E2E2E2E2DCDCDCDCDCDCDCDCDCDCDCDCDCDCDCE2E2E2E2E2E2E2E2E2E2E2E2E2E2E2E2E2E2E2E2E2E2E2
310
E2EFEFEFEFEFEFEFEFEFEFEFE2DCF5F5F5F5F5E2EAE2E2E2E2E2E2F5EF00E2E2E2E2E2E2E2EAE2E2E2E2E2E228ECECECEC28E2E2E2E2E2E2E2E2E2F5F5F5DCE2E2E2E2E2E2E2E2E2E2DCDCE2E2DCDCDCDCE2E2E2E2E2E2E2E2E2E2E2E2E2E2E2E2E2E2E2E2E2E2E2EFEFEFE2EFEFEFEFEFE2F5F5F5F5F5E2EAE2E2E2E2E2E2
310
F5EF00E2E2E2E2E2E2E2EAE2E2E2E2E2E228E2ECE2EC28E2E2E2E2E2E2E2E2E2F5F5F5DCE2E2E2E2E2E2E2E2E2E2DCDCE2E2E2E2E2E2DCDCDCDCE2E2E2E2E2E2E2E2E2E2E2E2E2E2E2E2E2E2E2EFEFEFEFEFEFE2EFEFEFEFE2E2E2E2E2EAE2E2E2E2E2E2F5EF00E2E2E2E2E2E2E2EAE2E2E2E2E2E228ECECE2EC28E2E2E2E2
310
E2E2E2E2E2F5F5F5DCE2E2E2E2E2E2E2E2E2E2DCDCE2E2E2E2E2E2E2DCDCE2DCDCDCE2E2E2E2E2E2E2E2E2E2E2E2E2E2E2E2E2E2EFEFEFE2ECE2ECEFEFE2E2E2E2E2EAE2E2E2E2E2E2F5EF00E2E2E2E2E2E2E2EAE2E2E2E2E2E2282828ECE228E2E2E2E2E2E2E2E2E2E2ECE2DCE2E2E2E2E2E2E2E2E2E2DCDCE2E2E2E2E2E2
310
E2DCDCE2F5F5E2DCDCDCE2E2E2E2E2E2E2E2E2E2E2E2E2E2E2E2EFEFF5ECECECECECE2E2E2E2E2EAE2E2E2E2E2E2F5EF00E2E2E2E2E2E2E2EAE2E2E2E2E2E2E2E228ECEC28E2E2E2E2E2E2E2E2E2E2ECE2DCE2E2E2E2E2E2E2E2E2E2DCDCE2E2E2E2E2E2E2DCDCE2F5F5E2E2E2E2DCDCE2E2E2E2E2E2E2E2E2E2E2E2E2E2E2
310
EFEFECECECECE2E2E2E2E2E2EAE2E2E2E2E2E2F5EF00E2F5E2E2E2E2E2EAE2E2E2E2E2E2282828E2EC28E2E2E2E2E2E2E2E2E2E2ECE2DCE2E2E2E2E2E2E2E2E2E2DCDCE2E2E2E2E2E2E2DCDCE2ECE2E2E2E2E2E2DCE2E2E2E2E2E2E2E2E2E2E2E2E2E2E2E2EFECECECECECE2E2E2E2E2EAE2E2E2F5E2E2F5EF00E2F5E2E2E2
310
E2E2EAE2E2E2E2E2E228E2E2ECEC28E2E2E2E2E2E2E2E2E2E2ECECDCECECECECECE2E2E2ECECECECE2E2E2E2E2E2E2DCDCE2ECE2E2E2E2E2E2DCE2E2E2E2E2E2E2E2E2E2E2E2E2E2E2E2E2EFECECF5ECECF5E2E2E2EAE2E2E2F5E2E2F5EF00E2F5E2E2E2E2E2EAE2E2E2E2E2E2282828282828E2E2E2E2E2E2E2E2E2E2E2E2
310
DCE2E2E2E2E2E2E2E2E2E2DCDCECECE2E2E2E2ECDCDCE2ECE2E2E2E2E2E2DCE2E2E2E2E2E2E2E2E2E2E2E2E2E2E2E2E2E2E2E2E2F5F5E2E2E2E2EAE2E2E2F5E2E2F5EF00E2F5E2E2E2E2E2EAE2E2E2E2E2E2E2E2E2E2E2E2E2E2E2E2E2E2E2E2E2E2E2E2DCE2E2E2E2E2E2E2E2E2E2DCDCE2E2E2E2E2E2E2ECECE2ECE2E2E2
310
E2E2E2DCE2E2E2E2E2E2E2E2E2E2E2E2E2E2E2E2E2E2E2E2E2E2E2E2E2E2E2EAE2E2E2F5E2E2F5EF00E2F5E2E2E2E2E2EAE2E2E2E2E2E2E2E2E2E2E2E2E2E2E2E2E2E2E2E2E2E2E2E2DCE2E2E2E2E2E2E2E2E2E2DCDCE2E2E2E2E2E2E2DCDCECECE2E2E2E2E2E2DCE2E2E2E2E2E2E2E2E2E2E2E2E2E2E2E2E2E2E2E2E2E2E2
310
E2E2E2E2EAE2E2E2F5E2E2F5EF00E2F5E2E2E2E2E2EAE2E2E2E2E2E2E2E2E2E2E2E2E2E2E2E2E2E2E2E2E2E2E2E2DCDCDCDCDCDCDCDCDCDCDCDCDCDCDCE2E2E2E2E2DCDCE2E2E2E2E2E2E2E2DCE2E2E2E2E2E2E2E2E2E2E2E2E2E2E2E2E2E2E2E2E2E2E2E2E2E2E2EAE2E2E2F5E2E2F5EF00E2F5E2E2E2E2E2EAE2E2E2E2E2
310
E2E2E2E2E2E2E2E2E2E2E2E2E2E2E2E2E2E2E2E2E2E2E2E2E2E2E2E2E2E2E2E2E2E2DCDCDCDCE2DCDCE2E2E2E2E2E2E2E2DCE2E2E2E2E2E2E2E2E2E2E2E2E2E2E2E2E2E2E2E2E2E2E2E2E2E2E2EAE2E2E2F5E2E2F5EF00E2F5E2E2E2E2E2EAE2E2E2E2E2E2E2E2E2E2E2E2E2E2E2E2E2E2E2E2E2E2E2E2E2E2E2E2E2E2E2E2
310
E2E2E2E2E2E2E2E2E2E2E2DCDCDCDCE2E2E2E2E2E2E2DCE2E2E2E2E2E2E2E2E2E2E2E2E2E2E2E2E2E2E2E2E2E2E2E2E2E2E2EAE2E2E2F5E2E2F5EF00E2F5E2E2E2E2E2EAE2E2E2E2E2E2E2E2E2E2E2E2E2E2E2E2E2E2E2E2E2E2E2E2E2E2E2E2E2E2E2E2E2E2E2E2E2E2E2E2E2E2E2E2E2E2E2DCDCDCE2E2E2E2DCE2E2E2E2
310
E2E2E2E2E2E2E2E2E2E2E2E2E2E2E2E2E2E2E2E2E2E2E2EAE2E2E2F5E2E2F5EF00E2F5E2E2E2E2E2EAE2E2E2E2E2E2E2E2E2E2E2E2E2E2E2E2E2E2E2E2E2E2E2E2E2E2E2E2E2E2E2E2E2E2E2E2E2E2E2E2E2E2E2E2E2E2E2E2E2DCDCDCDCE2DCE2E2E2E2E2E2E2E2E2E2E2E2E2E2E2E2E2E2E2E2E2E2E2E2E2E2E2EAE2E2E2
310
F5E2E2F5EF00E2F5E2E2E2E2E2EAE2E2E2E2E2E2E2E2E2E2E2E2E2E2E2E2E2E2E2E2E2E2E2E2E2E2E2E2E2E2E2E2E2E2E2E2E2E2E2E2E2E2E2E2E2E2E2E2E2E2E2DCDCDCDCE2E2E2E2E2E2E2E2E2E2E2E2E2E2E2E2E2E2E2E2E2E2E2E2E2E2E2EAE2E2E2F5E2E2F5EF00E2F5E2E2E2E2E2EAE2E2E2E2E2E2E2E2E2E2E2E2E2
310
E2E2E2E2E2E2E2E2E2E2E2E2E2E2E2E2E2E2E2E2E2E2E2E2E2E2E2E2E2E2E2E2E2E2E2E2E2E2E2E2DCDCE2E2E2E2E2E2E2E2E2E2E2E2E2E2E2E2E2E2E2E2E2E2E2E2E2E2E2EAE2E2E2F5E2E2F5EF00E2F5E2E2E2E2E2EAE2E2E2E2E2E2E2E2E2E2E2E2E2E2E2E2E2E2E2E2E2E2E2E2E2E2E2E2E2E2E2E2E2E2E2E2E2E2E2E2
310
E2E2E2E2E2E2E2E2E2E2E2E2E2E2E2E2E2E2E2E2E2E2E2E2E2E2E2E2E2E2E2E2E2E2E2E2E2E2E2E2E2E2EAE2E2E2F5E2E2F5EF00E2F5E2E2E2E2E2EAE2E2E2E2E2E2E2E2E2E2E2E2E2E2E2E2E2E2E2E2E2E2E2E2E2E2E2E2E2E2E2E2E2E2E2E2E2E2E2E2E2E2E2E2E2E2E2E2E2E2E2E2E2E2E2E2E2E2E2E2E2E2E2E2E2E2E2
310
E2E2E2E2E2E2E2E2E2E2E2E2E2E2E2EAE2E2E2F5E2E2F5EF00E2F5E2E2E2E2E2EAE2E2E2E2E2E2E2E2E2E2E2E2E2E2E2E2E2E2E2E2E2E2E2E2E2E2E2E2E2E2E2E2E2E2E2E2E2E2E2E2E2E2E2E2E2E2E2E2E2E2E2E2E2E2E2E2E2E2E2E2E2E2E2E2E2E2E2E2E2E2E2E2E2E2E2E2E2E2E2E2E2E2EAE2E2E2F5E2E2F5EF00E2F5
310
E2E2E2E2E2EAE2E2E2E2E2E2E2E2E2E2E2E2E2E2E2E2E2E2E2E2E2E2E2E2E2E2E2E2E2E2E2E2E2E2E2E2E2E2E2E2E2E2E2E2E2E2E2E2E2E2E2E2E2E2E2E2E2E2E2E2E2E2E2E2E2E2E2E2E2E2E2E2E2E2E2E2E2E2E2E2E2E2EAE2E2E2F5E2E2F5EF00E2F5E2E2E2E2E2EAE2E2E2E2E2E2E2E2E2E2E2E2E2E2E2E2E2E2E2E2E2
310
E2E2E2E2E2E2E2E2E2E2E2E2E2E2E2E2E2E2E2E2E2E2E2E2E2E2E2E2E2E2E2E2E2E2E2E2E2E2E2E2E2E2E2E2E2E2E2E2E2E2E2E2E2E2E2E2E2E2E2E2E2EAE2E2E2F5E2E2F5EF00E2E2E2E2E2E2E2EAE2E2E2E2E2E2E2E2E2E2E2E2E2E2E2E2E2E2E2E2E2E2E2E2E2E2E2E2E2E2E2E2E2E2E2E2E2E2E2E2E2E2E2E2E2E2E2E2
310
E2E2E2E2E2E2E2E2E2E2E2E2E2E2E2E2E2E2E2E2E2E2E2E2E2E2E2E2E2E2E2E2E2E2EAE2E2E2E2E2E2F5EF00E2E2E2E2E2E2E2EAE2E2E2E2E2E2E2E2E2E2E2E2E2E2E2E2E2E2E2E2E2E2E2E2E2E2E2E2E2E2E2E2E2E2E2E2E2E2E2E2E2E2E2E2E2E2E2E2E2E2E2E2E2E2E2E2E2E2E2E2E2E2E2E2E2E2E2E2E2E2E2E2E2E2E2
310
E2E2E2E2E2E2E2EAE2E2E2E2E2E2F5EF00E2E2E2E2E2E2E2EAE2E2E2E2E2E2E2E2E2E2E2E2E2F5F5F5F5E2E2E2E2E2E2E2E2E2E2E2E2E2E2E2E2E2E2E2E2E2E2E2E2E2E2E2E2E2E2E2E2E2E2E2E2E2E2E2E2E2E2E2E2E2E2E2E2E2E2E2E2E2E2E2E2E2E2E2E2E2E2E2E2E2EAE2E2E2E2E2E2F5EF00E2E2E2E2E2E2E2EAE2E2
310
E2E2E2E2E2E2E2E2E2E2E2F5F5F5F5E2E2E2E2E2E2E2E2E2E2E2E2E2E2E2E2E2E2E2E2E2E2E2E2E2E2E2E2E2E2E2E2E2E2E2E2E2E2E2E2E2E2E2E2E2E2E2E2E2E2E2E2E2E2E2E2E2E2E2E2E2E2E2E2E2EAE2E2E2E2E2E2F5EF00E2E2E2E2E2E2E2EAE2E2E2E2E2E2E2E2E2E2E2E2E2F5F5F5F5F5E2E2E2E2E2E2E2E2E2E2E2
310
E2E2E2E2E2E2E2E2E2E2E2E2E2E2E2E2E2E2E2E2E2E2E2E2E2E2E2E2E2E2E2E2E2E2E2E2E2E2E2E2E2E2E2E2E2E2E2E2E2E2E2E2E2EAE2E2E2E2E2E2F5EF00E2E2E2E2E2E2E2EAE2EFEFEFEFEFEFEFEFEFEFEFE2F5F5F5F5F5E2E2E2E2E2E2E2E2E2E2E2E2E2E2E2E2E2EFEFEFEFEFEFEFEFEFEFEFE2E2E2E2E2E2E2E2E2E2
310
E2E2E2E2E2E2E2E2E2E2E2E2E2E2E2E2E2E2E2E2E2E2E2E2E2E2EAE2E2E2E2E2E2F5EF00E2E2E2E2E2E2E2EAE2EFEFEFEFEFEFEFEFEFEFEFE2F5F5F5F5E2E2E2E2E2E2E2E2E2E2E2F5F5F5F5F5E2DCEFEFEFEFEFEFEFEFEFEFEFF5F5F5F5F5F5F5F5F5F5F5F5F5E2E2E2E2E2E2E2E2E2E2E2E2E2E2E2E2E2E2E2E2E2E2E2EA
310
E2E2E2E2E2E2F5EF00E2E2E2E2E2E2E2EAE2F5F5F5F5E2E2E2EFE2E2E2EFF5F5F5F5E2E2E2E2E2E2E2E2E2E2E2F5F5F5F5F5DCEFE2EFEFEFE2E2E2E2E2E2EFF5F5F5F5F5F5F5F5F5F5F5F5F5E2E2E2E2E2E2E2E2E2E2E2E2E2E2E2E2E2E2E2E2E2E2E2EAE2E2E2E2E2E2F5EF00E2E2E2E2E2E2E2EAE2F5F5F5F5E2E2E2EFE2
310
E2E2E2EFE2E2E2E2E2E2E2E2E2E2E2E2E2E2E2E2E2E2EFEFE2E2EFEFEFE2E2E2E2E2E2EFF5F5F5F5F5F5F5F5F5F5F5F5F5E2E2E2E2E2E2E2E2E2E2E2E2E2E2E2E2E2E2E2E2E2E2E2EAE2E2E2E2E2E2F5EF00E2E2E2E2E2E2E2EAE2F5F5F5F5E2E2E2EFEFEFEFE2EFEFEFE2E2E2E2E2E2E2E2E2E2E2E2E2E2E2EFEFE2E2EFEF
310
EFE2E2E2E2E2E2E2EFF5F5F5F5F5F5F5F5F5F5F5F5F5F5F5F5F5E2E2E2E2E2E2E2E2E2E2E2E2E2E2E2E2E2E2E2EAE2E2E2E2E2E2F5EF00E2F5E2E2E2E2E2EAE2F5F5F5F5E2E2EFEFEFEFE2EFEFEFEFE2E2E2E2E2E2E2E2E2E2E2E2E2E2EFEFEFEFEFEFEFEFE2E2E2E2E2E2E2EFF5F5F5F5F5F5F5F5F5F5F5F5F5F5F5F5F5E2
310
E2E2E2E2E2E2E2E2E2E2E2E2E2E2E2E2E2E2EAE2E2E2F5E2E2F5EF00E2F5E2E2E2E2E2EAE2E2E2E2E2E2E2EFEFEFEFE2E2ECECECE2E2E2E2E2E2E2E2E2E2E2E2E2E2ECECECEFE2EFEFEFE2E2E2E2E2E2E2EFE2E2E2E2E2E2E2E2E2E2E2E2E2E2E2E2E2E2E2E2E2E2E2E2E2E2E2E2E2E2E2E2E2E2E2E2EAE2E2E2F5E2E2F5EF
310
00E2F5E2E2E2E2E2EAE2E2E2E2E2E2E2E2E2E2EFE2ECECECECF5F5F5F5F5F5F5F5F5F5F5F5F5F5ECECECECECEFEFEFE2E2E2E2E2E2E2EFE2E2E2E2E2E2E2E2E2E2E2E2E2E2E2E2E2E2E2E2E2E2E2E2E2E2E2E2E2E2E2E2E2E2E2E2EAE2E2E2F5E2E2F5EF00E2F5E2E2E2E2E2EAE2E2E2E2E2E2E2E2E2E2EFE2ECECECECECEC
310
ECECECECECECECECECECECECECECECECECEFEFEFE2E2E2E2EFEFEFEFE2E2E2E2E2E2E2E2E2E2E2E2E2E2E2E2E2E2E2E2E2E2E2E2E2E2E2E2E2E2E2E2E2E2E2E2EAE2E2E2F5E2E2F5EF00E2F5E2E2E2E2E2EAE2E2E2E2E2E2E2E2E2E2EFEFEFEFECECECE2E2E2E2E2E2E2E2E2E2E2E2E2ECECECEFEFEFEFEFEFEFEFEFEFEFEF
310
EFE2E2E2E2E2E2E2E2E2E2E2E2E2E2E2E2E2E2E2E2E2E2E2E2E2E2E2E2E2E2E2E2E2E2E2E2EAE2E2E2F5E2E2F5EF00E2F5E2E2E2E2E2EAE2E2E2E2E2E2E2E2E2E2EFEFEFEFEFEFE2E2E2E2E2E2E2E2E2E2E2E2E2E2EFEFEFEFEFEFEFEFEFEFEFEFEFE2EFEFE2E2E2E2E2E2E2E2E2E2E2E2E2E2E2E2E2E2E2E2E2E2E2E2E2E2
310
E2E2E2E2E2E2E2E2E2E2EAE2E2E2F5E2E2F5EF00E2F5E2E2E2E2E2EAE2E2E2E2E2E2E2E2E2EFEFE2E2E2E2E2E2E2E2E2E2E2E2E2E2E2E2E2E2E2E2E2E2E2E2E2EFEFE2E2E2EFEFE2EFEFE2E2E2E2E2E2E2E2E2E2E2E2E2E2E2E2E2E2E2E2E2E2E2E2E2E2E2E2E2E2E2E2E2E2E2E2EAE2E2E2F5E2E2F5EF00E2F5E2E2E2E2E2
310
EAE2E2E2E2E2E2E2E2E2EFEFE2E2E2E2E2E2E2E2E2E2E2E2E2E2E2E2E2E2E2E2E2E2E2E2E2EFECECF5EFEFE2EFEFE2E2E2E2E2E2E2E2E2E2E2E2E2E2E2E2E2E2E2E2E2E2E2E2E2E2E2E2E2E2E2E2E2E2E2E2E2EAE2E2E2F5E2E2F5EF00E2F5E2E2E2E2E2EAE2E2E2E2E2E2E22828EC2828EFE2E2E2E2E2E2E2E2E2E2E2E2E2
310
E2E2E2E2E2E2E2E2E2E2ECECECECEFE2EFEFF5F5F5E2E2E2E2E2E2E2E2E2E2E2E2E2E2E2E2E2E2E2E2E2E2E2E2E2E2E2E2E2E2E2E2E2E2E2EAE2E2E2F5E2E2F5EF00E2F5E2E2E2E2E2EAE2E2E2E2E2E2E2ECECE2E2ECEFE2E2E2E2E2E2E2E2E2E2E2E2E2E2E2E2E2E2E2E2E2E2E2ECECECECECEFE2F5F5F5F5E2E2E2E2E2E2
310
E2E2E2E2E2E2E2E2E2E2E2E2E2E2E2E2E2E2E2E2E2E2E2E2E2E2E2E2E2EAE2E2E2F5E2E2F5EF00E2F5E2E2E2E2E2EAE2E2E2E2E2E2E228ECECE2ECE2E2E2E2E2E2E2E2E2E2E2E2E2E2E2E2E2E2E2E2E2E2E2E2ECECECECECEFE2E2E2E2E2E2E2E2E2E2E2E2E2F5F5F5F5F5F5F5F5F5F5F5F5F5F5F5F5F5E2E2E2E2E2E2E2E2
310
E2E2EAE2E2E2F5E2E2F5EF00E2F5E2E2E2E2E2EAE2E2E2E2E2E2E2ECECE2ECECE2E2E2E2E2E2E2E2E2E2E2E2E2E2E2E2E2E2E2E2E2E2E2E2E2F5ECF5E2E2E2E2E2E2E2E2E2E2E2E2E2E2E2F5F5F5F5F5F5F5F5F5F5F5F5F5F5F5F5F5E2E2E2E2E2E2E2E2E2E2EAE2E2E2F5E2E2F5EF00E2F5E2E2E2E2E2EAE2E2E2E2E2E2E2
310
28ECE2ECECE2E2E2E2E2E2E2E2E2E2E2E2E2E2E2E2E2E2E2E2E2E2E2E2E2F5ECF5E2E2E2E2E2E2E2E2E2E2E2E2E2E2E2E2E2E2E2E2E2E2E2E2E2E2E2E2E2E2E2E2E2E2E2E2E2E2E2E2E2E2EAE2E2E2F5E2E2F5EF00E2F5E2E2E2E2E2EAE2E2E2E2E2E2E228ECECECECE2E2E2E2E2E2E2E2E2E2E2E2E2E2E2E2E2E2E2E2E2E2
310
E2E2E2F5ECF5E2E2E2E2E2E2E2E2E2E2F5F5E2E2E2E2E2E2E2E2E2E2E2E2E2E2E2E2E2E2E2E2E2E2E2E2E2E2E2E2E2E2EAE2E2E2F5E2E2F5EF00E2F5E2E2E2E2E2EAE2E2E2E2E2E2E2ECECECE2ECE2E2E2E2E2E2E2E2E2E2E2E2E2E2E2E2E2E2E2E2E2E2E2E2E2F5ECF5E2E2E2E2E2E2E2E2E2E2F5F5E2DCDCDCDCDCDCDCDC
310
DCDCDCDCDCDCE2E2E2E2E2E2E2E2E2E2E2E2E2E2E2EAE2E2E2F5E2E2F5EF00E2F5E2E2E2E2E2EAE2E2E2E2E2E2E228ECECE2ECE2E2E2E2E2E2F5F5F5F5F5F5F5F5F5F5F5F5F5E2E2E2E2E2E2F5ECF5E2E2E2E2E2E2E2E2E2E2F5F5E2DCE2E2E2E2E2E2E2E2E2E2DCDCE2DCDCDCE2E2E2E2E2E2E2E2E2E2E2E2EAE2E2E2F5E2
310
E2F5EF00E2F5E2E2E2E2E2EAE2E2E2E2E2E2E2ECECECE2ECE2E2E2E2E2E2F5F5F5F5F5F5F5F5F5F5F5E2F5E2E2E2E2E2E2F5ECF5E2E2E2E2E2E2E2E2E2E2E2ECE2DCE2E2E2E2E2E2E2E2E2E2DCDCE2E2E2DCDCDCDCE2E2E2E2E2E2E2E2E2EAE2E2E2F5E2E2F5EF00E2E2E2E2E2E2E2EAE2E2E2E2E2E2E228ECECECECE2E2E2
310
E2E2E2F5F5F5F5F5F5F5F5F5F5F5F5F5E2E2E2E2E2E2F5ECF5E2E2E2E2E2E2E2E2E2E2E2ECE2DCE2E2E2E2E2E2E2E2E2E2DCDCE2E2E2E2E2E2DCDCDCE2E2E2E2E2E2E2EAE2E2E2E2E2E2F5EF00E2E2E2E2E2E2E2EAE2E2E2E2E2E2E228ECECE2ECE2E2E2E2E2E2E2E2E2E2E2E2E2E2E2E2E2E2E2E2E2E2E2E2E2F5ECF5E2E2
310
E2E2E2E2E2E2E2E2E2ECE2DCE2E2E2E2E2E2E2E2E2E2DCDCE2E2E2E2E2E2E2DCDCE2F5F5E2E2E2E2EAE2E2E2E2E2E2F5EF00E2E2E2E2E2E2E2EAE2E2E2E2E2E2E2ECE2ECE2ECE2E2E2E2E2E2E2E2E2E2E2E2E2E2E2E2E2E2E2E2E2E2E2E2E2F5ECF5E2E2E2E2E2E2E2E2E2E2E2ECECECECECECECE2E2E2E2ECECECECE2E2E2
310
E2E2E2E2DCDCE2F5F5E2E2E2E2EAE2E2E2E2E2E2F5EF00E2E2E2E2E2E2E2EAE2E2E2E2E2E2E2282828EC28E2E2E2E2E2E2E2E2E2E2E2E2E2E2E2E2E2E2E2E2E2E2E2E2E2F5ECF5E2E2E2E2E2E2E2E2E2E2E2E2E2DCE2E2E2E2E2E2E2E2E2E2DCDCECECE2E2E2E2E2DCDCE2ECE2E2E2E2E2EAE2E2E2E2E2E2F5EF00E2E2E2E2
310
E2E2E2EAE2E2E2E2E2E2E2E2E228ECECE2E2E2E2E2E2E2E2E2E2E2E2E2E2E2E2E2E2E2E2E2E2E2E2E2F5ECF5E2E2E2E2E2E2E2E2E2E2E2E2E2DCE2E2E2E2E2E2E2E2E2E2DCDCE2E2E2E2ECE2E2DCDCE2ECECE2E2E2E2EAE2E2E2E2E2E2F5EF00E2E2E2E2E2E2E2EAE2E2E2E2E2E2E2282828E2ECE2E2E2E2E2E2E2E2E2E2E2
310
E2E2E2E2E2E2E2E2E2E2E2E2E2E2F5ECF5E2E2E2E2E2E2E2E2E2E2E2E2E2DCE2E2E2E2E2E2E2E2E2E2DCDCE2E2E2E2E2ECECDCDCE2ECE2E2E2E2E2EAE2E2E2E2E2E2F5EF00E2E2E2E2E2E2E2EAE2E2E2E2E2E2E228E2ECECECE2E2E2E2E2E2E2E2E2E2E2E2E2E2E2E2E2E2E2E2E2E2E2E2E2F5ECF5E2E2E2E2E2E2E2E2E2E2
310
E2E2E2DCE2E2E2E2E2E2E2E2E2E2DCDCE2E2E2E2E2E2E2ECECE2ECE2E2E2E2E2EAE2E2E2E2E2E2F5EF00E2E2E2E2E2E2E2EAE2E2E2E2E2E2E22828282828E2E2E2E2E2E2E2E2E2E2E2E2E2E2E2E2E2E2E2E2E2E2E2E2E2F5ECF5E2E2E2E2E2E2E2E2E2E2E2E2E2DCE2E2E2E2E2E2E2E2E2E2DCDCE2E2E2E2E2E2E2DCDCECEC
310
E2E2E2E2E2EAE2E2E2E2E2E2F5EF00E2E2E2E2E2E2E2EAE2E2E2E2E2E2E2E2E2E2E2E2E2E2E2E2E2E2E2E2E2E2E2E2E2E2E2E2E2E2E2E2E2E2E2E2ECECECECECEFE2F5F5F5F5E2E2E2E2E2E228DCDCDCDCDCDCDCDCDCDCDCDCDCE2E2E2E2E2E2DCDCE2E2E2E2E2E2E2EAE2E2E2E2E2E2F5EF00E2F5E2E2E2E2E2EAE2E2E2E2
310
E2E2E2E2E2E2E2E2E2E2E2E2E2E2E2E2E2E2E2E2E2E2E2E2E2E2E2E2E2E2E2E2ECECECECECEFE2F5F5F5F5E2E2E2E2E2E2E2E2E2E2E2E2E2E2E2E2E2E2E2DCDCDCE2E2E2E2DCDCE2E2E2E2E2E2E2EAE2E2E2F5E2E2F5EF00E2F5E2E2E2E2E2EAE2E2E2E2E2E2E2E2E2E2E2E2E2E2E2E2E2E2E2E2E2E2E2E2E2E2E2E2E2E2E2
310
E2E2E2E2E2ECECECECEFE2EFEFE2E2E2E2E2E2E2E2E2E2E2E2E2E2E2E2E2E2E2E2E2E2E2E2E2DCDCDCDCDCDCE2E2E2E2E2E2E2EAE2E2E2F5E2E2F5EF00E2F5E2E2E2E2E2EAE2E2E2E2E2E2E2E2E2E2E2E2E2E2E2E2E2E2E2E2E2E2E2E2E2E2E2E2E2E2E2E2EFE2E2E2EFECECF5EFEFE2EFEFE2E2E2E2E2E2E2E2E2E2E2E2E2
310
E2E2E2E2E2E2E2E2E2E2E2E2E2E2DCDCDCE2E2E2E2E2E2E2EAE2E2E2F5E2E2F5EF00E2F5E2E2E2E2E2EAE2E2E2E2E2E2E2E2E2E2E2E2E2E2E2E2E2282828EC282828ECECECECEC28282828EFE2E2EFF5ECF5E2EFEFE2EFEFE2E2E2E2E2E2E2E2E2E2E2E2E2E2E2E2E2E2E2E2E2E2E2E2E2E2E2E2E2E2E2E2E2E2E2E2EAE2E2
310
E2F5E2E2F5EF00E2F5E2E2E2E2E2EAE2E2E2E2E2E2E2E2E2E2E2E2E2E2E2E2E228ECECE2ECECECECE2E2E2ECECECEC28EFEFEFEFEFEFEFEFEFEFE2EFEFE2E2E2E2E2E2E2E2E2E2E2E2E2E2E2E2E2E2E2E2E2E2E2E2E2E2E2E2E2E2E2E2E2E2E2E2EAE2E2E2F5E2E2F5EF00E2F5E2E2E2E2E2EAE2E2E2E2E2E2E2E2E2E2E2E2
310
E2E2E2E2E228E2ECECE2E2E2ECECECECECECECECECEFEFEFE2E2E2E2EFEFEFE2EFEFE2E2E2E2E2E2E2E2E2E2E2E2E2E2E2E2E2E2E2E2E2E2E2E2E2E2E2E2E2E2E2E2E2E2E2E2EAE2E2E2F5E2E2F5EF00E2F5E2E2E2E2E2EAE2E2E2E2E2E2E2E2E2E2E2E2E2E2E2E2E22828282828ECECE2ECECECECECECEC28EFEFEFE2E2E2
310
E2EFEFEFEFEFEFE2E2E2E2E2E2E2E2E2E2E2E2E2E2E2E2E2E2E2E2E2E2E2E2E2E2E2E2E2E2E2E2E2E2E2E2EAE2E2E2F5E2E2F5EF00E2F5E2E2E2E2E2EAE2E2E2E2E2E2E2E2E2E2E2E2E2E2E2E2E22828E2E22828ECECECEC28EC28ECEC28EFE2E2E2E2E2E2EFEFEFE2E2EFE2E2E2E2E2E2E2E2E2E2E2E2E2E2E2E2E2E2E2E2
310
E2E2E2E2E2E2E2E2E2E2E2E2E2E2E2E2EAE2E2E2F5E2E2F5EF00E2F5E2E2E2E2E2EAE2E2E2E2E2E2E2E2E2E2E2E2E2E2E2E2E2E2E2E2E2E2E2E2E2E2E2E2E2EFEFEFEFEFE2E2E2E2E2E2EFE2E2E2E2EFE2E2E2E2E2E2E2E2E2E2E2E2E2E2E2E2E2E2E2E2E2E2E2E2E2E2E2E2E2E2E2E2E2E2E2E2EAE2E2E2F5E2E2F5EF00E2
310
F5E2E2E2E2E2EAE2E2E2E2E2E2E2E2E2E2E2E2E2E2E2E2E2E2E2E2E2E2E2E2E2E2E2E2E2E2E2E2E2E2E2E2E2E2E2E2E2E2E2E2E2EFE2E2E2E2E2E2E2E2E2E2E2E2E2E2E2E2E2E2E2E2E2E2E2E2E2E2E2E2E2E2E2E2E2E2E2E2EAE2E2E2F5E2E2F5EF00E2F5E2E2E2E2E2EAE2E2E2E2E2E2E2E2E2E2E2E2E2E2E2E2E2E2E2E2
310
E2E2E2E2E2E2E2E2E2E2E2E2E2E2E2E2E2E2E2E2E2E2E2E2EFEFE2E2E2E2E2E2E2E2E2E2E2E2E2E2E2E2E2E2E2E2E2E2E2E2E2E2E2E2E2E2E2E2E2E2E2E2EAE2E2E2F5E2E2F5EF00E2F5E2E2E2E2E2EAE2E2E2E2E2E2E2E2E2E2E2E2E2E2E2E2E2E2E2E2E2E2E2E2E2E2E2E2E2E2E2E2E2E2E2E2E2E2E2E2F5F5F5F5EFEFE2
310
E2E2E2E2E2E2E2E2E2E2E2E2E2E2E2E2E2E2E2E2E2E2E2E2E2E2E2E2E2E2E2E2E2E2E2EAE2E2E2F5E2E2F5EF00E2F5E2E2E2E2E2EAE2E2E2E2E2E2E2E2E2E2E2E2E2E2E2E2E2E2E2E2E2E2E2E2E2E2E2E2E2E2E2E2E2E2E2E2E2E2E2E2F5F5F5F5E2EFE2E2E2E2E2E2E2E2E2E2E2E2E2E2E2E2E2E2E2E2E2E2E2E2E2E2E2E2
310
E2E2E2E2E2E2E2E2EAE2E2E2F5E2E2F5EF00E2F5E2E2E2E2E2EAE2E2E2E2E2E2E2E2E2E2E2E2E2E2E2E2E2E2E2E2E2E2E2E2E2E2E2E2E2E2E2E2E2E2E2E2E2E2E2E2E2E2E2E2EFEFE2E2E2E2E2E2E2E2E2E2E2E2E2E2E2E2E2E2E2E2E2E2E2E2E2E2E2E2E2E2E2E2E2E2E2E2EAE2E2E2F5E2E2F5EF00E2F5E2E2E2E2E2EAE2
310
E2E2E2E2E2E2E2E2E2E2E2E2E2E2E2E2E2E2E2E2E2E2E2E2E2E2E2E2E2E2E2E2E2E2E2E2E2E2E2E2E2E2E2E2E2E2E2E2E2E2E2E2E2E2E2E2E2E2E2E2E2E2E2E2E2E2E2E2E2E2E2E2E2E2E2E2E2E2E2E2E2EAE2E2E2F5E2E2F5EF00E2F5E2E2E2E2E2EAE2E2E2E2E2E2E2E2E2E2E2E2E2E2E2E2E2E2E2E2E2E2E2E2E2E2E2E2
310
E2E2E2E2E2E2E2E2E2E2E2E2E2E2E2E2E2E2E2E2E2E2E2E2E2E2E2E2E2E2E2E2E2E2E2E2E2E2E2E2E2E2E2E2E2E2E2E2E2E2E2E2E2E2EAE2E2E2F5E2E2F5EF00E2F5E2E2E2E2E2EAE2E2E2E2E2E2E2E2E2E2E2E2E2E2E2E2E2E2E2E2E2E2E2E2E2E2E2E2E2E2E2E2E2E2E2E2E2E2E2E2E2E2E2E2E2E2E2E2E2E2E2E2E2E2E2
310
E2E2E2E2E2E2E2E2E2E2E2E2E2E2E2E2E2E2E2E2E2E2E2E2E2E2E2EAE2E2E2F5E2E2F5EF00E2E2E2E2E2E2E2EAE2E2E2E2E2E2E2E2E2E2E2E2E2E2E2E2E2E2E2E2E2E2E2E2E2E2E2E2E2E2E2E2E2E2E2E2E2E2E2E2E2E2E2E2E2E2E2E2E2E2E2E2E2E2E2E2E2E2E2E2E2E2E2E2E2E2E2E2E2E2E2E2E2E2E2E2E2E2E2E2E2E2
310
EAE2E2E2E2E2E2F5EF00E2E2E2E2E2E2E2EAE2E2E2E2E2E2E2E2E2E2E2E2E2E2E2E2E2E2E2E2E2E2E2E2E2E2E2E2E2E2E2E2E2E2E2E2E2E2E2E2E2E2E2E2E2E2E2E2E2E2E2E2E2E2E2E2E2E2E2E2E2E2E2E2E2E2E2E2E2E2E2E2E2E2E2E2E2E2E2E2E2E2EAE2E2E2E2E2E2F5EF00E2E2E2E2E2E2E2EAEAEAEAEAEAEAEAEAEA
310
EAEAEAEAEAEAEAEAEAEAEAEAEAEAEAEAEAEAEAEAEAEAEAEAEAEAEAEAEAEAEAEAEAEAEAEAEAEAEAEAEAEAEAEAEAEAEAEAEAEAEAEAEAEAEAEAEAEAEAEAEAEAEAEAEAEAEAEAEAEAEAEAEAEAE2E2E2E2E2E2F5EF00E2E2E2E2E2E2E2E2E2E2E2E2E2F5F5F5F5F5F5F5F5F5F5F5F5F5F5F5F5F5F5F5F5F5F5F5F5F5F5F5F5F5F5F5
310
F5F5F5F5F5F5F5F5F5F5F5F5F5F5F5F5F5F5F5F5F5F5F5F5F5F5F5F5F5F5F5F5F5F5F5F5F5F5F5F5F5F5F5F5F5F5F5E2E2E2E2E2E2F5EF00E2E2E2E2E2E2E2E2E2E2E2E2E2F5E2E2E2E2E2E2E2E2E2E2E2E2E2E2E2E2E2E2E2E2E2E2E2E2E2E2E2E2E2E2E2E2E2E2E2E2E2E2E2E2E2E2E2E2E2E2E2E2E2E2E2E2E2E2F5E2F5
310
F5F5F5F5F5F5E2E2F5E2E2E2F5F5E2E2E2E2E2F5E2E2E2E2E2E2F5EF00E2E2E2E2E2E2E2E2E2E2E2E2ECECECE2E2E2E2E2E2F5F5F5F5F5F5F5F5F5F5F5F5F5F5F5F5E2E2E2E2E2E2E2E2E2E2E2E2E2E2E2E2E2E2E2E2E2E2E2E2E2E2E2E2E2E2E2F5E2F5F5F5F5F5F5F5E2E2F5E2E2E2F5F5E2E2E2E2E2F5E2E2E2E2E2E2F5
310
EF00E2E2E2E2E2E2E2E2E2E2E2E2ECECECECE2E2E2E2E2F5F5F5F5F5F5F5F5F5F5F5F5F5F5F5F5E2E2E2E2E2E2E2E2E2E2E2E2E2E2E2E2E2E2E2E2E2E2E2E2E2E2E2E2E2E2E2F5E2E2E2E2E2E2E2E2E2E2F5E2E2E2E2E2E2E2E2E2E2F5E2E2E2E2E2E2F5EF00E2E2E2E2E2E2E2E2E2E2E2ECECECECECE2E2E2E2E2F5F5F5F5
310
F5F5F5F5F5F5F5F5F5F5F5F5F5F5E2E2E2E2E2E2E2E2E2E2E2E2E2E2E2E2E2E2E2E2E2E2E2E2E2E2E2E2E2F5E2E2F5F5F5F5F5E2E2E2F5E2E2F5F5F5F5F5E2E2E2F5E2E2E2E2E2E2F5EF00E2E2E2E2E2E2E2E2E2E2E2ECECECECECECE2E2E2E2F5F5F5F5F5F5F5F5F5F5F5F5F5F5F5F5F5F5E2E2E2E2E2E2E2E2E2E2E2E2E2
310
E2E2E2E2E2E2E2E2E2E2E2E2E2E2E2E2F5E2E2E2E2E2E2E2E2E2E2F5E2E2E2E2E2E2E2E2E2E2F5E2E2E2E2E2E2F5EF00E2E2E2E2E2E2E2E2E2E2ECECECECECECECE2E2E2E2F5F5F5F5F5F5F5F5F5F5F5F5F5F5F5F5F5F5E2E2E2E2E2E2E2E2E2E2E2E2E2E2E2E2E2E2E2E2E2E2E2E2E2E2E2E2E2F5E2E2E2E2E2E2E2E2E2E2
310
F5E2E2E2E2E2E2E2E2E2E2F5E2E2E2E2E2E2F5EF00E2F5E2E2E2E2E2E2E2E2ECECECECECECECECE2E2E2F5F5F5F5F5F5F5F5F5F5F5F5F5F5F5F5F5F5F5F5F5F5F5F5F5F5F5F5F5F5F5F5F5E2E2E2E2E2E2E2E2E2E2E2E2E2E2F5F5F5F5F5F5F5F5F5F5F5F5F5F5F5F5F5F5F5F5F5F5F5E2E2E2F5E2E2F5EF00E2F5E2E2E2E2
310
E2E2E2ECECECECECECECECECE2E2E2F5F5F5F5F5F5F5F5F5F5F5F5F5F5F5F5F5F5F5F5F5F5F5F5F5F5F5F5F5F5F5F5F5E2E2E2E2E2E2E2E2E2E2E2E2E2E2F5E2E2E2E2E2E2E2E2E2E2E2E2E2E2E2E2E2E2E2E2E2F5E2E2E2F5E2E2F5EF00E2F5E2E2E2E2E2E2ECECECECECECECECECECECE2E2F5F5F5F5F5F5F5F5F5F5F5F5
310
F5F5F5F5F5F5F5F5F5F5F5F5F5F5F5F5F5F5F5F5F5E2E2E2E2E2E2E2E2E2E2E2E2E2E2F5E2F5F5F5F5F5F5F5F5E2F5F5F5F5F5F5F5E2E2E2E2F5E2E2E2F5E2E2F5EF00E2F5E2E2E2E2E2E2ECECECECECECECECECECECE2E2F5F5F5F5F5F5F5F5F5F5F5F5F5F5F5F5F5F5F5F5F5F5F5F5F5F5E2E2E2E2E2E2E2E2E2E2E2E2E2
310
E2E2E2E2E2E2E2E2F5E2F5F5F5F5F5F5F5F5E2F5F5F5F5F5F5F5E2E2E2E2F5E2E2E2F5E2E2F5EF00E2F5E2E2E2E2E2ECECECECECECECECECECECECECE2F5F5F5F5F5F5F5F5F5F5F5F5F5F5F5F5F5F5F5F5F5F5F5F5F5F5E2E2E2E2E2E2E2E2E2E2E2E2E2E2E2E2E2E2E2E2E2F5E2E2E2E2E2E2E2E2E2E2E2E2E2E2E2E2E2E2
310
E2E2E2F5E2E2E2F5E2E2F5EFFFE2F5E2E2E2E2E2ECECECECECECF5ECECECECECECE2E2E2E2E2E2E2E2E2E2E2E2E2E2E2E2E2E2E2E2E2E2E2E2E2E2E2E2E2E2E2E2E2E2E2E2E2E2E2E2E2E2E2E2E2E2E2E2F5E2E2E2E2E2E2E2E2E2E2E2E2E2E2E2E2E2E2E2E2E2F5E2E2E2F5E2E2F5EFFFE2F5E2E2E2E2E2E2E2E2E2E2E2F5
310
F5F5F5F5F5F5F5F5F5F5F5F5F5F5F5F5F5F5F5F5F5F5F5F5F5F5F5F5F5F5F5F5F5F5F5F5F5F5F5F5F5F5F5F5F5F5F5F5F5F5F5F5F5F5F5F5F5F5F5F5F5F5F5F5F5F5F5F5F5F5F5F5F5F5F5F5F5E2E2E2F5E2E2F5EFFFE2F5E2E2E2E2E2E2E2E2E2E2E2E2E2E2E2E2E2E2E2E2E2E2E2E2E2E2E2E2E2E2E2E2E2E2E2E2E2E2E2
310
E2E2E2E2E2E2E2E2E2E2E2E2E2E2E2E2E2E2E2E2E2E2E2E2E2E2E2E2E2E2E2E2E2E2E2E2E2E2E2E2E2E2E2E2E2E2E2E2E2E2E2E2E2F5E2E2F5EFFFE2F5F5F5F5F5F5F5F5E2E2E2E2E2E2E2E2F5F5F5F5F5F5F5F5F5F5F5F5F5F5F5E2E2E2E2E2E2E2E2E2F5F5F5F5F5F5F5F5F5F5F5F5F5F5E2E2E2E2E2E2E2E2E2F5F5F5F5
310
F5F5F5F5F5F5F5F5F5F5F5E2E2E2E2E2E2E2E2F5F5F5F5F5F5F5F5E2E2F5EFFFE2E2E2E2E2E2E2E2E2E2E2E2E2E2E2E2E2E2E2E2E2E2E2E2E2E2E2E2E2E2E2E2E2E2E2E2E2E2E2E2E2E2E2E2E2E2E2E2E2E2E2E2E2E2E2E2E2E2E2E2E2E2E2E2E2E2E2E2E2E2E2E2E2E2E2E2E2E2E2E2E2E2E2E2E2E2E2E2E2E2E2E2E2E2E2
310
E2E2F5EFFFE2E2E2E2E2E2E2E2E2E2E2E2E2E2E2E2E2E2E2E2E2E2E2E2E2E2E2E2E2E2E2E2E2E2E2E2E2E2E2E2E2E2E2E2E2E2E2E2E2E2E2E2E2E2E2E2E2E2E2E2E2E2E2E2E2E2E2E2E2E2E2E2E2E2E2E2E2E2E2E2E2E2E2E2E2E2E2E2E2E2E2E2E2E2E2E2E2F5EFFFF5F5F5F5F5F5F5F5F5F5F5F5F5F5F5F5F5F5F5F5F5F5
310
F5F5F5F5F5F5F5F5F5F5F5F5F5F5F5F5F5F5F5F5F5F5F5F5F5F5F5F5F5F5F5F5F5F5F5F5F5F5F5F5F5F5F5F5F5F5F5F5F5F5F5F5F5F5F5F5F5F5F5F5F5F5F5F5F5F5F5F5F5F5F5F5F5F5F5F5EFFF
  0
XRECORD
  5
5B36
102
{ACAD_REACTORS
330
555D
102
}
330
555D
100
AcDbXrecord
280
     1
102
MATERIAL
148
0.0
149
0.0
149
0.0
 93
        0
 94
      127
282
     0
 72
     0
 77
     0
171
     0
175
     0
179
     0
273
     0
  0
XRECORD
  5
555F
102
{ACAD_REACTORS
330
555D
102
}
330
555D
100
AcDbXrecord
280
     1
270
     1
271
     1
  0
XRECORD
  5
555E
102
{ACAD_REACTORS
330
555D
102
}
330
555D
100
AcDbXrecord
280
     1
270
     1
271
     1
  0
XRECORD
  5
5562
102
{ACAD_REACTORS
330
555D
102
}
330
555D
100
AcDbXrecord
280
     1
270
     1
271
     1
  0
XRECORD
  5
5561
102
{ACAD_REACTORS
330
555D
102
}
330
555D
100
AcDbXrecord
280
     1
270
     1
271
     1
  0
XRECORD
  5
5563
102
{ACAD_REACTORS
330
555D
102
}
330
555D
100
AcDbXrecord
280
     1
270
     1
271
     1
  0
XRECORD
  5
5560
102
{ACAD_REACTORS
330
555D
102
}
330
555D
100
AcDbXrecord
280
     1
270
     1
271
     1
  0
XRECORD
  5
5B35
102
{ACAD_REACTORS
330
5555
102
}
330
5555
100
AcDbXrecord
280
     1
102
MATERIAL
148
0.0
149
0.0
149
0.0
 93
        0
 94
      127
282
     0
 72
     0
 77
     0
171
     0
175
     0
179
     0
273
     0
  0
XRECORD
  5
5557
102
{ACAD_REACTORS
330
5555
102
}
330
5555
100
AcDbXrecord
280
     1
270
     1
271
     1
  0
XRECORD
  5
5556
102
{ACAD_REACTORS
330
5555
102
}
330
5555
100
AcDbXrecord
280
     1
270
     1
271
     1
  0
XRECORD
  5
555A
102
{ACAD_REACTORS
330
5555
102
}
330
5555
100
AcDbXrecord
280
     1
270
     1
271
     1
  0
XRECORD
  5
5559
102
{ACAD_REACTORS
330
5555
102
}
330
5555
100
AcDbXrecord
280
     1
270
     1
271
     1
  0
XRECORD
  5
555B
102
{ACAD_REACTORS
330
5555
102
}
330
5555
100
AcDbXrecord
280
     1
270
     1
271
     1
  0
XRECORD
  5
5558
102
{ACAD_REACTORS
330
5555
102
}
330
5555
100
AcDbXrecord
280
     1
270
     1
271
     1
  0
XRECORD
  5
5B37
102
{ACAD_REACTORS
330
5565
102
}
330
5565
100
AcDbXrecord
280
     1
102
MATERIAL
148
0.0
149
0.0
149
0.0
 93
        0
 94
      127
282
     0
 72
     0
 77
     0
171
     0
175
     0
179
     0
273
     0
  0
XRECORD
  5
5567
102
{ACAD_REACTORS
330
5565
102
}
330
5565
100
AcDbXrecord
280
     1
270
     1
271
     1
  0
XRECORD
  5
5566
102
{ACAD_REACTORS
330
5565
102
}
330
5565
100
AcDbXrecord
280
     1
270
     1
271
     1
  0
XRECORD
  5
556A
102
{ACAD_REACTORS
330
5565
102
}
330
5565
100
AcDbXrecord
280
     1
270
     1
271
     1
  0
XRECORD
  5
5569
102
{ACAD_REACTORS
330
5565
102
}
330
5565
100
AcDbXrecord
280
     1
270
     1
271
     1
  0
XRECORD
  5
556B
102
{ACAD_REACTORS
330
5565
102
}
330
5565
100
AcDbXrecord
280
     1
270
     1
271
     1
  0
XRECORD
  5
5568
102
{ACAD_REACTORS
330
5565
102
}
330
5565
100
AcDbXrecord
280
     1
270
     1
271
     1
  0
XRECORD
  5
5FB1
102
{ACAD_REACTORS
330
5FB0
102
}
330
5FB0
100
AcDbXrecord
280
     1
102
SHADEPLOT
 70
     0
102
SHADEPLOTRESLEVEL
 70
     2
102
SHADEPLOTCUSTOMDPI
 70
   300
  0
XRECORD
  5
5FB3
102
{ACAD_REACTORS
330
5FB2
102
}
330
5FB2
100
AcDbXrecord
280
     1
102
SHADEPLOT
 70
     0
102
SHADEPLOTRESLEVEL
 70
     2
102
SHADEPLOTCUSTOMDPI
 70
   300
  0
ACAD_PROXY_OBJECT
  5
5B19
102
{ACAD_REACTORS
330
570A
102
}
330
570A
100
AcDbProxyObject
 90
      499
 91
      515
 95
   983063
 70
     0
 93
     5304
310
40D054060020000020000003200101A000080002A5058000000C10000000000000006101010000000000003E0FC000000000000F83F0000000000003E0FC000000000000F83F000000000000049000000000000001240419019018000000C1003FBFFFFFE0000000000003C8FD029018000000C1003FBFFFFFE00000000000
310
03C8FD049018000000C1003FBFFFFFE0000000000003C8FD089018000000C1003FBFFFFFE0000000000003C8FD109018000000C1003FBFFFFFE0000000000003C8FD209018000000C1003FBFFFFFE0000000000003C8FD01405075F5449544C450041501A8000000C800406800020000A94160000003040000000000000012
310
40404000000000000F83F0000000000003E0FC000000000000F83F0000000000003E0FC0000000000001240000000000000049010640640600000030400FEFFFFFF8000000000000F23F40A40600000030400FEFFFFFF8000000000000F23F41240600000030400FEFFFFFF8000000000000F23F42240600000030400FEFFF
310
FFF8000000000000F23F44240600000030400FEFFFFFF8000000000000F23F48240600000030400FEFFFFFF8000000000000F23F409014217D2115051115480105406A0000003200101A000080002A5028000000C10000000000000004901010000000000003E0FC000000000000F83F0000000000003E0FC000000000000F
310
83F000000000000049000000000000001240419019018000000C1003FBFFFFFE0000000000003C8FD029018000000C1003FBFFFFFE0000000000003C8FD049018000000C1003FBFFFFFE0000000000003C8FD089018000000C1003FBFFFFFE0000000000003C8FD109018000000C1003FBFFFFFE0000000000003C8FD20901
310
8000000C1003FBFFFFFE0000000000003C8FD03409065F444154410053
340
11
340
0
340
0
340
0
340
0
340
0
340
0
340
11
340
0
340
0
340
0
340
0
340
0
340
0
340
11
340
0
340
0
340
0
340
0
340
0
340
0
 94
        0
1001
ACAD
1000
AcRTDxfName
1000
CELLSTYLEMAP
1000
AcRTDxfName
1000
CELLSTYLEMAP
1000
AcRTDxfName
1000
CELLSTYLEMAP
  0
XRECORD
  5
5B38
102
{ACAD_REACTORS
330
570A
102
}
330
570A
100
AcDbXrecord
280
     1
102
ACAD_ROUNDTRIP_PRE2007_TABLESTYLE
 90
      512
 91
        0
  1

 92
      512
 93
        0
  2

 94
      512
 95
        0
  3

  0
ENDSEC
  0
EOF
