  0
SECTION
  2
HEADER
  9
$ACADVER
  1
AC1015
  9
$ACADMAINTVER
 70
    20
  9
$DWGCODEPAGE
  3
ANSI_1252
  9
$INSBASE
 10
0.0
 20
0.0
 30
0.0
  9
$EXTMIN
 10
-0.0000008078504834
 20
0.0000001108869583
 30
-1.550447999999999
  9
$EXTMAX
 10
353.9999991921495
 20
482.0000001108869
 30
0.0
  9
$LIMMIN
 10
-0.0000008078504834
 20
0.0000001108869583
  9
$LIMMAX
 10
353.9999991921495
 20
482.0000001108869
  9
$ORTHOMODE
 70
     0
  9
$REGENMODE
 70
     1
  9
$FILLMODE
 70
     1
  9
$QTEXTMODE
 70
     0
  9
$MIRRTEXT
 70
     0
  9
$LTSCALE
 40
1.0
  9
$ATTMODE
 70
     1
  9
$TEXTSIZE
 40
5.0
  9
$TRACEWID
 40
1.0
  9
$TEXTSTYLE
  7
Arial-Bold
  9
$CLAYER
  8
APL Border
  9
$CELTYPE
  6
ByLayer
  9
$CECOLOR
 62
   256
  9
$CELTSCALE
 40
1.0
  9
$DISPSILH
 70
     0
  9
$DIMSCALE
 40
1.0
  9
$DIMASZ
 40
4.0
  9
$DIMEXO
 40
0.625
  9
$DIMDLI
 40
3.75
  9
$DIMRND
 40
0.0
  9
$DIMDLE
 40
0.0
  9
$DIMEXE
 40
1.25
  9
$DIMTP
 40
0.0
  9
$DIMTM
 40
0.0
  9
$DIMTXT
 40
2.5
  9
$DIMCEN
 40
2.5
  9
$DIMTSZ
 40
0.0
  9
$DIMTOL
 70
     0
  9
$DIMLIM
 70
     0
  9
$DIMTIH
 70
     0
  9
$DIMTOH
 70
     0
  9
$DIMSE1
 70
     0
  9
$DIMSE2
 70
     0
  9
$DIMTAD
 70
     1
  9
$DIMZIN
 70
     8
  9
$DIMBLK
  1

  9
$DIMASO
 70
     1
  9
$DIMSHO
 70
     1
  9
$DIMPOST
  1

  9
$DIMAPOST
  1

  9
$DIMALT
 70
     0
  9
$DIMALTD
 70
     3
  9
$DIMALTF
 40
0.03937007874016
  9
$DIMLFAC
 40
1.0
  9
$DIMTOFL
 70
     1
  9
$DIMTVP
 40
0.0
  9
$DIMTIX
 70
     0
  9
$DIMSOXD
 70
     0
  9
$DIMSAH
 70
     0
  9
$DIMBLK1
  1

  9
$DIMBLK2
  1

  9
$DIMSTYLE
  2
ISO-25
  9
$DIMCLRD
 70
     0
  9
$DIMCLRE
 70
     0
  9
$DIMCLRT
 70
     0
  9
$DIMTFAC
 40
1.0
  9
$DIMGAP
 40
0.625
  9
$DIMJUST
 70
     0
  9
$DIMSD1
 70
     0
  9
$DIMSD2
 70
     0
  9
$DIMTOLJ
 70
     0
  9
$DIMTZIN
 70
     8
  9
$DIMALTZ
 70
     0
  9
$DIMALTTZ
 70
     0
  9
$DIMUPT
 70
     0
  9
$DIMDEC
 70
     2
  9
$DIMTDEC
 70
     2
  9
$DIMALTU
 70
     2
  9
$DIMALTTD
 70
     3
  9
$DIMTXSTY
  7
Standard
  9
$DIMAUNIT
 70
     0
  9
$DIMADEC
 70
     0
  9
$DIMALTRND
 40
0.0
  9
$DIMAZIN
 70
     0
  9
$DIMDSEP
 70
    44
  9
$DIMATFIT
 70
     3
  9
$DIMFRAC
 70
     0
  9
$DIMLDRBLK
  1

  9
$DIMLUNIT
 70
     2
  9
$DIMLWD
 70
    -2
  9
$DIMLWE
 70
    -2
  9
$DIMTMOVE
 70
     0
  9
$LUNITS
 70
     2
  9
$LUPREC
 70
     4
  9
$SKETCHINC
 40
1.0
  9
$FILLETRAD
 40
0.0
  9
$AUNITS
 70
     0
  9
$AUPREC
 70
     0
  9
$MENU
  1
.
  9
$ELEVATION
 40
0.0
  9
$PELEVATION
 40
0.0
  9
$THICKNESS
 40
0.0
  9
$LIMCHECK
 70
     0
  9
$CHAMFERA
 40
10.0
  9
$CHAMFERB
 40
10.0
  9
$CHAMFERC
 40
20.0
  9
$CHAMFERD
 40
0.0
  9
$SKPOLY
 70
     0
  9
$TDCREATE
 40
2452311.390521435
  9
$TDUCREATE
 40
2452310.890521435
  9
$TDUPDATE
 40
2455660.610126551
  9
$TDUUPDATE
 40
2455660.110126551
  9
$TDINDWG
 40
0.8102473380
  9
$TDUSRTIMER
 40
0.8102472222
  9
$USRTIMER
 70
     1
  9
$ANGBASE
 50
0.0
  9
$ANGDIR
 70
     0
  9
$PDMODE
 70
     3
  9
$PDSIZE
 40
3.0
  9
$PLINEWID
 40
0.0
  9
$SPLFRAME
 70
     0
  9
$SPLINETYPE
 70
     6
  9
$SPLINESEGS
 70
     8
  9
$HANDSEED
  5
45CF
  9
$SURFTAB1
 70
     6
  9
$SURFTAB2
 70
     6
  9
$SURFTYPE
 70
     6
  9
$SURFU
 70
     6
  9
$SURFV
 70
     6
  9
$UCSBASE
  2

  9
$UCSNAME
  2

  9
$UCSORG
 10
0.0
 20
0.0
 30
0.0
  9
$UCSXDIR
 10
1.0
 20
0.0
 30
0.0
  9
$UCSYDIR
 10
0.0
 20
1.0
 30
0.0
  9
$UCSORTHOREF
  2

  9
$UCSORTHOVIEW
 70
     0
  9
$UCSORGTOP
 10
0.0
 20
0.0
 30
0.0
  9
$UCSORGBOTTOM
 10
0.0
 20
0.0
 30
0.0
  9
$UCSORGLEFT
 10
0.0
 20
0.0
 30
0.0
  9
$UCSORGRIGHT
 10
0.0
 20
0.0
 30
0.0
  9
$UCSORGFRONT
 10
0.0
 20
0.0
 30
0.0
  9
$UCSORGBACK
 10
0.0
 20
0.0
 30
0.0
  9
$PUCSBASE
  2

  9
$PUCSNAME
  2

  9
$PUCSORG
 10
0.0
 20
0.0
 30
0.0
  9
$PUCSXDIR
 10
1.0
 20
0.0
 30
0.0
  9
$PUCSYDIR
 10
0.0
 20
1.0
 30
0.0
  9
$PUCSORTHOREF
  2

  9
$PUCSORTHOVIEW
 70
     0
  9
$PUCSORGTOP
 10
0.0
 20
0.0
 30
0.0
  9
$PUCSORGBOTTOM
 10
0.0
 20
0.0
 30
0.0
  9
$PUCSORGLEFT
 10
0.0
 20
0.0
 30
0.0
  9
$PUCSORGRIGHT
 10
0.0
 20
0.0
 30
0.0
  9
$PUCSORGFRONT
 10
0.0
 20
0.0
 30
0.0
  9
$PUCSORGBACK
 10
0.0
 20
0.0
 30
0.0
  9
$USERI1
 70
     0
  9
$USERI2
 70
     0
  9
$USERI3
 70
     0
  9
$USERI4
 70
     0
  9
$USERI5
 70
     0
  9
$USERR1
 40
0.0
  9
$USERR2
 40
0.0
  9
$USERR3
 40
0.0
  9
$USERR4
 40
0.0
  9
$USERR5
 40
0.0
  9
$WORLDVIEW
 70
     1
  9
$SHADEDGE
 70
     3
  9
$SHADEDIF
 70
    70
  9
$TILEMODE
 70
     0
  9
$MAXACTVP
 70
    64
  9
$PINSBASE
 10
0.0
 20
0.0
 30
0.0
  9
$PLIMCHECK
 70
     0
  9
$PEXTMIN
 10
11.46014299460751
 20
3.285575844812797
 30
-0.0015258207003583
  9
$PEXTMAX
 10
189.6073677543587
 20
282.2033753668244
 30
0.0000000349246037
  9
$PLIMMIN
 10
-5.027082920074462
 20
-5.408084392547607
  9
$PLIMMAX
 10
204.8615736961365
 20
291.6449246406555
  9
$UNITMODE
 70
     0
  9
$VISRETAIN
 70
     1
  9
$PLINEGEN
 70
     0
  9
$PSLTSCALE
 70
     1
  9
$TREEDEPTH
 70
  3020
  9
$CMLSTYLE
  2
Standard
  9
$CMLJUST
 70
     0
  9
$CMLSCALE
 40
20.0
  9
$PROXYGRAPHICS
 70
     1
  9
$MEASUREMENT
 70
     1
  9
$CELWEIGHT
370
    -1
  9
$ENDCAPS
280
     0
  9
$JOINSTYLE
280
     0
  9
$LWDISPLAY
290
     0
  9
$INSUNITS
 70
     4
  9
$HYPERLINKBASE
  1

  9
$STYLESHEET
  1
A4 Specifier Manual.ctb
  9
$XEDIT
290
     1
  9
$CEPSNTYPE
380
     0
  9
$PSTYLEMODE
290
     1
  9
$FINGERPRINTGUID
  2
{D079D194-C9C2-11D5-B123-005004D48FB5}
  9
$VERSIONGUID
  2
{D28326AF-2259-4121-A937-9CBBF344A6BE}
  9
$EXTNAMES
290
     1
  9
$PSVPSCALE
 40
0.0
  9
$OLESTARTUP
290
     0
  0
ENDSEC
  0
SECTION
  2
CLASSES
  0
CLASS
  1
ACDBDICTIONARYWDFLT
  2
AcDbDictionaryWithDefault
  3
ObjectDBX Classes
 90
        0
280
     0
281
     0
  0
CLASS
  1
ACDBPLACEHOLDER
  2
AcDbPlaceHolder
  3
ObjectDBX Classes
 90
        0
280
     0
281
     0
  0
CLASS
  1
LAYOUT
  2
AcDbLayout
  3
ObjectDBX Classes
 90
        0
280
     0
281
     0
  0
CLASS
  1
DICTIONARYVAR
  2
AcDbDictionaryVar
  3
ObjectDBX Classes
 90
        0
280
     0
281
     0
  0
CLASS
  1
PLOTSETTINGS
  2
AcDbPlotSettings
  3
ObjectDBX Classes
 90
        0
280
     0
281
     0
  0
CLASS
  1
SORTENTSTABLE
  2
AcDbSortentsTable
  3
ObjectDBX Classes
 90
        0
280
     0
281
     0
  0
CLASS
  1
DIMASSOC
  2
AcDbDimAssoc
  3
"AcDbDimAssoc|Product Desc:     AcDim ARX App For Dimension|Company:          Autodesk, Inc.|WEB Address:      www.autodesk.com"
 90
    32768
280
     0
281
     0
  0
CLASS
  1
MATERIAL
  2
AcDbMaterial
  3
ObjectDBX Classes
 90
        0
280
     0
281
     0
  0
CLASS
  1
VISUALSTYLE
  2
AcDbVisualStyle
  3
ObjectDBX Classes
 90
     4095
280
     0
281
     0
  0
CLASS
  1
TABLESTYLE
  2
AcDbTableStyle
  3
ObjectDBX Classes
 90
     2047
280
     0
281
     0
  0
CLASS
  1
SCALE
  2
AcDbScale
  3
ObjectDBX Classes
 90
     1153
280
     0
281
     0
  0
CLASS
  1
MLEADERSTYLE
  2
AcDbMLeaderStyle
  3
ACDB_MLEADERSTYLE_CLASS
 90
     4095
280
     0
281
     0
  0
CLASS
  1
EXACTERMXREFMAP
  2
ExAcTermXrefMap
  3
EXAC_SERVICE
 90
    33793
280
     0
281
     0
  0
CLASS
  1
NPOCOLLECTION
  2
AcDbImpNonPersistentObjectsCollection
  3
ObjectDBX Classes
 90
    33921
280
     0
281
     0
  0
CLASS
  1
EXACXREFPANELOBJECT
  2
ExAcXREFPanelObject
  3
EXAC_ESW
 90
    33793
280
     0
281
     0
  0
CLASS
  1
CELLSTYLEMAP
  2
AcDbCellStyleMap
  3
ObjectDBX Classes
 90
     1152
280
     0
281
     0
  0
ENDSEC
  0
SECTION
  2
TABLES
  0
TABLE
  2
VPORT
  5
8
102
{ACAD_XDICTIONARY
360
3A4C
102
}
330
0
100
AcDbSymbolTable
 70
     1
  0
VPORT
  5
3951
330
8
100
AcDbSymbolTableRecord
100
AcDbViewportTableRecord
  2
*Active
 70
     0
 10
0.0
 20
0.0
 11
1.0
 21
1.0
 12
177.00000001637
 22
241.0000012331306
 13
0.0
 23
0.0
 14
10.0
 24
10.0
 15
10.0
 25
10.0
 16
0.0
 26
0.0
 36
1.0
 17
0.0
 27
0.0
 37
0.0
 40
486.0631379323371
 41
2.208100558659217
 42
50.0
 43
0.0
 44
0.0
 50
0.0
 51
0.0
 71
     0
 72
 20000
 73
     1
 74
     3
 75
     0
 76
     0
 77
     0
 78
     1
281
     0
 65
     1
110
0.0
120
0.0
130
0.0
111
1.0
121
0.0
131
0.0
112
0.0
122
1.0
132
0.0
 79
     0
146
0.0
  0
ENDTAB
  0
TABLE
  2
LTYPE
  5
5
330
0
100
AcDbSymbolTable
 70
     1
  0
LTYPE
  5
14
330
5
100
AcDbSymbolTableRecord
100
AcDbLinetypeTableRecord
  2
ByBlock
 70
     0
  3

 72
    65
 73
     0
 40
0.0
  0
LTYPE
  5
15
330
5
100
AcDbSymbolTableRecord
100
AcDbLinetypeTableRecord
  2
ByLayer
 70
     0
  3

 72
    65
 73
     0
 40
0.0
  0
LTYPE
  5
16
330
5
100
AcDbSymbolTableRecord
100
AcDbLinetypeTableRecord
  2
Continuous
 70
     0
  3
Solid line
 72
    65
 73
     0
 40
0.0
  0
ENDTAB
  0
TABLE
  2
LAYER
  5
2
102
{ACAD_XDICTIONARY
360
39E4
102
}
330
0
100
AcDbSymbolTable
 70
     7
  0
LAYER
  5
10
102
{ACAD_XDICTIONARY
360
3A1C
102
}
330
2
100
AcDbSymbolTableRecord
100
AcDbLayerTableRecord
  2
0
 70
     4
 62
     7
  6
Continuous
290
     0
370
    -3
390
F
  0
LAYER
  5
2B
102
{ACAD_XDICTIONARY
360
3A1E
102
}
330
2
100
AcDbSymbolTableRecord
100
AcDbLayerTableRecord
  2
APL Joinery
 70
     0
 62
     2
  6
Continuous
370
    -3
390
F
  0
LAYER
  5
75
102
{ACAD_XDICTIONARY
360
3A20
102
}
330
2
100
AcDbSymbolTableRecord
100
AcDbLayerTableRecord
  2
APL Notes
 70
     0
 62
     7
  6
Continuous
370
    -3
390
F
  0
LAYER
  5
282D
102
{ACAD_XDICTIONARY
360
3A22
102
}
330
2
100
AcDbSymbolTableRecord
100
AcDbLayerTableRecord
  2
APL Border
 70
     0
 62
     7
  6
Continuous
370
    -3
390
F
  0
LAYER
  5
3ACC
102
{ACAD_XDICTIONARY
360
414A
102
}
330
2
100
AcDbSymbolTableRecord
100
AcDbLayerTableRecord
  2
APL Hatch
 70
     0
 62
   253
  6
Continuous
370
    -3
390
F
  0
LAYER
  5
3FA8
102
{ACAD_XDICTIONARY
360
414C
102
}
330
2
100
AcDbSymbolTableRecord
100
AcDbLayerTableRecord
  2
APL Building
 70
     0
 62
     3
  6
Continuous
370
    -3
390
F
  0
ENDTAB
  0
TABLE
  2
STYLE
  5
3
330
0
100
AcDbSymbolTable
 70
     4
  0
STYLE
  5
11
330
3
100
AcDbSymbolTableRecord
100
AcDbTextStyleTableRecord
  2
Standard
 70
     0
 40
0.0
 41
1.0
 50
0.0
 71
     0
 42
3.0
  3
txt
  4

  0
STYLE
  5
56
330
3
100
AcDbSymbolTableRecord
100
AcDbTextStyleTableRecord
  2
Arial-Regular
 70
     0
 40
0.0
 41
1.0
 50
0.0
 71
     0
 42
2.5
  3
ARIAL.TTF
  4

1001
ACAD
1000
Arial
1071
       34
  0
STYLE
  5
58
330
3
100
AcDbSymbolTableRecord
100
AcDbTextStyleTableRecord
  2
Arial-Bold
 70
     0
 40
0.0
 41
1.0
 50
0.0
 71
     0
 42
5.0
  3
ARIALBD.TTF
  4

1001
ACAD
1000
Arial
1071
 33554466
  0
ENDTAB
  0
TABLE
  2
VIEW
  5
6
330
0
100
AcDbSymbolTable
 70
     0
  0
ENDTAB
  0
TABLE
  2
UCS
  5
7
330
0
100
AcDbSymbolTable
 70
     0
  0
ENDTAB
  0
TABLE
  2
APPID
  5
9
330
0
100
AcDbSymbolTable
 70
     9
  0
APPID
  5
12
330
9
100
AcDbSymbolTableRecord
100
AcDbRegAppTableRecord
  2
ACAD
 70
     0
  0
APPID
  5
39C4
330
9
100
AcDbSymbolTableRecord
100
AcDbRegAppTableRecord
  2
ACAD_MLEADERVER
 70
     0
  0
APPID
  5
3EE9
330
9
100
AcDbSymbolTableRecord
100
AcDbRegAppTableRecord
  2
ACAD_PSEXT
 70
     0
  0
APPID
  5
40A0
330
9
100
AcDbSymbolTableRecord
100
AcDbRegAppTableRecord
  2
ACAUTHENVIRON
 70
     0
  0
APPID
  5
40A1
330
9
100
AcDbSymbolTableRecord
100
AcDbRegAppTableRecord
  2
AcDbDynamicBlockTrueName
 70
     0
  0
APPID
  5
40A2
330
9
100
AcDbSymbolTableRecord
100
AcDbRegAppTableRecord
  2
AcDbDynamicBlockGUID
 70
     0
  0
APPID
  5
40A3
330
9
100
AcDbSymbolTableRecord
100
AcDbRegAppTableRecord
  2
AcDbBlockRepETag
 70
     0
  0
APPID
  5
40A4
330
9
100
AcDbSymbolTableRecord
100
AcDbRegAppTableRecord
  2
AcDbBlockRepBTag
 70
     0
  0
APPID
  5
40A5
330
9
100
AcDbSymbolTableRecord
100
AcDbRegAppTableRecord
  2
ACAD_EXEMPT_FROM_CAD_STANDARDS
 70
     0
  0
ENDTAB
  0
TABLE
  2
DIMSTYLE
  5
A
330
0
100
AcDbSymbolTable
 70
     2
100
AcDbDimStyleTable
 71
     1
340
27
  0
DIMSTYLE
105
27
330
A
100
AcDbSymbolTableRecord
100
AcDbDimStyleTableRecord
  2
ISO-25
 70
     0
 41
4.0
 42
0.625
 43
3.75
 44
1.25
 73
     0
 74
     0
 77
     1
 78
     8
140
2.5
141
2.5
143
0.03937007874016
147
0.625
171
     3
172
     1
271
     2
272
     2
274
     3
278
    44
283
     0
284
     8
340
11
  0
ENDTAB
  0
TABLE
  2
BLOCK_RECORD
  5
1
330
0
100
AcDbSymbolTable
 70
    22
  0
BLOCK_RECORD
  5
1F
102
{ACAD_XDICTIONARY
360
2C09
102
}
330
1
100
AcDbSymbolTableRecord
100
AcDbBlockTableRecord
  2
*Model_Space
340
22
  0
BLOCK_RECORD
  5
2CC1
330
1
100
AcDbSymbolTableRecord
100
AcDbBlockTableRecord
  2
*Paper_Space
340
2CC2
  0
BLOCK_RECORD
  5
29D3
330
1
100
AcDbSymbolTableRecord
100
AcDbBlockTableRecord
  2
6Glass
340
0
102
{BLKREFS
331
31D6
331
3215
331
32DD
331
3517
331
358D
331
38F7
331
38FC
102
}
  0
BLOCK_RECORD
  5
2CCC
330
1
100
AcDbSymbolTableRecord
100
AcDbBlockTableRecord
  2
vantage a4 SM border
340
0
102
{BLKREFS
331
2CD0
102
}
  0
BLOCK_RECORD
  5
2D06
330
1
100
AcDbSymbolTableRecord
100
AcDbBlockTableRecord
  2
vantage a4 SM attributes (2)
340
0
102
{BLKREFS
331
2D10
102
}
1001
ACAD
1000
DesignCenter Data
1002
{
1070
     1
1070
     4
1002
}
  0
BLOCK_RECORD
  5
3056
102
{ACAD_XDICTIONARY
360
4574
102
}
330
1
100
AcDbSymbolTableRecord
100
AcDbBlockTableRecord
  2
08552
340
0
102
{BLKREFS
331
305B
331
31ED
331
3214
102
}
  0
BLOCK_RECORD
  5
3186
102
{ACAD_XDICTIONARY
360
4579
102
}
330
1
100
AcDbSymbolTableRecord
100
AcDbBlockTableRecord
  2
08554
340
0
102
{BLKREFS
331
31CB
102
}
  0
BLOCK_RECORD
  5
318C
102
{ACAD_XDICTIONARY
360
457E
102
}
330
1
100
AcDbSymbolTableRecord
100
AcDbBlockTableRecord
  2
01659
340
0
102
{BLKREFS
331
38F6
102
}
  0
BLOCK_RECORD
  5
31A7
330
1
100
AcDbSymbolTableRecord
100
AcDbBlockTableRecord
  2
9010313
340
0
102
{BLKREFS
331
3217
331
3586
331
3593
102
}
  0
BLOCK_RECORD
  5
31E6
102
{ACAD_XDICTIONARY
360
4591
102
}
330
1
100
AcDbSymbolTableRecord
100
AcDbBlockTableRecord
  2
08553
340
0
102
{BLKREFS
331
31EC
102
}
  0
BLOCK_RECORD
  5
32E7
330
1
100
AcDbSymbolTableRecord
100
AcDbBlockTableRecord
  2
9010600
340
0
102
{BLKREFS
331
3596
331
3901
102
}
  0
BLOCK_RECORD
  5
37FA
102
{ACAD_XDICTIONARY
360
4599
102
}
330
1
100
AcDbSymbolTableRecord
100
AcDbBlockTableRecord
  2
08475
340
0
102
{BLKREFS
331
37FF
102
}
  0
BLOCK_RECORD
  5
3ACF
330
1
100
AcDbSymbolTableRecord
100
AcDbBlockTableRecord
  2
Auto Door - Horizon frameless
340
0
102
{BLKREFS
331
3BF1
102
}
1001
ACAD
1000
DesignCenter Data
1002
{
1070
     1
1070
     4
1002
}
  0
BLOCK_RECORD
  5
3D0B
330
1
100
AcDbSymbolTableRecord
100
AcDbBlockTableRecord
  2
9010640-4.0mm
340
0
102
{BLKREFS
331
3D11
331
3D4A
102
}
1001
ACAD
1000
DesignCenter Data
1002
{
1070
     1
1070
     4
1002
}
  0
BLOCK_RECORD
  5
3D43
330
1
100
AcDbSymbolTableRecord
100
AcDbBlockTableRecord
  2
9010675-8.0mm
340
0
102
{BLKREFS
331
3D47
331
3D48
331
3D49
102
}
1001
ACAD
1000
DesignCenter Data
1002
{
1070
     1
1070
     4
1002
}
  0
BLOCK_RECORD
  5
4199
102
{ACAD_XDICTIONARY
360
419A
102
}
330
1
100
AcDbSymbolTableRecord
100
AcDbBlockTableRecord
  2
vantage black & white logo
340
0
310
2800000020000000200000000100080000000000000400000000000000000000000000000000000000000000000080000080000000808000800000008000800080800000C0C0C000C0DCC000F0CAA6000020400000206000002080000020A0000020C0000020E00000400000004020000040400000406000004080000040A0
310
000040C0000040E00000600000006020000060400000606000006080000060A0000060C0000060E00000800000008020000080400000806000008080000080A0000080C0000080E00000A0000000A0200000A0400000A0600000A0800000A0A00000A0C00000A0E00000C0000000C0200000C0400000C0600000C0800000C0
310
A00000C0C00000C0E00000E0000000E0200000E0400000E0600000E0800000E0A00000E0C00000E0E00040000000400020004000400040006000400080004000A0004000C0004000E00040200000402020004020400040206000402080004020A0004020C0004020E000404000004040200040404000404060004040800040
310
40A0004040C0004040E00040600000406020004060400040606000406080004060A0004060C0004060E00040800000408020004080400040806000408080004080A0004080C0004080E00040A0000040A0200040A0400040A0600040A0800040A0A00040A0C00040A0E00040C0000040C0200040C0400040C0600040C08000
310
40C0A00040C0C00040C0E00040E0000040E0200040E0400040E0600040E0800040E0A00040E0C00040E0E00080000000800020008000400080006000800080008000A0008000C0008000E00080200000802020008020400080206000802080008020A0008020C0008020E00080400000804020008040400080406000804080
310
008040A0008040C0008040E00080600000806020008060400080606000806080008060A0008060C0008060E00080800000808020008080400080806000808080008080A0008080C0008080E00080A0000080A0200080A0400080A0600080A0800080A0A00080A0C00080A0E00080C0000080C0200080C0400080C0600080C0
310
800080C0A00080C0C00080C0E00080E0000080E0200080E0400080E0600080E0800080E0A00080E0C00080E0E000C0000000C0002000C0004000C0006000C0008000C000A000C000C000C000E000C0200000C0202000C0204000C0206000C0208000C020A000C020C000C020E000C0400000C0402000C0404000C0406000C0
310
408000C040A000C040C000C040E000C0600000C0602000C0604000C0606000C0608000C060A000C060C000C060E000C0800000C0802000C0804000C0806000C0808000C080A000C080C000C080E000C0A00000C0A02000C0A04000C0A06000C0A08000C0A0A000C0A0C000C0A0E000C0C00000C0C02000C0C04000C0C06000
310
C0C08000C0C0A000F0FBFF00A4A0A000808080000000FF0000FF000000FFFF00FF000000FF00FF00FFFF0000FFFFFF0000000000000000000000000000000000000000000000000000000000000000000000000000000000000000000000000000000000000000000000000000000000000000000000000000000000000000
310
0000000000000000000000000000000000000000000000000000000000000000A4A40000000000000000000000000000000000000000000000000000000000A400000700000000000000000000000000000000000000000000000000000000A4000707000000000000000000000000000000000000000000000000000000A4
310
00A4A407070000000000000000000000000000000000000000000000000000A400A400A40700000000000000000000000000000000000000000000000000A400A4A400A407070000000000000000000000000000000000000000000000A40700A4000000A4070000000000000000000000000000000000000000000000A400
310
A4A4000000A40707000000000000000000000000000000000000000000A400A4A4000000A4A4A400070000000000000000000000000000000000000000A400A400000000A400A4070700000000000000000000000000000000000000A400A4A4000000A4A40000A40007000000000000000000000000000000000000A400A4
310
A4A4A4A4A4A4A4A4A407070000000000000000000000000000000000A400A4A4A4A4A4A4A4A4A4A4A4A40007000000000000000000000000000000A40000A4A4A4A4A4A4A4A4A4A4A4A40700070000000000000000000000000000A400A4A400A4A4A4A4A4A4A4A4A4A4A4070700000000000000000000000000A400A4A4A4
310
A4A4A4A4A4A4A4A4A4A4A4A4070007000000000000000000000000A400A4A4A4A4A4A4A4A4A4A4A4A4A4A4A4A407070000000000000000000000A400A4A400A4A4A4A4A4A4A4A4A4A4A4A4A4A4070007000000000000000000A40700A4A400A4A4A4A4A4A4A4A4A4A4A4A4A400A40707000000000000000000A400A4A4A4A4
310
A4A4A4A4A4A4A4A4A4A4A4A4A4A4A407000700000000000000A400A4A4A4A4A4A4A4A4A4A4A4A4A4A4A4A4A4A4A4A4A4070007000000000000A400A4A4A4A4A4A4A4A4A4A4A4A4A4A4A4A4A4A4A4A4A40700070000000000A400A4A400A4A4A4A4A4A4A4A4A4A4A4A4A4A4A4A4A4A4A40007000700000000A400A4A4A400A4
310
A4A4A4A4A4A4A4A4A4A4A4A4A4A4A4A4A4000700070000000700A4A4A4A4A4A4A4A4A4A4A4A4A4A4A4A4A4A4A4A4A4A4A4A4A40700070000A407A4A4A4A4A4A4A4A4A4A4A4A4A4A4A4A4A4A4A4A4A4A4A4A4A4A407A40000000000000000000000000000000000000000000000000000000000000000000000000000000000
310
0000000000000000000000000000000000000000000000000000000000000000000000000000000000000000000000000000000000000000
102
{BLKREFS
331
4197
102
}
1001
AcDbDynamicBlockGUID
1000
{7D04BC3F-8AE2-40EA-A482-CE6E620AF154}
1001
AcDbBlockRepETag
1070
     1
1071
      907
1001
ACAD
1000
DesignCenter Data
1002
{
1070
     1
1070
     4
1002
}
  0
ENDTAB
  0
ENDSEC
  0
SECTION
  2
BLOCKS
  0
BLOCK
  5
20
330
1F
100
AcDbEntity
  8
0
100
AcDbBlockBegin
  2
*Model_Space
 70
     0
 10
0.0
 20
0.0
 30
0.0
  3
*Model_Space
  1

  0
ENDBLK
  5
21
330
1F
100
AcDbEntity
  8
0
100
AcDbBlockEnd
  0
BLOCK
  5
2CC3
330
2CC1
100
AcDbEntity
 67
     1
  8
0
100
AcDbBlockBegin
  2
*Paper_Space
 70
     0
 10
0.0
 20
0.0
 30
0.0
  3
*Paper_Space
  1

  0
ENDBLK
  5
2CC4
330
2CC1
100
AcDbEntity
 67
     1
  8
0
100
AcDbBlockEnd
  0
BLOCK
  5
29D4
330
29D3
100
AcDbEntity
  8
0
100
AcDbBlockBegin
  2
6Glass
 70
     0
 10
101.8368839708302
 20
399.4111348733001
 30
0.0
  3
6Glass
  1
I:\DWG Master BLocks\6Glass.dwg
  0
LINE
  5
2D46
330
29D3
100
AcDbEntity
  8
APL Joinery
 62
     7
100
AcDbLine
 10
95.33688397083029
 20
412.4111348732999
 30
0.0
 11
95.33688397083029
 21
392.4111348733
 31
0.0
  0
LINE
  5
2D47
330
29D3
100
AcDbEntity
  8
APL Joinery
 62
     7
100
AcDbLine
 10
89.33688397083029
 20
412.4111348732999
 30
0.0
 11
95.33688397083029
 21
412.4111348732999
 31
0.0
  0
LINE
  5
2D48
330
29D3
100
AcDbEntity
  8
APL Joinery
 62
     8
100
AcDbLine
 10
93.33688397083028
 20
412.4111348732999
 30
0.0
 11
93.33688397083028
 21
392.4111348733
 31
0.0
  0
LINE
  5
2D49
330
29D3
100
AcDbEntity
  8
APL Joinery
 62
     7
100
AcDbLine
 10
89.33688397083029
 20
412.4111348732999
 30
0.0
 11
89.33688397083029
 21
392.4111348733
 31
0.0
  0
LINE
  5
2D4A
330
29D3
100
AcDbEntity
  8
APL Joinery
 62
     8
100
AcDbLine
 10
91.33688397083028
 20
412.4111348732999
 30
0.0
 11
91.33688397083028
 21
392.4111348733
 31
0.0
  0
ENDBLK
  5
29D5
330
29D3
100
AcDbEntity
  8
0
100
AcDbBlockEnd
  0
BLOCK
  5
2CCD
330
2CCC
100
AcDbEntity
  8
0
100
AcDbBlockBegin
  2
vantage a4 SM border
 70
     0
 10
0.0
 20
0.0
 30
0.0
  3
vantage a4 SM border
  1
vantage a4 SM border.dwg
  0
TEXT
  5
418B
330
2CCC
100
AcDbEntity
  8
APL Border
100
AcDbText
 10
11.59500000000003
 20
3.979818213543524
 30
0.0
 40
1.5
  1
VANTAGE SPECIFIER'S GUIDE 2011:1     ARCHITECTURAL PROFILES LTD. NB. TECHNICAL SPECIFICATIONS SUBJECT TO CHANGE WITHOUT NOTICE.
 41
1.175568529931163
  7
Arial-Regular
 72
     5
 11
189.595
 21
3.979818213543524
 31
0.0
100
AcDbText
  0
LINE
  5
418C
330
2CCC
100
AcDbEntity
  8
APL Border
100
AcDbLine
 10
11.59500000000003
 20
6.189999999999997
 30
0.0
 11
189.595
 21
6.189999999999997
 31
0.0
  0
MTEXT
  5
418D
330
2CCC
100
AcDbEntity
  8
APL Border
100
AcDbMText
 10
57.55102029361978
 20
3.879818213543526
 30
0.0
 40
1.5
 41
0.0
 71
     8
 72
     5
  1
{\fCommercialPi BT|b0|i0|c2|p18;a}
  7
Arial-Regular
 73
     1
 44
1.0
1001
ACAD
1000
MTEXTBEGIN
1070
    73
1070
     1
1070
    44
1040
1.0
1070
    74
1070
     0
1000
MTEXTEND
  0
LINE
  5
418E
330
2CCC
100
AcDbEntity
  8
APL Border
100
AcDbLine
 10
189.595
 20
268.19
 30
0.0
 11
142.595
 21
268.19
 31
0.0
  0
LINE
  5
418F
330
2CCC
100
AcDbEntity
  8
APL Border
100
AcDbLine
 10
189.595
 20
282.19
 30
0.0
 11
189.595
 21
254.19
 31
0.0
  0
LINE
  5
4190
330
2CCC
100
AcDbEntity
  8
APL Border
100
AcDbLine
 10
166.095
 20
268.19
 30
0.0
 11
166.095
 21
254.19
 31
0.0
  0
LINE
  5
4191
330
2CCC
100
AcDbEntity
  8
APL Border
100
AcDbLine
 10
189.595
 20
254.19
 30
0.0
 11
24.99473224900737
 21
254.19
 31
0.0
  0
LINE
  5
4192
330
2CCC
100
AcDbEntity
  8
APL Border
100
AcDbLine
 10
189.595
 20
282.19
 30
0.0
 11
24.99473224900737
 21
282.19
 31
0.0
  0
LINE
  5
4193
330
2CCC
100
AcDbEntity
  8
APL Border
100
AcDbLine
 10
142.595
 20
282.19
 30
0.0
 11
142.595
 21
254.19
 31
0.0
  0
TEXT
  5
4194
330
2CCC
100
AcDbEntity
  8
APL Border
100
AcDbText
 10
147.845
 20
273.69
 30
0.0
 40
2.5
  1
CAD REF.
  7
Arial-Regular
100
AcDbText
  0
TEXT
  5
4195
330
2CCC
100
AcDbEntity
  8
APL Border
100
AcDbText
 10
149.6877694406548
 20
262.19
 30
0.0
 40
2.5
  1
DATE
  7
Arial-Regular
 72
     1
 11
154.345
 21
262.19
 31
0.0
100
AcDbText
  0
TEXT
  5
4196
330
2CCC
100
AcDbEntity
  8
APL Border
100
AcDbText
 10
172.1185334242838
 20
262.19
 30
0.0
 40
2.5
  1
SCALE
  7
Arial-Regular
 72
     1
 11
177.845
 21
262.19
 31
0.0
100
AcDbText
  0
INSERT
  5
4197
102
{ACAD_XDICTIONARY
360
4198
102
}
330
2CCC
100
AcDbEntity
  8
APL Border
100
AcDbBlockReference
  2
vantage black & white logo
 10
24.99473224900737
 20
256.19
 30
0.0
 41
0.5
 42
0.5
 43
0.5
  0
LINE
  5
41DC
330
2CCC
100
AcDbEntity
  8
APL Border
100
AcDbLine
 10
24.99473224900737
 20
256.19
 30
0.0
 11
24.99473224900737
 21
254.19
 31
0.0
  0
LINE
  5
41DD
330
2CCC
100
AcDbEntity
  8
APL Border
100
AcDbLine
 10
24.99473224900716
 20
279.6304177948761
 30
0.0
 11
24.99473224900737
 21
282.19
 31
0.0
  0
ENDBLK
  5
2CCE
330
2CCC
100
AcDbEntity
  8
0
100
AcDbBlockEnd
  0
BLOCK
  5
2D0E
330
2D06
100
AcDbEntity
  8
0
100
AcDbBlockBegin
  2
vantage a4 SM attributes (2)
 70
     2
 10
0.0
 20
0.0
 30
0.0
  3
vantage a4 SM attributes (2)
  1

  0
ATTDEF
  5
2D07
330
2D06
100
AcDbEntity
  8
APL Border
100
AcDbText
 10
41.78979785863009
 20
269.19
 30
0.0
 40
3.5
  1
DRAWING TITLE LINE 1
  7
Arial-Bold
100
AcDbAttributeDefinition
  3
Drawing Title Line 1
  2
DRAWINGTITLE_1
 70
     0
  0
ATTDEF
  5
2D08
330
2D06
100
AcDbEntity
  8
APL Border
100
AcDbText
 10
41.78979785863009
 20
263.19
 30
0.0
 40
3.0
  1
DRAWING TITLE LINE 2
  7
Arial-Regular
100
AcDbAttributeDefinition
  3
Drawing Title Line 2
  2
DRAWINGTITLE_2
 70
     0
  0
ATTDEF
  5
2D09
330
2D06
100
AcDbEntity
  8
APL Border
100
AcDbText
 10
165.845
 20
273.69
 30
0.0
 40
2.5
  1
AW123-456
  7
Arial-Regular
100
AcDbAttributeDefinition
  3
CAD Reference
  2
AW123-456
 70
     0
  0
ATTDEF
  5
2D0A
330
2D06
100
AcDbEntity
  8
APL Border
100
AcDbText
 10
147.5475920873124
 20
257.1899999999999
 30
0.0
 40
2.5
  1
24.05.02
  7
Arial-Regular
 72
     1
 11
154.345
 21
257.1899999999999
 31
0.0
100
AcDbAttributeDefinition
  3
Date
  2
24.05.02
 70
     0
  0
ATTDEF
  5
2D0B
330
2D06
100
AcDbEntity
  8
APL Border
100
AcDbText
 10
175.4456139154161
 20
257.1899999999999
 30
0.0
 40
2.5
  1
1:2
  7
Arial-Regular
 72
     1
 11
177.845
 21
257.1899999999999
 31
0.0
100
AcDbAttributeDefinition
  3
Scale
  2
1:2
 70
     0
  0
ATTDEF
  5
2D0C
330
2D06
100
AcDbEntity
  8
APL Border
100
AcDbText
 10
11.59500000000003
 20
1.189999999999997
 30
0.0
 40
3.75
  1
1.2.34
  7
Arial-Bold
100
AcDbAttributeDefinition
  3
Page Number (Left)
  2
1.2.34
 70
     0
  0
ATTDEF
  5
2D0D
330
2D06
100
AcDbEntity
  8
APL Border
100
AcDbText
 10
175.0298567530696
 20
1.189999999999997
 30
0.0
 40
3.75
  1
1.2.34
  7
Arial-Bold
 72
     2
 11
189.595
 21
1.189999999999997
 31
0.0
100
AcDbAttributeDefinition
  3
Page Number (Right)
  2
1.2.34
 70
     0
  0
ENDBLK
  5
2D0F
330
2D06
100
AcDbEntity
  8
0
100
AcDbBlockEnd
  0
BLOCK
  5
3057
330
3056
100
AcDbEntity
  8
0
100
AcDbBlockBegin
  2
08552
 70
     0
 10
-1475.680588409324
 20
-1765.073662917492
 30
0.0
  3
08552
  1
08552.dwg
  0
LWPOLYLINE
  5
4572
102
{ACAD_REACTORS
330
4573
102
}
330
3056
100
AcDbEntity
  8
APL Joinery
100
AcDbPolyline
 90
       64
 70
     1
 43
0.0
 10
-1452.680588409324
 20
-1786.823662917492
 10
-1452.680588409324
 20
-1787.323662917492
 42
0.4142135623730951
 10
-1452.430588409324
 20
-1787.573662917492
 10
-1451.430588409324
 20
-1787.573662917492
 42
0.4142135623730951
 10
-1451.180588409324
 20
-1787.323662917492
 10
-1451.180588409324
 20
-1782.323662917492
 42
0.4142135623730951
 10
-1451.430588409324
 20
-1782.073662917493
 10
-1452.430588409324
 20
-1782.073662917493
 42
0.4142135623730951
 10
-1452.680588409324
 20
-1782.323662917492
 10
-1452.680588409324
 20
-1782.823662917493
 42
-0.9999999999999998
 10
-1453.680588409324
 20
-1782.823662917493
 10
-1453.680588409324
 20
-1780.823662917492
 42
-0.4142135623730951
 10
-1453.430588409324
 20
-1780.573662917493
 10
-1451.930588409324
 20
-1780.573662917493
 42
0.4142135623730951
 10
-1451.680588409324
 20
-1780.323662917492
 10
-1451.680588409324
 20
-1767.573662917493
 42
0.4142135623730951
 10
-1452.180588409324
 20
-1767.073662917492
 10
-1453.180588409324
 20
-1767.073662917492
 42
0.4142135623730951
 10
-1453.680588409324
 20
-1767.573662917493
 10
-1453.680588409324
 20
-1768.073662917492
 42
-0.9999999999999998
 10
-1454.680588409323
 20
-1768.073662917492
 10
-1454.680588409323
 20
-1767.573662917493
 42
0.4142135623730951
 10
-1455.180588409324
 20
-1767.073662917492
 10
-1462.280588409323
 20
-1767.073662917492
 10
-1462.680588409323
 20
-1766.673662917492
 10
-1463.080588409323
 20
-1767.073662917492
 10
-1470.180588409324
 20
-1767.073662917492
 42
0.4142135623730951
 10
-1470.680588409323
 20
-1767.573662917493
 10
-1470.680588409323
 20
-1768.073662917492
 42
-0.9999999999999998
 10
-1471.680588409324
 20
-1768.073662917492
 10
-1471.680588409324
 20
-1767.573662917493
 42
0.4142135623730951
 10
-1472.180588409323
 20
-1767.073662917492
 10
-1473.180588409324
 20
-1767.073662917492
 42
0.4142135623730951
 10
-1473.680588409323
 20
-1767.573662917493
 10
-1473.680588409323
 20
-1780.323662917492
 42
0.4142135623730951
 10
-1473.430588409323
 20
-1780.573662917493
 10
-1471.930588409324
 20
-1780.573662917493
 42
-0.4142135623730951
 10
-1471.680588409324
 20
-1780.823662917492
 10
-1471.680588409324
 20
-1782.823662917493
 42
-0.9999999999999998
 10
-1472.680588409324
 20
-1782.823662917493
 10
-1472.680588409324
 20
-1782.323662917492
 42
0.4142135623730951
 10
-1472.930588409323
 20
-1782.073662917493
 10
-1473.930588409324
 20
-1782.073662917493
 42
0.4142135623730951
 10
-1474.180588409323
 20
-1782.323662917492
 10
-1474.180588409323
 20
-1787.323662917492
 42
0.4142135623730951
 10
-1473.930588409324
 20
-1787.573662917492
 10
-1472.930588409323
 20
-1787.573662917492
 42
0.4142135623730951
 10
-1472.680588409324
 20
-1787.323662917492
 10
-1472.680588409324
 20
-1786.823662917493
 42
-0.9999999999999998
 10
-1471.680588409324
 20
-1786.823662917493
 10
-1471.680588409324
 20
-1789.073662917493
 10
-1472.680588409324
 20
-1789.073662917493
 10
-1472.680588409324
 20
-1790.073662917492
 10
-1475.430588409324
 20
-1790.073662917492
 42
-0.4142135623730951
 10
-1475.680588409324
 20
-1789.823662917493
 10
-1475.680588409324
 20
-1765.073662917492
 10
-1462.680588409323
 20
-1765.073662917492
 10
-1449.680588409323
 20
-1765.073662917492
 10
-1449.680588409323
 20
-1789.823662917493
 42
-0.4142135623730951
 10
-1449.930588409324
 20
-1790.073662917492
 10
-1452.680588409324
 20
-1790.073662917492
 10
-1452.680588409324
 20
-1789.073662917493
 10
-1453.680588409324
 20
-1789.073662917493
 10
-1453.680588409324
 20
-1786.823662917492
 42
-0.9999999999999998
  0
HATCH
  5
4573
330
3056
100
AcDbEntity
  8
APL Hatch
100
AcDbHatch
 10
0.0
 20
0.0
 30
0.0
210
0.0
220
0.0
230
1.0
  2
SOLID
 70
     1
 71
     1
 91
        1
 92
        1
 93
       64
 72
     1
 10
-1452.680588409324
 20
-1786.823662917492
 11
-1452.680588409324
 21
-1787.323662917492
 72
     2
 10
-1452.430588409324
 20
-1787.323662917492
 40
0.25
 50
180.0
 51
270.0
 73
     1
 72
     1
 10
-1452.430588409324
 20
-1787.573662917492
 11
-1451.430588409324
 21
-1787.573662917492
 72
     2
 10
-1451.430588409324
 20
-1787.323662917492
 40
0.25
 50
270.0
 51
360.0
 73
     1
 72
     1
 10
-1451.180588409324
 20
-1787.323662917492
 11
-1451.180588409324
 21
-1782.323662917492
 72
     2
 10
-1451.430588409324
 20
-1782.323662917492
 40
0.25
 50
0.0
 51
90.0
 73
     1
 72
     1
 10
-1451.430588409324
 20
-1782.073662917493
 11
-1452.430588409324
 21
-1782.073662917493
 72
     2
 10
-1452.430588409324
 20
-1782.323662917492
 40
0.25
 50
90.0
 51
180.0
 73
     1
 72
     1
 10
-1452.680588409324
 20
-1782.323662917492
 11
-1452.680588409324
 21
-1782.823662917493
 72
     2
 10
-1453.180588409324
 20
-1782.823662917493
 40
0.5
 50
360.0
 51
540.0
 73
     0
 72
     1
 10
-1453.680588409324
 20
-1782.823662917493
 11
-1453.680588409324
 21
-1780.823662917492
 72
     2
 10
-1453.430588409324
 20
-1780.823662917492
 40
0.25
 50
180.0
 51
270.0
 73
     0
 72
     1
 10
-1453.430588409324
 20
-1780.573662917493
 11
-1451.930588409324
 21
-1780.573662917493
 72
     2
 10
-1451.930588409324
 20
-1780.323662917492
 40
0.25
 50
270.0
 51
360.0
 73
     1
 72
     1
 10
-1451.680588409324
 20
-1780.323662917492
 11
-1451.680588409324
 21
-1767.573662917493
 72
     2
 10
-1452.180588409324
 20
-1767.573662917493
 40
0.5
 50
0.0
 51
90.0
 73
     1
 72
     1
 10
-1452.180588409324
 20
-1767.073662917492
 11
-1453.180588409324
 21
-1767.073662917492
 72
     2
 10
-1453.180588409324
 20
-1767.573662917493
 40
0.5
 50
90.0
 51
180.0
 73
     1
 72
     1
 10
-1453.680588409324
 20
-1767.573662917493
 11
-1453.680588409324
 21
-1768.073662917492
 72
     2
 10
-1454.180588409324
 20
-1768.073662917492
 40
0.5
 50
360.0
 51
540.0
 73
     0
 72
     1
 10
-1454.680588409323
 20
-1768.073662917492
 11
-1454.680588409323
 21
-1767.573662917493
 72
     2
 10
-1455.180588409324
 20
-1767.573662917493
 40
0.5
 50
0.0
 51
90.0
 73
     1
 72
     1
 10
-1455.180588409324
 20
-1767.073662917492
 11
-1462.280588409323
 21
-1767.073662917492
 72
     1
 10
-1462.280588409323
 20
-1767.073662917492
 11
-1462.680588409323
 21
-1766.673662917492
 72
     1
 10
-1462.680588409323
 20
-1766.673662917492
 11
-1463.080588409323
 21
-1767.073662917492
 72
     1
 10
-1463.080588409323
 20
-1767.073662917492
 11
-1470.180588409324
 21
-1767.073662917492
 72
     2
 10
-1470.180588409324
 20
-1767.573662917493
 40
0.5
 50
90.0
 51
180.0
 73
     1
 72
     1
 10
-1470.680588409323
 20
-1767.573662917493
 11
-1470.680588409323
 21
-1768.073662917492
 72
     2
 10
-1471.180588409324
 20
-1768.073662917492
 40
0.5
 50
360.0
 51
540.0
 73
     0
 72
     1
 10
-1471.680588409324
 20
-1768.073662917492
 11
-1471.680588409324
 21
-1767.573662917493
 72
     2
 10
-1472.180588409323
 20
-1767.573662917493
 40
0.5
 50
0.0
 51
90.0
 73
     1
 72
     1
 10
-1472.180588409323
 20
-1767.073662917492
 11
-1473.180588409324
 21
-1767.073662917492
 72
     2
 10
-1473.180588409324
 20
-1767.573662917493
 40
0.5
 50
90.0
 51
180.0
 73
     1
 72
     1
 10
-1473.680588409323
 20
-1767.573662917493
 11
-1473.680588409323
 21
-1780.323662917492
 72
     2
 10
-1473.430588409323
 20
-1780.323662917492
 40
0.25
 50
180.0
 51
270.0
 73
     1
 72
     1
 10
-1473.430588409323
 20
-1780.573662917493
 11
-1471.930588409324
 21
-1780.573662917493
 72
     2
 10
-1471.930588409324
 20
-1780.823662917492
 40
0.25
 50
270.0
 51
360.0
 73
     0
 72
     1
 10
-1471.680588409324
 20
-1780.823662917492
 11
-1471.680588409324
 21
-1782.823662917493
 72
     2
 10
-1472.180588409323
 20
-1782.823662917493
 40
0.5
 50
360.0
 51
540.0
 73
     0
 72
     1
 10
-1472.680588409324
 20
-1782.823662917493
 11
-1472.680588409324
 21
-1782.323662917492
 72
     2
 10
-1472.930588409323
 20
-1782.323662917492
 40
0.25
 50
0.0
 51
90.0
 73
     1
 72
     1
 10
-1472.930588409323
 20
-1782.073662917493
 11
-1473.930588409324
 21
-1782.073662917493
 72
     2
 10
-1473.930588409324
 20
-1782.323662917492
 40
0.25
 50
90.0
 51
180.0
 73
     1
 72
     1
 10
-1474.180588409323
 20
-1782.323662917492
 11
-1474.180588409323
 21
-1787.323662917492
 72
     2
 10
-1473.930588409324
 20
-1787.323662917492
 40
0.25
 50
180.0
 51
270.0
 73
     1
 72
     1
 10
-1473.930588409324
 20
-1787.573662917492
 11
-1472.930588409323
 21
-1787.573662917492
 72
     2
 10
-1472.930588409323
 20
-1787.323662917492
 40
0.25
 50
270.0
 51
360.0
 73
     1
 72
     1
 10
-1472.680588409324
 20
-1787.323662917492
 11
-1472.680588409324
 21
-1786.823662917493
 72
     2
 10
-1472.180588409323
 20
-1786.823662917493
 40
0.5000000000002274
 50
180.0
 51
360.0
 73
     0
 72
     1
 10
-1471.680588409324
 20
-1786.823662917493
 11
-1471.680588409324
 21
-1789.073662917493
 72
     1
 10
-1471.680588409324
 20
-1789.073662917493
 11
-1472.680588409324
 21
-1789.073662917493
 72
     1
 10
-1472.680588409324
 20
-1789.073662917493
 11
-1472.680588409324
 21
-1790.073662917492
 72
     1
 10
-1472.680588409324
 20
-1790.073662917492
 11
-1475.430588409324
 21
-1790.073662917492
 72
     2
 10
-1475.430588409324
 20
-1789.823662917493
 40
0.25
 50
90.0
 51
180.0
 73
     0
 72
     1
 10
-1475.680588409324
 20
-1789.823662917493
 11
-1475.680588409324
 21
-1765.073662917492
 72
     1
 10
-1475.680588409324
 20
-1765.073662917492
 11
-1462.680588409323
 21
-1765.073662917492
 72
     1
 10
-1462.680588409323
 20
-1765.073662917492
 11
-1449.680588409323
 21
-1765.073662917492
 72
     1
 10
-1449.680588409323
 20
-1765.073662917492
 11
-1449.680588409323
 21
-1789.823662917493
 72
     2
 10
-1449.930588409324
 20
-1789.823662917493
 40
0.25
 50
360.0
 51
450.0
 73
     0
 72
     1
 10
-1449.930588409324
 20
-1790.073662917492
 11
-1452.680588409324
 21
-1790.073662917492
 72
     1
 10
-1452.680588409324
 20
-1790.073662917492
 11
-1452.680588409324
 21
-1789.073662917493
 72
     1
 10
-1452.680588409324
 20
-1789.073662917493
 11
-1453.680588409324
 21
-1789.073662917493
 72
     1
 10
-1453.680588409324
 20
-1789.073662917493
 11
-1453.680588409324
 21
-1786.823662917492
 72
     2
 10
-1453.180588409324
 20
-1786.823662917492
 40
0.5
 50
180.0
 51
360.0
 73
     0
 97
        1
330
4572
 75
     0
 76
     1
 98
        1
 10
0.0
 20
0.0
  0
ENDBLK
  5
3058
330
3056
100
AcDbEntity
  8
0
100
AcDbBlockEnd
  0
BLOCK
  5
3187
330
3186
100
AcDbEntity
  8
0
100
AcDbBlockBegin
  2
08554
 70
     0
 10
-1415.846566343948
 20
-1782.124809101926
 30
0.0
  3
08554
  1
08554.dwg
  0
LWPOLYLINE
  5
4577
102
{ACAD_REACTORS
330
4578
102
}
330
3186
100
AcDbEntity
  8
APL Joinery
100
AcDbPolyline
 90
       46
 70
     1
 43
0.0
 10
-1395.296566343948
 20
-1786.624809101926
 10
-1395.296566343948
 20
-1784.624809101926
 42
-0.4142135623730951
 10
-1394.796566343948
 20
-1784.124809101926
 10
-1392.346566343948
 20
-1784.124809101926
 42
-0.4142135623730951
 10
-1391.846566343948
 20
-1784.624809101926
 10
-1391.846566343948
 20
-1797.374809101926
 42
-0.4142135623730951
 10
-1392.096566343948
 20
-1797.624809101925
 10
-1393.596566343948
 20
-1797.624809101925
 42
0.4142135623730951
 10
-1393.846566343948
 20
-1797.874809101926
 10
-1393.846566343948
 20
-1799.874809101926
 42
0.9999999999999998
 10
-1392.846566343948
 20
-1799.874809101926
 10
-1392.846566343948
 20
-1799.374809101926
 42
-0.4142135623730951
 10
-1392.596566343948
 20
-1799.124809101926
 10
-1391.596566343948
 20
-1799.124809101926
 42
-0.4142135623730951
 10
-1391.346566343948
 20
-1799.374809101926
 10
-1391.346566343948
 20
-1804.374809101926
 42
-0.4142135623730951
 10
-1391.596566343948
 20
-1804.624809101926
 10
-1392.596566343948
 20
-1804.624809101926
 42
-0.4142135623730951
 10
-1392.846566343948
 20
-1804.374809101926
 10
-1392.846566343949
 20
-1803.874809101925
 42
0.9999999999999998
 10
-1393.846566343948
 20
-1803.874809101925
 10
-1393.846566343948
 20
-1806.124809101926
 10
-1392.846566343948
 20
-1806.124809101926
 10
-1392.846566343948
 20
-1807.124809101926
 10
-1390.096566343948
 20
-1807.124809101926
 42
0.4142135623730951
 10
-1389.846566343948
 20
-1806.874809101926
 10
-1389.846566343948
 20
-1782.124809101926
 10
-1402.846566343948
 20
-1782.124809101926
 10
-1415.846566343948
 20
-1782.124809101926
 10
-1415.846566343948
 20
-1787.874809101926
 42
0.4142135623730951
 10
-1415.596566343948
 20
-1788.124809101926
 10
-1413.985387630609
 20
-1788.124809101926
 42
0.5773502691896095
 10
-1413.768881279663
 20
-1787.749809101926
 10
-1414.446712496014
 20
-1786.57577099625
 10
-1414.446712496014
 20
-1784.624809101926
 42
-0.4142135623730951
 10
-1413.946712496014
 20
-1784.124809101926
 10
-1407.672120367143
 20
-1784.124809101926
 10
-1407.272120367143
 20
-1783.724809101926
 10
-1406.872120367142
 20
-1784.124809101926
 10
-1397.096566343948
 20
-1784.124809101926
 42
-0.4142135623730951
 10
-1396.596566343948
 20
-1784.624809101926
 10
-1396.596566343948
 20
-1786.624809101926
 42
-0.4142135623730951
 10
-1397.096566343948
 20
-1787.124809101926
 10
-1399.196566343948
 20
-1787.124809101926
 42
0.9999999999999998
 10
-1399.196566343948
 20
-1788.424809101926
 10
-1397.096566343948
 20
-1788.424809101926
 42
0.4142135623730951
  0
HATCH
  5
4578
330
3186
100
AcDbEntity
  8
APL Hatch
100
AcDbHatch
 10
0.0
 20
0.0
 30
0.0
210
0.0
220
0.0
230
1.0
  2
SOLID
 70
     1
 71
     1
 91
        1
 92
        1
 93
       46
 72
     1
 10
-1395.296566343948
 20
-1786.624809101926
 11
-1395.296566343948
 21
-1784.624809101926
 72
     2
 10
-1394.796566343948
 20
-1784.624809101926
 40
0.5
 50
180.0
 51
270.0
 73
     0
 72
     1
 10
-1394.796566343948
 20
-1784.124809101926
 11
-1392.346566343948
 21
-1784.124809101926
 72
     2
 10
-1392.346566343948
 20
-1784.624809101926
 40
0.5
 50
270.0
 51
360.0
 73
     0
 72
     1
 10
-1391.846566343948
 20
-1784.624809101926
 11
-1391.846566343948
 21
-1797.374809101926
 72
     2
 10
-1392.096566343948
 20
-1797.374809101926
 40
0.25
 50
360.0
 51
450.0
 73
     0
 72
     1
 10
-1392.096566343948
 20
-1797.624809101925
 11
-1393.596566343948
 21
-1797.624809101925
 72
     2
 10
-1393.596566343948
 20
-1797.874809101926
 40
0.25
 50
90.0
 51
180.0
 73
     1
 72
     1
 10
-1393.846566343948
 20
-1797.874809101926
 11
-1393.846566343948
 21
-1799.874809101926
 72
     2
 10
-1393.346566343948
 20
-1799.874809101926
 40
0.5000000000002274
 50
180.0
 51
360.0
 73
     1
 72
     1
 10
-1392.846566343948
 20
-1799.874809101926
 11
-1392.846566343948
 21
-1799.374809101926
 72
     2
 10
-1392.596566343948
 20
-1799.374809101926
 40
0.25
 50
180.0
 51
270.0
 73
     0
 72
     1
 10
-1392.596566343948
 20
-1799.124809101926
 11
-1391.596566343948
 21
-1799.124809101926
 72
     2
 10
-1391.596566343948
 20
-1799.374809101926
 40
0.25
 50
270.0
 51
360.0
 73
     0
 72
     1
 10
-1391.346566343948
 20
-1799.374809101926
 11
-1391.346566343948
 21
-1804.374809101926
 72
     2
 10
-1391.596566343948
 20
-1804.374809101926
 40
0.25
 50
360.0
 51
450.0
 73
     0
 72
     1
 10
-1391.596566343948
 20
-1804.624809101926
 11
-1392.596566343948
 21
-1804.624809101926
 72
     2
 10
-1392.596566343948
 20
-1804.374809101926
 40
0.25
 50
90.0
 51
180.0
 73
     0
 72
     1
 10
-1392.846566343948
 20
-1804.374809101926
 11
-1392.846566343949
 21
-1803.874809101925
 72
     2
 10
-1393.346566343948
 20
-1803.874809101925
 40
0.4999999999995453
 50
0.0
 51
180.0
 73
     1
 72
     1
 10
-1393.846566343948
 20
-1803.874809101925
 11
-1393.846566343948
 21
-1806.124809101926
 72
     1
 10
-1393.846566343948
 20
-1806.124809101926
 11
-1392.846566343948
 21
-1806.124809101926
 72
     1
 10
-1392.846566343948
 20
-1806.124809101926
 11
-1392.846566343948
 21
-1807.124809101926
 72
     1
 10
-1392.846566343948
 20
-1807.124809101926
 11
-1390.096566343948
 21
-1807.124809101926
 72
     2
 10
-1390.096566343948
 20
-1806.874809101926
 40
0.25
 50
270.0
 51
360.0
 73
     1
 72
     1
 10
-1389.846566343948
 20
-1806.874809101926
 11
-1389.846566343948
 21
-1782.124809101926
 72
     1
 10
-1389.846566343948
 20
-1782.124809101926
 11
-1402.846566343948
 21
-1782.124809101926
 72
     1
 10
-1402.846566343948
 20
-1782.124809101926
 11
-1415.846566343948
 21
-1782.124809101926
 72
     1
 10
-1415.846566343948
 20
-1782.124809101926
 11
-1415.846566343948
 21
-1787.874809101926
 72
     2
 10
-1415.596566343948
 20
-1787.874809101926
 40
0.25
 50
180.0
 51
270.0
 73
     1
 72
     1
 10
-1415.596566343948
 20
-1788.124809101926
 11
-1413.985387630609
 21
-1788.124809101926
 72
     2
 10
-1413.985387630609
 20
-1787.874809101926
 40
0.25
 50
270.0
 51
390.0000000000103
 73
     1
 72
     1
 10
-1413.768881279663
 20
-1787.749809101926
 11
-1414.446712496014
 21
-1786.57577099625
 72
     1
 10
-1414.446712496014
 20
-1786.57577099625
 11
-1414.446712496014
 21
-1784.624809101926
 72
     2
 10
-1413.946712496014
 20
-1784.624809101926
 40
0.5
 50
180.0
 51
270.0
 73
     0
 72
     1
 10
-1413.946712496014
 20
-1784.124809101926
 11
-1407.672120367143
 21
-1784.124809101926
 72
     1
 10
-1407.672120367143
 20
-1784.124809101926
 11
-1407.272120367143
 21
-1783.724809101926
 72
     1
 10
-1407.272120367143
 20
-1783.724809101926
 11
-1406.872120367142
 21
-1784.124809101926
 72
     1
 10
-1406.872120367142
 20
-1784.124809101926
 11
-1397.096566343948
 21
-1784.124809101926
 72
     2
 10
-1397.096566343948
 20
-1784.624809101926
 40
0.5
 50
270.0
 51
360.0
 73
     0
 72
     1
 10
-1396.596566343948
 20
-1784.624809101926
 11
-1396.596566343948
 21
-1786.624809101926
 72
     2
 10
-1397.096566343948
 20
-1786.624809101926
 40
0.5
 50
360.0
 51
450.0
 73
     0
 72
     1
 10
-1397.096566343948
 20
-1787.124809101926
 11
-1399.196566343948
 21
-1787.124809101926
 72
     2
 10
-1399.196566343948
 20
-1787.774809101925
 40
0.6499999999998636
 50
90.0
 51
270.0
 73
     1
 72
     1
 10
-1399.196566343948
 20
-1788.424809101926
 11
-1397.096566343948
 21
-1788.424809101926
 72
     2
 10
-1397.096566343949
 20
-1786.624809101926
 40
1.799999999999954
 50
270.0000000000072
 51
360.0000000000072
 73
     1
 97
        1
330
4577
 75
     0
 76
     1
 98
        1
 10
0.0
 20
0.0
  0
ENDBLK
  5
3188
330
3186
100
AcDbEntity
  8
0
100
AcDbBlockEnd
  0
BLOCK
  5
318D
330
318C
100
AcDbEntity
  8
0
100
AcDbBlockBegin
  2
01659
 70
     0
 10
129.3682846663102
 20
89.20337292068905
 30
0.0
  3
01659
  1
01659.dwg
  0
LWPOLYLINE
  5
457C
102
{ACAD_REACTORS
330
457D
102
}
330
318C
100
AcDbEntity
  8
APL Joinery
100
AcDbPolyline
 90
       38
 70
     1
 43
0.0
 10
126.5486694240396
 20
87.38638562258127
 42
0.9999999999999998
 10
127.5878999085811
 20
87.98638562258146
 10
126.9705423087688
 20
89.05568035189515
 42
-0.6681786379192704
 10
127.2517534209905
 20
89.42216180846742
 10
128.0682846663102
 20
89.20337292068905
 10
129.1182846663103
 20
89.20337292068905
 42
0.4142135623730951
 10
129.3682846663102
 20
89.45337292068904
 10
129.3682846663102
 20
108.203372920689
 10
126.4681385142441
 20
108.203372920689
 10
126.4681385142441
 20
107.203372920689
 10
125.4681385142442
 20
107.203372920689
 10
125.4681385142442
 20
105.1633729206891
 42
1.013084496430211
 10
126.4681385142441
 20
105.1633729206891
 10
126.468138514244
 20
105.703372920689
 42
-0.4142135623730951
 10
126.668138514244
 20
105.9033729206888
 10
127.7681385142441
 20
105.903372920689
 42
-0.4142135623730951
 10
127.9681385142442
 20
105.703372920689
 10
127.9681385142441
 20
100.6033729206891
 42
-0.0803307354060879
 10
127.9579456451299
 20
100.5403391752434
 42
-0.3231309421223078
 10
127.7681385142441
 20
100.4033729206893
 10
126.668138514244
 20
100.4033729206891
 42
-0.4142135623730951
 10
126.4681385142441
 20
100.6033729206891
 10
126.4681385142441
 20
101.158872920689
 42
0.9950124999218795
 10
125.4681385142442
 20
101.1588729206891
 10
125.468138514244
 20
99.30337292068896
 42
0.4142135623730951
 10
125.668138514244
 20
99.10337292068915
 10
127.9682846663102
 20
99.10337292068915
 10
127.9682846663101
 20
94.70337292068904
 42
-0.4142135623730951
 10
122.9682846663101
 20
89.70337292068904
 10
115.4681385142441
 20
89.70337292068904
 42
0.4142135623730951
 10
114.4681385142441
 20
88.70337292068905
 10
114.4681385142441
 20
87.9033729206891
 10
112.068138514244
 20
87.90337292068919
 42
0.9999999999999998
 10
112.068138514244
 20
86.70337292068927
 10
114.7681385142443
 20
86.70337292068927
 42
0.4142135623730951
 10
115.7681385142443
 20
87.70337292068928
 10
115.7681385142443
 20
88.30337292068895
 10
126.0192465606337
 20
88.30337292068895
  0
HATCH
  5
457D
330
318C
100
AcDbEntity
  8
APL Hatch
100
AcDbHatch
 10
0.0
 20
0.0
 30
0.0
210
0.0
220
0.0
230
1.0
  2
SOLID
 70
     1
 71
     1
 91
        1
 92
        1
 93
       38
 72
     2
 10
127.0682846663103
 20
87.68638562258136
 40
0.6000000000001496
 50
210.0000000000008
 51
390.000000000002
 73
     1
 72
     1
 10
127.5878999085811
 20
87.98638562258146
 11
126.9705423087688
 21
89.05568035189515
 72
     2
 10
127.1870486597149
 20
89.18068035189515
 40
0.2499999999999959
 50
149.9999999999994
 51
284.9999999999944
 73
     0
 72
     1
 10
127.2517534209905
 20
89.42216180846742
 11
128.0682846663102
 21
89.20337292068905
 72
     1
 10
128.0682846663102
 20
89.20337292068905
 11
129.1182846663103
 21
89.20337292068905
 72
     2
 10
129.1182846663103
 20
89.45337292068904
 40
0.25
 50
270.0
 51
360.0
 73
     1
 72
     1
 10
129.3682846663102
 20
89.45337292068904
 11
129.3682846663102
 21
108.203372920689
 72
     1
 10
129.3682846663102
 20
108.203372920689
 11
126.4681385142441
 21
108.203372920689
 72
     1
 10
126.4681385142441
 20
108.203372920689
 11
126.4681385142441
 21
107.203372920689
 72
     1
 10
126.4681385142441
 20
107.203372920689
 11
125.4681385142442
 21
107.203372920689
 72
     1
 10
125.4681385142442
 20
107.203372920689
 11
125.4681385142442
 21
105.1633729206891
 72
     2
 10
125.9681385142441
 20
105.1568729206891
 40
0.500042248215089
 50
179.2551968216797
 51
360.7448031783138
 73
     1
 72
     1
 10
126.4681385142441
 20
105.1633729206891
 11
126.468138514244
 21
105.703372920689
 72
     2
 10
126.6681385142439
 20
105.7033729206889
 40
0.1999999999999176
 50
180.0000000000244
 51
270.0000000000244
 73
     0
 72
     1
 10
126.668138514244
 20
105.9033729206888
 11
127.7681385142441
 21
105.903372920689
 72
     2
 10
127.7681385142441
 20
105.703372920689
 40
0.2000000000000313
 50
269.9999999999919
 51
359.9999999999919
 73
     0
 72
     1
 10
127.9681385142442
 20
105.703372920689
 11
127.9681385142441
 21
100.6033729206891
 72
     2
 10
127.7681385142441
 20
100.6033729206891
 40
0.2000000000000028
 50
360.0
 51
378.3710000000002
 73
     0
 72
     2
 10
127.7681385142442
 20
100.6033729206892
 40
0.199999999999909
 50
18.37100000003497
 51
90.00000000003664
 73
     0
 72
     1
 10
127.7681385142441
 20
100.4033729206893
 11
126.668138514244
 21
100.4033729206891
 72
     2
 10
126.668138514244
 20
100.603372920689
 40
0.1999999999999176
 50
90.00000000002442
 51
180.0000000000244
 73
     0
 72
     1
 10
126.4681385142441
 20
100.6033729206891
 11
126.4681385142441
 21
101.158872920689
 72
     2
 10
125.9681385142441
 20
101.156372920689
 40
0.5000062499609378
 50
0.2864765102735571
 51
179.7135234897199
 73
     1
 72
     1
 10
125.4681385142442
 20
101.1588729206891
 11
125.468138514244
 21
99.30337292068896
 72
     2
 10
125.6681385142439
 20
99.30337292068905
 40
0.1999999999999176
 50
180.0000000000244
 51
270.0000000000244
 73
     1
 72
     1
 10
125.668138514244
 20
99.10337292068915
 11
127.9682846663102
 21
99.10337292068915
 72
     1
 10
127.9682846663102
 20
99.10337292068915
 11
127.9682846663101
 21
94.70337292068904
 72
     2
 10
122.9682846663101
 20
94.70337292068904
 40
5.0
 50
360.0
 51
450.0
 73
     0
 72
     1
 10
122.9682846663101
 20
89.70337292068904
 11
115.4681385142441
 21
89.70337292068904
 72
     2
 10
115.4681385142441
 20
88.70337292068905
 40
1.0
 50
90.0
 51
180.0
 73
     1
 72
     1
 10
114.4681385142441
 20
88.70337292068905
 11
114.4681385142441
 21
87.9033729206891
 72
     1
 10
114.4681385142441
 20
87.9033729206891
 11
112.068138514244
 21
87.90337292068919
 72
     2
 10
112.068138514244
 20
87.30337292068924
 40
0.5999999999999517
 50
90.0
 51
270.0
 73
     1
 72
     1
 10
112.068138514244
 20
86.70337292068927
 11
114.7681385142443
 21
86.70337292068927
 72
     2
 10
114.7681385142443
 20
87.70337292068928
 40
1.0
 50
270.0
 51
360.0
 73
     1
 72
     1
 10
115.7681385142443
 20
87.70337292068928
 11
115.7681385142443
 21
88.30337292068895
 72
     1
 10
115.7681385142443
 20
88.30337292068895
 11
126.0192465606337
 21
88.30337292068895
 72
     1
 10
126.0192465606337
 20
88.30337292068895
 11
126.5486694240396
 21
87.38638562258127
 97
        1
330
457C
 75
     0
 76
     1
 98
        1
 10
0.0
 20
0.0
  0
ENDBLK
  5
318E
330
318C
100
AcDbEntity
  8
0
100
AcDbBlockEnd
  0
BLOCK
  5
31A8
330
31A7
100
AcDbEntity
  8
0
100
AcDbBlockBegin
  2
9010313
 70
     0
 10
-675.4603067194629
 20
111.7498037176867
 30
0.0
  3
9010313
  1
9010313.dwg
  0
LWPOLYLINE
  5
4581
330
31A7
100
AcDbEntity
  8
APL Joinery
 62
   252
100
AcDbPolyline
 90
        3
 70
     0
 43
0.0
 10
-669.1067533293214
 20
111.3962503271353
 10
-670.4603067194518
 20
110.0426969365393
 10
-668.9742314614108
 20
105.7784147030849
  0
LWPOLYLINE
  5
4582
330
31A7
100
AcDbEntity
  8
APL Joinery
 62
   252
100
AcDbPolyline
 90
        2
 70
     0
 43
0.0
 10
668.9742314614083
 20
105.7784147030768
 42
0.7665651043313928
 10
669.3732550137603
 20
105.5065447845577
210
0.0
220
0.0
230
-1.0
  0
LWPOLYLINE
  5
4583
330
31A7
100
AcDbEntity
  8
APL Joinery
 62
   252
100
AcDbPolyline
 90
        2
 70
     0
 43
0.0
 10
-669.3732550135989
 20
105.5065447844161
 42
0.0813324331127827
 10
-672.9603067196076
 20
107.6941485228225
  0
LWPOLYLINE
  5
4584
330
31A7
100
AcDbEntity
  8
APL Joinery
 62
   252
100
AcDbPolyline
 90
        3
 70
     0
 43
0.0
 10
-668.9742314615694
 20
117.7211927329366
 10
-670.4603067189889
 20
113.4569104989208
 10
-669.1067533288585
 20
112.1033571083247
  0
LWPOLYLINE
  5
4585
330
31A7
100
AcDbEntity
  8
APL Joinery
 62
   252
100
AcDbPolyline
 90
        2
 70
     0
 43
0.0
 10
669.1067533288587
 20
112.1033571083242
 42
0.4142135625636002
 10
669.1067533290886
 20
111.3962503269077
210
0.0
220
0.0
230
-1.0
  0
LWPOLYLINE
  5
4586
330
31A7
100
AcDbEntity
  8
APL Joinery
 62
   252
100
AcDbPolyline
 90
        4
 70
     0
 43
0.0
 10
-672.9603067189889
 20
107.6941485228166
 10
-672.9603067194518
 20
110.4998037177314
 10
-674.2603067192655
 20
110.4998037180108
 42
0.4142135623730951
 10
-674.4603067192656
 20
110.2998037180108
  0
LWPOLYLINE
  5
4587
330
31A7
100
AcDbEntity
  8
APL Joinery
 62
   252
100
AcDbPolyline
 90
        4
 70
     0
 43
0.0
 10
674.4603067194519
 20
109.7498037177309
 42
0.7807764063960539
 10
674.930894954702
 20
109.6321566588247
 42
0.2500000000110582
 10
674.9308949547436
 20
113.867450776559
 42
0.7807764063960541
 10
674.4603067194519
 20
113.7498037177309
210
0.0
220
0.0
230
-1.0
  0
LWPOLYLINE
  5
4588
330
31A7
100
AcDbEntity
  8
APL Joinery
 62
   252
100
AcDbPolyline
 90
        3
 70
     0
 43
0.0
 10
-674.4603067194518
 20
113.7498037177314
 10
-674.4603067188027
 20
113.1998037179149
 42
0.4142135616875204
 10
-674.2603067192708
 20
112.9998037179149
  0
LWPOLYLINE
  5
4589
330
31A7
100
AcDbEntity
  8
APL Joinery
 62
   252
100
AcDbPolyline
 90
        3
 70
     0
 43
0.0
 10
-674.2603067192655
 20
112.9998037177314
 10
-672.9603067194518
 20
112.9998037177314
 10
-672.9603067197195
 20
115.8054589127799
  0
LWPOLYLINE
  5
458A
330
31A7
100
AcDbEntity
  8
APL Joinery
 62
   252
100
AcDbPolyline
 90
        2
 70
     0
 43
0.0
 10
-674.4603067194518
 20
110.2998037180108
 10
-674.4603067194518
 20
109.7498037177314
  0
LWPOLYLINE
  5
458B
330
31A7
100
AcDbEntity
  8
APL Joinery
 62
   252
100
AcDbPolyline
 90
        2
 70
     0
 43
0.0
 10
-672.9603067200705
 20
115.8054589126376
 42
0.0813324331127827
 10
-669.3732550140619
 20
117.993062651044
  0
LWPOLYLINE
  5
458C
330
31A7
100
AcDbEntity
  8
APL Joinery
 62
   252
100
AcDbPolyline
 90
        2
 70
     0
 43
0.0
 10
669.3732550139576
 20
117.9930626512002
 42
0.7665651046927385
 10
668.9742314613977
 20
117.7211927328813
210
0.0
220
0.0
230
-1.0
  0
ENDBLK
  5
31A9
330
31A7
100
AcDbEntity
  8
0
100
AcDbBlockEnd
  0
BLOCK
  5
31E7
330
31E6
100
AcDbEntity
  8
0
100
AcDbBlockBegin
  2
08553
 70
     0
 10
-1603.719195212433
 20
-1768.483892154379
 30
0.0
  3
08553
  1
08553.dwg
  0
LWPOLYLINE
  5
458F
102
{ACAD_REACTORS
330
4590
102
}
330
31E6
100
AcDbEntity
  8
APL Joinery
100
AcDbPolyline
 90
       64
 70
     1
 43
0.0
 10
-1580.719195212434
 20
-1721.733892154379
 10
-1580.719195212433
 20
-1721.233892154379
 42
-0.4142135623730951
 10
-1580.469195212433
 20
-1720.983892154379
 10
-1579.469195212433
 20
-1720.983892154379
 42
-0.4142135623730951
 10
-1579.219195212433
 20
-1721.233892154379
 10
-1579.219195212433
 20
-1726.233892154379
 42
-0.4142135623730951
 10
-1579.469195212433
 20
-1726.483892154379
 10
-1580.469195212433
 20
-1726.483892154379
 42
-0.4142135623730951
 10
-1580.719195212433
 20
-1726.233892154379
 10
-1580.719195212433
 20
-1725.733892154378
 42
0.9999999999999998
 10
-1581.719195212433
 20
-1725.733892154378
 10
-1581.719195212433
 20
-1727.733892154379
 42
0.4142135623730951
 10
-1581.469195212433
 20
-1727.983892154379
 10
-1580.969195212433
 20
-1727.983892154379
 42
-0.4142135623730951
 10
-1580.719195212433
 20
-1728.233892154379
 10
-1580.719195212433
 20
-1764.983892154379
 42
-0.4142135623730951
 10
-1581.219195212433
 20
-1765.483892154379
 10
-1582.219195212433
 20
-1765.483892154379
 42
-0.4142135623730951
 10
-1582.719195212433
 20
-1764.983892154379
 10
-1582.719195212433
 20
-1764.483892154379
 42
0.9999999999999998
 10
-1583.719195212433
 20
-1764.483892154379
 10
-1583.719195212433
 20
-1764.983892154379
 42
-0.4142135623730951
 10
-1584.219195212433
 20
-1765.483892154379
 10
-1590.319195212433
 20
-1765.483892154379
 10
-1590.719195212433
 20
-1765.883892154379
 10
-1591.119195212433
 20
-1765.483892154379
 10
-1597.219195212433
 20
-1765.483892154379
 42
-0.4142135623730951
 10
-1597.719195212433
 20
-1764.983892154379
 10
-1597.719195212433
 20
-1764.483892154379
 42
0.9999999999999998
 10
-1598.719195212433
 20
-1764.483892154379
 10
-1598.719195212433
 20
-1764.983892154379
 42
-0.4142135623730951
 10
-1599.219195212433
 20
-1765.483892154379
 10
-1600.219195212433
 20
-1765.483892154379
 42
-0.4142135623730951
 10
-1600.719195212433
 20
-1764.983892154379
 10
-1600.719195212433
 20
-1728.233892154379
 42
-0.4142135623730951
 10
-1600.469195212433
 20
-1727.983892154379
 10
-1599.969195212433
 20
-1727.983892154379
 42
0.4142135623730951
 10
-1599.719195212433
 20
-1727.733892154379
 10
-1599.719195212433
 20
-1725.733892154378
 42
0.9999999999999998
 10
-1600.719195212433
 20
-1725.733892154378
 10
-1600.719195212433
 20
-1726.233892154379
 42
-0.4142135623730951
 10
-1600.969195212433
 20
-1726.483892154379
 10
-1601.969195212433
 20
-1726.483892154379
 42
-0.4142135623730951
 10
-1602.219195212433
 20
-1726.233892154379
 10
-1602.219195212433
 20
-1721.233892154379
 42
-0.4142135623730951
 10
-1601.969195212433
 20
-1720.983892154379
 10
-1600.969195212433
 20
-1720.983892154379
 42
-0.4142135623730951
 10
-1600.719195212433
 20
-1721.233892154379
 10
-1600.719195212433
 20
-1721.733892154379
 42
0.9999999999999998
 10
-1599.719195212433
 20
-1721.733892154379
 10
-1599.719195212433
 20
-1719.483892154379
 10
-1600.719195212433
 20
-1719.483892154379
 10
-1600.719195212433
 20
-1718.483892154379
 10
-1603.469195212433
 20
-1718.483892154379
 42
0.4142135623730951
 10
-1603.719195212433
 20
-1718.733892154379
 10
-1603.719195212433
 20
-1768.483892154379
 10
-1590.719195212433
 20
-1768.483892154379
 10
-1577.719195212433
 20
-1768.483892154379
 10
-1577.719195212433
 20
-1718.733892154379
 42
0.4142135623730951
 10
-1577.969195212433
 20
-1718.483892154379
 10
-1580.719195212433
 20
-1718.483892154379
 10
-1580.719195212433
 20
-1719.483892154379
 10
-1581.719195212433
 20
-1719.483892154379
 10
-1581.719195212433
 20
-1721.733892154379
 42
0.9999999999999998
  0
HATCH
  5
4590
330
31E6
100
AcDbEntity
  8
APL Hatch
100
AcDbHatch
 10
0.0
 20
0.0
 30
0.0
210
0.0
220
0.0
230
1.0
  2
SOLID
 70
     1
 71
     1
 91
        1
 92
        1
 93
       64
 72
     1
 10
-1580.719195212434
 20
-1721.733892154379
 11
-1580.719195212433
 21
-1721.233892154379
 72
     2
 10
-1580.469195212433
 20
-1721.233892154379
 40
0.25
 50
180.0
 51
270.0
 73
     0
 72
     1
 10
-1580.469195212433
 20
-1720.983892154379
 11
-1579.469195212433
 21
-1720.983892154379
 72
     2
 10
-1579.469195212433
 20
-1721.233892154379
 40
0.25
 50
270.0
 51
360.0
 73
     0
 72
     1
 10
-1579.219195212433
 20
-1721.233892154379
 11
-1579.219195212433
 21
-1726.233892154379
 72
     2
 10
-1579.469195212433
 20
-1726.233892154379
 40
0.25
 50
360.0
 51
450.0
 73
     0
 72
     1
 10
-1579.469195212433
 20
-1726.483892154379
 11
-1580.469195212433
 21
-1726.483892154379
 72
     2
 10
-1580.469195212433
 20
-1726.233892154379
 40
0.25
 50
90.0
 51
180.0
 73
     0
 72
     1
 10
-1580.719195212433
 20
-1726.233892154379
 11
-1580.719195212433
 21
-1725.733892154378
 72
     2
 10
-1581.219195212433
 20
-1725.733892154378
 40
0.5000000000002274
 50
0.0
 51
180.0
 73
     1
 72
     1
 10
-1581.719195212433
 20
-1725.733892154378
 11
-1581.719195212433
 21
-1727.733892154379
 72
     2
 10
-1581.469195212433
 20
-1727.733892154379
 40
0.25
 50
180.0
 51
270.0
 73
     1
 72
     1
 10
-1581.469195212433
 20
-1727.983892154379
 11
-1580.969195212433
 21
-1727.983892154379
 72
     2
 10
-1580.969195212433
 20
-1728.233892154379
 40
0.25
 50
270.0
 51
360.0
 73
     0
 72
     1
 10
-1580.719195212433
 20
-1728.233892154379
 11
-1580.719195212433
 21
-1764.983892154379
 72
     2
 10
-1581.219195212433
 20
-1764.983892154379
 40
0.5
 50
360.0
 51
450.0
 73
     0
 72
     1
 10
-1581.219195212433
 20
-1765.483892154379
 11
-1582.219195212433
 21
-1765.483892154379
 72
     2
 10
-1582.219195212433
 20
-1764.983892154379
 40
0.5
 50
90.0
 51
180.0
 73
     0
 72
     1
 10
-1582.719195212433
 20
-1764.983892154379
 11
-1582.719195212433
 21
-1764.483892154379
 72
     2
 10
-1583.219195212433
 20
-1764.483892154379
 40
0.5
 50
0.0
 51
180.0
 73
     1
 72
     1
 10
-1583.719195212433
 20
-1764.483892154379
 11
-1583.719195212433
 21
-1764.983892154379
 72
     2
 10
-1584.219195212433
 20
-1764.983892154379
 40
0.5
 50
360.0
 51
450.0
 73
     0
 72
     1
 10
-1584.219195212433
 20
-1765.483892154379
 11
-1590.319195212433
 21
-1765.483892154379
 72
     1
 10
-1590.319195212433
 20
-1765.483892154379
 11
-1590.719195212433
 21
-1765.883892154379
 72
     1
 10
-1590.719195212433
 20
-1765.883892154379
 11
-1591.119195212433
 21
-1765.483892154379
 72
     1
 10
-1591.119195212433
 20
-1765.483892154379
 11
-1597.219195212433
 21
-1765.483892154379
 72
     2
 10
-1597.219195212433
 20
-1764.983892154379
 40
0.5
 50
90.0
 51
180.0
 73
     0
 72
     1
 10
-1597.719195212433
 20
-1764.983892154379
 11
-1597.719195212433
 21
-1764.483892154379
 72
     2
 10
-1598.219195212433
 20
-1764.483892154379
 40
0.5
 50
0.0
 51
180.0
 73
     1
 72
     1
 10
-1598.719195212433
 20
-1764.483892154379
 11
-1598.719195212433
 21
-1764.983892154379
 72
     2
 10
-1599.219195212433
 20
-1764.983892154379
 40
0.5
 50
360.0
 51
450.0
 73
     0
 72
     1
 10
-1599.219195212433
 20
-1765.483892154379
 11
-1600.219195212433
 21
-1765.483892154379
 72
     2
 10
-1600.219195212433
 20
-1764.983892154379
 40
0.5
 50
90.0
 51
180.0
 73
     0
 72
     1
 10
-1600.719195212433
 20
-1764.983892154379
 11
-1600.719195212433
 21
-1728.233892154379
 72
     2
 10
-1600.469195212433
 20
-1728.233892154379
 40
0.25
 50
180.0
 51
270.0
 73
     0
 72
     1
 10
-1600.469195212433
 20
-1727.983892154379
 11
-1599.969195212433
 21
-1727.983892154379
 72
     2
 10
-1599.969195212433
 20
-1727.733892154379
 40
0.25
 50
270.0
 51
360.0
 73
     1
 72
     1
 10
-1599.719195212433
 20
-1727.733892154379
 11
-1599.719195212433
 21
-1725.733892154378
 72
     2
 10
-1600.219195212433
 20
-1725.733892154378
 40
0.5
 50
0.0
 51
180.0
 73
     1
 72
     1
 10
-1600.719195212433
 20
-1725.733892154378
 11
-1600.719195212433
 21
-1726.233892154379
 72
     2
 10
-1600.969195212433
 20
-1726.233892154379
 40
0.25
 50
360.0
 51
450.0
 73
     0
 72
     1
 10
-1600.969195212433
 20
-1726.483892154379
 11
-1601.969195212433
 21
-1726.483892154379
 72
     2
 10
-1601.969195212433
 20
-1726.233892154379
 40
0.25
 50
90.0
 51
180.0
 73
     0
 72
     1
 10
-1602.219195212433
 20
-1726.233892154379
 11
-1602.219195212433
 21
-1721.233892154379
 72
     2
 10
-1601.969195212433
 20
-1721.233892154379
 40
0.25
 50
180.0
 51
270.0
 73
     0
 72
     1
 10
-1601.969195212433
 20
-1720.983892154379
 11
-1600.969195212433
 21
-1720.983892154379
 72
     2
 10
-1600.969195212433
 20
-1721.233892154379
 40
0.25
 50
270.0
 51
360.0
 73
     0
 72
     1
 10
-1600.719195212433
 20
-1721.233892154379
 11
-1600.719195212433
 21
-1721.733892154379
 72
     2
 10
-1600.219195212433
 20
-1721.733892154379
 40
0.5000000000002274
 50
180.0
 51
360.0
 73
     1
 72
     1
 10
-1599.719195212433
 20
-1721.733892154379
 11
-1599.719195212433
 21
-1719.483892154379
 72
     1
 10
-1599.719195212433
 20
-1719.483892154379
 11
-1600.719195212433
 21
-1719.483892154379
 72
     1
 10
-1600.719195212433
 20
-1719.483892154379
 11
-1600.719195212433
 21
-1718.483892154379
 72
     1
 10
-1600.719195212433
 20
-1718.483892154379
 11
-1603.469195212433
 21
-1718.483892154379
 72
     2
 10
-1603.469195212433
 20
-1718.733892154379
 40
0.25
 50
90.0
 51
180.0
 73
     1
 72
     1
 10
-1603.719195212433
 20
-1718.733892154379
 11
-1603.719195212433
 21
-1768.483892154379
 72
     1
 10
-1603.719195212433
 20
-1768.483892154379
 11
-1590.719195212433
 21
-1768.483892154379
 72
     1
 10
-1590.719195212433
 20
-1768.483892154379
 11
-1577.719195212433
 21
-1768.483892154379
 72
     1
 10
-1577.719195212433
 20
-1768.483892154379
 11
-1577.719195212433
 21
-1718.733892154379
 72
     2
 10
-1577.969195212433
 20
-1718.733892154379
 40
0.25
 50
0.0
 51
90.0
 73
     1
 72
     1
 10
-1577.969195212433
 20
-1718.483892154379
 11
-1580.719195212433
 21
-1718.483892154379
 72
     1
 10
-1580.719195212433
 20
-1718.483892154379
 11
-1580.719195212433
 21
-1719.483892154379
 72
     1
 10
-1580.719195212433
 20
-1719.483892154379
 11
-1581.719195212433
 21
-1719.483892154379
 72
     1
 10
-1581.719195212433
 20
-1719.483892154379
 11
-1581.719195212433
 21
-1721.733892154379
 72
     2
 10
-1581.219195212433
 20
-1721.733892154379
 40
0.4999999999995453
 50
180.0
 51
360.0
 73
     1
 97
        1
330
458F
 75
     0
 76
     1
 98
        1
 10
0.0
 20
0.0
  0
ENDBLK
  5
31E8
330
31E6
100
AcDbEntity
  8
0
100
AcDbBlockEnd
  0
BLOCK
  5
32E8
330
32E7
100
AcDbEntity
  8
0
100
AcDbBlockBegin
  2
9010600
 70
     0
 10
78.93974279730776
 20
112.9117061828312
 30
0.0
  3
9010600
  1
9010600.dwg
  0
LWPOLYLINE
  5
4594
330
32E7
100
AcDbEntity
  8
APL Joinery
 62
   252
100
AcDbPolyline
 90
       24
 70
     1
 43
0.0
 10
76.93974279730787
 20
116.3783589013558
 42
-0.7746306590969661
 10
77.40850308089332
 20
116.499371042584
 42
0.1326610113338032
 10
79.939588024827
 20
113.9116205669736
 10
79.93974279730764
 20
112.9117061828312
 10
78.93974279730776
 20
112.9117061828312
 10
78.93974279730776
 20
109.9117061828313
 10
80.18974279730775
 20
109.9117061828313
 10
80.18974279730775
 20
110.9117061828312
 42
-0.8483943572501239
 10
80.67646739292309
 20
110.9920894263013
 10
81.41319198853826
 20
108.8224726697714
 42
-0.1651513899116614
 10
81.4131919885383
 20
108.5009396958912
 10
80.67646739292307
 20
106.3313229393613
 42
-0.8483943572501297
 10
80.18974279730775
 20
106.4117061828314
 10
80.18974279730775
 20
107.4117061828313
 10
78.93974279730776
 20
107.4117061828313
 10
78.93974279730776
 20
104.4117061828313
 10
78.45528725393058
 20
104.4117061828313
 10
76.93974279730787
 20
105.2867061828312
 10
76.93974279730787
 20
106.2867061828313
 10
77.93974279730775
 20
106.8640564520209
 10
77.93974279730775
 20
110.4593559136416
 10
76.93974279730787
 20
111.0367061828313
 10
76.93974279730787
 20
112.0367061828314
 10
77.93974279730779
 20
112.6140564520208
 42
-0.1316524975873966
  0
ENDBLK
  5
32E9
330
32E7
100
AcDbEntity
  8
0
100
AcDbBlockEnd
  0
BLOCK
  5
37FB
330
37FA
100
AcDbEntity
  8
0
100
AcDbBlockBegin
  2
08475
 70
     0
 10
-279.8926070038961
 20
-765.664238140044
 30
0.0
  3
08475
  1
I:\DWG Master BLocks\08475.dwg
  0
LWPOLYLINE
  5
4597
102
{ACAD_REACTORS
330
4598
102
}
330
37FA
100
AcDbEntity
  8
APL Joinery
  6
Continuous
100
AcDbPolyline
 90
       21
 70
     1
 43
0.0
 10
-233.8926070038962
 20
-764.0942381400439
 42
-0.4142135623730951
 10
-237.8926070038962
 20
-760.0942381400439
 10
-237.8926070038962
 20
-755.3670381400439
 10
-238.2344612838267
 20
-755.0257836044643
 42
-0.4147279546990231
 10
-238.2344612838267
 20
-754.7426926756236
 10
-237.8926070038962
 20
-754.4014381400439
 10
-237.8926070038962
 20
-745.6642381400439
 10
-240.4626070038962
 20
-745.6642381400439
 10
-240.4626070038962
 20
-747.6642381400439
 10
-239.4626070038961
 20
-747.6642381400439
 10
-239.4626070038961
 20
-764.0942381400439
 10
-281.4626070038961
 20
-764.0942381400439
 10
-281.4626070038961
 20
-789.0942381400439
 10
-279.8926070038961
 20
-789.0942381400439
 10
-279.8926070038961
 20
-765.664238140044
 10
-222.8926070038962
 20
-765.664238140044
 10
-222.8926070038962
 20
-764.0942381400439
 10
-229.9096070038962
 20
-764.0942381400439
 10
-230.2518100101529
 20
-764.4358407901493
 42
-0.4141280997404323
 10
-230.5346113775818
 20
-764.4356337612277
 10
-230.8756070038961
 20
-764.0942381400439
  0
HATCH
  5
4598
330
37FA
100
AcDbEntity
  8
APL Hatch
100
AcDbHatch
 10
0.0
 20
0.0
 30
0.0
210
0.0
220
0.0
230
1.0
  2
SOLID
 70
     1
 71
     1
 91
        1
 92
        1
 93
       21
 72
     2
 10
-233.8926070038962
 20
-760.0942381400439
 40
4.0
 50
90.0
 51
180.0
 73
     0
 72
     1
 10
-237.8926070038962
 20
-760.0942381400439
 11
-237.8926070038962
 21
-755.3670381400439
 72
     1
 10
-237.8926070038962
 20
-755.3670381400439
 11
-238.2344612838267
 21
-755.0257836044643
 72
     2
 10
-238.0931641447828
 20
-754.8842381400439
 40
0.1999999999999871
 50
134.9496964312311
 51
225.0503035687747
 73
     0
 72
     1
 10
-238.2344612838267
 20
-754.7426926756236
 11
-237.8926070038962
 21
-754.4014381400439
 72
     1
 10
-237.8926070038962
 20
-754.4014381400439
 11
-237.8926070038962
 21
-745.6642381400439
 72
     1
 10
-237.8926070038962
 20
-745.6642381400439
 11
-240.4626070038962
 21
-745.6642381400439
 72
     1
 10
-240.4626070038962
 20
-745.6642381400439
 11
-240.4626070038962
 21
-747.6642381400439
 72
     1
 10
-240.4626070038962
 20
-747.6642381400439
 11
-239.4626070038961
 21
-747.6642381400439
 72
     1
 10
-239.4626070038961
 20
-747.6642381400439
 11
-239.4626070038961
 21
-764.0942381400439
 72
     1
 10
-239.4626070038961
 20
-764.0942381400439
 11
-281.4626070038961
 21
-764.0942381400439
 72
     1
 10
-281.4626070038961
 20
-764.0942381400439
 11
-281.4626070038961
 21
-789.0942381400439
 72
     1
 10
-281.4626070038961
 20
-789.0942381400439
 11
-279.8926070038961
 21
-789.0942381400439
 72
     1
 10
-279.8926070038961
 20
-789.0942381400439
 11
-279.8926070038961
 21
-765.664238140044
 72
     1
 10
-279.8926070038961
 20
-765.664238140044
 11
-222.8926070038962
 21
-765.664238140044
 72
     1
 10
-222.8926070038962
 20
-765.664238140044
 11
-222.8926070038962
 21
-764.0942381400439
 72
     1
 10
-222.8926070038962
 20
-764.0942381400439
 11
-229.9096070038962
 21
-764.0942381400439
 72
     1
 10
-229.9096070038962
 20
-764.0942381400439
 11
-230.2518100101529
 21
-764.4358407901493
 72
     2
 10
-230.393107149197
 20
-764.294295325729
 40
0.1999999999999869
 50
45.05030356872281
 51
135.0335848610251
 73
     0
 72
     1
 10
-230.5346113775818
 20
-764.4356337612277
 11
-230.8756070038961
 21
-764.0942381400439
 72
     1
 10
-230.8756070038961
 20
-764.0942381400439
 11
-233.8926070038962
 21
-764.0942381400439
 97
        1
330
4597
 75
     0
 76
     1
 98
        1
 10
0.0
 20
0.0
  0
ENDBLK
  5
37FC
330
37FA
100
AcDbEntity
  8
0
100
AcDbBlockEnd
  0
BLOCK
  5
3BEF
330
3ACF
100
AcDbEntity
  8
0
100
AcDbBlockBegin
  2
Auto Door - Horizon frameless
 70
     0
 10
0.0
 20
0.0
 30
0.0
  3
Auto Door - Horizon frameless
  1

  0
LINE
  5
3AD0
330
3ACF
100
AcDbEntity
  8
APL Joinery
 62
     8
100
AcDbLine
 10
81.55586214989449
 20
43.0
 30
0.0
 11
35.86103869660417
 21
43.0
 31
0.0
  0
LINE
  5
3AD1
330
3ACF
100
AcDbEntity
  8
APL Joinery
 62
     8
100
AcDbLine
 10
39.0
 20
34.00400000000002
 30
0.0
 11
44.00000000000003
 21
39.00400000000008
 31
0.0
  0
LINE
  5
3AD2
330
3ACF
100
AcDbEntity
  8
APL Joinery
 62
     8
100
AcDbLine
 10
39.0
 20
51.99599999999998
 30
0.0
 11
44.00000000000003
 21
46.99599999999998
 31
0.0
  0
LINE
  5
3AD3
330
3ACF
100
AcDbEntity
  8
APL Joinery
 62
     8
100
AcDbLine
 10
57.0
 20
39.00400000000002
 30
0.0
 11
44.0
 21
39.00400000000002
 31
0.0
  0
LINE
  5
3AD4
330
3ACF
100
AcDbEntity
  8
APL Joinery
 62
     8
100
AcDbLine
 10
57.0
 20
46.99599999999998
 30
0.0
 11
44.0
 21
46.99599999999998
 31
0.0
  0
LINE
  5
3AD5
330
3ACF
100
AcDbEntity
  8
APL Joinery
 62
     8
100
AcDbLine
 10
44.0
 20
33.0
 30
0.0
 11
39.0
 21
33.0
 31
0.0
  0
LINE
  5
3AD6
330
3ACF
100
AcDbEntity
  8
APL Joinery
 62
     8
100
AcDbLine
 10
39.0
 20
71.0
 30
0.0
 11
39.0
 21
33.0
 31
0.0
  0
LINE
  5
3AD7
330
3ACF
100
AcDbEntity
  8
APL Joinery
 62
     8
100
AcDbLine
 10
44.0
 20
71.0
 30
0.0
 11
44.0
 21
33.0
 31
0.0
  0
LINE
  5
3AD8
330
3ACF
100
AcDbEntity
  8
APL Joinery
 62
     8
100
AcDbLine
 10
44.0
 20
71.0
 30
0.0
 11
39.0
 21
71.0
 31
0.0
  0
LINE
  5
3AD9
330
3ACF
100
AcDbEntity
  8
APL Joinery
 62
     8
100
AcDbLine
 10
67.34929401599998
 20
39.00400000000002
 30
0.0
 11
74.56709000000007
 21
39.00400000000002
 31
0.0
  0
LINE
  5
3ADA
330
3ACF
100
AcDbEntity
  8
APL Joinery
 62
     8
100
AcDbLine
 10
67.34929401599998
 20
40.20279999999996
 30
0.0
 11
75.14984000000009
 21
40.20279999999996
 31
0.0
  0
LINE
  5
3ADB
330
3ACF
100
AcDbEntity
  8
APL Joinery
 62
     8
100
AcDbLine
 10
67.34929401599998
 20
45.79720000000003
 30
0.0
 11
75.14984000000009
 21
45.79720000000003
 31
0.0
  0
LINE
  5
3ADC
330
3ACF
100
AcDbEntity
  8
APL Joinery
 62
     8
100
AcDbLine
 10
67.34929401599998
 20
46.99599999999998
 30
0.0
 11
74.56709000000007
 21
46.99599999999998
 31
0.0
  0
LINE
  5
3ADD
330
3ACF
100
AcDbEntity
  8
APL Joinery
 62
     8
100
AcDbLine
 10
74.56709000000007
 20
39.00400000000002
 30
0.0
 11
74.56709000000007
 21
46.99599999999998
 31
0.0
  0
LINE
  5
3ADE
330
3ACF
100
AcDbEntity
  8
APL Joinery
 62
     8
100
AcDbLine
 10
74.56709000000007
 20
39.00400000000002
 30
0.0
 11
75.14984000000009
 21
40.20279999999996
 31
0.0
  0
LINE
  5
3ADF
330
3ACF
100
AcDbEntity
  8
APL Joinery
 62
     8
100
AcDbLine
 10
75.14984000000009
 20
40.20279999999996
 30
0.0
 11
75.14984000000009
 21
45.79720000000003
 31
0.0
  0
LINE
  5
3AE0
330
3ACF
100
AcDbEntity
  8
APL Joinery
 62
     8
100
AcDbLine
 10
75.14984000000009
 20
45.79720000000003
 30
0.0
 11
74.56709000000007
 21
46.99599999999998
 31
0.0
  0
LINE
  5
3AE1
330
3ACF
100
AcDbEntity
  8
APL Joinery
 62
     8
100
AcDbLine
 10
60.0
 20
50.39593000000002
 30
0.0
 11
60.0
 21
35.60406999999998
 31
0.0
  0
LINE
  5
3AE2
330
3ACF
100
AcDbEntity
  8
APL Joinery
 62
     8
100
AcDbLine
 10
60.0
 20
50.39593000000002
 30
0.0
 11
61.55044800000002
 21
50.39593000000002
 31
0.0
  0
LINE
  5
3AE3
330
3ACF
100
AcDbEntity
  8
APL Joinery
 62
     8
100
AcDbLine
 10
60.0
 20
35.60406999999998
 30
0.0
 11
61.55044800000002
 21
35.60406999999998
 31
0.0
  0
LINE
  5
3AE4
330
3ACF
100
AcDbEntity
  8
APL Joinery
 62
     8
100
AcDbLine
 10
61.55044800000002
 20
50.39593000000002
 30
0.0
 11
61.55044800000002
 21
35.60406999999998
 31
0.0
  0
LINE
  5
3AE5
330
3ACF
100
AcDbEntity
  8
APL Joinery
 62
     8
100
AcDbLine
 10
61.55044800000002
 20
47.49847002699993
 30
-1.550447999999999
 11
61.55044800000002
 21
38.50152997300006
 31
-1.550447999999999
  0
LINE
  5
3AE6
330
3ACF
100
AcDbEntity
  8
APL Joinery
 62
     8
100
AcDbLine
 10
66.76940941440006
 20
48.99796003599999
 30
-1.550447999999999
 11
62.13033260160006
 21
48.99796003599999
 31
-1.550447999999999
  0
LINE
  5
3AE7
330
3ACF
100
AcDbEntity
  8
APL Joinery
 62
     8
100
AcDbLine
 10
66.76940941440006
 20
45.99898001799999
 30
-1.550447999999999
 11
62.13033260160006
 21
45.99898001799999
 31
-1.550447999999999
  0
LINE
  5
3AE8
330
3ACF
100
AcDbEntity
  8
APL Joinery
 62
     8
100
AcDbLine
 10
66.76940941440006
 20
40.001019982
 30
-1.550447999999999
 11
62.13033260160006
 21
40.001019982
 31
-1.550447999999999
  0
LINE
  5
3AE9
330
3ACF
100
AcDbEntity
  8
APL Joinery
 62
     8
100
AcDbLine
 10
66.76940941440006
 20
37.00203996400001
 30
-1.550447999999999
 11
62.13033260160006
 21
37.00203996400001
 31
-1.550447999999999
  0
LINE
  5
3AEA
330
3ACF
100
AcDbEntity
  8
APL Joinery
 62
     8
100
AcDbLine
 10
67.34929401599998
 20
47.49847002699993
 30
-1.550447999999999
 11
67.34929401599998
 21
38.50152997300006
 31
-1.550447999999999
  0
ARC
  5
3AEB
330
3ACF
100
AcDbEntity
  8
APL Joinery
 62
     8
100
AcDbCircle
 10
59.30446296358664
 20
43.0
 30
-1.550447999999999
 40
8.044831052413366
100
AcDbArc
 50
338.1126162923
 51
21.88738370769984
  0
ARC
  5
3AEC
330
3ACF
100
AcDbEntity
  8
APL Joinery
 62
     8
100
AcDbCircle
 10
65.12062952729667
 20
47.49847002699993
 30
-1.550447999999999
 40
2.228664488703343
100
AcDbArc
 50
317.7149124825074
 51
42.28508751749257
  0
ARC
  5
3AED
330
3ACF
100
AcDbEntity
  8
APL Joinery
 62
     8
100
AcDbCircle
 10
65.12062952729667
 20
38.50152997300006
 30
-1.550447999999999
 40
2.228664488703343
100
AcDbArc
 50
317.7149124825074
 51
42.28508751749257
  0
ARC
  5
3AEE
330
3ACF
100
AcDbEntity
  8
APL Joinery
 62
     8
100
AcDbCircle
 10
69.59527905241344
 20
43.0
 30
-1.550447999999999
 40
8.044831052413366
100
AcDbArc
 50
158.1126162923002
 51
201.8873837076998
  0
ARC
  5
3AEF
330
3ACF
100
AcDbEntity
  8
APL Joinery
 62
     8
100
AcDbCircle
 10
63.77911248870339
 20
47.49847002699993
 30
-1.550447999999999
 40
2.228664488703343
100
AcDbArc
 50
137.7149124825074
 51
222.2850875174926
  0
ARC
  5
3AF0
330
3ACF
100
AcDbEntity
  8
APL Joinery
 62
     8
100
AcDbCircle
 10
63.77911248870339
 20
38.50152997300006
 30
-1.550447999999999
 40
2.228664488703343
100
AcDbArc
 50
137.7149124825074
 51
222.2850875174926
  0
LINE
  5
3AF1
330
3ACF
100
AcDbEntity
  8
APL Joinery
 62
     8
100
AcDbLine
 10
60.0
 20
110.75
 30
0.0
 11
60.0
 21
33.0
 31
0.0
  0
LINE
  5
3AF2
330
3ACF
100
AcDbEntity
  8
APL Joinery
 62
     8
100
AcDbLine
 10
60.0
 20
33.0
 30
0.0
 11
57.0
 21
33.0
 31
0.0
  0
LINE
  5
3AF3
330
3ACF
100
AcDbEntity
  8
APL Joinery
 62
     8
100
AcDbLine
 10
57.0
 20
110.75
 30
0.0
 11
57.0
 21
33.0
 31
0.0
  0
LINE
  5
3AF4
330
3ACF
100
AcDbEntity
  8
APL Joinery
 62
     7
100
AcDbLine
 10
44.5
 20
68.0
 30
0.0
 11
44.5
 21
0.0
 31
0.0
  0
LINE
  5
3AF5
330
3ACF
100
AcDbEntity
  8
APL Joinery
 62
     7
100
AcDbLine
 10
56.5
 20
68.0
 30
0.0
 11
56.49999999999999
 21
0.0
 31
0.0
  0
LINE
  5
3AF6
330
3ACF
100
AcDbEntity
  8
APL Joinery
 62
     7
100
AcDbLine
 10
47.5
 20
71.0
 30
0.0
 11
44.5
 21
68.0
 31
0.0
  0
LINE
  5
3AF7
330
3ACF
100
AcDbEntity
  8
APL Joinery
 62
     7
100
AcDbLine
 10
53.5
 20
71.0
 30
0.0
 11
47.5
 21
71.0
 31
0.0
  0
LINE
  5
3AF8
330
3ACF
100
AcDbEntity
  8
APL Joinery
 62
     7
100
AcDbLine
 10
53.5
 20
71.0
 30
0.0
 11
56.5
 21
68.0
 31
0.0
  0
LINE
  5
3AF9
102
{ACAD_REACTORS
330
3BEE
102
}
330
3ACF
100
AcDbEntity
  8
APL Joinery
100
AcDbLine
 10
74.5
 20
27.5
 30
0.0
 11
68.0
 21
27.5
 31
0.0
  0
LINE
  5
3AFA
102
{ACAD_REACTORS
330
3BEE
102
}
330
3ACF
100
AcDbEntity
  8
APL Joinery
100
AcDbLine
 10
103.9644660940673
 20
27.5
 30
0.0
 11
76.0
 21
27.5
 31
0.0
  0
LINE
  5
3AFB
102
{ACAD_REACTORS
330
3BEE
102
}
330
3ACF
100
AcDbEntity
  8
APL Joinery
100
AcDbLine
 10
76.0
 20
33.75
 30
0.0
 11
76.0
 21
27.5
 31
0.0
  0
LINE
  5
3AFC
102
{ACAD_REACTORS
330
3BEE
102
}
330
3ACF
100
AcDbEntity
  8
APL Joinery
100
AcDbLine
 10
74.5
 20
33.75
 30
0.0
 11
74.5
 21
27.5
 31
0.0
  0
ARC
  5
3AFD
102
{ACAD_REACTORS
330
3BEE
102
}
330
3ACF
100
AcDbEntity
  8
APL Joinery
100
AcDbCircle
 10
75.25
 20
33.75
 30
0.0
 40
0.75
100
AcDbArc
 50
0.0
 51
180.0
  0
LINE
  5
3AFE
102
{ACAD_REACTORS
330
3BEE
102
}
330
3ACF
100
AcDbEntity
  8
APL Joinery
100
AcDbLine
 10
63.25
 20
27.25
 30
0.0
 11
63.25
 21
26.5
 31
0.0
  0
LINE
  5
3AFF
102
{ACAD_REACTORS
330
3BEE
102
}
330
3ACF
100
AcDbEntity
  8
APL Joinery
100
AcDbLine
 10
63.25
 20
30.5
 30
0.0
 11
63.25
 21
29.75
 31
0.0
  0
LINE
  5
3B00
102
{ACAD_REACTORS
330
3BEE
102
}
330
3ACF
100
AcDbEntity
  8
APL Joinery
100
AcDbLine
 10
62.0
 20
27.25
 30
0.0
 11
62.0
 21
25.0
 31
0.0
  0
LINE
  5
3B01
102
{ACAD_REACTORS
330
3BEE
102
}
330
3ACF
100
AcDbEntity
  8
APL Joinery
100
AcDbLine
 10
62.0
 20
32.0
 30
0.0
 11
62.0
 21
29.75
 31
0.0
  0
LINE
  5
3B02
102
{ACAD_REACTORS
330
3BEE
102
}
330
3ACF
100
AcDbEntity
  8
APL Joinery
100
AcDbLine
 10
63.25
 20
27.25
 30
0.0
 11
62.0
 21
27.25
 31
0.0
  0
LINE
  5
3B03
102
{ACAD_REACTORS
330
3BEE
102
}
330
3ACF
100
AcDbEntity
  8
APL Joinery
100
AcDbLine
 10
63.25
 20
29.75
 30
0.0
 11
62.0
 21
29.75
 31
0.0
  0
LINE
  5
3B04
102
{ACAD_REACTORS
330
3BEE
102
}
330
3ACF
100
AcDbEntity
  8
APL Joinery
100
AcDbLine
 10
66.5
 20
26.5
 30
0.0
 11
63.25
 21
26.5
 31
0.0
  0
LINE
  5
3B05
102
{ACAD_REACTORS
330
3BEE
102
}
330
3ACF
100
AcDbEntity
  8
APL Joinery
100
AcDbLine
 10
66.5
 20
30.5
 30
0.0
 11
66.5
 21
26.5
 31
0.0
  0
LINE
  5
3B06
102
{ACAD_REACTORS
330
3BEE
102
}
330
3ACF
100
AcDbEntity
  8
APL Joinery
100
AcDbLine
 10
66.5
 20
30.5
 30
0.0
 11
63.25
 21
30.5
 31
0.0
  0
LINE
  5
3B07
102
{ACAD_REACTORS
330
3BEE
102
}
330
3ACF
100
AcDbEntity
  8
APL Joinery
100
AcDbLine
 10
68.0
 20
32.0
 30
0.0
 11
68.0
 21
27.5
 31
0.0
  0
LINE
  5
3B08
102
{ACAD_REACTORS
330
3BEE
102
}
330
3ACF
100
AcDbEntity
  8
APL Joinery
100
AcDbLine
 10
68.0
 20
32.0
 30
0.0
 11
62.0
 21
32.0
 31
0.0
  0
LINE
  5
3B09
102
{ACAD_REACTORS
330
3BEE
102
}
330
3ACF
100
AcDbEntity
  8
APL Joinery
100
AcDbLine
 10
103.9644660940673
 20
27.5
 30
0.0
 11
147.5
 21
71.03553390593271
 31
0.0
  0
LINE
  5
3B0A
102
{ACAD_REACTORS
330
3BEE
102
}
330
3ACF
100
AcDbEntity
  8
APL Joinery
100
AcDbLine
 10
147.5
 20
71.03553390593271
 30
0.0
 11
147.5
 21
220.5
 31
0.0
  0
LINE
  5
3B0B
102
{ACAD_REACTORS
330
3BEE
102
}
330
3ACF
100
AcDbEntity
  8
APL Joinery
100
AcDbLine
 10
145.25
 20
220.5
 30
0.0
 11
147.5
 21
220.5
 31
0.0
  0
LINE
  5
3B0C
102
{ACAD_REACTORS
330
3BEE
102
}
330
3ACF
100
AcDbEntity
  8
APL Joinery
100
AcDbLine
 10
145.25
 20
222.0
 30
0.0
 11
147.5
 21
222.0
 31
0.0
  0
LINE
  5
3B0D
102
{ACAD_REACTORS
330
3BEE
102
}
330
3ACF
100
AcDbEntity
  8
APL Joinery
100
AcDbLine
 10
147.5
 20
222.0
 30
0.0
 11
147.5
 21
226.341480316732
 31
0.0
  0
LINE
  5
3B0E
102
{ACAD_REACTORS
330
3BEE
102
}
330
3ACF
100
AcDbEntity
  8
APL Joinery
100
AcDbLine
 10
143.606642668579
 20
232.1003026757504
 30
0.0
 11
147.5
 21
226.341480316732
 31
0.0
  0
LINE
  5
3B0F
102
{ACAD_REACTORS
330
3BEE
102
}
330
3ACF
100
AcDbEntity
  8
APL Joinery
100
AcDbLine
 10
105.0
 20
25.0
 30
0.0
 11
150.0
 21
70.0
 31
0.0
  0
LINE
  5
3B10
102
{ACAD_REACTORS
330
3BEE
102
}
330
3ACF
100
AcDbEntity
  8
APL Joinery
100
AcDbLine
 10
150.0
 20
70.0
 30
0.0
 11
150.0
 21
228.0
 31
0.0
  0
LINE
  5
3B11
102
{ACAD_REACTORS
330
3BEE
102
}
330
3ACF
100
AcDbEntity
  8
APL Joinery
100
AcDbLine
 10
105.0
 20
25.0
 30
0.0
 11
62.0
 21
25.0
 31
0.0
  0
LINE
  5
3B12
102
{ACAD_REACTORS
330
3BEE
102
}
330
3ACF
100
AcDbEntity
  8
APL Joinery
100
AcDbLine
 10
131.5
 20
220.5
 30
0.0
 11
133.6010205144336
 21
220.5
 31
0.0
  0
ARC
  5
3B13
102
{ACAD_REACTORS
330
3BEE
102
}
330
3ACF
100
AcDbEntity
  8
APL Joinery
100
AcDbCircle
 10
145.25
 20
221.25
 30
0.0
 40
0.75
100
AcDbArc
 50
90.0
 51
270.0
  0
LINE
  5
3B14
102
{ACAD_REACTORS
330
3BEE
102
}
330
3ACF
100
AcDbEntity
  8
APL Joinery
100
AcDbLine
 10
143.3989794855662
 20
220.5
 30
0.0
 11
143.5
 21
220.5
 31
0.0
  0
ARC
  5
3B15
102
{ACAD_REACTORS
330
3BEE
102
}
330
3ACF
100
AcDbEntity
  8
APL Joinery
100
AcDbCircle
 10
143.3989794855662
 20
220.0
 30
0.0
 40
0.5
100
AcDbArc
 50
90.0
 51
207.0356917894115
  0
ARC
  5
3B16
102
{ACAD_REACTORS
330
3BEE
102
}
330
3ACF
100
AcDbEntity
  8
APL Joinery
100
AcDbCircle
 10
138.4999999999999
 20
217.5
 30
0.0
 40
5.0
100
AcDbArc
 50
325.9522676300081
 51
27.03569178941301
  0
ARC
  5
3B17
102
{ACAD_REACTORS
330
3BEE
102
}
330
3ACF
100
AcDbEntity
  8
APL Joinery
100
AcDbCircle
 10
143.5
 20
221.0
 30
0.0
 40
0.5
100
AcDbArc
 50
270.0
 51
0.0
  0
LINE
  5
3B18
102
{ACAD_REACTORS
330
3BEE
102
}
330
3ACF
100
AcDbEntity
  8
APL Joinery
100
AcDbLine
 10
144.0
 20
221.0
 30
0.0
 11
144.0
 21
223.0
 31
0.0
  0
ARC
  5
3B19
102
{ACAD_REACTORS
330
3BEE
102
}
330
3ACF
100
AcDbEntity
  8
APL Joinery
100
AcDbCircle
 10
140.5
 20
230.0
 30
0.0
 40
3.75
100
AcDbArc
 50
34.06137980456481
 51
163.5501965273136
  0
ARC
  5
3B1A
102
{ACAD_REACTORS
330
3BEE
102
}
330
3ACF
100
AcDbEntity
  8
APL Joinery
100
AcDbCircle
 10
140.5
 20
230.0
 30
0.0
 40
6.75
100
AcDbArc
 50
34.06137980456481
 51
163.5501965273136
  0
ARC
  5
3B1B
102
{ACAD_REACTORS
330
3BEE
102
}
330
3ACF
100
AcDbEntity
  8
APL Joinery
100
AcDbCircle
 10
135.4648919961986
 20
231.486669899492
 30
0.0
 40
1.5
100
AcDbArc
 50
163.5501965273136
 51
343.5501965273137
  0
LINE
  5
3B1C
102
{ACAD_REACTORS
330
3BEE
102
}
330
3ACF
100
AcDbEntity
  8
APL Joinery
100
AcDbLine
 10
146.0919568034422
 20
233.7805448163507
 30
0.0
 11
150.0
 21
228.0
 31
0.0
  0
LINE
  5
3B1D
102
{ACAD_REACTORS
330
3BEE
102
}
330
3ACF
100
AcDbEntity
  8
APL Joinery
100
AcDbLine
 10
144.0
 20
225.0
 30
0.0
 11
144.0
 21
230.0
 31
0.0
  0
ARC
  5
3B1E
102
{ACAD_REACTORS
330
3BEE
102
}
330
3ACF
100
AcDbEntity
  8
APL Joinery
100
AcDbCircle
 10
141.5
 20
224.7928932188135
 30
0.0
 40
0.5
100
AcDbArc
 50
0.0
 51
45.0
  0
LINE
  5
3B1F
102
{ACAD_REACTORS
330
3BEE
102
}
330
3ACF
100
AcDbEntity
  8
APL Joinery
100
AcDbLine
 10
142.0
 20
223.5
 30
0.0
 11
142.0
 21
224.7928932188135
 31
0.0
  0
LINE
  5
3B20
102
{ACAD_REACTORS
330
3BEE
102
}
330
3ACF
100
AcDbEntity
  8
APL Joinery
100
AcDbLine
 10
137.0
 20
230.0
 30
0.0
 11
141.8535533905933
 21
225.1464466094067
 31
0.0
  0
ARC
  5
3B21
102
{ACAD_REACTORS
330
3BEE
102
}
330
3ACF
100
AcDbEntity
  8
APL Joinery
100
AcDbCircle
 10
140.5
 20
230.0
 30
0.0
 40
3.5
100
AcDbArc
 50
0.0
 51
180.0
  0
LINE
  5
3B22
102
{ACAD_REACTORS
330
3BEE
102
}
330
3ACF
100
AcDbEntity
  8
APL Joinery
100
AcDbLine
 10
144.0
 20
223.0
 30
0.0
 11
146.0
 21
223.0
 31
0.0
  0
LINE
  5
3B23
102
{ACAD_REACTORS
330
3BEE
102
}
330
3ACF
100
AcDbEntity
  8
APL Joinery
100
AcDbLine
 10
146.0
 20
223.0
 30
0.0
 11
146.0
 21
225.0
 31
0.0
  0
LINE
  5
3B24
102
{ACAD_REACTORS
330
3BEE
102
}
330
3ACF
100
AcDbEntity
  8
APL Joinery
100
AcDbLine
 10
144.0
 20
225.0
 30
0.0
 11
146.0
 21
225.0
 31
0.0
  0
ARC
  5
3B25
102
{ACAD_REACTORS
330
3BEE
102
}
330
3ACF
100
AcDbEntity
  8
APL Joinery
100
AcDbCircle
 10
133.6010205144336
 20
220.0
 30
0.0
 40
0.5
100
AcDbArc
 50
332.9643082105928
 51
90.0
  0
ARC
  5
3B26
102
{ACAD_REACTORS
330
3BEE
102
}
330
3ACF
100
AcDbEntity
  8
APL Joinery
100
AcDbCircle
 10
138.5
 20
217.5
 30
0.0
 40
5.0
100
AcDbArc
 50
152.964308210587
 51
214.0477323699919
  0
ARC
  5
3B27
102
{ACAD_REACTORS
330
3BEE
102
}
330
3ACF
100
AcDbEntity
  8
APL Joinery
100
AcDbCircle
 10
141.3999999999999
 20
215.5404082057734
 30
0.0
 40
1.5
100
AcDbArc
 50
145.9522676300081
 51
325.9522676300081
  0
ARC
  5
3B28
102
{ACAD_REACTORS
330
3BEE
102
}
330
3ACF
100
AcDbEntity
  8
APL Joinery
100
AcDbCircle
 10
138.5
 20
217.5
 30
0.0
 40
2.0
100
AcDbArc
 50
325.9522676300081
 51
214.0477323699919
  0
ARC
  5
3B29
102
{ACAD_REACTORS
330
3BEE
102
}
330
3ACF
100
AcDbEntity
  8
APL Joinery
100
AcDbCircle
 10
135.5999999999999
 20
215.5404082057735
 30
0.0
 40
1.5
100
AcDbArc
 50
214.0477323699919
 51
34.04773236999188
  0
ARC
  5
3B2A
102
{ACAD_REACTORS
330
3BEE
102
}
330
3ACF
100
AcDbEntity
  8
APL Joinery
100
AcDbCircle
 10
131.5
 20
222.5
 30
0.0
 40
2.0
100
AcDbArc
 50
180.0
 51
270.0
  0
LINE
  5
3B2B
102
{ACAD_REACTORS
330
3BEE
102
}
330
3ACF
100
AcDbEntity
  8
APL Joinery
100
AcDbLine
 10
129.5
 20
222.5
 30
0.0
 11
129.5
 21
237.5
 31
0.0
  0
ARC
  5
3B2C
102
{ACAD_REACTORS
330
3BEE
102
}
330
3ACF
100
AcDbEntity
  8
APL Joinery
100
AcDbCircle
 10
132.5
 20
223.5
 30
0.0
 40
0.5
100
AcDbArc
 50
180.0
 51
270.0
  0
LINE
  5
3B2D
102
{ACAD_REACTORS
330
3BEE
102
}
330
3ACF
100
AcDbEntity
  8
APL Joinery
100
AcDbLine
 10
141.5
 20
223.0
 30
0.0
 11
132.5
 21
223.0
 31
0.0
  0
LINE
  5
3B2E
102
{ACAD_REACTORS
330
3BEE
102
}
330
3ACF
100
AcDbEntity
  8
APL Joinery
100
AcDbLine
 10
132.0
 20
223.5
 30
0.0
 11
132.0
 21
240.0
 31
0.0
  0
ARC
  5
3B2F
102
{ACAD_REACTORS
330
3BEE
102
}
330
3ACF
100
AcDbEntity
  8
APL Joinery
100
AcDbCircle
 10
141.5
 20
223.5
 30
0.0
 40
0.5
100
AcDbArc
 50
270.0
 51
0.0
  0
LINE
  5
3B30
102
{ACAD_REACTORS
330
3BEE
102
}
330
3ACF
100
AcDbEntity
  8
APL Joinery
100
AcDbLine
 10
129.5
 20
237.5
 30
0.0
 11
72.0
 21
237.5
 31
0.0
  0
LINE
  5
3B31
102
{ACAD_REACTORS
330
3BEE
102
}
330
3ACF
100
AcDbEntity
  8
APL Joinery
100
AcDbLine
 10
132.0
 20
240.0
 30
0.0
 11
0.0
 21
240.0
 31
0.0
  0
LINE
  5
3B32
102
{ACAD_REACTORS
330
3BEE
102
}
330
3ACF
100
AcDbEntity
  8
APL Joinery
100
AcDbLine
 10
71.0
 20
236.5
 30
0.0
 11
72.0
 21
237.5
 31
0.0
  0
LINE
  5
3B33
102
{ACAD_REACTORS
330
3BEE
102
}
330
3ACF
100
AcDbEntity
  8
APL Joinery
100
AcDbLine
 10
71.0
 20
236.5
 30
0.0
 11
13.45435605731777
 21
236.5
 31
0.0
  0
ARC
  5
3B34
102
{ACAD_REACTORS
330
3BEE
102
}
330
3ACF
100
AcDbEntity
  8
APL Joinery
100
AcDbCircle
 10
13.45435605731777
 20
235.5
 30
0.0
 40
1.0
100
AcDbArc
 50
90.0
 51
204.6243183521653
  0
ARC
  5
3B35
102
{ACAD_REACTORS
330
3BEE
102
}
330
3ACF
100
AcDbEntity
  8
APL Joinery
100
AcDbCircle
 10
7.999999999999943
 20
233.0
 30
0.0
 40
5.0
100
AcDbArc
 50
10.95226763000813
 51
24.62431835216362
  0
ARC
  5
3B36
102
{ACAD_REACTORS
330
3BEE
102
}
330
3ACF
100
AcDbEntity
  8
APL Joinery
100
AcDbCircle
 10
11.43625031149608
 20
233.6649690193859
 30
0.0
 40
1.5
100
AcDbArc
 50
190.9522676300081
 51
10.95226763000812
  0
ARC
  5
3B37
102
{ACAD_REACTORS
330
3BEE
102
}
330
3ACF
100
AcDbEntity
  8
APL Joinery
100
AcDbCircle
 10
5.0
 20
227.8038475772934
 30
0.0
 40
1.0
100
AcDbArc
 50
60.00000000000047
 51
180.0
  0
LINE
  5
3B38
102
{ACAD_REACTORS
330
3BEE
102
}
330
3ACF
100
AcDbEntity
  8
APL Joinery
100
AcDbLine
 10
4.0
 20
210.0
 30
0.0
 11
4.0
 21
227.8038475772934
 31
0.0
  0
ARC
  5
3B39
102
{ACAD_REACTORS
330
3BEE
102
}
330
3ACF
100
AcDbEntity
  8
APL Joinery
100
AcDbCircle
 10
8.0
 20
233.0
 30
0.0
 40
5.0
100
AcDbArc
 50
240.0
 51
259.0477323699914
  0
ARC
  5
3B3A
102
{ACAD_REACTORS
330
3BEE
102
}
330
3ACF
100
AcDbEntity
  8
APL Joinery
100
AcDbCircle
 10
8.0
 20
233.0
 30
0.0
 40
2.0
100
AcDbArc
 50
10.95226763000812
 51
259.0477323699914
  0
ARC
  5
3B3B
102
{ACAD_REACTORS
330
3BEE
102
}
330
3ACF
100
AcDbEntity
  8
APL Joinery
100
AcDbCircle
 10
7.335030980614106
 20
229.5637496885039
 30
0.0
 40
1.5
100
AcDbArc
 50
259.0477323699914
 51
79.04773236999147
  0
LINE
  5
3B3C
102
{ACAD_REACTORS
330
3BEE
102
}
330
3ACF
100
AcDbEntity
  8
APL Joinery
100
AcDbLine
 10
4.0
 20
132.0
 30
0.0
 11
4.0
 21
166.0
 31
0.0
  0
LINE
  5
3B3D
102
{ACAD_REACTORS
330
3BEE
102
}
330
3ACF
100
AcDbEntity
  8
APL Joinery
100
AcDbLine
 10
5.0
 20
195.0
 30
0.0
 11
5.0
 21
206.0
 31
0.0
  0
LINE
  5
3B3E
102
{ACAD_REACTORS
330
3BEE
102
}
330
3ACF
100
AcDbEntity
  8
APL Joinery
100
AcDbLine
 10
5.0
 20
167.0
 30
0.0
 11
5.0
 21
192.0
 31
0.0
  0
LINE
  5
3B3F
102
{ACAD_REACTORS
330
3BEE
102
}
330
3ACF
100
AcDbEntity
  8
APL Joinery
100
AcDbLine
 10
13.5
 20
204.0
 30
0.0
 11
13.5
 21
209.0
 31
0.0
  0
LINE
  5
3B40
102
{ACAD_REACTORS
330
3BEE
102
}
330
3ACF
100
AcDbEntity
  8
APL Joinery
100
AcDbLine
 10
13.5
 20
192.0
 30
0.0
 11
13.5
 21
197.0
 31
0.0
  0
LINE
  5
3B41
102
{ACAD_REACTORS
330
3BEE
102
}
330
3ACF
100
AcDbEntity
  8
APL Joinery
100
AcDbLine
 10
10.5
 20
204.0
 30
0.0
 11
10.5
 21
206.0
 31
0.0
  0
LINE
  5
3B42
102
{ACAD_REACTORS
330
3BEE
102
}
330
3ACF
100
AcDbEntity
  8
APL Joinery
100
AcDbLine
 10
10.5
 20
195.0
 30
0.0
 11
10.5
 21
197.0
 31
0.0
  0
LINE
  5
3B43
102
{ACAD_REACTORS
330
3BEE
102
}
330
3ACF
100
AcDbEntity
  8
APL Joinery
100
AcDbLine
 10
10.5
 20
197.0
 30
0.0
 11
13.5
 21
197.0
 31
0.0
  0
LINE
  5
3B44
102
{ACAD_REACTORS
330
3BEE
102
}
330
3ACF
100
AcDbEntity
  8
APL Joinery
100
AcDbLine
 10
10.5
 20
204.0
 30
0.0
 11
13.5
 21
204.0
 31
0.0
  0
LINE
  5
3B45
102
{ACAD_REACTORS
330
3BEE
102
}
330
3ACF
100
AcDbEntity
  8
APL Joinery
100
AcDbLine
 10
10.5
 20
206.0
 30
0.0
 11
5.0
 21
206.0
 31
0.0
  0
LINE
  5
3B46
102
{ACAD_REACTORS
330
3BEE
102
}
330
3ACF
100
AcDbEntity
  8
APL Joinery
100
AcDbLine
 10
10.5
 20
195.0
 30
0.0
 11
5.0
 21
195.0
 31
0.0
  0
LINE
  5
3B47
102
{ACAD_REACTORS
330
3BEE
102
}
330
3ACF
100
AcDbEntity
  8
APL Joinery
100
AcDbLine
 10
13.5
 20
192.0
 30
0.0
 11
5.0
 21
192.0
 31
0.0
  0
LINE
  5
3B48
102
{ACAD_REACTORS
330
3BEE
102
}
330
3ACF
100
AcDbEntity
  8
APL Joinery
100
AcDbLine
 10
13.5
 20
209.0
 30
0.0
 11
5.0
 21
209.0
 31
0.0
  0
LINE
  5
3B49
102
{ACAD_REACTORS
330
3BEE
102
}
330
3ACF
100
AcDbEntity
  8
APL Joinery
100
AcDbLine
 10
1.0
 20
167.0
 30
0.0
 11
0.0
 21
166.0
 31
0.0
  0
LINE
  5
3B4A
102
{ACAD_REACTORS
330
3BEE
102
}
330
3ACF
100
AcDbEntity
  8
APL Joinery
100
AcDbLine
 10
5.0
 20
167.0
 30
0.0
 11
4.0
 21
166.0
 31
0.0
  0
LINE
  5
3B4B
102
{ACAD_REACTORS
330
3BEE
102
}
330
3ACF
100
AcDbEntity
  8
APL Joinery
100
AcDbLine
 10
4.0
 20
210.0
 30
0.0
 11
5.0
 21
209.0
 31
0.0
  0
LINE
  5
3B4C
102
{ACAD_REACTORS
330
3BEE
102
}
330
3ACF
100
AcDbEntity
  8
APL Joinery
100
AcDbLine
 10
0.0
 20
210.0
 30
0.0
 11
1.0
 21
209.0
 31
0.0
  0
LINE
  5
3B4D
102
{ACAD_REACTORS
330
3BEE
102
}
330
3ACF
100
AcDbEntity
  8
APL Joinery
100
AcDbLine
 10
1.0
 20
167.0
 30
0.0
 11
1.0
 21
209.0
 31
0.0
  0
LINE
  5
3B4E
102
{ACAD_REACTORS
330
3BEE
102
}
330
3ACF
100
AcDbEntity
  8
APL Joinery
100
AcDbLine
 10
0.0
 20
210.0
 30
0.0
 11
0.0
 21
240.0
 31
0.0
  0
LINE
  5
3B4F
102
{ACAD_REACTORS
330
3BEE
102
}
330
3ACF
100
AcDbEntity
  8
APL Joinery
100
AcDbLine
 10
0.0
 20
102.0
 30
0.0
 11
0.0
 21
166.0
 31
0.0
  0
LINE
  5
3B50
102
{ACAD_REACTORS
330
3BEE
102
}
330
3ACF
100
AcDbEntity
  8
APL Joinery
100
AcDbLine
 10
4.0
 20
102.0
 30
0.0
 11
4.0
 21
129.0
 31
0.0
  0
LINE
  5
3B51
102
{ACAD_REACTORS
330
3BEE
102
}
330
3ACF
100
AcDbEntity
  8
APL Joinery
100
AcDbLine
 10
11.0
 20
132.0
 30
0.0
 11
4.0
 21
132.0
 31
0.0
  0
LINE
  5
3B52
102
{ACAD_REACTORS
330
3BEE
102
}
330
3ACF
100
AcDbEntity
  8
APL Joinery
100
AcDbLine
 10
16.0
 20
132.0
 30
0.0
 11
13.0
 21
132.0
 31
0.0
  0
ARC
  5
3B53
102
{ACAD_REACTORS
330
3BEE
102
}
330
3ACF
100
AcDbEntity
  8
APL Joinery
100
AcDbCircle
 10
16.0
 20
130.0
 30
0.0
 40
2.0
100
AcDbArc
 50
0.0
 51
90.0
  0
LINE
  5
3B54
102
{ACAD_REACTORS
330
3BEE
102
}
330
3ACF
100
AcDbEntity
  8
APL Joinery
100
AcDbLine
 10
18.0
 20
127.5
 30
0.0
 11
18.0
 21
130.0
 31
0.0
  0
LINE
  5
3B55
102
{ACAD_REACTORS
330
3BEE
102
}
330
3ACF
100
AcDbEntity
  8
APL Joinery
100
AcDbLine
 10
16.0
 20
129.0
 30
0.0
 11
4.0
 21
129.0
 31
0.0
  0
LINE
  5
3B56
102
{ACAD_REACTORS
330
3BEE
102
}
330
3ACF
100
AcDbEntity
  8
APL Joinery
100
AcDbLine
 10
16.0
 20
126.0
 30
0.0
 11
16.0
 21
129.0
 31
0.0
  0
LINE
  5
3B57
102
{ACAD_REACTORS
330
3BEE
102
}
330
3ACF
100
AcDbEntity
  8
APL Joinery
100
AcDbLine
 10
20.0
 20
127.5
 30
0.0
 11
18.0
 21
127.5
 31
0.0
  0
LINE
  5
3B58
102
{ACAD_REACTORS
330
3BEE
102
}
330
3ACF
100
AcDbEntity
  8
APL Joinery
100
AcDbLine
 10
20.0
 20
126.0
 30
0.0
 11
16.0
 21
126.0
 31
0.0
  0
LINE
  5
3B59
102
{ACAD_REACTORS
330
3BEE
102
}
330
3ACF
100
AcDbEntity
  8
APL Joinery
100
AcDbLine
 10
20.0
 20
126.0
 30
0.0
 11
20.0
 21
127.5
 31
0.0
  0
LINE
  5
3B5A
102
{ACAD_REACTORS
330
3BEE
102
}
330
3ACF
100
AcDbEntity
  8
APL Joinery
100
AcDbLine
 10
13.0
 20
132.0
 30
0.0
 11
13.0
 21
142.0
 31
0.0
  0
LINE
  5
3B5B
102
{ACAD_REACTORS
330
3BEE
102
}
330
3ACF
100
AcDbEntity
  8
APL Joinery
100
AcDbLine
 10
11.0
 20
132.0
 30
0.0
 11
11.0
 21
142.0
 31
0.0
  0
LINE
  5
3B5C
102
{ACAD_REACTORS
330
3BEE
102
}
330
3ACF
100
AcDbEntity
  8
APL Joinery
100
AcDbLine
 10
13.0
 20
142.0
 30
0.0
 11
11.0
 21
142.0
 31
0.0
  0
LINE
  5
3B5D
102
{ACAD_REACTORS
330
3BEE
102
}
330
3ACF
100
AcDbEntity
  8
APL Joinery
100
AcDbLine
 10
1.0
 20
79.0
 30
0.0
 11
0.0
 21
78.0
 31
0.0
  0
LINE
  5
3B5E
102
{ACAD_REACTORS
330
3BEE
102
}
330
3ACF
100
AcDbEntity
  8
APL Joinery
100
AcDbLine
 10
4.0
 20
78.0
 30
0.0
 11
5.0
 21
79.0
 31
0.0
  0
LINE
  5
3B5F
102
{ACAD_REACTORS
330
3BEE
102
}
330
3ACF
100
AcDbEntity
  8
APL Joinery
100
AcDbLine
 10
4.0
 20
102.0
 30
0.0
 11
5.0
 21
101.0
 31
0.0
  0
LINE
  5
3B60
102
{ACAD_REACTORS
330
3BEE
102
}
330
3ACF
100
AcDbEntity
  8
APL Joinery
100
AcDbLine
 10
0.0
 20
102.0
 30
0.0
 11
1.0
 21
101.0
 31
0.0
  0
LINE
  5
3B61
102
{ACAD_REACTORS
330
3BEE
102
}
330
3ACF
100
AcDbEntity
  8
APL Joinery
100
AcDbLine
 10
1.0
 20
79.0
 30
0.0
 11
1.0
 21
101.0
 31
0.0
  0
LINE
  5
3B62
102
{ACAD_REACTORS
330
3BEE
102
}
330
3ACF
100
AcDbEntity
  8
APL Joinery
100
AcDbLine
 10
4.0
 20
67.24264068711926
 30
0.0
 11
4.0
 21
78.0
 31
0.0
  0
LINE
  5
3B63
102
{ACAD_REACTORS
330
3BEE
102
}
330
3ACF
100
AcDbEntity
  8
APL Joinery
100
AcDbLine
 10
0.0
 20
58.0
 30
0.0
 11
0.0
 21
78.0
 31
0.0
  0
LINE
  5
3B64
102
{ACAD_REACTORS
330
3BEE
102
}
330
3ACF
100
AcDbEntity
  8
APL Joinery
100
AcDbLine
 10
5.0
 20
79.0
 30
0.0
 11
5.0
 21
101.0
 31
0.0
  0
ARC
  5
3B65
330
3ACF
100
AcDbEntity
  8
APL Joinery
 62
     8
100
AcDbCircle
 10
24.75
 20
65.0
 30
0.0
 40
0.25
100
AcDbArc
 50
0.0
 51
90.0
  0
LINE
  5
3B66
330
3ACF
100
AcDbEntity
  8
APL Joinery
 62
     8
100
AcDbLine
 10
25.0
 20
60.75
 30
0.0
 11
25.0
 21
65.0
 31
0.0
  0
LINE
  5
3B67
330
3ACF
100
AcDbEntity
  8
APL Joinery
 62
     8
100
AcDbLine
 10
24.75
 20
65.25
 30
0.0
 11
22.25658350974743
 21
65.25
 31
0.0
  0
ARC
  5
3B68
330
3ACF
100
AcDbEntity
  8
APL Joinery
 62
     8
100
AcDbCircle
 10
29.25
 20
65.0
 30
0.0
 40
0.25
100
AcDbArc
 50
90.0
 51
180.0
  0
LINE
  5
3B69
330
3ACF
100
AcDbEntity
  8
APL Joinery
 62
     8
100
AcDbLine
 10
31.74341649025257
 20
65.25
 30
0.0
 11
29.25
 21
65.25
 31
0.0
  0
LINE
  5
3B6A
330
3ACF
100
AcDbEntity
  8
APL Joinery
 62
     8
100
AcDbLine
 10
29.0
 20
60.75
 30
0.0
 11
29.0
 21
65.0
 31
0.0
  0
ARC
  5
3B6B
330
3ACF
100
AcDbEntity
  8
APL Joinery
 62
     8
100
AcDbCircle
 10
31.74341649025257
 20
65.5
 30
0.0
 40
0.25
100
AcDbArc
 50
270.0
 51
3.016961309815284
  0
ARC
  5
3B6C
330
3ACF
100
AcDbEntity
  8
APL Joinery
 62
     8
100
AcDbCircle
 10
27.0
 20
65.25
 30
0.0
 40
5.0
100
AcDbArc
 50
3.016961309816076
 51
176.9830386901839
  0
ARC
  5
3B6D
330
3ACF
100
AcDbEntity
  8
APL Joinery
 62
     8
100
AcDbCircle
 10
22.25658350974743
 20
65.5
 30
0.0
 40
0.25
100
AcDbArc
 50
176.9830386901839
 51
270.0
  0
LINE
  5
3B6E
102
{ACAD_REACTORS
330
3BEE
102
}
330
3ACF
100
AcDbEntity
  8
APL Joinery
100
AcDbLine
 10
24.5
 20
65.0
 30
0.0
 11
22.0
 21
65.0
 31
0.0
  0
LINE
  5
3B6F
102
{ACAD_REACTORS
330
3BEE
102
}
330
3ACF
100
AcDbEntity
  8
APL Joinery
100
AcDbLine
 10
32.0
 20
65.0
 30
0.0
 11
29.5
 21
65.0
 31
0.0
  0
LINE
  5
3B70
102
{ACAD_REACTORS
330
3BEE
102
}
330
3ACF
100
AcDbEntity
  8
APL Joinery
100
AcDbLine
 10
24.5
 20
60.0
 30
0.0
 11
24.5
 21
65.0
 31
0.0
  0
LINE
  5
3B71
102
{ACAD_REACTORS
330
3BEE
102
}
330
3ACF
100
AcDbEntity
  8
APL Joinery
100
AcDbLine
 10
29.5
 20
60.0
 30
0.0
 11
24.5
 21
60.0
 31
0.0
  0
LINE
  5
3B72
102
{ACAD_REACTORS
330
3BEE
102
}
330
3ACF
100
AcDbEntity
  8
APL Joinery
100
AcDbLine
 10
29.5
 20
60.0
 30
0.0
 11
29.5
 21
65.0
 31
0.0
  0
LINE
  5
3B73
330
3ACF
100
AcDbEntity
  8
APL Joinery
 62
     8
100
AcDbLine
 10
29.0
 20
60.75
 30
0.0
 11
25.0
 21
60.75
 31
0.0
  0
ARC
  5
3B74
102
{ACAD_REACTORS
330
3BEE
102
}
330
3ACF
100
AcDbEntity
  8
APL Joinery
100
AcDbCircle
 10
4.5
 20
67.24264068711926
 30
0.0
 40
0.5
100
AcDbArc
 50
180.0
 51
309.5211963586426
  0
ARC
  5
3B75
102
{ACAD_REACTORS
330
3BEE
102
}
330
3ACF
100
AcDbEntity
  8
APL Joinery
100
AcDbCircle
 10
8.0
 20
63.0
 30
0.0
 40
5.0
100
AcDbArc
 50
100.9522676300086
 51
129.5211963586419
  0
ARC
  5
3B76
102
{ACAD_REACTORS
330
3BEE
102
}
330
3ACF
100
AcDbEntity
  8
APL Joinery
100
AcDbCircle
 10
13.43625031149608
 20
61.5
 30
0.0
 40
0.5
100
AcDbArc
 50
180.0
 51
270.0
  0
LINE
  5
3B77
102
{ACAD_REACTORS
330
3BEE
102
}
330
3ACF
100
AcDbEntity
  8
APL Joinery
100
AcDbLine
 10
22.0
 20
61.0
 30
0.0
 11
13.43625031149608
 21
61.0
 31
0.0
  0
LINE
  5
3B78
102
{ACAD_REACTORS
330
3BEE
102
}
330
3ACF
100
AcDbEntity
  8
APL Joinery
100
AcDbLine
 10
12.93625031149608
 20
62.33503098061408
 30
0.0
 11
12.93625031149608
 21
61.5
 31
0.0
  0
ARC
  5
3B79
102
{ACAD_REACTORS
330
3BEE
102
}
330
3ACF
100
AcDbEntity
  8
APL Joinery
100
AcDbCircle
 10
11.43625031149608
 20
62.33503098061408
 30
0.0
 40
1.5
100
AcDbArc
 50
0.0
 51
169.0477323699911
  0
ARC
  5
3B7A
102
{ACAD_REACTORS
330
3BEE
102
}
330
3ACF
100
AcDbEntity
  8
APL Joinery
100
AcDbCircle
 10
8.0
 20
63.0
 30
0.0
 40
2.0
100
AcDbArc
 50
100.9522676300086
 51
349.0477323699911
  0
ARC
  5
3B7B
102
{ACAD_REACTORS
330
3BEE
102
}
330
3ACF
100
AcDbEntity
  8
APL Joinery
100
AcDbCircle
 10
7.335030980614106
 20
66.43625031149611
 30
0.0
 40
1.5
100
AcDbArc
 50
280.9522676300086
 51
100.9522676300087
  0
LINE
  5
3B7C
102
{ACAD_REACTORS
330
3BEE
102
}
330
3ACF
100
AcDbEntity
  8
APL Joinery
100
AcDbLine
 10
22.0
 20
61.0
 30
0.0
 11
22.0
 21
65.0
 31
0.0
  0
LINE
  5
3B7D
102
{ACAD_REACTORS
330
3BEE
102
}
330
3ACF
100
AcDbEntity
  8
APL Joinery
100
AcDbLine
 10
32.0
 20
55.0
 30
0.0
 11
32.0
 21
65.0
 31
0.0
  0
LINE
  5
3B7E
102
{ACAD_REACTORS
330
3BEE
102
}
330
3ACF
100
AcDbEntity
  8
APL Joinery
100
AcDbLine
 10
32.0
 20
55.0
 30
0.0
 11
3.0
 21
55.0
 31
0.0
  0
ARC
  5
3B7F
102
{ACAD_REACTORS
330
3BEE
102
}
330
3ACF
100
AcDbEntity
  8
APL Joinery
100
AcDbCircle
 10
0.0
 20
55.0
 30
0.0
 40
3.0
100
AcDbArc
 50
0.0
 51
90.0
  0
LINE
  5
3B80
330
3ACF
100
AcDbEntity
  8
APL Joinery
 62
     8
100
AcDbLine
 10
57.74154622447901
 20
130.6642210608
 30
-1.162835999999999
 11
57.74154622447901
 21
126.75
 31
-1.162835999999999
  0
POLYLINE
  5
3B81
330
3ACF
100
AcDbEntity
  8
APL Joinery
 62
     8
100
AcDb2dPolyline
 66
     1
 10
0.0
 20
0.0
 30
-1.162835999999999
 70
     2
  0
VERTEX
  5
3B82
330
3B81
100
AcDbEntity
  8
APL Joinery
 62
     8
100
AcDbVertex
100
AcDb2dVertex
 10
57.74154622447898
 20
130.6642210608001
 30
-1.162835999999999
 70
     1
  0
VERTEX
  5
3B83
330
3B81
100
AcDbEntity
  8
APL Joinery
 62
     8
100
AcDbVertex
100
AcDb2dVertex
 10
57.33467428722923
 20
130.8919678986666
 30
-1.162835999999999
 70
     1
  0
VERTEX
  5
3B84
330
3B81
100
AcDbEntity
  8
APL Joinery
 62
     8
100
AcDbVertex
100
AcDb2dVertex
 10
57.0981431150346
 20
130.9795837997761
 30
-1.162835999999999
 70
     1
  0
VERTEX
  5
3B85
330
3B81
100
AcDbEntity
  8
APL Joinery
 62
     8
100
AcDbVertex
100
AcDb2dVertex
 10
56.86973773484332
 20
131.0396585133785
 30
-1.162835999999999
 70
     1
  0
VERTEX
  5
3B86
330
3B81
100
AcDbEntity
  8
APL Joinery
 62
     8
100
AcDbVertex
100
AcDb2dVertex
 10
56.58172843976938
 20
131.0850696954841
 30
-1.162835999999999
 70
     1
  0
VERTEX
  5
3B87
330
3B81
100
AcDbEntity
  8
APL Joinery
 62
     8
100
AcDbVertex
100
AcDb2dVertex
 10
56.32548488951089
 20
131.0990605833912
 30
-1.162835999999999
 70
     1
  0
VERTEX
  5
3B88
330
3B81
100
AcDbEntity
  8
APL Joinery
 62
     8
100
AcDbVertex
100
AcDb2dVertex
 10
56.02925022684782
 20
131.0850859795326
 30
-1.162835999999999
 70
     1
  0
VERTEX
  5
3B89
330
3B81
100
AcDbEntity
  8
APL Joinery
 62
     8
100
AcDbVertex
100
AcDb2dVertex
 10
55.79129594289637
 20
131.0499259197531
 30
-1.162835999999999
 70
     1
  0
VERTEX
  5
3B8A
330
3B81
100
AcDbEntity
  8
APL Joinery
 62
     8
100
AcDbVertex
100
AcDb2dVertex
 10
55.54180220616927
 20
130.9885137453354
 30
-1.162835999999999
 70
     1
  0
VERTEX
  5
3B8B
330
3B81
100
AcDbEntity
  8
APL Joinery
 62
     8
100
AcDbVertex
100
AcDb2dVertex
 10
55.30511847123165
 20
130.9042291580135
 30
-1.162835999999999
 70
     1
  0
VERTEX
  5
3B8C
330
3B81
100
AcDbEntity
  8
APL Joinery
 62
     8
100
AcDbVertex
100
AcDb2dVertex
 10
55.10771316791885
 20
130.8112014755875
 30
-1.162835999999999
 70
     1
  0
VERTEX
  5
3B8D
330
3B81
100
AcDbEntity
  8
APL Joinery
 62
     8
100
AcDbVertex
100
AcDb2dVertex
 10
54.92525786112563
 20
130.7027159780678
 30
-1.162835999999999
 70
     1
  0
VERTEX
  5
3B8E
330
3B81
100
AcDbEntity
  8
APL Joinery
 62
     8
100
AcDbVertex
100
AcDb2dVertex
 10
54.86927311223948
 20
130.6642210608
 30
-1.162835999999999
 70
     1
  0
SEQEND
  5
3B8F
330
3B81
100
AcDbEntity
  8
APL Joinery
 62
     8
  0
LINE
  5
3B90
330
3ACF
100
AcDbEntity
  8
APL Joinery
 62
     8
100
AcDbLine
 10
54.86927311223951
 20
130.6642210608
 30
-1.162835999999999
 11
54.86927311223951
 21
126.75
 31
-1.162835999999999
  0
LINE
  5
3B91
330
3ACF
100
AcDbEntity
  8
APL Joinery
 62
     8
100
AcDbLine
 10
46.25245377552102
 20
126.75
 30
-1.162835999999999
 11
57.74154622447901
 21
126.75
 31
-1.162835999999999
  0
LINE
  5
3B92
330
3ACF
100
AcDbEntity
  8
APL Joinery
 62
     8
100
AcDbLine
 10
46.25245377552102
 20
130.6642210608
 30
-1.162835999999999
 11
46.25245377552102
 21
126.75
 31
-1.162835999999999
  0
LINE
  5
3B93
330
3ACF
100
AcDbEntity
  8
APL Joinery
 62
     8
100
AcDbLine
 10
49.12472688776052
 20
130.6642210608
 30
-1.162835999999999
 11
49.12472688776052
 21
126.75
 31
-1.162835999999999
  0
POLYLINE
  5
3B94
330
3ACF
100
AcDbEntity
  8
APL Joinery
 62
     8
100
AcDb2dPolyline
 66
     1
 10
0.0
 20
0.0
 30
-1.162835999999999
 70
     2
  0
VERTEX
  5
3B95
330
3B94
100
AcDbEntity
  8
APL Joinery
 62
     8
100
AcDbVertex
100
AcDb2dVertex
 10
54.86927311223953
 20
130.6642210608
 30
-1.162835999999999
 70
     1
  0
VERTEX
  5
3B96
330
3B94
100
AcDbEntity
  8
APL Joinery
 62
     8
100
AcDbVertex
100
AcDb2dVertex
 10
53.94522203429907
 20
130.9030690136492
 30
-1.162835999999999
 70
     1
  0
VERTEX
  5
3B97
330
3B94
100
AcDbEntity
  8
APL Joinery
 62
     8
100
AcDbVertex
100
AcDb2dVertex
 10
53.46720116249123
 20
130.9882753090577
 30
-1.162835999999999
 70
     1
  0
VERTEX
  5
3B98
330
3B94
100
AcDbEntity
  8
APL Joinery
 62
     8
100
AcDbVertex
100
AcDb2dVertex
 10
53.0293046211185
 20
131.0447358812487
 30
-1.162835999999999
 70
     1
  0
VERTEX
  5
3B99
330
3B94
100
AcDbEntity
  8
APL Joinery
 62
     8
100
AcDbVertex
100
AcDb2dVertex
 10
52.49729387227779
 20
131.086401859995
 30
-1.162835999999999
 70
     1
  0
VERTEX
  5
3B9A
330
3B94
100
AcDbEntity
  8
APL Joinery
 62
     8
100
AcDbVertex
100
AcDb2dVertex
 10
52.03323345775302
 20
131.0990677956958
 30
-1.162835999999999
 70
     1
  0
VERTEX
  5
3B9B
330
3B94
100
AcDbEntity
  8
APL Joinery
 62
     8
100
AcDbVertex
100
AcDb2dVertex
 10
51.49699643776291
 20
131.0864166482915
 30
-1.162835999999999
 70
     1
  0
VERTEX
  5
3B9C
330
3B94
100
AcDbEntity
  8
APL Joinery
 62
     8
100
AcDbVertex
100
AcDb2dVertex
 10
50.91356857668145
 20
131.0391863660974
 30
-1.162835999999999
 70
     1
  0
VERTEX
  5
3B9D
330
3B94
100
AcDbEntity
  8
APL Joinery
 62
     8
100
AcDbVertex
100
AcDb2dVertex
 10
50.47461431880074
 20
130.9801853015108
 30
-1.162835999999999
 70
     1
  0
VERTEX
  5
3B9E
330
3B94
100
AcDbEntity
  8
APL Joinery
 62
     8
100
AcDbVertex
100
AcDb2dVertex
 10
50.0359915963523
 20
130.9004430226866
 30
-1.162835999999999
 70
     1
  0
VERTEX
  5
3B9F
330
3B94
100
AcDbEntity
  8
APL Joinery
 62
     8
100
AcDbVertex
100
AcDb2dVertex
 10
49.5164731512304
 20
130.7779049967705
 30
-1.162835999999999
 70
     1
  0
VERTEX
  5
3BA0
330
3B94
100
AcDbEntity
  8
APL Joinery
 62
     8
100
AcDbVertex
100
AcDb2dVertex
 10
49.12472688776052
 20
130.6642210608001
 30
-1.162835999999999
 70
     1
  0
SEQEND
  5
3BA1
330
3B94
100
AcDbEntity
  8
APL Joinery
 62
     8
  0
LINE
  5
3BA2
330
3ACF
100
AcDbEntity
  8
APL Joinery
 62
     8
100
AcDbLine
 10
47.68859033164079
 20
131.099134512
 30
-1.162835999999999
 11
56.30540966835923
 21
131.099134512
 31
-1.162835999999999
  0
POLYLINE
  5
3BA3
330
3ACF
100
AcDbEntity
  8
APL Joinery
 62
     8
100
AcDb2dPolyline
 66
     1
 10
0.0
 20
0.0
 30
-1.162835999999999
 70
     2
  0
VERTEX
  5
3BA4
330
3BA3
100
AcDbEntity
  8
APL Joinery
 62
     8
100
AcDbVertex
100
AcDb2dVertex
 10
49.12472688776055
 20
130.6642210608001
 30
-1.162835999999999
 70
     1
  0
VERTEX
  5
3BA5
330
3BA3
100
AcDbEntity
  8
APL Joinery
 62
     8
100
AcDbVertex
100
AcDb2dVertex
 10
48.7178549505108
 20
130.8919678986666
 30
-1.162835999999999
 70
     1
  0
VERTEX
  5
3BA6
330
3BA3
100
AcDbEntity
  8
APL Joinery
 62
     8
100
AcDbVertex
100
AcDb2dVertex
 10
48.48132377831617
 20
130.9795837997761
 30
-1.162835999999999
 70
     1
  0
VERTEX
  5
3BA7
330
3BA3
100
AcDbEntity
  8
APL Joinery
 62
     8
100
AcDbVertex
100
AcDb2dVertex
 10
48.25291839812488
 20
131.0396585133785
 30
-1.162835999999999
 70
     1
  0
VERTEX
  5
3BA8
330
3BA3
100
AcDbEntity
  8
APL Joinery
 62
     8
100
AcDbVertex
100
AcDb2dVertex
 10
47.96490910305094
 20
131.0850696954841
 30
-1.162835999999999
 70
     1
  0
VERTEX
  5
3BA9
330
3BA3
100
AcDbEntity
  8
APL Joinery
 62
     8
100
AcDbVertex
100
AcDb2dVertex
 10
47.70866555279244
 20
131.0990605833912
 30
-1.162835999999999
 70
     1
  0
VERTEX
  5
3BAA
330
3BA3
100
AcDbEntity
  8
APL Joinery
 62
     8
100
AcDbVertex
100
AcDb2dVertex
 10
47.41243089012939
 20
131.0850859795326
 30
-1.162835999999999
 70
     1
  0
VERTEX
  5
3BAB
330
3BA3
100
AcDbEntity
  8
APL Joinery
 62
     8
100
AcDbVertex
100
AcDb2dVertex
 10
47.17447660617793
 20
131.0499259197531
 30
-1.162835999999999
 70
     1
  0
VERTEX
  5
3BAC
330
3BA3
100
AcDbEntity
  8
APL Joinery
 62
     8
100
AcDbVertex
100
AcDb2dVertex
 10
46.92498286945082
 20
130.9885137453354
 30
-1.162835999999999
 70
     1
  0
VERTEX
  5
3BAD
330
3BA3
100
AcDbEntity
  8
APL Joinery
 62
     8
100
AcDbVertex
100
AcDb2dVertex
 10
46.68829913451321
 20
130.9042291580135
 30
-1.162835999999999
 70
     1
  0
VERTEX
  5
3BAE
330
3BA3
100
AcDbEntity
  8
APL Joinery
 62
     8
100
AcDbVertex
100
AcDb2dVertex
 10
46.49089383120041
 20
130.8112014755875
 30
-1.162835999999999
 70
     1
  0
VERTEX
  5
3BAF
330
3BA3
100
AcDbEntity
  8
APL Joinery
 62
     8
100
AcDbVertex
100
AcDb2dVertex
 10
46.30843852440721
 20
130.7027159780678
 30
-1.162835999999999
 70
     1
  0
VERTEX
  5
3BB0
330
3BA3
100
AcDbEntity
  8
APL Joinery
 62
     8
100
AcDbVertex
100
AcDb2dVertex
 10
46.25245377552106
 20
130.6642210608
 30
-1.162835999999999
 70
     1
  0
SEQEND
  5
3BB1
330
3BA3
100
AcDbEntity
  8
APL Joinery
 62
     8
  0
LINE
  5
3BB2
330
3ACF
100
AcDbEntity
  8
APL Joinery
 62
     8
100
AcDbLine
 10
48.93466652911979
 20
126.75
 30
-1.162835999999999
 11
57.55148586583823
 21
126.75
 31
-1.162835999999999
  0
LINE
  5
3BB3
330
3ACF
100
AcDbEntity
  8
APL Joinery
 62
     8
100
AcDbLine
 10
51.99700000000001
 20
132.4227976216809
 30
0.0
 11
51.99700000000001
 21
107.2310816612075
 31
0.0
  0
LINE
  5
3BB4
330
3ACF
100
AcDbEntity
  8
APL Joinery
 62
     8
100
AcDbLine
 10
54.994
 20
126.75
 30
0.0
 11
54.994
 21
107.1870625
 31
0.0
  0
LINE
  5
3BB5
330
3ACF
100
AcDbEntity
  8
APL Joinery
 62
     8
100
AcDbLine
 10
54.09489999999999
 20
106.75
 30
0.0
 11
54.994
 21
107.1870625
 31
0.0
  0
LINE
  5
3BB6
330
3ACF
100
AcDbEntity
  8
APL Joinery
 62
     8
100
AcDbLine
 10
49.0
 20
107.1870625
 30
0.0
 11
54.994
 21
107.1870625
 31
0.0
  0
LINE
  5
3BB7
330
3ACF
100
AcDbEntity
  8
APL Joinery
 62
     8
100
AcDbLine
 10
49.89909999999998
 20
106.75
 30
0.0
 11
54.09489999999999
 21
106.75
 31
0.0
  0
LINE
  5
3BB8
330
3ACF
100
AcDbEntity
  8
APL Joinery
 62
     8
100
AcDbLine
 10
49.0
 20
107.1870625
 30
0.0
 11
49.89909999999998
 21
106.75
 31
0.0
  0
LINE
  5
3BB9
330
3ACF
100
AcDbEntity
  8
APL Joinery
 62
     8
100
AcDbLine
 10
49.0
 20
126.75
 30
0.0
 11
49.0
 21
107.1870625
 31
0.0
  0
LINE
  5
3BBA
330
3ACF
100
AcDbEntity
  8
APL Joinery
 62
     8
100
AcDbLine
 10
67.34929401599998
 20
91.00400000000002
 30
0.0
 11
74.56709000000007
 21
91.00400000000002
 31
0.0
  0
LINE
  5
3BBB
330
3ACF
100
AcDbEntity
  8
APL Joinery
 62
     8
100
AcDbLine
 10
67.34929401599998
 20
92.20279999999997
 30
0.0
 11
75.14984000000009
 21
92.20279999999997
 31
0.0
  0
LINE
  5
3BBC
330
3ACF
100
AcDbEntity
  8
APL Joinery
 62
     8
100
AcDbLine
 10
67.34929401599998
 20
97.79720000000004
 30
0.0
 11
75.14984000000009
 21
97.79720000000004
 31
0.0
  0
LINE
  5
3BBD
330
3ACF
100
AcDbEntity
  8
APL Joinery
 62
     8
100
AcDbLine
 10
67.34929401599998
 20
98.99599999999999
 30
0.0
 11
74.56709000000007
 21
98.99599999999999
 31
0.0
  0
LINE
  5
3BBE
330
3ACF
100
AcDbEntity
  8
APL Joinery
 62
     8
100
AcDbLine
 10
74.56709000000007
 20
91.00400000000002
 30
0.0
 11
74.56709000000007
 21
98.99599999999999
 31
0.0
  0
LINE
  5
3BBF
330
3ACF
100
AcDbEntity
  8
APL Joinery
 62
     8
100
AcDbLine
 10
74.56709000000007
 20
91.00400000000002
 30
0.0
 11
75.14984000000009
 21
92.20279999999997
 31
0.0
  0
LINE
  5
3BC0
330
3ACF
100
AcDbEntity
  8
APL Joinery
 62
     8
100
AcDbLine
 10
75.14984000000009
 20
92.20279999999997
 30
0.0
 11
75.14984000000009
 21
97.79720000000004
 31
0.0
  0
LINE
  5
3BC1
330
3ACF
100
AcDbEntity
  8
APL Joinery
 62
     8
100
AcDbLine
 10
75.14984000000009
 20
97.79720000000004
 30
0.0
 11
74.56709000000007
 21
98.99599999999999
 31
0.0
  0
LINE
  5
3BC2
330
3ACF
100
AcDbEntity
  8
APL Joinery
 62
     8
100
AcDbLine
 10
60.0
 20
102.39593
 30
0.0
 11
60.0
 21
87.60406999999998
 31
0.0
  0
LINE
  5
3BC3
330
3ACF
100
AcDbEntity
  8
APL Joinery
 62
     8
100
AcDbLine
 10
60.0
 20
102.39593
 30
0.0
 11
61.55044800000002
 21
102.39593
 31
0.0
  0
LINE
  5
3BC4
330
3ACF
100
AcDbEntity
  8
APL Joinery
 62
     8
100
AcDbLine
 10
60.0
 20
87.60406999999998
 30
0.0
 11
61.55044800000002
 21
87.60406999999998
 31
0.0
  0
LINE
  5
3BC5
330
3ACF
100
AcDbEntity
  8
APL Joinery
 62
     8
100
AcDbLine
 10
61.55044800000002
 20
102.39593
 30
0.0
 11
61.55044800000002
 21
87.60406999999998
 31
0.0
  0
LINE
  5
3BC6
330
3ACF
100
AcDbEntity
  8
APL Joinery
 62
     8
100
AcDbLine
 10
61.55044800000002
 20
99.49847002699995
 30
-1.550447999999999
 11
61.55044800000002
 21
90.50152997300006
 31
-1.550447999999999
  0
LINE
  5
3BC7
330
3ACF
100
AcDbEntity
  8
APL Joinery
 62
     8
100
AcDbLine
 10
66.76940941440006
 20
100.997960036
 30
-1.550447999999999
 11
62.13033260160006
 21
100.997960036
 31
-1.550447999999999
  0
LINE
  5
3BC8
330
3ACF
100
AcDbEntity
  8
APL Joinery
 62
     8
100
AcDbLine
 10
66.76940941440006
 20
97.998980018
 30
-1.550447999999999
 11
62.13033260160006
 21
97.998980018
 31
-1.550447999999999
  0
LINE
  5
3BC9
330
3ACF
100
AcDbEntity
  8
APL Joinery
 62
     8
100
AcDbLine
 10
66.76940941440006
 20
92.001019982
 30
-1.550447999999999
 11
62.13033260160006
 21
92.001019982
 31
-1.550447999999999
  0
LINE
  5
3BCA
330
3ACF
100
AcDbEntity
  8
APL Joinery
 62
     8
100
AcDbLine
 10
66.76940941440006
 20
89.002039964
 30
-1.550447999999999
 11
62.13033260160006
 21
89.002039964
 31
-1.550447999999999
  0
LINE
  5
3BCB
330
3ACF
100
AcDbEntity
  8
APL Joinery
 62
     8
100
AcDbLine
 10
67.34929401599998
 20
99.49847002699995
 30
-1.550447999999999
 11
67.34929401599998
 21
90.50152997300006
 31
-1.550447999999999
  0
ARC
  5
3BCC
330
3ACF
100
AcDbEntity
  8
APL Joinery
 62
     8
100
AcDbCircle
 10
59.30446296358664
 20
95.0
 30
-1.550447999999999
 40
8.044831052413366
100
AcDbArc
 50
338.1126162922997
 51
21.88738370769936
  0
ARC
  5
3BCD
330
3ACF
100
AcDbEntity
  8
APL Joinery
 62
     8
100
AcDbCircle
 10
65.12062952729667
 20
99.49847002699995
 30
-1.550447999999999
 40
2.228664488703343
100
AcDbArc
 50
317.7149124825074
 51
42.28508751749257
  0
ARC
  5
3BCE
330
3ACF
100
AcDbEntity
  8
APL Joinery
 62
     8
100
AcDbCircle
 10
65.12062952729667
 20
90.50152997300006
 30
-1.550447999999999
 40
2.228664488703343
100
AcDbArc
 50
317.7149124825074
 51
42.28508751749257
  0
ARC
  5
3BCF
330
3ACF
100
AcDbEntity
  8
APL Joinery
 62
     8
100
AcDbCircle
 10
69.59527905241344
 20
95.0
 30
-1.550447999999999
 40
8.044831052413366
100
AcDbArc
 50
158.1126162922998
 51
201.8873837076994
  0
ARC
  5
3BD0
330
3ACF
100
AcDbEntity
  8
APL Joinery
 62
     8
100
AcDbCircle
 10
63.77911248870339
 20
99.49847002699995
 30
-1.550447999999999
 40
2.228664488703343
100
AcDbArc
 50
137.7149124825074
 51
222.2850875174926
  0
ARC
  5
3BD1
330
3ACF
100
AcDbEntity
  8
APL Joinery
 62
     8
100
AcDbCircle
 10
63.77911248870339
 20
90.50152997300006
 30
-1.550447999999999
 40
2.228664488703343
100
AcDbArc
 50
137.7149124825074
 51
222.2850875174926
  0
LINE
  5
3BD2
330
3ACF
100
AcDbEntity
  8
APL Joinery
 62
     8
100
AcDbLine
 10
81.55586214989449
 20
95.0
 30
0.0
 11
60.0
 21
95.0
 31
0.0
  0
ARC
  5
3BD3
330
3ACF
100
AcDbEntity
  8
APL Joinery
 62
     8
100
AcDbCircle
 10
54.0
 20
110.75
 30
0.0
 40
6.0
100
AcDbArc
 50
0.0
 51
90.0
  0
LINE
  5
3BD4
330
3ACF
100
AcDbEntity
  8
APL Joinery
 62
     8
100
AcDbLine
 10
54.0
 20
116.75
 30
0.0
 11
47.0
 21
116.75
 31
0.0
  0
ARC
  5
3BD5
330
3ACF
100
AcDbEntity
  8
APL Joinery
 62
     8
100
AcDbCircle
 10
54.0
 20
110.75
 30
0.0
 40
3.0
100
AcDbArc
 50
0.0
 51
90.0
  0
LINE
  5
3BD6
330
3ACF
100
AcDbEntity
  8
APL Joinery
 62
     8
100
AcDbLine
 10
54.0
 20
113.75
 30
0.0
 11
47.0
 21
113.75
 31
0.0
  0
LINE
  5
3BD7
330
3ACF
100
AcDbEntity
  8
APL Joinery
 62
     8
100
AcDbLine
 10
57.0
 20
90.75000000000001
 30
0.0
 11
57.0
 21
83.25000000000001
 31
0.0
  0
LINE
  5
3BD8
330
3ACF
100
AcDbEntity
  8
APL Joinery
 62
     8
100
AcDbLine
 10
54.0
 20
90.75000000000001
 30
0.0
 11
54.0
 21
88.25000000000001
 31
0.0
  0
LINE
  5
3BD9
330
3ACF
100
AcDbEntity
  8
APL Joinery
 62
     8
100
AcDbLine
 10
54.0
 20
101.75
 30
0.0
 11
54.0
 21
99.25
 31
0.0
  0
LINE
  5
3BDA
330
3ACF
100
AcDbEntity
  8
APL Joinery
 62
     8
100
AcDbLine
 10
57.0
 20
90.75000000000001
 30
0.0
 11
54.0
 21
90.75000000000001
 31
0.0
  0
LINE
  5
3BDB
330
3ACF
100
AcDbEntity
  8
APL Joinery
 62
     8
100
AcDbLine
 10
54.0
 20
99.25
 30
0.0
 11
57.0
 21
99.25
 31
0.0
  0
LINE
  5
3BDC
330
3ACF
100
AcDbEntity
  8
APL Joinery
 62
     8
100
AcDbLine
 10
54.0
 20
101.75
 30
0.0
 11
48.0
 21
101.75
 31
0.0
  0
LINE
  5
3BDD
330
3ACF
100
AcDbEntity
  8
APL Joinery
 62
     8
100
AcDbLine
 10
54.0
 20
88.25000000000001
 30
0.0
 11
48.0
 21
88.25000000000001
 31
0.0
  0
LINE
  5
3BDE
330
3ACF
100
AcDbEntity
  8
APL Joinery
 62
     8
100
AcDbLine
 10
48.0
 20
101.75
 30
0.0
 11
48.0
 21
88.25000000000001
 31
0.0
  0
LINE
  5
3BDF
330
3ACF
100
AcDbEntity
  8
APL Joinery
 62
     8
100
AcDbLine
 10
47.0
 20
125.5
 30
0.0
 11
39.0
 21
125.5
 31
0.0
  0
LINE
  5
3BE0
330
3ACF
100
AcDbEntity
  8
APL Joinery
 62
     8
100
AcDbLine
 10
57.0
 20
106.75
 30
0.0
 11
47.0
 21
106.75
 31
0.0
  0
LINE
  5
3BE1
330
3ACF
100
AcDbEntity
  8
APL Joinery
 62
     8
100
AcDbLine
 10
39.0
 20
83.25000000000001
 30
0.0
 11
57.0
 21
83.25000000000001
 31
0.0
  0
LINE
  5
3BE2
330
3ACF
100
AcDbEntity
  8
APL Joinery
 62
     8
100
AcDbLine
 10
47.0
 20
106.75
 30
0.0
 11
47.0
 21
125.5
 31
0.0
  0
LINE
  5
3BE3
330
3ACF
100
AcDbEntity
  8
APL Joinery
 62
     8
100
AcDbLine
 10
39.0
 20
125.5
 30
0.0
 11
39.0
 21
83.25000000000001
 31
0.0
  0
LINE
  5
3BE4
330
3ACF
100
AcDbEntity
  8
APL Joinery
 62
     8
100
AcDbLine
 10
39.0
 20
84.0
 30
0.0
 11
36.0
 21
84.0
 31
0.0
  0
LINE
  5
3BE5
330
3ACF
100
AcDbEntity
  8
APL Joinery
 62
     8
100
AcDbLine
 10
39.0
 20
106.0
 30
0.0
 11
36.0
 21
106.0
 31
0.0
  0
LINE
  5
3BE6
330
3ACF
100
AcDbEntity
  8
APL Joinery
 62
     8
100
AcDbLine
 10
21.19052498068888
 20
123.25
 30
0.0
 11
18.0
 21
123.25
 31
0.0
  0
LINE
  5
3BE7
330
3ACF
100
AcDbEntity
  8
APL Joinery
 62
     8
100
AcDbLine
 10
36.0
 20
123.25
 30
0.0
 11
32.80947501931112
 21
123.25
 31
0.0
  0
ARC
  5
3BE8
330
3ACF
100
AcDbEntity
  8
APL Joinery
 62
     8
100
AcDbCircle
 10
27.0
 20
124.75
 30
0.0
 40
6.0
100
AcDbArc
 50
194.4775121859299
 51
345.5224878140701
  0
LINE
  5
3BE9
330
3ACF
100
AcDbEntity
  8
APL Joinery
 62
     8
100
AcDbLine
 10
21.19052498068888
 20
66.75
 30
0.0
 11
18.0
 21
66.75
 31
0.0
  0
LINE
  5
3BEA
330
3ACF
100
AcDbEntity
  8
APL Joinery
 62
     8
100
AcDbLine
 10
36.0
 20
66.75
 30
0.0
 11
32.80947501931112
 21
66.75
 31
0.0
  0
ARC
  5
3BEB
330
3ACF
100
AcDbEntity
  8
APL Joinery
 62
     8
100
AcDbCircle
 10
27.0
 20
65.25
 30
0.0
 40
6.0
100
AcDbArc
 50
14.47751218592991
 51
165.5224878140701
  0
LINE
  5
3BEC
330
3ACF
100
AcDbEntity
  8
APL Joinery
 62
     8
100
AcDbLine
 10
36.0
 20
66.75
 30
0.0
 11
36.0
 21
123.25
 31
0.0
  0
LINE
  5
3BED
330
3ACF
100
AcDbEntity
  8
APL Joinery
 62
     8
100
AcDbLine
 10
18.0
 20
66.75
 30
0.0
 11
18.0
 21
123.25
 31
0.0
  0
HATCH
  5
3BEE
330
3ACF
100
AcDbEntity
  8
APL Hatch
  6
Continuous
100
AcDbHatch
 10
0.0
 20
0.0
 30
0.0
210
0.0
220
0.0
230
1.0
  2
SOLID
 70
     1
 71
     1
 91
        2
 92
        7
 72
     1
 73
     1
 93
       95
 10
0.0
 20
210.0
 42
0.0
 10
1.0
 20
209.0
 42
0.0
 10
1.0
 20
167.0
 42
0.0
 10
0.0
 20
166.0
 42
0.0
 10
0.0
 20
102.0
 42
0.0
 10
1.0
 20
101.0
 42
0.0
 10
1.0
 20
79.0
 42
0.0
 10
0.0
 20
78.0
 42
0.0
 10
0.0
 20
58.0
 42
-0.4142135623730951
 10
3.0
 20
55.0
 42
0.0
 10
32.0
 20
55.0
 42
0.0
 10
32.0
 20
65.0
 42
0.0
 10
29.5
 20
65.0
 42
0.0
 10
29.5
 20
60.0
 42
0.0
 10
24.5
 20
60.0
 42
0.0
 10
24.5
 20
65.0
 42
0.0
 10
22.0
 20
65.0
 42
0.0
 10
22.0
 20
61.0
 42
0.0
 10
13.43625031149608
 20
61.0
 42
-0.4142135623730951
 10
12.93625031149608
 20
61.5
 42
0.0
 10
12.93625031149608
 20
62.33503098061408
 42
0.9087162298234144
 10
9.963571606569189
 20
62.62001770320804
 42
-1.882617860078092
 10
7.620017703208061
 20
64.9635716065692
 42
1.0
 10
7.050044258020149
 20
67.90892901642298
 42
0.1253051793354698
 10
4.818181818181807
 20
66.85694607919934
 42
-0.6341370759940947
 10
4.0
 20
67.24264068711929
 42
0.0
 10
4.0
 20
78.0
 42
0.0
 10
5.0
 20
79.0
 42
0.0
 10
5.0
 20
101.0
 42
0.0
 10
4.0
 20
102.0
 42
0.0
 10
4.0
 20
129.0
 42
0.0
 10
16.0
 20
129.0
 42
0.0
 10
16.0
 20
126.0
 42
0.0
 10
20.0
 20
126.0
 42
0.0
 10
20.0
 20
127.5
 42
0.0
 10
18.0
 20
127.5
 42
0.0
 10
18.0
 20
130.0
 42
0.4142135623730951
 10
16.0
 20
132.0
 42
0.0
 10
13.0
 20
132.0
 42
0.0
 10
13.0
 20
142.0
 42
0.0
 10
11.0
 20
142.0
 42
0.0
 10
11.0
 20
132.0
 42
0.0
 10
4.0
 20
132.0
 42
0.0
 10
4.0
 20
166.0
 42
0.0
 10
5.0
 20
167.0
 42
0.0
 10
5.0
 20
192.0
 42
0.0
 10
13.5
 20
192.0
 42
0.0
 10
13.5
 20
197.0
 42
0.0
 10
10.5
 20
197.0
 42
0.0
 10
10.5
 20
195.0
 42
0.0
 10
5.0
 20
195.0
 42
0.0
 10
5.0
 20
206.0
 42
0.0
 10
10.5
 20
206.0
 42
0.0
 10
10.5
 20
204.0
 42
0.0
 10
13.5
 20
204.0
 42
0.0
 10
13.5
 20
209.0
 42
0.0
 10
5.0
 20
209.0
 42
0.0
 10
4.0
 20
210.0
 42
0.0
 10
4.0
 20
227.8038475772934
 42
-0.5773502691896284
 10
5.500000000000001
 20
228.6698729810778
 42
0.0833033056553178
 10
7.050044258020156
 20
228.091070983577
 42
1.0
 10
7.62001770320806
 20
231.0364283934308
 42
-1.882617860078086
 10
9.963571606569191
 20
233.3799822967919
 42
1.0
 10
12.9089290164229
 20
233.9499557419799
 42
0.0597264432084084
 10
12.54529671443147
 20
235.0833333333333
 42
-0.5464881036522576
 10
13.45435605731778
 20
236.5
 42
0.0
 10
71.00000000000001
 20
236.5
 42
0.0
 10
71.99999999999997
 20
237.5
 42
0.0
 10
129.5
 20
237.5
 42
0.0
 10
129.5
 20
222.5
 42
0.4142135623730951
 10
131.5
 20
220.5
 42
0.0
 10
133.6010205144336
 20
220.5
 42
-0.560231504260095
 10
134.0463822858487
 20
219.7727272727273
 42
0.2730223930612734
 10
134.3571428571428
 20
214.700583151105
 42
1.0
 10
136.8428571428571
 20
216.380233260442
 42
-1.882617860078103
 10
140.1571428571428
 20
216.380233260442
 42
1.0
 10
142.642857142857
 20
214.7005831511049
 42
0.2730223930612805
 10
142.9536177141511
 20
219.7727272727273
 42
-0.5602315042600581
 10
143.3989794855662
 20
220.5
 42
0.0
 10
143.5
 20
220.5
 42
0.4142135623730951
 10
144.0
 20
221.0
 42
0.0
 10
144.0
 20
223.0
 42
0.0
 10
146.0
 20
223.0
 42
0.0
 10
146.0
 20
225.0
 42
0.0
 10
144.0
 20
225.0
 42
0.0
 10
144.0
 20
230.0
 42
1.0
 10
137.0
 20
230.0
 42
0.0
 10
141.8535533905933
 20
225.1464466094067
 42
-0.198912367379658
 10
142.0
 20
224.7928932188135
 42
0.0
 10
142.0
 20
223.5
 42
-0.4142135623730951
 10
141.5
 20
223.0
 42
0.0
 10
132.5
 20
223.0
 42
-0.4142135623730951
 10
132.0
 20
223.5
 42
0.0
 10
132.0
 20
240.0
 42
0.0
 10
0.0
 20
240.0
 42
0.0
 97
       95
330
3B36
330
3B35
330
3B34
330
3B33
330
3B32
330
3B30
330
3B2B
330
3B2A
330
3B12
330
3B25
330
3B26
330
3B29
330
3B28
330
3B27
330
3B16
330
3B15
330
3B14
330
3B17
330
3B18
330
3B22
330
3B23
330
3B24
330
3B1D
330
3B21
330
3B20
330
3B1E
330
3B1F
330
3B2F
330
3B2D
330
3B2C
330
3B2E
330
3B31
330
3B4E
330
3B4C
330
3B4D
330
3B49
330
3B4F
330
3B60
330
3B61
330
3B5D
330
3B63
330
3B7F
330
3B7E
330
3B7D
330
3B6F
330
3B72
330
3B71
330
3B70
330
3B6E
330
3B7C
330
3B77
330
3B76
330
3B78
330
3B79
330
3B7A
330
3B7B
330
3B75
330
3B74
330
3B62
330
3B5E
330
3B64
330
3B5F
330
3B50
330
3B55
330
3B56
330
3B58
330
3B59
330
3B57
330
3B54
330
3B53
330
3B52
330
3B5A
330
3B5C
330
3B5B
330
3B51
330
3B3C
330
3B4A
330
3B3E
330
3B47
330
3B40
330
3B43
330
3B42
330
3B46
330
3B3D
330
3B45
330
3B41
330
3B44
330
3B3F
330
3B48
330
3B4B
330
3B38
330
3B37
330
3B39
330
3B3B
330
3B3A
 92
        7
 72
     1
 73
     1
 93
       30
 10
150.0
 20
228.0
 42
0.0
 10
146.0919568034422
 20
233.7805448163507
 42
0.6339389968907519
 10
134.0262897093982
 20
231.9114327279183
 42
1.0
 10
136.903494282999
 20
231.0619070710657
 42
-0.6339389968907574
 10
143.606642668579
 20
232.1003026757504
 42
0.0
 10
147.5
 20
226.341480316732
 42
0.0
 10
147.5
 20
222.0
 42
0.0
 10
145.25
 20
222.0
 42
1.0
 10
145.25
 20
220.5
 42
0.0
 10
147.5
 20
220.5
 42
0.0
 10
147.4999999999999
 20
71.03553390593268
 42
0.0
 10
103.9644660940673
 20
27.5
 42
0.0
 10
75.99999999999998
 20
27.5
 42
0.0
 10
76.0
 20
33.75
 42
1.0
 10
74.5
 20
33.75
 42
0.0
 10
74.5
 20
27.5
 42
0.0
 10
68.0
 20
27.5
 42
0.0
 10
68.0
 20
32.0
 42
0.0
 10
62.0
 20
32.0
 42
0.0
 10
62.0
 20
29.75
 42
0.0
 10
63.25
 20
29.75
 42
0.0
 10
63.25
 20
30.5
 42
0.0
 10
66.5
 20
30.5
 42
0.0
 10
66.5
 20
26.5
 42
0.0
 10
63.25
 20
26.5
 42
0.0
 10
63.25
 20
27.25
 42
0.0
 10
62.0
 20
27.25
 42
0.0
 10
62.0
 20
25.0
 42
0.0
 10
105.0
 20
25.0
 42
0.0
 10
150.0
 20
70.0
 42
0.0
 97
       30
330
3B1C
330
3B1A
330
3B1B
330
3B19
330
3B0E
330
3B0D
330
3B0C
330
3B13
330
3B0B
330
3B0A
330
3B09
330
3AFA
330
3AFB
330
3AFD
330
3AFC
330
3AF9
330
3B07
330
3B08
330
3B01
330
3B03
330
3AFF
330
3B06
330
3B05
330
3B04
330
3AFE
330
3B02
330
3B00
330
3B11
330
3B0F
330
3B10
 75
     0
 76
     1
 47
0.1528732626835432
 98
        2
 10
2.0
 20
232.0
 10
148.8629024214623
 20
104.0950767329814
  0
ENDBLK
  5
3BF0
330
3ACF
100
AcDbEntity
  8
0
100
AcDbBlockEnd
  0
BLOCK
  5
3D0E
330
3D0B
100
AcDbEntity
  8
0
100
AcDbBlockBegin
  2
9010640-4.0mm
 70
     0
 10
0.0
 20
0.0
 30
0.0
  3
9010640-4.0mm
  1

  0
LWPOLYLINE
  5
3D0C
330
3D0B
100
AcDbEntity
  8
APL Joinery
  6
Continuous
 62
   252
100
AcDbPolyline
 90
       31
 70
     1
 43
0.0
 10
-0.8139497167703098
 20
1.991682506038387
 42
0.3403258786703072
 10
-1.0
 20
1.75
 10
-1.0
 20
0.5
 42
0.4142135623730951
 10
-0.5
 20
0.0
 10
0.0
 20
0.0
 10
0.0
 20
-2.800000000000068
 10
-0.75
 20
-2.800000000000068
 10
-0.75
 20
-4.300000000000068
 10
0.0
 20
-5.59903810567664
 10
0.0
 20
-7.915063509461219
 10
1.313645432245152
 20
-9.228708941706372
 42
0.3394542588633334
 10
1.917198822838372
 20
-9.308168253005305
 10
3.058739999999886
 20
-8.649099147080164
 42
0.2679491924311231
 10
3.999999999999772
 20
-7.018789003947858
 10
4.0
 20
-5.656569399281806
 42
1.000000000000056
 10
2.999999999999772
 20
-5.656569399281806
 10
3.0
 20
-6.923271935262619
 42
-1.000000000000056
 10
2.5
 20
-6.923271935262619
 10
2.5
 20
-4.44228667107086
 10
3.058739999999886
 20
-4.119697981663762
 42
0.2679491924311231
 10
3.999999999999772
 20
-2.489387838531456
 10
4.0
 20
-1.127168233865404
 42
1.000000000000056
 10
2.999999999999772
 20
-1.127168233865404
 10
3.0
 20
-2.393870769846216
 42
-1.000000000000056
 10
2.5
 20
-2.393870769846216
 10
2.5
 20
0.0871185546729976
 10
3.065999999999831
 20
0.413898807034343
 42
0.2679491924311231
 10
4.0
 20
2.031634261303679
 10
4.0
 20
2.787106045300333
 42
0.4815336371225567
 10
3.694402200131662
 20
3.030845423837831
 10
-0.2200604956661323
 20
2.13794287005868
 42
0.0086021038167174
  0
LWPOLYLINE
  5
3D0D
330
3D0B
100
AcDbEntity
  8
APL Joinery
  6
Continuous
 62
   252
100
AcDbPolyline
 90
        2
 70
     0
 43
0.0
 10
0.0
 20
-2.800000000000068
 10
0.0
 20
-5.59903810567664
  0
ENDBLK
  5
3D0F
330
3D0B
100
AcDbEntity
  8
0
100
AcDbBlockEnd
  0
BLOCK
  5
3D45
330
3D43
100
AcDbEntity
  8
0
100
AcDbBlockBegin
  2
9010675-8.0mm
 70
     0
 10
0.0
 20
0.0
 30
0.0
  3
9010675-8.0mm
  1

  0
LWPOLYLINE
  5
3D44
330
3D43
100
AcDbEntity
  8
APL Joinery
  6
Continuous
 62
   252
100
AcDbPolyline
 90
       32
 70
     0
 43
0.0
 10
0.0
 20
-5.59903810567664
 10
0.0
 20
-2.800000000000068
 10
-0.75
 20
-2.800000000000068
 10
-0.75
 20
-4.300000000000068
 10
0.0
 20
-5.59903810567664
 10
0.0
 20
-7.0
 10
3.320215292652619
 20
-10.3202152926525
 42
0.3394542588632479
 10
3.923768683245725
 20
-10.39967460395132
 10
6.25
 20
-9.056624327025701
 42
0.2664634759539937
 10
7.999946157398881
 20
-6.044949205497402
 42
0.8574603069624352
 10
7.021118944276395
 20
-5.908505904017317
 42
-0.2599585407275821
 10
5.27376127841444
 20
-7.604416191182963
 10
4.504409522551213
 20
-7.81056337286202
 42
-0.4931454260312739
 10
3.875
 20
-7.327600459717473
 10
3.875
 20
-5.790676671070968
 10
6.5
 20
-4.275132214447978
 42
0.2679491924311231
 10
8.0
 20
-1.677056003094662
 10
8.0
 20
-1.412286759728544
 42
0.8643169640610707
 10
7.020964427831472
 20
-1.269021549026945
 42
-0.260245898708478
 10
5.272834179745586
 20
-2.967510061242364
 10
4.504409522551327
 20
-3.173408827581567
 42
-0.4931454260313474
 10
3.875
 20
-2.690445914437077
 10
3.875
 20
-1.15148489682906
 10
8.0
 20
2.048481912823376
 10
7.999999999999772
 20
3.025295598057141
 42
0.4585363891771662
 10
7.712906478154309
 20
3.272528424835968
 10
-0.7870935218454634
 20
1.99723282677894
 42
0.3712376426400308
 10
-1.0
 20
1.75
 10
-1.0
 20
0.5
 42
0.4142135623730951
 10
-0.5
 20
0.0
 10
0.0
 20
0.0
 10
0.0
 20
-2.800000000000068
  0
ENDBLK
  5
3D46
330
3D43
100
AcDbEntity
  8
0
100
AcDbBlockEnd
  0
BLOCK
  5
419C
330
4199
100
AcDbEntity
  8
0
 62
     9
100
AcDbBlockBegin
  2
vantage black & white logo
 70
     0
 10
0.0
 20
0.0
 30
0.0
  3
vantage black & white logo
  1

  0
SPLINE
  5
419D
102
{ACAD_REACTORS
330
41CD
102
}
330
4199
100
AcDbEntity
  8
APL Border
 62
     8
100
AcDbSpline
210
0.0
220
0.0
230
1.0
 70
     8
 71
     3
 72
    16
 73
    12
 74
    10
 42
0.0000000001
 43
0.0000000001
 44
0.0000000001
 40
0.0
 40
0.0
 40
0.0
 40
0.0
 40
0.1978277931646383
 40
0.361463118001824
 40
0.5540499897785108
 40
0.7796220130725381
 40
0.979106605438038
 40
1.222151590302332
 40
1.40748727220097
 40
1.607226525619232
 40
1.815049166761618
 40
1.815049166761618
 40
1.815049166761618
 40
1.815049166761618
 10
-6.679452083611295
 20
24.89125032803118
 30
0.0
 10
-6.685371732996674
 20
24.82559351525051
 30
0.0
 10
-6.696187882184245
 20
24.70562798418881
 30
0.0
 10
-6.721757155054659
 20
24.52229576436942
 30
0.0
 10
-6.768469983285688
 20
24.33480615160983
 30
0.0
 10
-6.86071972339088
 20
24.14153771241002
 30
0.0
 10
-7.051789745146238
 20
24.01851519430105
 30
0.0
 10
-7.233921808197289
 20
23.91285203345822
 30
0.0
 10
-7.443451931375125
 20
23.87675735439051
 30
0.0
 10
-7.641222718647389
 20
23.88093312949101
 30
0.0
 10
-7.776581895343343
 20
23.89281010788354
 30
0.0
 10
-7.845603808282817
 20
23.89886637823479
 30
0.0
 11
-6.679452083611295
 21
24.89125032803118
 31
0.0
 11
-6.698967886443824
 21
24.69438750983487
 31
0.0
 11
-6.7229873764864
 21
24.53252465544059
 31
0.0
 11
-6.771947617386814
 21
24.34626516442952
 31
0.0
 11
-6.880972027936735
 21
24.14879006322128
 31
0.0
 11
-7.039699899396197
 21
24.02796140183178
 31
0.0
 11
-7.25666078222261
 21
23.91842218515177
 31
0.0
 11
-7.438645676318543
 21
23.88333923622035
 31
0.0
 11
-7.638384704687155
 21
23.88303939885124
 31
0.0
 11
-7.845603808282817
 21
23.89886637823479
 31
0.0
1001
AcDbBlockRepETag
1070
     1
1071
      590
1005
419D
  0
SPLINE
  5
419E
102
{ACAD_REACTORS
330
41CD
102
}
330
4199
100
AcDbEntity
  8
APL Border
 62
     8
100
AcDbSpline
210
0.0
220
0.0
230
1.0
 70
     8
 71
     3
 72
    11
 73
     7
 74
     5
 42
0.0000000001
 43
0.0000000001
 44
0.0000000001
 40
0.0
 40
0.0
 40
0.0
 40
0.0
 40
0.0680840587483313
 40
0.1752723045973904
 40
0.2784233367375334
 40
0.4826852714337078
 40
0.4826852714337078
 40
0.4826852714337078
 40
0.4826852714337078
 10
-7.465264214605014
 20
24.80065518845331
 30
0.0
 10
-7.468646137215252
 20
24.77808681972154
 30
0.0
 10
-7.47735239504952
 20
24.719987903891
 30
0.0
 10
-7.524447891091254
 20
24.63752792323728
 30
0.0
 10
-7.635129760920157
 20
24.54333837224584
 30
0.0
 10
-7.743266182308203
 20
24.55714977626708
 30
0.0
 10
-7.815117916056323
 20
24.56632682606847
 30
0.0
 11
-7.465264214605014
 21
24.80065518845331
 31
0.0
 11
-7.478569823577657
 21
24.73388393846117
 31
0.0
 11
-7.530473398252325
 21
24.64010046985295
 31
0.0
 11
-7.611072397370236
 21
24.57572705319073
 31
0.0
 11
-7.815117916056323
 21
24.56632682606847
 31
0.0
1001
AcDbBlockRepETag
1070
     1
1071
      593
1005
419E
  0
SPLINE
  5
419F
102
{ACAD_REACTORS
330
41CD
102
}
330
4199
100
AcDbEntity
  8
APL Border
 62
     8
100
AcDbSpline
210
0.0
220
0.0
230
1.0
 70
     8
 71
     3
 72
    20
 73
    16
 74
     0
 42
0.0000000001
 43
0.0000000001
 40
0.0
 40
0.0
 40
0.0
 40
0.0
 40
0.1774120264923274
 40
0.3258093286713144
 40
0.4834060703451958
 40
0.6311237014699663
 40
0.811161917566129
 40
0.9605198197290178
 40
1.289502400757101
 40
1.459697744220917
 40
1.604754171475458
 40
1.794797311213428
 40
2.030760379210173
 40
2.301729078160567
 40
2.393267743077617
 40
2.393267743077617
 40
2.393267743077617
 40
2.393267743077617
 10
5.780015564168593
 20
26.87985997284487
 30
0.0
 10
5.839056126904296
 20
26.87337384475878
 30
0.0
 10
5.947481505327601
 20
26.86146235781404
 30
0.0
 10
6.098807931884806
 20
26.80185114122353
 30
0.0
 10
6.227972759762906
 20
26.72168911843352
 30
0.0
 10
6.347510602881385
 20
26.61140356622764
 30
0.0
 10
6.442310149474394
 20
26.48207375794227
 30
0.0
 10
6.536759215535255
 20
26.28338234239492
 30
0.0
 10
6.578465181725675
 20
26.06469589684353
 30
0.0
 10
6.553150099427256
 20
25.85079503063701
 30
0.0
 10
6.524121382020268
 20
25.68499989147718
 30
0.0
 10
6.464236525716046
 20
25.50199988960434
 30
0.0
 10
6.327150620479812
 20
25.31187331731421
 30
0.0
 10
6.179477266233362
 20
25.17172660684537
 30
0.0
 10
6.072729148555964
 20
25.11631253421805
 30
0.0
 10
6.045077525535504
 20
25.10350570839811
 30
0.0
1001
AcDbBlockRepETag
1070
     1
1071
      594
1005
419F
  0
SPLINE
  5
41A0
102
{ACAD_REACTORS
330
41CD
102
}
330
4199
100
AcDbEntity
  8
APL Border
 62
     8
100
AcDbSpline
210
0.0
220
0.0
230
1.0
 70
     8
 71
     3
 72
    17
 73
    13
 74
    11
 42
0.0000000001
 43
0.0000000001
 44
0.0000000001
 40
0.0
 40
0.0
 40
0.0
 40
0.0
 40
0.0975027714782739
 40
0.2117924486065133
 40
0.317678689712162
 40
0.4843960423119905
 40
0.5983164751676271
 40
0.7475672999664091
 40
0.8854036234346642
 40
1.040732215041493
 40
1.197661337444246
 40
1.243973057737614
 40
1.243973057737614
 40
1.243973057737614
 40
1.243973057737614
 10
5.580769717272147
 20
26.18861664944085
 30
0.0
 10
5.613502616848285
 20
26.1875961553427
 30
0.0
 10
5.684603990133519
 20
26.18537947021098
 30
0.0
 10
5.781919321100519
 20
26.1258482190374
 30
0.0
 10
5.832561030472812
 20
26.0011917111029
 30
0.0
 10
5.820388894698232
 20
25.86817511516085
 30
0.0
 10
5.765298612935113
 20
25.7349784962169
 30
0.0
 10
5.67725421213275
 20
25.62965962372396
 30
0.0
 10
5.546675458142082
 20
25.55725132865025
 30
0.0
 10
5.401760839408257
 20
25.51345804330555
 30
0.0
 10
5.281860155064943
 20
25.50729075876586
 30
0.0
 10
5.21427201805345
 20
25.50302975767877
 30
0.0
 10
5.198870965514487
 20
25.50205881951548
 30
0.0
 11
5.580769717272147
 21
26.18861664944085
 31
0.0
 11
5.67764963039707
 21
26.17761333726443
 31
0.0
 11
5.774085473546278
 21
26.11627608549865
 31
0.0
 11
5.81791994770495
 21
26.01988918322082
 31
0.0
 11
5.809153052873227
 21
25.85340249542595
 31
0.0
 11
5.765318578714499
 21
25.74825305939683
 31
0.0
 11
5.668882735565347
 21
25.63434108961652
 31
0.0
 11
5.55010046754208
 21
25.56441523695462
 31
0.0
 11
5.401316428353624
 21
25.51980267086244
 31
0.0
 11
5.245093480229996
 21
25.50493189624708
 31
0.0
 11
5.198870965514487
 21
25.50205881951548
 31
0.0
1001
AcDbBlockRepETag
1070
     1
1071
      595
1005
41A0
  0
SPLINE
  5
41A1
102
{ACAD_REACTORS
330
41D7
330
41D8
102
}
330
4199
100
AcDbEntity
  8
APL Border
 62
     8
100
AcDbSpline
210
0.0
220
0.0
230
1.0
 70
     8
 71
     3
 72
    25
 73
    21
 74
     0
 42
0.0000000001
 43
0.0000000001
 40
0.0289432764998855
 40
0.0289432764998855
 40
0.0289432764998855
 40
0.0289432764998855
 40
0.7134165119202287
 40
1.411731005087882
 40
2.041147618059464
 40
3.036171077105474
 40
3.957911241576911
 40
4.83592253147705
 40
5.676684481733094
 40
6.271141751551381
 40
6.974058201941041
 40
7.825808739104269
 40
8.5265481701528
 40
9.125733480364379
 40
9.891766509798275
 40
10.6767880070383
 40
11.66821110410527
 40
12.42950909475574
 40
13.09855121203093
 40
13.70132750762923
 40
13.70132750762923
 40
13.70132750762923
 40
13.70132750762923
 10
13.141643811855
 20
43.40554077871886
 30
0.0
 10
12.91988216430481
 20
43.459256627421
 30
0.0
 10
12.47168844867874
 20
43.5669624691983
 30
0.0
 10
11.80600758681791
 20
43.66484839798013
 30
0.0
 10
11.02988777388427
 20
43.6649333207477
 30
0.0
 10
10.1361516270939
 20
43.55263717791944
 30
0.0
 10
9.306733533720876
 20
43.19741938393827
 30
0.0
 10
8.599762003673276
 20
42.45478219212527
 30
0.0
 10
8.236440109363229
 20
41.77191325718488
 30
0.0
 10
8.073464067873601
 20
41.07996170309042
 30
0.0
 10
8.007035995439764
 20
40.3638923215899
 30
0.0
 10
7.98103501985804
 20
39.60493317412716
 30
0.0
 10
8.107710769833204
 20
38.92055182387923
 30
0.0
 10
8.442098079777224
 20
38.21445924826959
 30
0.0
 10
9.036296716232907
 20
37.66873436641545
 30
0.0
 10
9.909689132144507
 20
37.42421376773082
 30
0.0
 10
10.75775873959412
 20
37.35554609345542
 30
0.0
 10
11.56487972715851
 20
37.38454149767491
 30
0.0
 10
12.23983007222788
 20
37.44815687239099
 30
0.0
 10
12.66077873273661
 20
37.49837935861893
 30
0.0
 10
12.86026661033734
 20
37.52234731786496
 30
0.0
1001
AcDbBlockRepETag
1070
     1
1071
      596
1005
41A1
  0
SPLINE
  5
41A2
102
{ACAD_REACTORS
330
41D7
330
41D8
102
}
330
4199
100
AcDbEntity
  8
APL Border
 62
     8
100
AcDbSpline
210
0.0
220
0.0
230
1.0
 70
     8
 71
     3
 72
    19
 73
    15
 74
     0
 42
0.0000000001
 43
0.0000000001
 40
1.529304964685563
 40
1.529304964685563
 40
1.529304964685563
 40
1.529304965389289
 40
2.032016958536417
 40
2.556791262130423
 40
2.964493033520332
 40
3.465275586793771
 40
4.160836826595903
 40
4.71800698457321
 40
5.304510401169525
 40
5.733359288828643
 40
6.099728421126306
 40
6.422629926283571
 40
6.722447272622213
 40
6.957123473755099
 40
6.957123473755099
 40
6.957123473755099
 40
6.957123473755099
 10
11.64369617822672
 20
42.03297741382947
 30
0.0
 10
11.47589856643677
 20
42.04574754506741
 30
0.0
 10
11.13485165915975
 20
42.01473204050012
 30
0.0
 10
10.65553906793815
 20
41.91613810684326
 30
0.0
 10
10.23036575101369
 20
41.67654609785123
 30
0.0
 10
9.854221329784113
 20
41.27113304911427
 30
0.0
 10
9.717431528044755
 20
40.66388266631498
 30
0.0
 10
9.641062203095145
 20
40.05806431643046
 30
0.0
 10
9.716968816830743
 20
39.48770259248511
 30
0.0
 10
10.00680770225198
 20
39.09661486818469
 30
0.0
 10
10.3797311442331
 20
38.98358798973799
 30
0.0
 10
10.70216182646531
 20
38.92661434152812
 30
0.0
 10
10.99026249243499
 20
38.92783484269152
 30
0.0
 10
11.24302802126629
 20
38.95177692242413
 30
0.0
 10
11.33360452536307
 20
38.96406177273881
 30
0.0
1001
AcDbBlockRepETag
1070
     1
1071
      597
1005
41A2
  0
LWPOLYLINE
  5
41A3
102
{ACAD_REACTORS
330
41D4
102
}
330
4199
100
AcDbEntity
  8
APL Border
 62
     8
100
AcDbPolyline
 90
       12
 70
     1
 43
0.0
 10
14.13627631352983
 20
43.61979184908029
 10
18.38986203356285
 20
43.61979184908029
 10
18.21321428445671
 20
41.9726305274507
 10
15.84058876400877
 20
41.9726305274507
 10
15.75340373709809
 20
41.15966911198297
 10
17.71732334684157
 20
41.15966911198297
 10
17.56969663746741
 20
39.57967635988449
 10
15.58395939694927
 20
39.57967635988449
 10
15.5052467299167
 20
38.84571591422678
 10
17.87787225036464
 20
38.84571591422678
 10
17.72077299807506
 20
37.38083558975206
 10
13.46718727804204
 20
37.38083558975206
1001
AcDbBlockRepETag
1070
     1
1071
      599
1005
41A3
  0
LWPOLYLINE
  5
41A4
102
{ACAD_REACTORS
330
41D7
330
41D8
102
}
330
4199
100
AcDbEntity
  8
APL Border
 62
     8
100
AcDbPolyline
 90
        2
 70
     0
 43
0.0
 10
13.141643811855
 20
43.40554077871887
 10
13.141643811855
 20
41.76981947766621
1001
AcDbBlockRepETag
1070
     1
1071
      600
1005
41A4
  0
LWPOLYLINE
  5
41A5
102
{ACAD_REACTORS
330
41D7
330
41D8
102
}
330
4199
100
AcDbEntity
  8
APL Border
 62
     8
100
AcDbPolyline
 90
        6
 70
     0
 43
0.0
 10
11.33358781659778
 20
38.96390597096916
 10
11.39962533929804
 20
39.57967635988449
 10
10.96889270630695
 20
39.57967635988449
 10
11.12639005748273
 20
41.04826877857415
 10
13.23839963312048
 20
41.04826877857415
 10
12.86026661033734
 20
37.52234731786496
1001
AcDbBlockRepETag
1070
     1
1071
      601
1005
41A5
  0
LWPOLYLINE
  5
41A6
102
{ACAD_REACTORS
330
41D1
102
}
330
4199
100
AcDbEntity
  8
APL Border
 62
     8
100
AcDbPolyline
 90
        8
 70
     1
 43
0.0
 10
3.105743226874893
 20
43.61998313276061
 10
2.929095477768755
 20
41.97282181113101
 10
1.466301152475638
 20
41.97282181113101
 10
0.9741138955425029
 20
37.38339558452146
 10
-0.867968570535281
 20
37.38102687343238
 10
-0.3755272841536326
 20
41.97282181113101
 10
-1.891167362926863
 20
41.97282181113101
 10
-1.725754035154749
 20
43.61998313276061
1001
AcDbBlockRepETag
1070
     1
1071
      604
1005
41A6
  0
LWPOLYLINE
  5
41A7
102
{ACAD_REACTORS
330
41D0
102
}
330
4199
100
AcDbEntity
  8
APL Border
 62
     8
100
AcDbPolyline
 90
       10
 70
     1
 43
0.0
 10
-4.228474015381578
 20
40.14164596649268
 10
-3.855464624526035
 20
43.61979184908029
 10
-2.181839912298443
 20
43.61979184908029
 10
-2.850928947786229
 20
37.38083558975206
 10
-5.032306754624556
 20
37.38083558975206
 10
-6.131920885667284
 20
40.6246666384634
 10
-6.479801476178323
 20
37.38083558975206
 10
-8.135186891292875
 20
37.38083558975206
 10
-7.466097855805088
 20
43.61979184908029
 10
-5.40751765387219
 20
43.61979184908029
1001
AcDbBlockRepETag
1070
     1
1071
      605
1005
41A7
  0
LWPOLYLINE
  5
41A8
102
{ACAD_REACTORS
330
41D7
102
}
330
4199
100
AcDbEntity
  8
APL Border
  6
Continuous
 62
     8
100
AcDbPolyline
 90
        8
 70
     1
 43
0.0
 10
-8.449177928734428
 20
37.38083558975206
 10
-9.847253547555595
 20
43.61979184908029
 10
-12.02298966350147
 20
43.61979184908029
 10
-14.82679588919473
 20
37.38083558975206
 10
-12.95240022532295
 20
37.38083558975206
 10
-12.35252874042399
 20
38.71565392391761
 10
-10.64639685172309
 20
38.71565392391761
 10
-10.34727999772013
 20
37.38083558975206
1001
AcDbBlockRepETag
1070
     1
1071
      606
1005
41A8
  0
LWPOLYLINE
  5
41A9
330
4199
100
AcDbEntity
  8
APL Border
  6
Continuous
 62
     8
100
AcDbPolyline
 90
        7
 70
     1
 43
0.0
 10
-18.99614352503855
 20
43.61979184908029
 10
-17.7875751270476
 20
37.38083558975206
 10
-15.77022638070494
 20
37.38083558975206
 10
-12.96642015501169
 20
43.61979184908029
 10
-14.7664201550117
 20
43.61979184908029
 10
-16.54136876356097
 20
39.42215966960597
 10
-17.19614352503853
 20
43.61979184908029
1001
AcDbBlockRepETag
1070
     1
1071
      608
1005
41A9
  0
LWPOLYLINE
  5
41AA
102
{ACAD_REACTORS
330
41DA
102
}
330
4199
100
AcDbEntity
  8
APL Border
  6
Continuous
 62
     8
100
AcDbPolyline
 90
        4
 70
     1
 43
0.0
 10
16.33779773177886
 20
35.29789574745093
 10
-16.33747952551644
 20
35.29789574745093
 10
-12.98884796421711
 20
29.49789574745094
 10
12.98916617047902
 20
29.49789574745094
1001
AcDbBlockRepETag
1070
     1
1071
      609
1005
41AA
  0
LWPOLYLINE
  5
41AB
102
{ACAD_REACTORS
330
41CD
102
}
330
4199
100
AcDbEntity
  8
APL Border
 62
     8
100
AcDbPolyline
 90
        9
 70
     1
 43
0.0
 10
7.455500104221528
 20
25.00957443408062
 10
6.800478684667126
 20
26.87985997284487
 10
7.607536311785906
 20
26.87985997284487
 10
7.963471882016364
 20
25.86355557445326
 10
8.538893993587493
 20
26.87985997284487
 10
9.414203966725494
 20
26.87985997284487
 10
8.232331174709315
 20
25.00957443408062
 10
8.120338037129926
 20
23.87985997284487
 10
7.343506966642138
 20
23.87985997284487
1001
AcDbBlockRepETag
1070
     1
1071
      611
1005
41AB
  0
LWPOLYLINE
  5
41AC
102
{ACAD_REACTORS
330
41CD
102
}
330
4199
100
AcDbEntity
  8
APL Border
 62
     8
100
AcDbPolyline
 90
        4
 70
     1
 43
0.0
 10
12.20974330707307
 20
28.14789574745094
 10
8.850698786449385
 20
22.32985997284487
 10
-8.850380580188158
 20
22.32985997284487
 10
-12.20942510081127
 20
28.14789574745094
1001
AcDbBlockRepETag
1070
     1
1071
      613
1005
41AC
  0
LWPOLYLINE
  5
41AD
102
{ACAD_REACTORS
330
41CD
102
}
330
4199
100
AcDbEntity
  8
APL Border
 62
     8
100
AcDbPolyline
 90
        6
 70
     0
 43
0.0
 10
5.580769717272147
 20
26.18861664944085
 10
5.137953374950967
 20
26.18861664944085
 10
4.909077041159065
 20
23.87985997284487
 10
4.132245970671277
 20
23.87985997284487
 10
4.429648034880159
 20
26.87985997284487
 10
5.793677369303878
 20
26.87985997284487
1001
AcDbBlockRepETag
1070
     1
1071
      614
1005
41AD
  0
LWPOLYLINE
  5
41AE
102
{ACAD_REACTORS
330
41DA
102
}
330
4199
100
AcDbEntity
  8
APL Border
  6
Continuous
 62
     8
100
AcDbPolyline
 90
        4
 70
     1
 43
0.0
 10
1.119422795136273
 20
34.02289574745092
 10
0.3425917246484857
 20
34.02289574745092
 10
0.0451896604396041
 20
31.02289574745093
 10
0.8220207309273916
 20
31.02289574745093
1001
AcDbBlockRepETag
1070
     1
1071
      620
1005
41AE
  0
LWPOLYLINE
  5
41AF
102
{ACAD_REACTORS
330
41CD
102
}
330
4199
100
AcDbEntity
  8
APL Border
 62
     8
100
AcDbPolyline
 90
        4
 70
     0
 43
0.0
 10
6.045077525535504
 20
25.1035057083981
 10
6.339444173005233
 20
23.87985997284487
 10
5.532386545886623
 20
23.87985997284487
 10
5.142141867913778
 20
25.50205881951548
1001
AcDbBlockRepETag
1070
     1
1071
      621
1005
41AF
  0
LWPOLYLINE
  5
41B0
102
{ACAD_REACTORS
330
41CE
102
}
330
4199
100
AcDbEntity
  8
APL Border
 62
     8
100
AcDbPolyline
 90
        4
 70
     1
 43
0.0
 10
0.0001591031300165
 20
7.000275566930961
 10
3.563095122801513
 20
13.17146177711931
 10
-0.9450856774407441
 20
20.97985997284487
 10
-8.070957716782203
 20
20.97985997284487
1001
AcDbBlockRepETag
1070
     1
1071
      622
1005
41B0
  0
LWPOLYLINE
  5
41B1
102
{ACAD_REACTORS
330
41D2
102
}
330
4199
100
AcDbEntity
  8
APL Border
 62
     8
100
AcDbPolyline
 90
        3
 70
     1
 43
0.0
 10
0.8484489512626112
 20
20.97985997284487
 10
4.459862437153191
 20
14.72470832814346
 10
8.071275923043373
 20
20.97985997284487
1001
AcDbBlockRepETag
1070
     1
1071
      623
1005
41B1
  0
LWPOLYLINE
  5
41B2
102
{ACAD_REACTORS
330
41CD
102
}
330
4199
100
AcDbEntity
  8
APL Border
 62
     8
100
AcDbPolyline
 90
        4
 70
     0
 43
0.0
 10
-7.465264214605014
 20
24.80065518845331
 10
-7.259144283007998
 20
26.87985997284487
 10
-6.48231321252021
 20
26.87985997284487
 10
-6.679452083611295
 20
24.89125032803118
1001
AcDbBlockRepETag
1070
     1
1071
      626
1005
41B2
  0
LWPOLYLINE
  5
41B3
102
{ACAD_REACTORS
330
41CD
102
}
330
4199
100
AcDbEntity
  8
APL Border
 62
     8
100
AcDbPolyline
 90
        4
 70
     0
 43
0.0
 10
-7.845603808282817
 20
23.89886637823479
 10
-8.399876560405061
 20
23.98304774476413
 10
-8.399876560405061
 20
24.64579492155148
 10
-7.81511791605564
 20
24.56632682606838
1001
AcDbBlockRepETag
1070
     1
1071
      627
1005
41B3
  0
LWPOLYLINE
  5
41B4
102
{ACAD_REACTORS
330
41DA
102
}
330
4199
100
AcDbEntity
  8
APL Border
  6
Continuous
 62
     8
100
AcDbPolyline
 90
        6
 70
     1
 43
0.0
 10
-7.549934049473819
 20
34.02289574745092
 10
-8.326765119961606
 20
34.02289574745092
 10
-8.624167184170488
 20
31.02289574745093
 10
-6.770246795158442
 20
31.02289574745093
 10
-6.700109532938455
 20
31.73039516316516
 10
-7.777198851462713
 20
31.73039516316516
1001
AcDbBlockRepETag
1070
     1
1071
      628
1005
41B4
  0
LWPOLYLINE
  5
41B5
102
{ACAD_REACTORS
330
41DA
102
}
330
4199
100
AcDbEntity
  8
APL Border
  6
Continuous
 62
     8
100
AcDbPolyline
 90
        3
 70
     1
 43
0.0
 10
-10.14693849009504
 20
33.12550842600547
 10
-10.00044093617224
 20
32.51653621849665
 10
-10.45444607654239
 20
32.51653621849665
1001
AcDbBlockRepETag
1070
     1
1071
      629
1005
41B5
  0
LWPOLYLINE
  5
41B6
102
{ACAD_REACTORS
330
41DA
102
}
330
4199
100
AcDbEntity
  8
APL Border
  6
Continuous
 62
     8
100
AcDbPolyline
 90
        8
 70
     1
 43
0.0
 10
-8.834065309397374
 20
31.02289574745093
 10
-9.555761072109191
 20
34.02289574745092
 10
-10.50084997043805
 20
34.02289574745092
 10
-12.01573480092304
 20
31.02289574745093
 10
-11.20867717380426
 20
31.02289574745093
 10
-10.74455961985978
 20
31.94201027933759
 10
-9.862229957552528
 20
31.94201027933759
 10
-9.641122936515984
 20
31.02289574745093
1001
AcDbBlockRepETag
1070
     1
1071
      630
1005
41B6
  0
LWPOLYLINE
  5
41B7
102
{ACAD_REACTORS
330
41D3
102
}
330
4199
100
AcDbEntity
  8
APL Border
 62
     8
100
AcDbPolyline
 90
        3
 70
     1
 43
0.0
 10
0.0000000003145431
 20
4.000000000000009
 10
23.60256143704041
 20
44.88083558975217
 10
-23.60256142783933
 20
44.88083558975206
1001
AcDbBlockRepETag
1070
     1
1071
      631
1005
41B7
  0
LWPOLYLINE
  5
41B8
102
{ACAD_REACTORS
330
41D3
102
}
330
4199
100
AcDbEntity
  8
APL Border
 62
     8
100
AcDbPolyline
 90
        3
 70
     1
 43
0.0
 10
27.06666305249243
 20
46.88083558975206
 10
-27.06666304266244
 20
46.88083558975206
 10
-0.0000000000000284
 20
0.0000000000000238
1001
AcDbBlockRepETag
1070
     1
1071
      703
1005
41B8
  0
LWPOLYLINE
  5
41B9
102
{ACAD_REACTORS
330
41D7
330
41D9
102
}
330
4199
100
AcDbEntity
  8
APL Border
  6
Continuous
 62
     8
100
AcDbPolyline
 90
        8
 70
     1
 43
0.0
 10
7.980630193374565
 20
37.38083558975206
 10
6.582554574553398
 20
43.61979184908029
 10
4.406818458607517
 20
43.61979184908029
 10
1.603012232914267
 20
37.38083558975206
 10
3.477407896786047
 20
37.38083558975206
 10
4.077279381685002
 20
38.71565392391761
 10
5.783411270385897
 20
38.71565392391761
 10
6.082528124388858
 20
37.38083558975206
1001
AcDbBlockRepETag
1070
     1
1071
      760
1005
41B9
  0
LWPOLYLINE
  5
41BA
102
{ACAD_REACTORS
330
41D7
330
41D9
102
}
330
4199
100
AcDbEntity
  8
APL Border
  6
Continuous
 62
     8
100
AcDbPolyline
 90
        3
 70
     1
 43
0.0
 10
5.206046831612667
 20
41.69367581194667
 10
5.552066120962537
 20
40.14955389030274
 10
4.512113667606024
 20
40.14955389030274
1001
AcDbBlockRepETag
1070
     1
1071
      761
1005
41BA
  0
LWPOLYLINE
  5
41BB
102
{ACAD_REACTORS
330
41DA
102
}
330
4199
100
AcDbEntity
  8
APL Border
  6
Continuous
 62
     8
100
AcDbPolyline
 90
        4
 70
     1
 43
0.0
 10
5.615530392135354
 20
34.02289574745092
 10
4.838699321647567
 20
34.02289574745092
 10
4.541297257438685
 20
31.02289574745093
 10
5.318128327926473
 20
31.02289574745093
1001
AcDbBlockRepETag
1070
     1
1071
      785
1005
41BB
  0
LWPOLYLINE
  5
41BC
102
{ACAD_REACTORS
330
41DA
102
}
330
4199
100
AcDbEntity
  8
APL Border
 62
     8
100
AcDbPolyline
 90
       13
 70
     0
 43
0.0
 10
-5.535628094882099
 20
32.1870929174454
 10
-5.353790768486447
 20
34.02289574745092
 10
-6.130425112774389
 20
34.0248801943346
 10
-6.333826921263238
 20
31.9730940808461
 42
0.1695250701542156
 10
-6.106840682758871
 20
31.39301551086222
 42
0.0826087127293405
 10
-5.813961912619959
 20
31.13108995311734
 42
0.1017056431856583
 10
-5.510404689928634
 20
31.02488019433462
 10
-4.760057203160528
 20
31.0248801943346
 42
0.1918846087154957
 10
-4.136172756560569
 20
31.41919793838074
 42
0.1021851328841131
 10
-3.889225876952792
 20
31.97309408084612
 10
-3.685824068463887
 20
34.0248801943346
 10
-4.462655138951674
 20
34.0248801943346
 10
-4.65073703420694
 20
32.12763147393075
1001
AcDbBlockRepETag
1070
     1
1071
      866
1005
41BC
  0
SPLINE
  5
41BD
102
{ACAD_REACTORS
330
41DA
102
}
330
4199
100
AcDbEntity
  8
APL Border
 62
     8
100
AcDbSpline
210
0.0
220
0.0
230
1.0
 70
     8
 71
     3
 72
    24
 73
    20
 74
    18
 42
0.0000000001
 43
0.0000000001
 44
0.0000000001
 40
0.0
 40
0.0
 40
0.0
 40
0.0
 40
0.1612668085855933
 40
0.2532303870616441
 40
0.3214574742553387
 40
0.4101806452459026
 40
0.5031588697521256
 40
0.5664511009171887
 40
0.624871878778038
 40
0.6731644290699905
 40
0.7797386132933425
 40
0.9206747739903356
 40
1.025058962643435
 40
1.116412352300609
 40
1.212929457806147
 40
1.276240530363035
 40
1.339961572016457
 40
1.386280507025952
 40
1.435584820291647
 40
1.435584820291647
 40
1.435584820291647
 40
1.435584820291647
 10
-5.535628094882099
 20
32.1870929174454
 30
0.0
 10
-5.53213414748617
 20
32.13312332644234
 30
0.0
 10
-5.526647751003197
 20
32.04837718097616
 30
0.0
 10
-5.488860432547518
 20
31.94683424540268
 30
0.0
 10
-5.447171648840961
 20
31.8753242559261
 30
0.0
 10
-5.395818187958767
 20
31.80737001333622
 30
0.0
 10
-5.320761662408248
 20
31.77062767698265
 30
0.0
 10
-5.254477128417399
 20
31.74466351916423
 30
0.0
 10
-5.200112096792143
 20
31.72723210184819
 30
0.0
 10
-5.128888988289486
 20
31.72198763189771
 30
0.0
 10
-5.030042811850907
 20
31.72786870372271
 30
0.0
 10
-4.915707066470194
 20
31.75812586881066
 30
0.0
 10
-4.815771266393483
 20
31.81405298527761
 30
0.0
 10
-4.754740567305573
 20
31.89193427605802
 30
0.0
 10
-4.714673995441981
 20
31.96546823314959
 30
0.0
 10
-4.683526695854578
 20
32.03313813212702
 30
0.0
 10
-4.662006183068958
 20
32.08703079743258
 30
0.0
 10
-4.651792807669443
 20
32.13930455656534
 30
0.0
 10
-4.647206914869654
 20
32.17083533130903
 30
0.0
 10
-4.644842382192905
 20
32.1870929174454
 30
0.0
 11
-5.535628094882099
 21
32.1870929174454
 31
0.0
 11
-5.515298846223288
 21
32.02711258990369
 31
0.0
 11
-5.483433995220536
 21
31.94084596230824
 31
0.0
 11
-5.44947766231354
 21
31.88166908437061
 31
0.0
 11
-5.392321718875223
 21
31.8138089399536
 31
0.0
 11
-5.311535231450477
 21
31.76778184269665
 31
0.0
 11
-5.252609732475718
 21
31.74468006578604
 31
0.0
 11
-5.196420818688864
 21
31.72868652792477
 31
0.0
 11
-5.148347479287053
 21
31.72409039341204
 31
0.0
 11
-5.041949649235618
 21
31.73021889267523
 31
0.0
 11
-4.906104524581394
 21
31.76775692005663
 31
0.0
 11
-4.816802280674096
 21
31.82180475140893
 31
0.0
 11
-4.758009512288197
 21
31.89172507883507
 31
0.0
 11
-4.710553499371997
 21
31.97576958188711
 31
0.0
 11
-4.684063009443377
 21
32.03327215445256
 31
0.0
 11
-4.662061522518769
 21
32.09307437617135
 31
0.0
 11
-4.652346246099511
 21
32.13836297456555
 31
0.0
 11
-4.644842382192905
 21
32.1870929174454
 31
0.0
1001
AcDbBlockRepETag
1070
     1
1071
      827
1005
41BD
  0
LWPOLYLINE
  5
41BE
102
{ACAD_REACTORS
330
41DA
102
}
330
4199
100
AcDbEntity
  8
APL Border
 62
     8
100
AcDbPolyline
 90
       13
 70
     0
 43
0.0
 10
6.787553510813182
 20
32.18510847056172
 10
6.969390837208834
 20
34.02091130056725
 10
6.192756492920892
 20
34.02289574745092
 10
5.989354684432043
 20
31.97110963396243
 42
0.1695250701542156
 10
6.21634092293641
 20
31.39103106397854
 42
0.0826087127293405
 10
6.509219693075323
 20
31.12910550623367
 42
0.1017056431856583
 10
6.812776915766647
 20
31.02289574745094
 10
7.563124402534754
 20
31.02289574745093
 42
0.1918846087154957
 10
8.187008849134713
 20
31.41721349149707
 42
0.1021851328841131
 10
8.433955728742489
 20
31.97110963396244
 10
8.637357537231395
 20
34.02289574745092
 10
7.860526466743607
 20
34.02289574745092
 10
7.672444571488341
 20
32.12564702704707
1001
AcDbBlockRepETag
1070
     1
1071
      837
1005
41BE
  0
LWPOLYLINE
  5
41BF
102
{ACAD_REACTORS
330
41DA
102
}
330
4199
100
AcDbEntity
  8
APL Border
  6
Continuous
 62
     8
100
AcDbPolyline
 90
       13
 70
     1
 43
0.0
 10
-1.295012624591635
 20
34.02807364104484
 10
-0.1975458970834154
 20
34.0280551402308
 10
-0.4949479612922972
 20
31.0280551402308
 10
-1.115886909891884
 20
31.0280551402308
 10
-0.9222174129992311
 20
32.98166797820307
 10
-1.611942464131544
 20
31.0280551402308
 10
-2.344230471214956
 20
31.0280551402308
 10
-2.63016252924163
 20
32.98166797820306
 10
-2.823832026134283
 20
31.0280551402308
 10
-3.44477097473387
 20
31.0280551402308
 10
-3.147349004861581
 20
34.02825593571061
 10
-2.047349004861558
 20
34.02825593571061
 10
-1.8272453185659
 20
32.52441131541936
1001
AcDbBlockRepETag
1070
     1
1071
      867
1005
41BF
  0
LWPOLYLINE
  5
41C0
102
{ACAD_REACTORS
330
41DA
102
}
330
4199
100
AcDbEntity
  8
APL Border
  6
Continuous
 62
     8
100
AcDbPolyline
 90
       10
 70
     1
 43
0.0
 10
1.724974710806094
 20
34.02289574745092
 10
1.427552740933805
 20
31.02269495197112
 10
2.048491689533392
 20
31.02269495197112
 10
2.231899581960561
 20
32.87279534971117
 10
3.051434648859952
 20
31.02269495197112
 10
3.902826396438257
 20
31.02269495197112
 10
4.200228460647139
 20
34.02269495197112
 10
3.580266230192904
 20
34.02269495197112
 10
3.395920304875374
 20
32.17298478610545
 10
2.576558098165463
 20
34.02269495197112
1001
AcDbBlockRepETag
1070
     1
1071
      616
1005
41C0
  0
LWPOLYLINE
  5
41C1
102
{ACAD_REACTORS
330
41DA
102
}
330
4199
100
AcDbEntity
  8
APL Border
  6
Continuous
 62
     8
100
AcDbPolyline
 90
       13
 70
     1
 43
0.0
 10
11.01183437133605
 20
34.02271345278515
 10
12.10930109884427
 20
34.02269495197111
 10
11.81189903463539
 20
31.02269495197111
 10
11.1909600860358
 20
31.02269495197111
 10
11.38462958292845
 20
32.97630778994339
 10
10.69490453179614
 20
31.02269495197111
 10
9.962616524712728
 20
31.02269495197111
 10
9.676684466686054
 20
32.97630778994338
 10
9.483014969793401
 20
31.02269495197111
 10
8.862076021193814
 20
31.02269495197111
 10
9.159497991066103
 20
34.02289574745092
 10
10.25949799106612
 20
34.02289574745092
 10
10.47960167736178
 20
32.51905112715967
1001
AcDbBlockRepETag
1070
     1
1071
      847
1005
41C1
  0
SPLINE
  5
41C2
102
{ACAD_REACTORS
330
41DA
102
}
330
4199
100
AcDbEntity
  8
APL Border
 62
     8
100
AcDbSpline
210
0.0
220
0.0
230
1.0
 70
     8
 71
     3
 72
    24
 73
    20
 74
    18
 42
0.0000000001
 43
0.0000000001
 44
0.0000000001
 40
0.0
 40
0.0
 40
0.0
 40
0.0
 40
0.1612668085856004
 40
0.2532303870616512
 40
0.3214574742553458
 40
0.4101806452458731
 40
0.5031588697521455
 40
0.5664511009172086
 40
0.6248718787780579
 40
0.6731644290699537
 40
0.7797386132933625
 40
0.9206747739903555
 40
1.025058962643406
 40
1.116412352300617
 40
1.212929457806155
 40
1.276240530363043
 40
1.339961572016455
 40
1.386280507025956
 40
1.435584820291643
 40
1.435584820291643
 40
1.435584820291643
 40
1.435584820291643
 10
6.787553510813182
 20
32.18510847056172
 30
0.0
 10
6.791047458209138
 20
32.13113887955867
 30
0.0
 10
6.796533854692151
 20
32.04639273409249
 30
0.0
 10
6.834321173147815
 20
31.94484979851901
 30
0.0
 10
6.876009956854381
 20
31.87333980904243
 30
0.0
 10
6.927363417736518
 20
31.80538556645249
 30
0.0
 10
7.002419943287081
 20
31.76864323009899
 30
0.0
 10
7.068704477277941
 20
31.74267907228054
 30
0.0
 10
7.123069508903178
 20
31.72524765496453
 30
0.0
 10
7.194292617405833
 20
31.72000318501402
 30
0.0
 10
7.293138793844411
 20
31.72588425683905
 30
0.0
 10
7.407474539225143
 20
31.75614142192696
 30
0.0
 10
7.507410339301799
 20
31.81206853839397
 30
0.0
 10
7.568441038389779
 20
31.88994982917432
 30
0.0
 10
7.608507610253345
 20
31.96348378626594
 30
0.0
 10
7.639654909840773
 20
32.03115368524333
 30
0.0
 10
7.661175422626328
 20
32.08504635054892
 30
0.0
 10
7.671388798025919
 20
32.13732010968165
 30
0.0
 10
7.675974690825655
 20
32.16885088442535
 30
0.0
 10
7.678339223502376
 20
32.18510847056172
 30
0.0
 11
6.787553510813182
 21
32.18510847056172
 31
0.0
 11
6.80788275947205
 21
32.02512814302002
 31
0.0
 11
6.839747610474802
 21
31.93886151542456
 31
0.0
 11
6.873703943381798
 21
31.87968463748693
 31
0.0
 11
6.930859886820059
 21
31.81182449306993
 31
0.0
 11
7.011646374244861
 21
31.76579739581298
 31
0.0
 11
7.07057187321962
 21
31.74269561890237
 31
0.0
 11
7.126760787006475
 21
31.72670208104109
 31
0.0
 11
7.174834126408228
 21
31.72210594652836
 31
0.0
 11
7.28123195645972
 21
31.72823444579155
 31
0.0
 11
7.417077081113944
 21
31.76577247317295
 31
0.0
 11
7.506379325021185
 21
31.81982030452526
 31
0.0
 11
7.565172093407142
 21
31.88974063195139
 31
0.0
 11
7.612628106323342
 21
31.97378513500343
 31
0.0
 11
7.639118596251961
 21
32.03128770756889
 31
0.0
 11
7.661120083176541
 21
32.09108992928768
 31
0.0
 11
7.670835359595827
 21
32.13637852768188
 31
0.0
 11
7.678339223502376
 21
32.18510847056172
 31
0.0
1001
AcDbBlockRepETag
1070
     1
1071
      848
1005
41C2
  0
LWPOLYLINE
  5
41C3
102
{ACAD_REACTORS
330
41CD
102
}
330
4199
100
AcDbEntity
  8
APL Border
  6
Continuous
 62
     8
100
AcDbPolyline
 90
        4
 70
     1
 43
0.0
 10
-1.87552020613694
 20
26.87985997284487
 10
-2.652351276624727
 20
26.87985997284487
 10
-2.949753340833609
 20
23.87985997284487
 10
-2.172922270345821
 20
23.87985997284487
1001
AcDbBlockRepETag
1070
     1
1071
      851
1005
41C3
  0
LWPOLYLINE
  5
41C4
102
{ACAD_REACTORS
330
41CD
102
}
330
4199
100
AcDbEntity
  8
APL Border
  6
Continuous
 62
     8
100
AcDbPolyline
 90
       10
 70
     1
 43
0.0
 10
-1.269968290467119
 20
26.87985997284487
 10
-1.567390260339408
 20
23.87965917736506
 10
-0.9464513117398212
 20
23.87965917736506
 10
-0.7630434193126519
 20
25.72975957510511
 10
0.0564916475867392
 20
23.87965917736506
 10
0.9078833951650437
 20
23.87965917736506
 10
1.205285459373925
 20
26.87965917736506
 10
0.5853232289196911
 20
26.87965917736506
 10
0.4009773036021614
 20
25.0299490114994
 10
-0.41838490310775
 20
26.87965917736506
1001
AcDbBlockRepETag
1070
     1
1071
      852
1005
41C4
  0
LWPOLYLINE
  5
41C5
102
{ACAD_REACTORS
330
41CD
102
}
330
4199
100
AcDbEntity
  8
APL Border
 62
     8
100
AcDbPolyline
 90
       13
 70
     0
 43
0.0
 10
1.882971499788112
 20
26.87985997284487
 10
3.847979515363789
 20
26.87985997284487
 10
3.788499102522024
 20
26.27985997284487
 10
2.600322157434135
 20
26.27985997284487
 10
2.540562294183217
 20
25.67704105755032
 10
3.542578834455781
 20
25.67704105755032
 10
3.476410183919
 20
25.07985997284487
 10
2.474393643646379
 20
25.07985997284487
 10
2.421932428393546
 20
24.48037956726917
 10
3.610109373481435
 20
24.48037956726917
 10
3.550577451154907
 20
23.87985997284487
 10
1.58556943557923
 20
23.87985997284487
 10
1.882971499788112
 20
26.87985997284487
1001
AcDbBlockRepETag
1070
     1
1071
      864
1005
41C5
  0
LINE
  5
41C6
102
{ACAD_REACTORS
330
41CD
102
}
330
4199
100
AcDbEntity
  8
APL Border
 62
     8
100
AcDbLine
 10
5.198870965514487
 20
25.50205881951548
 30
0.0
 11
5.142141867913778
 21
25.50205881951548
 31
0.0
1001
AcDbBlockRepETag
1070
     1
1071
      865
1005
41C6
  0
SPLINE
  5
41C7
102
{ACAD_REACTORS
330
41CD
102
}
330
4199
100
AcDbEntity
  8
APL Border
 62
     8
100
AcDbSpline
210
0.0
220
0.0
230
1.0
 70
     8
 71
     3
 72
    25
 73
    21
 74
     0
 42
0.0000000001
 43
0.0000000001
 40
0.0
 40
0.0
 40
0.0
 40
0.0
 40
0.3463130802699203
 40
0.6043703055549736
 40
0.8524756959462802
 40
1.099102870182333
 40
1.318598063912852
 40
1.521064627602771
 40
1.694788988362445
 40
1.912615757663666
 40
2.142780600046976
 40
2.483378398179008
 40
2.873129106540456
 40
3.09179617846886
 40
3.322387155839943
 40
3.509181810940893
 40
3.69147909649244
 40
3.927844502409028
 40
4.143063657146388
 40
4.406491840702669
 40
4.406491840702669
 40
4.406491840702669
 40
4.406491840702669
 10
-5.114032196843737
 20
23.8798599728377
 30
0.0
 10
-5.228982970363915
 20
23.89503832123493
 30
0.0
 10
-5.429589987754155
 20
23.92152690506636
 30
0.0
 10
-5.693675021857103
 20
24.03567408988205
 30
0.0
 10
-5.892941488864977
 20
24.19306688135278
 30
0.0
 10
-6.036314150572081
 20
24.38541826526996
 30
0.0
 10
-6.137502326421099
 20
24.58575647986304
 30
0.0
 10
-6.184089306330008
 20
24.77995730666768
 30
0.0
 10
-6.209030826709039
 20
24.97670983726675
 30
0.0
 10
-6.206060891535827
 20
25.18442176502657
 30
0.0
 10
-6.186178297010457
 20
25.44676950423098
 30
0.0
 10
-6.128537036390639
 20
25.76177491648128
 30
0.0
 10
-6.024273636684796
 20
26.06592307272473
 30
0.0
 10
-5.858617591962229
 20
26.29271170654482
 30
0.0
 10
-5.725334295882049
 20
26.45803039682342
 30
0.0
 10
-5.575727893531166
 20
26.59168695454355
 30
0.0
 10
-5.409633372236157
 20
26.70740493083671
 30
0.0
 10
-5.217340570729675
 20
26.79721770551459
 30
0.0
 10
-4.988026372094168
 20
26.86731869684436
 30
0.0
 10
-4.849424991220388
 20
26.87777876054341
 30
0.0
 10
-4.7645039250757
 20
26.87985997283595
 30
0.0
1001
AcDbBlockRepETag
1070
     1
1071
      875
1005
41C7
  0
ELLIPSE
  5
41C8
102
{ACAD_REACTORS
330
41CC
330
41CD
102
}
330
4199
100
AcDbEntity
  8
APL Border
 62
     8
100
AcDbEllipse
 10
-4.728528852722632
 20
25.3825150979867
 30
0.0
 11
-0.2732326585474372
 21
-0.8283682112856686
 31
0.0
210
0.0
220
0.0
230
-1.0
 40
0.767138872147242
 41
0.0
 42
6.283185307179586
1001
AcDbBlockRepETag
1070
     1
1071
      876
1005
41C8
  0
SPLINE
  5
41C9
102
{ACAD_REACTORS
330
41CD
102
}
330
4199
100
AcDbEntity
  8
APL Border
 62
     8
100
AcDbSpline
210
0.0
220
0.0
230
1.0
 70
     8
 71
     3
 72
    26
 73
    22
 74
     0
 42
0.0000000001
 43
0.0000000001
 40
4.60284491300692
 40
4.60284491300692
 40
4.60284491300692
 40
4.60284491300692
 40
4.695921259854779
 40
4.963507654731998
 40
5.182979392648435
 40
5.397234555269768
 40
5.619529682274728
 40
5.869260387557257
 40
6.093250787730498
 40
6.263427758207029
 40
6.582064557968705
 40
6.800458868269094
 40
7.179401531729983
 40
7.575889850719137
 40
7.787844664578662
 40
8.01909420716162
 40
8.205730502580088
 40
8.387453763945252
 40
8.621856230932909
 40
8.833419194479944
 40
8.988019761194074
 40
8.988019761194074
 40
8.988019761194074
 40
8.988019761194074
 10
-4.486699891621668
 20
26.8798599728377
 30
0.0
 10
-4.440001835107608
 20
26.87954742494388
 30
0.0
 10
-4.335540249228728
 20
26.87475925711838
 30
0.0
 10
-4.164200665084621
 20
26.85307202884131
 30
0.0
 10
-3.96932086400659
 20
26.77880589501945
 30
0.0
 10
-3.766465201232762
 20
26.6658847706859
 30
0.0
 10
-3.60114437794968
 20
26.50570040783856
 30
0.0
 10
-3.471205788265336
 20
26.31143584383913
 30
0.0
 10
-3.381388817883674
 20
26.11392472080339
 30
0.0
 10
-3.317144182132551
 20
25.88552622199355
 30
0.0
 10
-3.281793375658168
 20
25.65006475492956
 30
0.0
 10
-3.30137826591374
 20
25.34538614523087
 30
0.0
 10
-3.327064239225308
 20
25.0112478652753
 30
0.0
 10
-3.471288581215731
 20
24.71021445059323
 30
0.0
 10
-3.60460091530777
 20
24.4641890220082
 30
0.0
 10
-3.737092402415015
 20
24.29954990084814
 30
0.0
 10
-3.882945983371143
 20
24.16225529150343
 30
0.0
 10
-4.046861838463826
 20
24.04508050911121
 30
0.0
 10
-4.233796525969012
 20
23.94884265716423
 30
0.0
 10
-4.427631511903911
 20
23.89220734010023
 30
0.0
 10
-4.549580407823555
 20
23.882511578974
 30
0.0
 10
-4.601116794093542
 20
23.87985997285202
 30
0.0
1001
AcDbBlockRepETag
1070
     1
1071
      877
1005
41C9
  0
LWPOLYLINE
  5
41CA
102
{ACAD_REACTORS
330
41CD
102
}
330
4199
100
AcDbEntity
  8
APL Border
 62
     8
100
AcDbPolyline
 90
        2
 70
     0
 43
0.0
 10
-4.764503925211641
 20
26.8798599728377
 10
-4.486699891621924
 20
26.8798599728377
1001
AcDbBlockRepETag
1070
     1
1071
      878
1005
41CA
  0
LWPOLYLINE
  5
41CB
102
{ACAD_REACTORS
330
41CD
102
}
330
4199
100
AcDbEntity
  8
APL Border
 62
     8
100
AcDbPolyline
 90
        2
 70
     0
 43
0.0
 10
-5.114032196843737
 20
23.8798599728377
 10
-4.601116794093513
 20
23.87985997285202
1001
AcDbBlockRepETag
1070
     1
1071
      879
1005
41CB
  0
HATCH
  5
41CC
330
4199
100
AcDbEntity
  8
APL Border
 62
     8
100
AcDbHatch
 10
0.0
 20
0.0
 30
0.0
210
0.0
220
0.0
230
1.0
  2
SOLID
 70
     1
 71
     1
 91
        1
 92
        5
 93
        1
 72
     3
 10
-4.728528852722632
 20
25.3825150979867
 11
-0.2732326585474372
 21
-0.8283682112856686
 40
0.767138872147242
 50
0.0
 51
360.0
 73
     0
 97
        1
330
41C8
 75
     0
 76
     1
 47
0.0172809346375552
 98
        1
 10
-4.520972790815363
 20
25.15086651129009
1001
ACAD
1010
0.0
1020
0.0
1030
0.0
1001
AcDbBlockRepETag
1070
     1
1071
      880
1005
41CC
  0
HATCH
  5
41CD
330
4199
100
AcDbEntity
  8
APL Border
 62
     8
100
AcDbHatch
 10
0.0
 20
0.0
 30
0.0
210
0.0
220
0.0
230
1.0
  2
SOLID
 70
     1
 71
     1
 91
        9
 92
        7
 72
     0
 73
     1
 93
        4
 10
-12.20942510081127
 20
28.14789574745095
 10
-8.85038058018816
 20
22.32985997284487
 10
8.850698786449385
 20
22.32985997284487
 10
12.20974330707306
 20
28.14789574745094
 97
        1
330
41AC
 92
       20
 93
        4
 72
     4
 94
        3
 73
     0
 74
     0
 95
       25
 96
       21
 40
0.0
 40
0.0
 40
0.0
 40
0.0
 40
0.3463130802699203
 40
0.6043703055549736
 40
0.8524756959462802
 40
1.099102870182333
 40
1.318598063912852
 40
1.521064627602771
 40
1.694788988362445
 40
1.912615757663666
 40
2.142780600046976
 40
2.483378398179008
 40
2.873129106540456
 40
3.09179617846886
 40
3.322387155839943
 40
3.509181810940893
 40
3.69147909649244
 40
3.927844502409028
 40
4.143063657146388
 40
4.406491840702669
 40
4.406491840702669
 40
4.406491840702669
 40
4.406491840702669
 10
-5.114032196843737
 20
23.8798599728377
 10
-5.228982970363915
 20
23.89503832123493
 10
-5.429589987754155
 20
23.92152690506636
 10
-5.693675021857103
 20
24.03567408988205
 10
-5.892941488864977
 20
24.19306688135278
 10
-6.036314150572081
 20
24.38541826526996
 10
-6.137502326421099
 20
24.58575647986304
 10
-6.184089306330008
 20
24.77995730666768
 10
-6.209030826709039
 20
24.97670983726675
 10
-6.206060891535827
 20
25.18442176502657
 10
-6.186178297010457
 20
25.44676950423098
 10
-6.128537036390639
 20
25.76177491648128
 10
-6.024273636684796
 20
26.06592307272473
 10
-5.858617591962229
 20
26.29271170654482
 10
-5.725334295882049
 20
26.45803039682342
 10
-5.575727893531166
 20
26.59168695454355
 10
-5.409633372236157
 20
26.70740493083671
 10
-5.217340570729675
 20
26.79721770551459
 10
-4.988026372094168
 20
26.86731869684436
 10
-4.849424991220388
 20
26.87777876054341
 10
-4.7645039250757
 20
26.87985997283595
 72
     1
 10
-4.764503925020689
 20
26.87985997283771
 11
-4.486699891621347
 21
26.8798599728377
 72
     4
 94
        3
 73
     0
 74
     0
 95
       26
 96
       22
 40
4.60284491300692
 40
4.60284491300692
 40
4.60284491300692
 40
4.60284491300692
 40
4.695921259854779
 40
4.963507654731998
 40
5.182979392648435
 40
5.397234555269768
 40
5.619529682274728
 40
5.869260387557257
 40
6.093250787730498
 40
6.263427758207029
 40
6.582064557968705
 40
6.800458868269094
 40
7.179401531729983
 40
7.575889850719137
 40
7.787844664578662
 40
8.01909420716162
 40
8.205730502580088
 40
8.387453763945252
 40
8.621856230932909
 40
8.833419194479944
 40
8.988019761194074
 40
8.988019761194074
 40
8.988019761194074
 40
8.988019761194074
 10
-4.486699891621668
 20
26.8798599728377
 10
-4.440001835107608
 20
26.87954742494388
 10
-4.335540249228728
 20
26.87475925711838
 10
-4.164200665084621
 20
26.85307202884131
 10
-3.96932086400659
 20
26.77880589501945
 10
-3.766465201232762
 20
26.6658847706859
 10
-3.60114437794968
 20
26.50570040783856
 10
-3.471205788265336
 20
26.31143584383913
 10
-3.381388817883674
 20
26.11392472080339
 10
-3.317144182132551
 20
25.88552622199355
 10
-3.281793375658168
 20
25.65006475492956
 10
-3.30137826591374
 20
25.34538614523087
 10
-3.327064239225308
 20
25.0112478652753
 10
-3.471288581215731
 20
24.71021445059323
 10
-3.60460091530777
 20
24.4641890220082
 10
-3.737092402415015
 20
24.29954990084814
 10
-3.882945983371143
 20
24.16225529150343
 10
-4.046861838463826
 20
24.04508050911121
 10
-4.233796525969012
 20
23.94884265716423
 10
-4.427631511903911
 20
23.89220734010023
 10
-4.549580407823555
 20
23.882511578974
 10
-4.601116794093542
 20
23.87985997285202
 72
     1
 10
-4.601116794093525
 20
23.87985997285202
 11
-5.114032196843729
 21
23.8798599728377
 97
        4
330
41C7
330
41CA
330
41C9
330
41CB
 92
        4
 93
        1
 72
     3
 10
-4.728528852722632
 20
25.3825150979867
 11
-0.2732326585474372
 21
-0.8283682112856686
 40
0.767138872147242
 50
0.0
 51
360.0
 73
     0
 97
        1
330
41C8
 92
       20
 93
        8
 72
     1
 10
-6.482313212520211
 20
26.87985997284487
 11
-6.679452083611267
 21
24.89125032803125
 72
     4
 94
        3
 73
     0
 74
     0
 95
       16
 96
       12
 40
0.0
 40
0.0
 40
0.0
 40
0.0
 40
0.1978277931646383
 40
0.361463118001824
 40
0.5540499897785108
 40
0.7796220130725381
 40
0.979106605438038
 40
1.222151590302332
 40
1.40748727220097
 40
1.607226525619232
 40
1.815049166761618
 40
1.815049166761618
 40
1.815049166761618
 40
1.815049166761618
 10
-6.679452083611295
 20
24.89125032803118
 10
-6.685371732996685
 20
24.82559351525052
 10
-6.696187882184318
 20
24.70562798418881
 10
-6.721757155054632
 20
24.52229576436942
 10
-6.768469983285655
 20
24.33480615160982
 10
-6.860719723390843
 20
24.14153771241002
 10
-7.051789745146265
 20
24.01851519430106
 10
-7.233921808197266
 20
23.91285203345821
 10
-7.443451931375136
 20
23.87675735439051
 10
-7.641222718647384
 20
23.88093312949101
 10
-7.776581895343355
 20
23.89281010788354
 10
-7.845603808282817
 20
23.89886637823479
 72
     1
 10
-7.845603808282787
 20
23.89886637823479
 11
-8.399876560405061
 21
23.98304774476413
 72
     1
 10
-8.399876560405061
 20
23.98304774476413
 11
-8.399876560405061
 21
24.64579492155148
 72
     1
 10
-8.399876560405061
 20
24.64579492155148
 11
-7.815117916056302
 21
24.56632682606845
 72
     4
 94
        3
 73
     0
 74
     0
 95
       11
 96
        7
 40
0.0
 40
0.0
 40
0.0
 40
0.0
 40
0.2042619346961744
 40
0.3074129668363174
 40
0.4146012126853764
 40
0.4826852714337078
 40
0.4826852714337078
 40
0.4826852714337078
 40
0.4826852714337078
 10
-7.815117916056323
 20
24.56632682606847
 10
-7.743266182308218
 20
24.55714977626708
 10
-7.635129760920136
 20
24.54333837224583
 10
-7.524447891091284
 20
24.63752792323729
 10
-7.477352395049535
 20
24.71998790389099
 10
-7.468646137215245
 20
24.77808681972154
 10
-7.465264214605014
 20
24.80065518845331
 72
     1
 10
-7.465264214605014
 20
24.80065518845333
 11
-7.259144283007996
 21
26.87985997284487
 72
     1
 10
-7.259144283007996
 20
26.87985997284487
 11
-6.482313212520211
 21
26.87985997284487
 97
        4
330
41B2
330
419D
330
41B3
330
419E
 92
       22
 72
     0
 73
     1
 93
        4
 10
-2.652351276624725
 20
26.87985997284486
 10
-1.87552020613694
 20
26.87985997284486
 10
-2.172922270345821
 20
23.87985997284487
 10
-2.949753340833609
 20
23.87985997284487
 97
        1
330
41C3
 92
       22
 72
     0
 73
     1
 93
       10
 10
-1.269968290467114
 20
26.87985997284487
 10
-0.4183849031077484
 20
26.87965917736506
 10
0.4009773036021615
 20
25.0299490114994
 10
0.5853232289196909
 20
26.87965917736506
 10
1.205285459373925
 20
26.87965917736506
 10
0.9078833951650439
 20
23.87965917736506
 10
0.056491647586738
 20
23.87965917736506
 10
-0.7630434193126518
 20
25.72975957510511
 10
-0.946451311739821
 20
23.87965917736506
 10
-1.567390260339408
 20
23.87965917736506
 97
        1
330
41C4
 92
       22
 72
     0
 73
     1
 93
       12
 10
1.882971499788112
 20
26.87985997284486
 10
3.847979515363789
 20
26.87985997284486
 10
3.788499102522024
 20
26.27985997284486
 10
2.600322157434135
 20
26.27985997284487
 10
2.540562294183218
 20
25.67704105755032
 10
3.542578834455781
 20
25.67704105755032
 10
3.476410183919
 20
25.07985997284487
 10
2.47439364364638
 20
25.07985997284487
 10
2.421932428393546
 20
24.48037956726917
 10
3.610109373481436
 20
24.48037956726917
 10
3.550577451154907
 20
23.87985997284487
 10
1.585569435579231
 20
23.87985997284487
 97
        1
330
41C5
 92
       20
 93
       11
 72
     1
 10
4.429648034880159
 20
26.87985997284486
 11
5.780015564168562
 21
26.87985997284487
 72
     4
 94
        3
 73
     0
 74
     0
 95
       20
 96
       16
 40
0.0
 40
0.0
 40
0.0
 40
0.0
 40
0.1774120264923274
 40
0.3258093286713144
 40
0.4834060703451958
 40
0.6311237014699663
 40
0.811161917566129
 40
0.9605198197290178
 40
1.289502400757101
 40
1.459697744220917
 40
1.604754171475458
 40
1.794797311213428
 40
2.030760379210173
 40
2.301729078160567
 40
2.393267743077617
 40
2.393267743077617
 40
2.393267743077617
 40
2.393267743077617
 10
5.780015564168593
 20
26.87985997284487
 10
5.839056126904296
 20
26.87337384475878
 10
5.947481505327601
 20
26.86146235781404
 10
6.098807931884806
 20
26.80185114122353
 10
6.227972759762906
 20
26.72168911843352
 10
6.347510602881385
 20
26.61140356622764
 10
6.442310149474394
 20
26.48207375794227
 10
6.536759215535255
 20
26.28338234239492
 10
6.578465181725675
 20
26.06469589684353
 10
6.553150099427256
 20
25.85079503063701
 10
6.524121382020268
 20
25.68499989147718
 10
6.464236525716046
 20
25.50199988960434
 10
6.327150620479812
 20
25.31187331731421
 10
6.179477266233362
 20
25.17172660684537
 10
6.072729148555964
 20
25.11631253421805
 10
6.045077525535504
 20
25.10350570839811
 72
     1
 10
6.045077525535502
 20
25.1035057083981
 11
6.339444173005232
 21
23.87985997284487
 72
     1
 10
6.339444173005232
 20
23.87985997284487
 11
5.532386545886621
 21
23.87985997284487
 72
     1
 10
5.532386545886621
 20
23.87985997284487
 11
5.142141867913776
 21
25.50205881951548
 72
     1
 10
5.142141867913776
 20
25.50205881951548
 11
5.19887096551445
 21
25.50205881951548
 72
     4
 94
        3
 73
     0
 74
     0
 95
       17
 96
       13
 40
0.0
 40
0.0
 40
0.0
 40
0.0
 40
0.0463117202933683
 40
0.2032408426961212
 40
0.3585694343029505
 40
0.4964057577712057
 40
0.6456565825699876
 40
0.7595770154256244
 40
0.9262943680254526
 40
1.032180609131101
 40
1.14647028625934
 40
1.243973057737614
 40
1.243973057737614
 40
1.243973057737614
 40
1.243973057737614
 10
5.198870965514487
 20
25.50205881951548
 10
5.214272018053407
 20
25.50302975767877
 10
5.28186015506489
 20
25.50729075876586
 10
5.40176083940824
 20
25.51345804330556
 10
5.546675458142118
 20
25.55725132865025
 10
5.67725421213268
 20
25.62965962372397
 10
5.765298612935083
 20
25.7349784962169
 10
5.820388894698254
 20
25.86817511516085
 10
5.832561030472788
 20
26.0011917111029
 10
5.781919321100474
 20
26.1258482190374
 10
5.684603990133524
 20
26.18537947021099
 10
5.613502616848251
 20
26.1875961553427
 10
5.580769717272147
 20
26.18861664944085
 72
     1
 10
5.580769717272125
 20
26.18861664944085
 11
5.137953374950967
 21
26.18861664944085
 72
     1
 10
5.137953374950967
 20
26.18861664944085
 11
4.909077041159065
 21
23.87985997284487
 72
     1
 10
4.909077041159065
 20
23.87985997284487
 11
4.132245970671278
 21
23.87985997284487
 72
     1
 10
4.132245970671278
 20
23.87985997284487
 11
4.429648034880159
 21
26.87985997284486
 97
        5
330
41AD
330
419F
330
41AF
330
41C6
330
41A0
 92
       22
 72
     0
 73
     1
 93
        9
 10
6.800478684667179
 20
26.87985997284487
 10
7.607536311785904
 20
26.87985997284487
 10
7.963471882016363
 20
25.86355557445326
 10
8.538893993587493
 20
26.87985997284487
 10
9.414203966725493
 20
26.87985997284487
 10
8.232331174709315
 20
25.00957443408062
 10
8.120338037129924
 20
23.87985997284486
 10
7.343506966642139
 20
23.87985997284486
 10
7.455500104221528
 20
25.00957443408062
 97
        1
330
41AB
 75
     0
 76
     1
 47
0.0276408434878157
 98
        9
 10
-5.110068937762804
 20
27.30829258594788
 10
-5.110068937762804
 20
27.30829258594788
 10
-5.110068937762804
 20
27.30829258594788
 10
-5.110068937762804
 20
27.30829258594788
 10
-5.110068937762804
 20
27.30829258594788
 10
-5.110068937762804
 20
27.30829258594788
 10
-5.110068937762804
 20
27.30829258594788
 10
-5.110068937762804
 20
27.30829258594788
 10
-5.110068937762804
 20
27.30829258594788
1001
ACAD
1010
0.0
1020
0.0
1030
0.0
1001
AcDbBlockRepETag
1070
     1
1071
      881
1005
41CD
  0
HATCH
  5
41CE
330
4199
100
AcDbEntity
  8
APL Border
 62
     8
100
AcDbHatch
 10
0.0
 20
0.0
 30
0.0
210
0.0
220
0.0
230
1.0
  2
SOLID
 70
     1
 71
     1
 91
        1
 92
        7
 72
     0
 73
     1
 93
        4
 10
0.0001591031300169
 20
7.000275566930961
 10
3.563095122801513
 20
13.17146177711931
 10
-0.9450856774407473
 20
20.97985997284487
 10
-8.070957716782199
 20
20.97985997284487
 97
        1
330
41B0
 75
     0
 76
     1
 47
0.0707162833847576
 98
        3
 10
-2.675438732228172
 20
16.47794635472378
 10
6.312751868664321
 20
42.28939048605213
 10
-9.894301834166896
 20
39.60217176706084
1001
ACAD
1010
0.0
1020
0.0
1030
0.0
1001
AcDbBlockRepETag
1070
     1
1071
      883
1005
41CE
  0
HATCH
  5
41CF
330
4199
100
AcDbEntity
  8
APL Border
 62
     8
100
AcDbHatch
 10
0.0
 20
0.0
 30
0.0
210
0.0
220
0.0
230
1.0
  2
SOLID
 70
     1
 71
     0
 91
        1
 92
        7
 72
     0
 73
     1
 93
        7
 10
-12.96642015501169
 20
43.61979184908029
 10
-14.7664201550117
 20
43.61979184908029
 10
-16.54136876356097
 20
39.42215966960598
 10
-17.19614352503853
 20
43.61979184908029
 10
-18.99614352503854
 20
43.61979184908029
 10
-17.7875751270476
 20
37.38083558975206
 10
-15.77022638070493
 20
37.38083558975206
 97
        0
 75
     0
 76
     1
 47
0.0707162833847576
 98
        3
 10
6.249678794057444
 20
42.28939048605213
 10
-9.957374908773772
 20
39.60217176706084
 10
-16.39773218462096
 20
38.68285940442952
1001
ACAD
1010
0.0
1020
0.0
1030
0.0
1001
AcDbBlockRepETag
1070
     1
1071
      884
1005
41CF
  0
HATCH
  5
41D0
330
4199
100
AcDbEntity
  8
APL Border
 62
     8
100
AcDbHatch
 10
0.0
 20
0.0
 30
0.0
210
0.0
220
0.0
230
1.0
  2
SOLID
 70
     1
 71
     1
 91
        1
 92
        7
 72
     0
 73
     1
 93
       10
 10
-2.850928947786229
 20
37.38083558975206
 10
-2.181839912298442
 20
43.6197918490803
 10
-3.855464624526036
 20
43.61979184908029
 10
-4.228474015381578
 20
40.14164596649268
 10
-5.40751765387219
 20
43.61979184908029
 10
-7.466097855805088
 20
43.61979184908029
 10
-8.135186891292875
 20
37.38083558975206
 10
-6.479801476178323
 20
37.38083558975206
 10
-6.131920885667285
 20
40.6246666384634
 10
-5.032306754624555
 20
37.38083558975206
 97
        1
330
41A7
 75
     0
 76
     1
 47
0.0707162833847576
 98
        3
 10
6.312751868664321
 20
42.28939048605213
 10
-5.364819983741796
 20
40.80434854252457
 10
-9.894301834166896
 20
39.60217176706084
1001
ACAD
1010
0.0
1020
0.0
1030
0.0
1001
AcDbBlockRepETag
1070
     1
1071
      886
1005
41D0
  0
HATCH
  5
41D1
330
4199
100
AcDbEntity
  8
APL Border
 62
     8
100
AcDbHatch
 10
0.0
 20
0.0
 30
0.0
210
0.0
220
0.0
230
1.0
  2
SOLID
 70
     1
 71
     1
 91
        1
 92
        7
 72
     0
 73
     1
 93
        8
 10
2.929095477768755
 20
41.97282181113101
 10
3.105743226874893
 20
43.6199831327606
 10
-1.725754035154748
 20
43.61998313276061
 10
-1.891167362926863
 20
41.97282181113101
 10
-0.3755272841536335
 20
41.97282181113101
 10
-0.8679685705352806
 20
37.38102687343239
 10
0.9741138955425025
 20
37.38339558452146
 10
1.466301152475638
 20
41.97282181113101
 97
        1
330
41A6
 75
     0
 76
     1
 47
0.0707162833847576
 98
        3
 10
6.461508006627583
 20
42.28958176973246
 10
0.3042431306128051
 20
42.36029787294049
 10
-9.745545696203633
 20
39.60236305074117
1001
ACAD
1010
0.0
1020
0.0
1030
0.0
1001
AcDbBlockRepETag
1070
     1
1071
      887
1005
41D1
  0
HATCH
  5
41D2
330
4199
100
AcDbEntity
  8
APL Border
 62
     8
100
AcDbHatch
 10
0.0
 20
0.0
 30
0.0
210
0.0
220
0.0
230
1.0
  2
SOLID
 70
     1
 71
     1
 91
        1
 92
        7
 72
     0
 73
     1
 93
        3
 10
8.071275923043375
 20
20.97985997284487
 10
0.8484489512626126
 20
20.97985997284487
 10
4.459862437153192
 20
14.72470832814346
 97
        1
330
41B1
 75
     0
 76
     1
 47
0.0707162833847576
 98
        3
 10
4.897289869501349
 20
18.17513736310713
 10
6.312751868664321
 20
42.28939048605213
 10
-9.894301834166896
 20
39.60217176706084
1001
ACAD
1010
0.0
1020
0.0
1030
0.0
1001
AcDbBlockRepETag
1070
     1
1071
      891
1005
41D2
  0
HATCH
  5
41D3
330
4199
100
AcDbEntity
  8
APL Border
 62
     8
100
AcDbHatch
 10
0.0
 20
0.0
 30
0.0
210
0.0
220
0.0
230
1.0
  2
SOLID
 70
     1
 71
     1
 91
        2
 92
       16
 93
        3
 72
     1
 10
0.0000000003145431
 20
4.000000000000009
 11
23.60256143704041
 21
44.88083558975217
 72
     1
 10
23.60256143704041
 20
44.88083558975217
 11
-23.60256142783933
 21
44.88083558975206
 72
     1
 10
-23.60256142783933
 20
44.88083558975206
 11
0.0000000003145431
 21
4.000000000000007
 97
        1
330
41B7
 92
        1
 93
        3
 72
     1
 10
27.06666305249243
 20
46.88083558975206
 11
-27.06666304266244
 21
46.88083558975206
 72
     1
 10
-27.06666304266244
 20
46.88083558975206
 11
-0.0000000000000284
 21
0.0000000000000213
 72
     1
 10
-0.0000000000000284
 20
0.0000000000000238
 11
27.06666305249243
 21
46.88083558975206
 97
        1
330
41B8
 75
     0
 76
     1
 98
        1
 10
-236.5641112216887
 20
1.231020082252661
1001
ACAD
1010
0.0
1020
0.0
1030
0.0
1001
AcDbBlockRepETag
1070
     1
1071
      892
1005
41D3
  0
HATCH
  5
41D4
330
4199
100
AcDbEntity
  8
APL Border
 62
     8
100
AcDbHatch
 10
0.0
 20
0.0
 30
0.0
210
0.0
220
0.0
230
1.0
  2
SOLID
 70
     1
 71
     1
 91
        1
 92
        7
 72
     0
 73
     1
 93
       12
 10
15.84058876400877
 20
41.9726305274507
 10
18.21321428445671
 20
41.9726305274507
 10
18.38986203356285
 20
43.61979184908029
 10
14.13627631352983
 20
43.61979184908029
 10
13.46718727804204
 20
37.38083558975206
 10
17.72077299807506
 20
37.38083558975207
 10
17.87787225036464
 20
38.84571591422678
 10
15.50524672991671
 20
38.84571591422678
 10
15.58395939694927
 20
39.5796763598845
 10
17.56969663746741
 20
39.57967635988449
 10
17.71732334684157
 20
41.15966911198297
 10
15.75340373709809
 20
41.15966911198297
 97
        1
330
41A3
 75
     0
 76
     1
 47
0.0265225354961204
 98
        1
 10
15.74642260871314
 20
42.54140343148856
1001
ACAD
1010
0.0
1020
0.0
1030
0.0
1001
AcDbBlockRepETag
1070
     1
1071
      895
1005
41D4
  0
SPLINE
  5
41D5
102
{ACAD_REACTORS
330
41D7
330
41D8
102
}
330
4199
100
AcDbEntity
  8
APL Border
 62
     8
100
AcDbSpline
210
0.0
220
0.0
230
1.0
 70
     8
 71
     3
 72
    12
 73
     8
 74
     0
 42
0.0000000001
 43
0.0000000001
 40
0.0
 40
0.0
 40
0.0
 40
0.0
 40
0.6153828260925694
 40
0.6153828260925694
 40
1.184895113366773
 40
1.184895113366773
 40
1.406874102447421
 40
1.406874102447421
 40
1.406874102447421
 40
1.406874102447421
 10
13.141643811855
 20
41.76981947766621
 30
0.0
 10
12.65093549588437
 20
41.90084145687704
 30
0.0
 10
12.40139116615246
 20
41.94113120867605
 30
0.0
 10
12.08548087756223
 20
41.99544455363318
 30
0.0
 10
11.92864742837253
 20
42.01465504085827
 30
0.0
 10
11.75444086026641
 20
42.02973960983341
 30
0.0
 10
11.75444086026641
 20
42.02973960983341
 30
0.0
 10
11.64369617822672
 20
42.03297741382947
 30
0.0
1001
AcDbBlockRepETag
1070
     1
1071
      898
1005
41D5
  0
LWPOLYLINE
  5
41D6
102
{ACAD_REACTORS
330
41D7
102
}
330
4199
100
AcDbEntity
  8
APL Border
  6
Continuous
 62
     8
100
AcDbPolyline
 90
        3
 70
     1
 43
0.0
 10
-11.22376129049633
 20
41.69367581194667
 10
-10.87774200114645
 20
40.14955389030274
 10
-11.91769445450297
 20
40.14955389030274
1001
AcDbBlockRepETag
1070
     1
1071
      902
1005
41D6
  0
HATCH
  5
41D7
330
4199
100
AcDbEntity
  8
APL Border
 62
     8
100
AcDbHatch
 10
0.0
 20
0.0
 30
0.0
210
0.0
220
0.0
230
1.0
  2
SOLID
 70
     1
 71
     1
 91
        2
 92
        7
 72
     0
 73
     1
 93
        8
 10
-9.847253547555595
 20
43.61979184908029
 10
-12.02298966350147
 20
43.61979184908029
 10
-14.82679588919472
 20
37.38083558975206
 10
-12.95240022532295
 20
37.38083558975206
 10
-12.352528740424
 20
38.71565392391761
 10
-10.64639685172309
 20
38.71565392391761
 10
-10.34727999772013
 20
37.38083558975206
 10
-8.449177928734428
 20
37.38083558975207
 97
        1
330
41A8
 92
       22
 72
     0
 73
     1
 93
        3
 10
-11.22376129049633
 20
41.69367581194668
 10
-10.87774200114645
 20
40.14955389030274
 10
-11.91769445450297
 20
40.14955389030274
 97
        1
330
41D6
 75
     0
 76
     1
 47
0.0464409783890934
 98
        3
 10
-10.7866676671747
 20
42.18285929720354
 10
-10.7866676671747
 20
42.18285929720354
 10
4.318789658947025
 20
41.34692151769582
1001
ACAD
1010
0.0
1020
0.0
1030
0.0
1001
AcDbBlockRepETag
1070
     1
1071
      903
1005
41D7
  0
HATCH
  5
41D8
330
4199
100
AcDbEntity
  8
APL Border
 62
     8
100
AcDbHatch
 10
0.0
 20
0.0
 30
0.0
210
0.0
220
0.0
230
1.0
  2
SOLID
 70
     1
 71
     1
 91
        1
 92
        5
 93
        9
 72
     4
 94
        3
 73
     0
 74
     0
 95
       25
 96
       21
 40
0.0289432764998855
 40
0.0289432764998855
 40
0.0289432764998855
 40
0.0289432764998855
 40
0.7134165119202287
 40
1.411731005087882
 40
2.041147618059464
 40
3.036171077105474
 40
3.957911241576911
 40
4.83592253147705
 40
5.676684481733094
 40
6.271141751551381
 40
6.974058201941041
 40
7.825808739104269
 40
8.5265481701528
 40
9.125733480364379
 40
9.891766509798275
 40
10.6767880070383
 40
11.66821110410527
 40
12.42950909475574
 40
13.09855121203093
 40
13.70132750762923
 40
13.70132750762923
 40
13.70132750762923
 40
13.70132750762923
 10
13.141643811855
 20
43.40554077871886
 10
12.91988216430481
 20
43.459256627421
 10
12.47168844867874
 20
43.5669624691983
 10
11.80600758681791
 20
43.66484839798013
 10
11.02988777388427
 20
43.6649333207477
 10
10.1361516270939
 20
43.55263717791944
 10
9.306733533720876
 20
43.19741938393827
 10
8.599762003673276
 20
42.45478219212527
 10
8.236440109363229
 20
41.77191325718488
 10
8.073464067873601
 20
41.07996170309042
 10
8.007035995439764
 20
40.3638923215899
 10
7.98103501985804
 20
39.60493317412716
 10
8.107710769833204
 20
38.92055182387923
 10
8.442098079777224
 20
38.21445924826959
 10
9.036296716232907
 20
37.66873436641545
 10
9.909689132144507
 20
37.42421376773082
 10
10.75775873959412
 20
37.35554609345542
 10
11.56487972715851
 20
37.38454149767491
 10
12.23983007222788
 20
37.44815687239099
 10
12.66077873273661
 20
37.49837935861893
 10
12.86026661033734
 20
37.52234731786496
 72
     1
 10
12.86026661033734
 20
37.52234731786496
 11
13.23839963312048
 21
41.04826877857415
 72
     1
 10
13.23839963312048
 20
41.04826877857415
 11
11.12639005748273
 21
41.04826877857415
 72
     1
 10
11.12639005748273
 20
41.04826877857415
 11
10.96889270630695
 21
39.57967635988449
 72
     1
 10
10.96889270630695
 20
39.57967635988449
 11
11.39962533929804
 21
39.57967635988449
 72
     1
 10
11.39962533929804
 20
39.57967635988449
 11
11.33360452536307
 21
38.96406177273883
 72
     4
 94
        3
 73
     0
 74
     0
 95
       19
 96
       15
 40
1.529304964685562
 40
1.529304964685562
 40
1.529304964685562
 40
1.529304964685562
 40
1.763981165818448
 40
2.06379851215709
 40
2.386700017314354
 40
2.753069149612017
 40
3.181918037271135
 40
3.768421453867451
 40
4.325591611844758
 40
5.021152851646889
 40
5.521935404920329
 40
5.929637176310238
 40
6.454411479904243
 40
6.957123473051371
 40
6.957123473755098
 40
6.957123473755098
 40
6.957123473755098
 10
11.33360452536307
 20
38.96406177273881
 10
11.24302802126629
 20
38.95177692242413
 10
10.99026249243499
 20
38.92783484269152
 10
10.70216182646531
 20
38.92661434152812
 10
10.3797311442331
 20
38.98358798973799
 10
10.00680770225198
 20
39.09661486818469
 10
9.716968816830743
 20
39.48770259248511
 10
9.641062203095145
 20
40.05806431643046
 10
9.717431528044755
 20
40.66388266631498
 10
9.854221329784113
 20
41.27113304911427
 10
10.23036575101369
 20
41.67654609785123
 10
10.65553906793815
 20
41.91613810684326
 10
11.13485165915975
 20
42.01473204050012
 10
11.47589856643677
 20
42.04574754506741
 10
11.64369617822672
 20
42.03297741382947
 72
     4
 94
        3
 73
     0
 74
     0
 95
       12
 96
        8
 40
0.0
 40
0.0
 40
0.0
 40
0.0
 40
0.2219789890806476
 40
0.2219789890806476
 40
0.7914912763548521
 40
0.7914912763548521
 40
1.406874102447421
 40
1.406874102447421
 40
1.406874102447421
 40
1.406874102447421
 10
11.64369617822672
 20
42.03297741382947
 10
11.75444086026641
 20
42.02973960983341
 10
11.75444086026641
 20
42.02973960983341
 10
11.92864742837253
 20
42.01465504085827
 10
12.08548087756223
 20
41.99544455363318
 10
12.40139116615246
 20
41.94113120867605
 10
12.65093549588437
 20
41.90084145687704
 10
13.141643811855
 20
41.76981947766621
 72
     1
 10
13.14164381185501
 20
41.76981947766621
 11
13.141643811855
 21
43.40554077871886
 97
        5
330
41A1
330
41A5
330
41A2
330
41D5
330
41A4
 75
     0
 76
     1
 47
0.0464409783890934
 98
        3
 10
-10.7866676671747
 20
42.18285929720354
 10
4.318789658947025
 20
41.34692151769582
 10
10.26801654887663
 20
42.50794595375691
1001
ACAD
1010
0.0
1020
0.0
1030
0.0
1001
AcDbBlockRepETag
1070
     1
1071
      904
1005
41D8
  0
HATCH
  5
41D9
330
4199
100
AcDbEntity
  8
APL Border
 62
     8
100
AcDbHatch
 10
0.0
 20
0.0
 30
0.0
210
0.0
220
0.0
230
1.0
  2
SOLID
 70
     1
 71
     1
 91
        2
 92
        7
 72
     0
 73
     1
 93
        8
 10
6.582554574553399
 20
43.61979184908029
 10
4.406818458607519
 20
43.6197918490803
 10
1.603012232914266
 20
37.38083558975206
 10
3.477407896786048
 20
37.38083558975206
 10
4.077279381684999
 20
38.71565392391761
 10
5.783411270385895
 20
38.71565392391761
 10
6.082528124388858
 20
37.38083558975206
 10
7.980630193374566
 20
37.38083558975207
 97
        1
330
41B9
 92
       22
 72
     0
 73
     1
 93
        3
 10
5.206046831612668
 20
41.69367581194667
 10
5.552066120962536
 20
40.14955389030274
 10
4.512113667606024
 20
40.14955389030274
 97
        1
330
41BA
 75
     0
 76
     1
 47
0.0464409783890934
 98
        3
 10
-10.7866676671747
 20
42.18285929720354
 10
4.318789658947025
 20
41.34692151769582
 10
4.318789658947025
 20
41.34692151769582
1001
ACAD
1010
0.0
1020
0.0
1030
0.0
1001
AcDbBlockRepETag
1070
     1
1071
      905
1005
41D9
  0
HATCH
  5
41DA
330
4199
100
AcDbEntity
  8
APL Border
 62
     8
100
AcDbHatch
 10
0.0
 20
0.0
 30
0.0
210
0.0
220
0.0
230
1.0
  2
SOLID
 70
     1
 71
     1
 91
       11
 92
        7
 72
     0
 73
     1
 93
        4
 10
-16.33747952551644
 20
35.29789574745092
 10
-12.98884796421712
 20
29.49789574745095
 10
12.98916617047902
 20
29.49789574745094
 10
16.33779773177886
 20
35.29789574745093
 97
        1
330
41AA
 92
       22
 72
     0
 73
     1
 93
        8
 10
-10.50084997043805
 20
34.02289574745092
 10
-9.555761072109191
 20
34.02289574745092
 10
-8.834065309397374
 20
31.02289574745093
 10
-9.641122936515984
 20
31.02289574745093
 10
-9.86222995755253
 20
31.94201027933759
 10
-10.74455961985978
 20
31.94201027933758
 10
-11.20867717380426
 20
31.02289574745093
 10
-12.01573480092304
 20
31.02289574745093
 97
        1
330
41B6
 92
        6
 72
     0
 73
     1
 93
        3
 10
-10.14693849009504
 20
33.12550842600547
 10
-10.00044093617224
 20
32.51653621849666
 10
-10.45444607654239
 20
32.51653621849665
 97
        1
330
41B5
 92
       22
 72
     0
 73
     1
 93
        6
 10
-8.326765119961606
 20
34.02289574745092
 10
-7.549934049473819
 20
34.02289574745092
 10
-7.777198851462713
 20
31.73039516316516
 10
-6.700109532938454
 20
31.73039516316516
 10
-6.770246795158442
 20
31.02289574745093
 10
-8.624167184170486
 20
31.02289574745092
 97
        1
330
41B4
 92
       20
 93
       13
 72
     1
 10
-6.13042511277439
 20
34.02488019433461
 11
-5.353790768486449
 21
34.02289574745093
 72
     1
 10
-5.353790768486449
 20
34.02289574745093
 11
-5.5356280948821
 21
32.18709291744541
 72
     4
 94
        3
 73
     0
 74
     0
 95
       24
 96
       20
 40
0.0
 40
0.0
 40
0.0
 40
0.0
 40
0.1612668085855933
 40
0.2532303870616441
 40
0.3214574742553387
 40
0.4101806452459026
 40
0.5031588697521256
 40
0.5664511009171887
 40
0.624871878778038
 40
0.6731644290699905
 40
0.7797386132933425
 40
0.9206747739903356
 40
1.025058962643435
 40
1.116412352300609
 40
1.212929457806147
 40
1.276240530363035
 40
1.339961572016457
 40
1.386280507025952
 40
1.435584820291647
 40
1.435584820291647
 40
1.435584820291647
 40
1.435584820291647
 10
-5.535628094882099
 20
32.1870929174454
 10
-5.53213414748617
 20
32.13312332644234
 10
-5.526647751003197
 20
32.04837718097616
 10
-5.488860432547518
 20
31.94683424540268
 10
-5.447171648840961
 20
31.8753242559261
 10
-5.395818187958767
 20
31.80737001333622
 10
-5.320761662408248
 20
31.77062767698265
 10
-5.254477128417399
 20
31.74466351916423
 10
-5.200112096792143
 20
31.72723210184819
 10
-5.128888988289486
 20
31.72198763189771
 10
-5.030042811850907
 20
31.72786870372271
 10
-4.915707066470194
 20
31.75812586881066
 10
-4.815771266393483
 20
31.81405298527762
 10
-4.754740567305573
 20
31.89193427605802
 10
-4.71467399544198
 20
31.96546823314959
 10
-4.683526695854578
 20
32.03313813212702
 10
-4.662006183068958
 20
32.08703079743258
 10
-4.651792807669443
 20
32.13930455656534
 10
-4.647206914869654
 20
32.17083533130903
 10
-4.644842382192905
 20
32.1870929174454
 72
     1
 10
-4.644842382192908
 20
32.18709291744538
 11
-4.462655138951674
 21
34.0248801943346
 72
     1
 10
-4.462655138951674
 20
34.0248801943346
 11
-3.685824068463886
 21
34.0248801943346
 72
     1
 10
-3.685824068463886
 20
34.0248801943346
 11
-3.889225876952792
 21
31.97309408084612
 72
     2
 10
-5.35367831607159
 20
32.29400281725688
 40
1.499200908332752
 50
12.35998596222624
 51
34.57361697223234
 73
     0
 72
     2
 10
-4.942942423735221
 20
32.00494866311196
 40
0.9969860617863467
 50
34.29038331790704
 51
79.42991665428312
 73
     0
 72
     1
 10
-4.760057203160528
 20
31.0248801943346
 11
-5.510404689928634
 21
31.02488019433462
 72
     2
 10
-5.403812384664131
 20
31.8164328281441
 40
0.7986973717449786
 50
97.66944495435136
 51
120.898786067779
 73
     0
 72
     2
 10
-5.173141343771899
 20
32.14234761068797
 40
1.197202176515717
 50
122.3618931068037
 51
141.2515245137382
 73
     0
 72
     2
 10
-5.389471681131198
 20
32.00817328375058
 40
0.9450065449727091
 50
139.3862736078239
 51
177.8726579657922
 73
     0
 72
     1
 10
-6.333826921263238
 20
31.9730940808461
 11
-6.13042511277439
 21
34.02488019433461
 97
        2
330
41BC
330
41BD
 92
       22
 72
     0
 73
     1
 93
       13
 10
-3.14734900486158
 20
34.02825593571061
 10
-2.047349004861559
 20
34.02825593571061
 10
-1.827245318565901
 20
32.52441131541936
 10
-1.295012624591634
 20
34.02807364104484
 10
-0.1975458970834157
 20
34.0280551402308
 10
-0.4949479612922965
 20
31.0280551402308
 10
-1.115886909891883
 20
31.02805514023081
 10
-0.9222174129992312
 20
32.98166797820307
 10
-1.611942464131546
 20
31.02805514023081
 10
-2.344230471214956
 20
31.0280551402308
 10
-2.630162529241629
 20
32.98166797820306
 10
-2.823832026134283
 20
31.02805514023081
 10
-3.444770974733871
 20
31.0280551402308
 97
        1
330
41BF
 92
       22
 72
     0
 73
     1
 93
        4
 10
0.342591724648486
 20
34.02289574745092
 10
1.119422795136273
 20
34.02289574745092
 10
0.822020730927392
 20
31.02289574745093
 10
0.045189660439604
 20
31.02289574745093
 97
        1
330
41AE
 92
       22
 72
     0
 73
     1
 93
       10
 10
1.724974710806094
 20
34.02289574745093
 10
2.57655809816546
 20
34.02269495197112
 10
3.395920304875375
 20
32.17298478610545
 10
3.580266230192904
 20
34.02269495197112
 10
4.200228460647139
 20
34.02269495197112
 10
3.902826396438257
 20
31.02269495197112
 10
3.051434648859951
 20
31.02269495197112
 10
2.231899581960561
 20
32.87279534971117
 10
2.048491689533392
 20
31.02269495197111
 10
1.427552740933804
 20
31.02269495197111
 97
        1
330
41C0
 92
       22
 72
     0
 73
     1
 93
        4
 10
4.838699321647566
 20
34.02289574745092
 10
5.615530392135354
 20
34.02289574745092
 10
5.318128327926473
 20
31.02289574745093
 10
4.541297257438685
 20
31.02289574745093
 97
        1
330
41BB
 92
       20
 93
       13
 72
     1
 10
6.192756492920892
 20
34.02289574745092
 11
6.969390837208833
 21
34.02091130056725
 72
     1
 10
6.969390837208833
 20
34.02091130056725
 11
6.787553510813181
 21
32.18510847056173
 72
     4
 94
        3
 73
     0
 74
     0
 95
       24
 96
       20
 40
0.0
 40
0.0
 40
0.0
 40
0.0
 40
0.1612668085856004
 40
0.2532303870616512
 40
0.3214574742553458
 40
0.4101806452458731
 40
0.5031588697521455
 40
0.5664511009172086
 40
0.6248718787780579
 40
0.6731644290699537
 40
0.7797386132933625
 40
0.9206747739903555
 40
1.025058962643406
 40
1.116412352300617
 40
1.212929457806155
 40
1.276240530363043
 40
1.339961572016455
 40
1.386280507025956
 40
1.435584820291643
 40
1.435584820291643
 40
1.435584820291643
 40
1.435584820291643
 10
6.787553510813182
 20
32.18510847056172
 10
6.791047458209138
 20
32.13113887955868
 10
6.796533854692151
 20
32.04639273409249
 10
6.834321173147815
 20
31.944849798519
 10
6.876009956854381
 20
31.87333980904244
 10
6.927363417736517
 20
31.80538556645249
 10
7.002419943287081
 20
31.76864323009899
 10
7.068704477277941
 20
31.74267907228055
 10
7.123069508903178
 20
31.72524765496452
 10
7.194292617405833
 20
31.72000318501404
 10
7.293138793844411
 20
31.72588425683904
 10
7.407474539225143
 20
31.75614142192696
 10
7.507410339301799
 20
31.81206853839398
 10
7.568441038389779
 20
31.88994982917431
 10
7.608507610253345
 20
31.96348378626593
 10
7.639654909840775
 20
32.03115368524333
 10
7.661175422626328
 20
32.08504635054892
 10
7.671388798025919
 20
32.13732010968165
 10
7.675974690825655
 20
32.16885088442535
 10
7.678339223502376
 20
32.18510847056172
 72
     1
 10
7.678339223502373
 20
32.1851084705617
 11
7.860526466743608
 21
34.02289574745092
 72
     1
 10
7.860526466743608
 20
34.02289574745092
 11
8.637357537231395
 21
34.02289574745092
 72
     1
 10
8.637357537231395
 20
34.02289574745092
 11
8.433955728742489
 21
31.97110963396244
 72
     2
 10
6.969503289623695
 20
32.29201837037321
 40
1.499200908332751
 50
12.35998596222655
 51
34.57361697220028
 73
     0
 72
     2
 10
7.38023918196006
 20
32.00296421622829
 40
0.9969860617863467
 50
34.2903833178587
 51
79.42991665428322
 73
     0
 72
     1
 10
7.563124402534754
 20
31.02289574745093
 11
6.812776915766647
 21
31.02289574745094
 72
     2
 10
6.919369221031151
 20
31.81444838126043
 40
0.7986973717449786
 50
97.66944495435136
 51
120.898786067779
 73
     0
 72
     2
 10
7.150040261923383
 20
32.14036316380429
 40
1.197202176515717
 50
122.3618931068037
 51
141.2515245137382
 73
     0
 72
     2
 10
6.933709924564084
 20
32.0061888368669
 40
0.9450065449727091
 50
139.3862736078239
 51
177.8726579657922
 73
     0
 72
     1
 10
5.989354684432043
 20
31.97110963396243
 11
6.192756492920892
 21
34.02289574745092
 97
        2
330
41BE
330
41C2
 92
       22
 72
     0
 73
     1
 93
       13
 10
9.159497991066102
 20
34.02289574745092
 10
10.25949799106612
 20
34.02289574745092
 10
10.47960167736178
 20
32.51905112715967
 10
11.01183437133604
 20
34.02271345278515
 10
12.10930109884427
 20
34.02269495197111
 10
11.81189903463539
 20
31.02269495197112
 10
11.1909600860358
 20
31.02269495197111
 10
11.38462958292845
 20
32.97630778994339
 10
10.69490453179614
 20
31.02269495197111
 10
9.962616524712728
 20
31.02269495197112
 10
9.676684466686056
 20
32.97630778994339
 10
9.4830149697934
 20
31.02269495197111
 10
8.862076021193814
 20
31.02269495197111
 97
        1
330
41C1
 75
     0
 76
     1
 47
0.0356978143457059
 98
       11
 10
-12.74387987022192
 20
34.13164800304253
 10
-12.74387987022192
 20
34.13164800304253
 10
-12.74387987022192
 20
34.13164800304253
 10
-12.74387987022192
 20
34.13164800304253
 10
-12.74387987022192
 20
34.13164800304253
 10
-12.74387987022192
 20
34.13164800304253
 10
-12.74387987022192
 20
34.13164800304253
 10
-12.74387987022192
 20
34.13164800304253
 10
-12.74387987022192
 20
34.13164800304253
 10
-12.74387987022192
 20
34.13164800304253
 10
-12.74387987022192
 20
34.13164800304253
1001
ACAD
1010
0.0
1020
0.0
1030
0.0
1001
AcDbBlockRepETag
1070
     1
1071
      906
1005
41DA
  0
ENDBLK
  5
41DB
330
4199
100
AcDbEntity
  8
0
 62
     9
100
AcDbBlockEnd
  0
ENDSEC
  0
SECTION
  2
ENTITIES
  0
TEXT
  5
2DBA
330
1F
100
AcDbEntity
  8
APL Notes
100
AcDbText
 10
118.0150343326329
 20
471.0878341053399
 30
0.0
 40
5.0
  1
A
  7
Arial-Bold
100
AcDbText
  0
SOLID
  5
2DBC
330
1F
100
AcDbEntity
  8
APL Notes
  6
Continuous
 62
     8
100
AcDbTrace
 10
110.8749991921495
 20
472.3333334442203
 30
0.0
 11
106.8749991921495
 21
473.0000001108869
 31
0.0
 12
110.8749991921495
 22
473.6666667775536
 32
0.0
 13
110.8749991921495
 23
473.6666667775536
 33
0.0
1001
ACAD
1000
DSTYLE
1002
{
1070
   147
1040
0.625
1070
    77
1070
     0
1002
}
  0
TEXT
  5
2DBD
330
1F
100
AcDbEntity
  8
APL Notes
100
AcDbText
 10
7.167058285576786
 20
308.0841583793874
 30
0.0
 40
5.0
  1
C
  7
Arial-Bold
100
AcDbText
  0
LWPOLYLINE
  5
2DBE
330
1F
100
AcDbEntity
  8
APL Notes
  6
Continuous
 62
     8
 48
10.0
100
AcDbPolyline
 90
        2
 70
     0
 43
0.0
 10
20.99999919214952
 20
296.000000110887
 10
8.999999192149516
 20
296.000000110887
  0
SOLID
  5
2DBF
330
1F
100
AcDbEntity
  8
APL Notes
  6
Continuous
 62
     8
100
AcDbTrace
 10
8.333332525482887
 20
300.0000001108869
 30
0.0
 11
8.999999192149516
 21
296.000000110887
 31
0.0
 12
9.666665858816145
 22
300.0000001108869
 32
0.0
 13
9.666665858816145
 23
300.0000001108869
 33
0.0
1001
ACAD
1000
DSTYLE
1002
{
1070
   147
1040
0.625
1070
    77
1070
     0
1002
}
  0
TEXT
  5
2DC2
330
1F
100
AcDbEntity
  8
APL Notes
100
AcDbText
 10
118.0150343326329
 20
359.0878341053399
 30
0.0
 40
5.0
  1
A
  7
Arial-Bold
100
AcDbText
  0
SOLID
  5
2DC4
330
1F
100
AcDbEntity
  8
APL Notes
  6
Continuous
 62
     8
100
AcDbTrace
 10
110.8749991921495
 20
360.3333334442203
 30
0.0
 11
106.8749991921495
 21
361.000000110887
 31
0.0
 12
110.8749991921495
 22
361.6666667775536
 32
0.0
 13
110.8749991921495
 23
361.6666667775536
 33
0.0
1001
ACAD
1000
DSTYLE
1002
{
1070
   147
1040
0.625
1070
    77
1070
     0
1002
}
  0
INSERT
  5
305B
330
1F
100
AcDbEntity
  8
APL Joinery
100
AcDbBlockReference
  2
08552
 10
196.4999991921495
 20
282.000000110887
 30
0.0
  0
TEXT
  5
31C2
330
1F
100
AcDbEntity
  8
APL Notes
100
AcDbText
 10
232.4999991921495
 20
172.3750001108869
 30
0.0
 40
5.0
  1
Beaded 25mm
  7
Arial-Regular
100
AcDbText
  0
TEXT
  5
31C3
330
1F
100
AcDbEntity
  8
APL Notes
100
AcDbText
 10
232.4999991921495
 20
165.3750001108869
 30
0.0
 40
5.0
  1
Channel Option
  7
Arial-Regular
100
AcDbText
  0
TEXT
  5
31C4
330
1F
100
AcDbEntity
  8
APL Notes
100
AcDbText
 10
232.4999991921495
 20
179.3750001108869
 30
0.0
 40
5.0
  1
08554
  7
Arial-Bold
100
AcDbText
  0
INSERT
  5
31CB
330
1F
100
AcDbEntity
  8
APL Joinery
100
AcDbBlockReference
  2
08554
 10
196.4999991921495
 20
167.0000001108869
 30
0.0
 41
-1.0
 50
180.0
  0
INSERT
  5
31D6
330
1F
100
AcDbEntity
  8
APL Joinery
100
AcDbBlockReference
  2
6Glass
 10
222.9999991921487
 20
261.0000001108872
 30
0.0
  0
INSERT
  5
31EC
330
1F
100
AcDbEntity
  8
APL Joinery
100
AcDbBlockReference
  2
08553
 10
57.12499919214952
 20
192.0000001108869
 30
0.0
 41
-1.0
 50
180.0
  0
INSERT
  5
31ED
330
1F
100
AcDbEntity
  8
APL Joinery
100
AcDbBlockReference
  2
08552
 10
57.12499919214952
 20
63.0000001108869
 30
0.0
 41
-1.0
 50
180.0
  0
INSERT
  5
3214
330
1F
100
AcDbEntity
  8
APL Joinery
100
AcDbBlockReference
  2
08552
 10
246.9999991921496
 20
36.20000011088701
 30
0.0
 50
90.0
  0
INSERT
  5
3215
330
1F
100
AcDbEntity
  8
APL Joinery
100
AcDbBlockReference
  2
6Glass
 10
267.9999991921495
 20
60.70000011087604
 30
0.0
 50
90.0
  0
INSERT
  5
3217
330
1F
100
AcDbEntity
  8
APL Joinery
100
AcDbBlockReference
  2
9010313
 10
266.7499991921497
 20
60.700000110887
 30
0.0
 41
-1.0
 50
90.0
  0
LWPOLYLINE
  5
321E
330
1F
100
AcDbEntity
  8
APL Notes
100
AcDbPolyline
 90
        4
 70
     1
 43
0.3
 10
95.8249991921498
 20
15.20000011088695
 10
95.8249991921498
 20
26.20000011088695
 10
44.8249991921498
 20
26.20000011088695
 10
44.8249991921498
 20
15.20000011088695
  0
TEXT
  5
321F
330
1F
100
AcDbEntity
  8
APL Notes
100
AcDbText
 10
47.82499919214979
 20
18.20000011088694
 30
0.0
 40
5.0
  1
SECTION B-B
  7
Arial-Bold
100
AcDbText
  0
LWPOLYLINE
  5
3220
330
1F
100
AcDbEntity
  8
APL Notes
100
AcDbPolyline
 90
        4
 70
     1
 43
0.3
 10
183.9999991921495
 20
136.0000001108869
 10
183.9999991921495
 20
147.0000001108869
 10
234.9999991921495
 20
147.0000001108869
 10
234.9999991921495
 20
136.0000001108869
  0
TEXT
  5
3221
330
1F
100
AcDbEntity
  8
APL Notes
100
AcDbText
 10
186.8772161089298
 20
139.0000001108869
 30
0.0
 40
5.0
  1
SECTION A-A
  7
Arial-Bold
100
AcDbText
  0
TEXT
  5
3225
330
1F
100
AcDbEntity
  8
APL Notes
100
AcDbText
 10
81.26503433263296
 20
263.0878341053399
 30
0.0
 40
5.0
  1
B
  7
Arial-Bold
100
AcDbText
  0
SOLID
  5
3227
330
1F
100
AcDbEntity
  8
APL Notes
  6
Continuous
 62
     8
100
AcDbTrace
 10
74.1249991921495
 20
264.3333334442203
 30
0.0
 11
70.1249991921495
 21
265.000000110887
 31
0.0
 12
74.1249991921495
 22
265.6666667775536
 32
0.0
 13
74.1249991921495
 23
265.6666667775536
 33
0.0
1001
ACAD
1000
DSTYLE
1002
{
1070
   147
1040
0.625
1070
    77
1070
     0
1002
}
  0
TEXT
  5
3229
330
1F
100
AcDbEntity
  8
APL Notes
100
AcDbText
 10
81.26503433263296
 20
325.0878341053399
 30
0.0
 40
5.0
  1
B
  7
Arial-Bold
100
AcDbText
  0
SOLID
  5
322B
330
1F
100
AcDbEntity
  8
APL Notes
  6
Continuous
 62
     8
100
AcDbTrace
 10
74.1249991921495
 20
326.3333334442204
 30
0.0
 11
70.1249991921495
 21
327.000000110887
 31
0.0
 12
74.1249991921495
 22
327.6666667775537
 32
0.0
 13
74.1249991921495
 23
327.6666667775537
 33
0.0
1001
ACAD
1000
DSTYLE
1002
{
1070
   147
1040
0.625
1070
    77
1070
     0
1002
}
  0
LWPOLYLINE
  5
3236
330
1F
100
AcDbEntity
  8
APL Notes
100
AcDbPolyline
 90
        4
 70
     1
 43
0.3
 10
299.9999991921495
 20
15.20000011088695
 10
299.9999991921495
 20
26.20000011088695
 10
248.9999991921495
 20
26.20000011088695
 10
248.9999991921495
 20
15.20000011088695
  0
TEXT
  5
3237
330
1F
100
AcDbEntity
  8
APL Notes
100
AcDbText
 10
251.9999991921495
 20
18.20000011088695
 30
0.0
 40
5.0
  1
SECTION C-C
  7
Arial-Bold
100
AcDbText
  0
TEXT
  5
323E
330
1F
100
AcDbEntity
  8
APL Notes
100
AcDbText
 10
19.16705828557678
 20
308.0841583793874
 30
0.0
 40
5.0
  1
C
  7
Arial-Bold
100
AcDbText
  0
SOLID
  5
323F
330
1F
100
AcDbEntity
  8
APL Notes
  6
Continuous
 62
     8
100
AcDbTrace
 10
20.33333252548289
 20
300.0000001108869
 30
0.0
 11
20.99999919214952
 21
296.000000110887
 31
0.0
 12
21.66666585881614
 22
300.0000001108869
 32
0.0
 13
21.66666585881614
 23
300.0000001108869
 33
0.0
1001
ACAD
1000
DSTYLE
1002
{
1070
   147
1040
0.625
1070
    77
1070
     0
1002
}
  0
TEXT
  5
3246
330
1F
100
AcDbEntity
  8
APL Notes
100
AcDbText
 10
28.70139755504174
 20
164.1815951879764
 30
0.0
 40
5.0
  1
08553
  7
Arial-Bold
 72
     2
 11
48.12499919214952
 21
164.1815951879764
 31
0.0
100
AcDbText
  0
TEXT
  5
3248
330
1F
100
AcDbEntity
  8
APL Notes
100
AcDbText
 10
35.70139755504174
 20
89.37500011088696
 30
0.0
 40
5.0
  1
08552
  7
Arial-Bold
 72
     2
 11
55.12499919214952
 21
89.37500011088696
 31
0.0
100
AcDbText
  0
TEXT
  5
3249
330
1F
100
AcDbEntity
  8
APL Notes
100
AcDbText
 10
175.1762514029647
 20
179.3750001108869
 30
0.0
 40
5.0
  1
01659
  7
Arial-Bold
 72
     2
 11
194.5998530400725
 21
179.3750001108869
 31
0.0
100
AcDbText
  0
TEXT
  5
324A
330
1F
100
AcDbEntity
  8
APL Notes
100
AcDbText
 10
249.6631983735956
 20
64.20000011088695
 30
0.0
 40
5.0
  1
08552
  7
Arial-Bold
 72
     1
 11
259.3749991921495
 21
64.20000011088695
 31
0.0
100
AcDbText
  0
TEXT
  5
324F
330
1F
100
AcDbEntity
  8
APL Notes
100
AcDbText
 10
175.0763975550417
 20
269.6250001108869
 30
0.0
 40
5.0
  1
08552
  7
Arial-Bold
 72
     2
 11
194.4999991921495
 21
269.6250001108869
 31
0.0
100
AcDbText
  0
LWPOLYLINE
  5
326B
330
1F
100
AcDbEntity
  8
APL Building
100
AcDbPolyline
 90
        4
 70
     0
 43
0.0
 10
178.4999991921495
 20
165.0000001108869
 10
224.4999991921495
 20
165.0000001108869
 10
224.4999991921495
 20
192.0000001108869
 10
340.4999991921495
 20
192.0000001108869
  0
LINE
  5
32B3
330
1F
100
AcDbEntity
  8
APL Joinery
 62
     7
100
AcDbLine
 10
216.4999991921487
 20
244.0000001108871
 30
0.0
 11
216.4999991921487
 21
254.0000001108871
 31
0.0
  0
LINE
  5
32B4
330
1F
100
AcDbEntity
  8
APL Joinery
 62
     8
100
AcDbLine
 10
214.4999991921487
 20
244.0000001108871
 30
0.0
 11
214.4999991921487
 21
254.0000001108871
 31
0.0
  0
LINE
  5
32B5
330
1F
100
AcDbEntity
  8
APL Joinery
 62
     8
100
AcDbLine
 10
212.4999991921487
 20
244.0000001108871
 30
0.0
 11
212.4999991921487
 21
254.0000001108871
 31
0.0
  0
LINE
  5
32B6
330
1F
100
AcDbEntity
  8
APL Joinery
 62
     7
100
AcDbLine
 10
210.4999991921487
 20
244.0000001108871
 30
0.0
 11
210.4999991921487
 21
254.0000001108871
 31
0.0
  0
LINE
  5
32B7
330
1F
100
AcDbEntity
  8
APL Joinery
 62
     7
100
AcDbLine
 10
274.9999991921498
 20
48.20000011087609
 30
0.0
 11
284.9999991921497
 21
48.20000011087609
 31
0.0
  0
LINE
  5
32B8
330
1F
100
AcDbEntity
  8
APL Joinery
 62
     8
100
AcDbLine
 10
274.9999991921498
 20
50.20000011087609
 30
0.0
 11
284.9999991921497
 21
50.20000011087609
 31
0.0
  0
LINE
  5
32B9
330
1F
100
AcDbEntity
  8
APL Joinery
 62
     8
100
AcDbLine
 10
274.9999991921498
 20
52.20000011087609
 30
0.0
 11
284.9999991921497
 21
52.20000011087609
 31
0.0
  0
LINE
  5
32BA
330
1F
100
AcDbEntity
  8
APL Joinery
 62
     7
100
AcDbLine
 10
274.9999991921498
 20
54.20000011087608
 30
0.0
 11
284.9999991921497
 21
54.20000011087608
 31
0.0
  0
TEXT
  5
32BE
330
1F
100
AcDbEntity
  8
APL Notes
100
AcDbText
 10
99.64003433263298
 20
300.0878341053399
 30
0.0
 40
5.0
  1
Silicone
  7
Arial-Regular
100
AcDbText
  0
SOLID
  5
32BF
330
1F
100
AcDbEntity
  8
APL Notes
  6
Continuous
 62
     8
100
AcDbTrace
 10
92.49999919214952
 20
301.3333334442203
 30
0.0
 11
88.49999919214951
 21
302.0000001108869
 31
0.0
 12
92.49999919214952
 22
302.6666667775536
 32
0.0
 13
92.49999919214952
 23
302.6666667775536
 33
0.0
1001
ACAD
1000
DSTYLE
1002
{
1070
   147
1040
0.625
1070
    77
1070
     0
1002
}
  0
TEXT
  5
32C0
330
1F
100
AcDbEntity
  8
APL Notes
100
AcDbText
 10
99.64003433263298
 20
293.0878341053399
 30
0.0
 40
5.0
  1
Butt
  7
Arial-Regular
100
AcDbText
  0
TEXT
  5
32C2
330
1F
100
AcDbEntity
  8
APL Notes
100
AcDbText
 10
99.64003433263298
 20
286.0878341053399
 30
0.0
 40
5.0
  1
Joints
  7
Arial-Regular
100
AcDbText
  0
TEXT
  5
32C6
330
1F
100
AcDbEntity
  8
APL Notes
100
AcDbText
 10
3.094303421344605
 20
157.1815951879764
 30
0.0
 40
5.0
  1
50mm Glazing
  7
Arial-Regular
 72
     2
 11
48.12499919214952
 21
157.1815951879764
 31
0.0
100
AcDbText
  0
TEXT
  5
32C8
330
1F
100
AcDbEntity
  8
APL Notes
100
AcDbText
 10
22.10521747318635
 20
150.1815951879764
 30
0.0
 40
5.0
  1
Channel
  7
Arial-Regular
 72
     2
 11
48.12499919214952
 21
150.1815951879764
 31
0.0
100
AcDbText
  0
TEXT
  5
32CA
330
1F
100
AcDbEntity
  8
APL Notes
100
AcDbText
 10
10.0943034213446
 20
82.37500011088696
 30
0.0
 40
5.0
  1
25mm Glazing
  7
Arial-Regular
 72
     2
 11
55.12499919214952
 21
82.37500011088696
 31
0.0
100
AcDbText
  0
TEXT
  5
32CB
330
1F
100
AcDbEntity
  8
APL Notes
100
AcDbText
 10
29.10521747318635
 20
75.37500011088695
 30
0.0
 40
5.0
  1
Channel
  7
Arial-Regular
 72
     2
 11
55.12499919214952
 21
75.37500011088695
 31
0.0
100
AcDbText
  0
TEXT
  5
32D0
330
1F
100
AcDbEntity
  8
APL Notes
100
AcDbText
 10
53.22499919214942
 20
39.70000011088688
 30
0.0
 40
5.0
  1
Zed Sill
  7
Arial-Regular
100
AcDbText
  0
TEXT
  5
32D2
330
1F
100
AcDbEntity
  8
APL Notes
100
AcDbText
 10
53.22499919214942
 20
46.70000011088688
 30
0.0
 40
5.0
  1
08475
  7
Arial-Bold
100
AcDbText
  0
INSERT
  5
32DD
330
1F
100
AcDbEntity
  8
APL Joinery
100
AcDbBlockReference
  2
6Glass
 10
216.9999991921486
 20
261.0000001108872
 30
0.0
  0
LINE
  5
32F6
330
1F
100
AcDbEntity
  8
APL Joinery
 62
     7
100
AcDbLine
 10
204.4999991921487
 20
244.0000001108871
 30
0.0
 11
204.4999991921487
 21
254.0000001108871
 31
0.0
  0
LINE
  5
32F7
330
1F
100
AcDbEntity
  8
APL Joinery
 62
     8
100
AcDbLine
 10
206.4999991921487
 20
244.0000001108871
 30
0.0
 11
206.4999991921487
 21
254.0000001108871
 31
0.0
  0
LINE
  5
32F8
330
1F
100
AcDbEntity
  8
APL Joinery
 62
     8
100
AcDbLine
 10
208.4999991921487
 20
244.0000001108871
 30
0.0
 11
208.4999991921487
 21
254.0000001108871
 31
0.0
  0
LWPOLYLINE
  5
3315
330
1F
100
AcDbEntity
  8
APL Building
100
AcDbPolyline
 90
        6
 70
     0
 43
0.0
 10
30.12499919214952
 20
142.0000001108869
 10
55.12499919214952
 20
142.0000001108869
 10
55.12499919214952
 20
194.0000001108869
 10
85.12499919214951
 20
194.0000001108869
 10
85.12499919214951
 20
142.0000001108869
 10
110.1249991921495
 20
142.0000001108869
  0
LINE
  5
3340
330
1F
100
AcDbEntity
  8
APL Building
100
AcDbLine
 10
244.9999991921495
 20
89.20000011088701
 30
0.0
 11
244.9999991921495
 21
9.200000110887003
 31
0.0
  0
HATCH
  5
33A8
330
1F
100
AcDbEntity
  8
APL Building
 62
     8
100
AcDbHatch
 10
0.0
 20
0.0
 30
0.0
210
0.0
220
0.0
230
1.0
  2
ANSI31
 70
     0
 71
     0
 91
        1
 92
        7
 72
     0
 73
     1
 93
        4
 10
244.9999991921495
 20
89.20000011088701
 10
239.9999991921495
 20
89.20000011088701
 10
239.9999991921495
 20
9.200000110887003
 10
244.9999991921495
 20
9.200000110887003
 97
        0
 75
     0
 76
     1
 52
90.0
 41
1.0
 77
     0
 78
     1
 53
135.0
 43
-2.0
 44
0.0
 45
-2.245064030267288
 46
-2.245064030267287
 79
     0
 47
0.2820021037953758
 98
        1
 10
243.8940981142316
 20
68.55234742483322
  0
LWPOLYLINE
  5
33AD
330
1F
100
AcDbEntity
  8
APL Building
100
AcDbPolyline
 90
        3
 70
     0
 43
0.0
 10
46.22499919214942
 20
29.20000011088689
 10
46.22499919214942
 20
59.20000011088689
 10
106.2249991921494
 20
59.20000011088689
  0
HATCH
  5
33C1
330
1F
100
AcDbEntity
  8
APL Building
 62
     8
100
AcDbHatch
 10
0.0
 20
0.0
 30
0.0
210
0.0
220
0.0
230
1.0
  2
ANSI31
 70
     0
 71
     0
 91
        1
 92
        7
 72
     0
 73
     1
 93
        6
 10
106.2249991921494
 20
59.20000011088689
 10
46.22499919214942
 20
59.20000011088689
 10
46.22499919214941
 20
29.20000011088688
 10
51.22499919214942
 20
29.20000011088689
 10
51.22499919214943
 20
54.20000011088689
 10
106.2249991921494
 20
54.20000011088689
 97
        0
 75
     0
 76
     1
 52
90.0
 41
1.0
 77
     0
 78
     1
 53
135.0
 43
-8.0
 44
-2.0
 45
-2.245064030267288
 46
-2.245064030267287
 79
     0
 47
0.0665224406969038
 98
        1
 10
86.99294753082881
 20
57.97714149248736
  0
HATCH
  5
3510
330
1F
100
AcDbEntity
  8
APL Building
 62
     8
100
AcDbHatch
 10
0.0
 20
0.0
 30
0.0
210
0.0
220
0.0
230
1.0
  2
ANSI31
 70
     0
 71
     0
 91
        1
 92
        7
 72
     0
 73
     1
 93
        8
 10
340.4999991921495
 20
192.0000001108869
 10
224.4999991921495
 20
192.0000001108869
 10
224.4999991921495
 20
165.0000001108869
 10
178.4999991921495
 20
165.0000001108869
 10
178.4999991921495
 20
160.0000001108869
 10
229.4999991921495
 20
160.0000001108869
 10
229.4999991921495
 20
187.0000001108869
 10
340.4999991921495
 20
187.0000001108869
 97
        0
 75
     0
 76
     1
 52
90.0
 41
1.0
 77
     0
 78
     1
 53
135.0
 43
0.0
 44
0.0
 45
-2.245064030267288
 46
-2.245064030267287
 79
     0
 47
0.165543897103706
 98
        1
 10
273.94081040217
 20
189.9027614250167
  0
TEXT
  5
3514
330
1F
100
AcDbEntity
  8
APL Notes
100
AcDbText
 10
34.54519018805675
 20
68.37500011088696
 30
0.0
 40
5.0
  1
Option
  7
Arial-Regular
 72
     2
 11
55.12499919214952
 21
68.37500011088696
 31
0.0
100
AcDbText
  0
INSERT
  5
3517
330
1F
100
AcDbEntity
  8
APL Joinery
100
AcDbBlockReference
  2
6Glass
 10
81.62499919214946
 20
146.0000001108872
 30
0.0
  0
LINE
  5
3518
330
1F
100
AcDbEntity
  8
APL Joinery
 62
     7
100
AcDbLine
 10
75.12499919214952
 20
129.0000001108871
 30
0.0
 11
75.12499919214952
 21
139.000000110887
 31
0.0
  0
LINE
  5
3519
330
1F
100
AcDbEntity
  8
APL Joinery
 62
     8
100
AcDbLine
 10
73.12499919214952
 20
129.0000001108871
 30
0.0
 11
73.12499919214952
 21
139.000000110887
 31
0.0
  0
LINE
  5
351A
330
1F
100
AcDbEntity
  8
APL Joinery
 62
     8
100
AcDbLine
 10
71.12499919214951
 20
129.0000001108871
 30
0.0
 11
71.12499919214951
 21
139.000000110887
 31
0.0
  0
LINE
  5
351B
330
1F
100
AcDbEntity
  8
APL Joinery
 62
     7
100
AcDbLine
 10
69.12499919214951
 20
129.0000001108871
 30
0.0
 11
69.12499919214951
 21
139.000000110887
 31
0.0
  0
LWPOLYLINE
  5
353D
330
1F
100
AcDbEntity
  8
APL Notes
100
AcDbPolyline
 90
        7
 70
     1
 43
0.0
 10
124.7499991921495
 20
409.500000110887
 10
133.7499991921495
 20
409.500000110887
 10
133.7499991921495
 20
414.5000001108869
 10
124.7499991921495
 20
414.5000001108869
 10
124.7499991921495
 20
417.5000001108869
 10
116.7499991921495
 20
412.0000001108869
 10
124.7499991921495
 20
406.5000001108869
  0
INSERT
  5
3586
330
1F
100
AcDbEntity
  8
APL Joinery
100
AcDbBlockReference
  2
9010313
 10
81.62499919214951
 20
147.2500001108869
 30
0.0
 41
-1.0
  0
INSERT
  5
358D
330
1F
100
AcDbEntity
  8
APL Joinery
100
AcDbBlockReference
  2
6Glass
 10
81.62499919214946
 20
84.00000011088678
 30
0.0
 41
-1.0
 50
180.0
  0
LINE
  5
358E
330
1F
100
AcDbEntity
  8
APL Joinery
 62
     7
100
AcDbLine
 10
75.12499919214952
 20
101.0000001108869
 30
0.0
 11
75.12499919214952
 21
91.00000011088695
 31
0.0
  0
LINE
  5
358F
330
1F
100
AcDbEntity
  8
APL Joinery
 62
     8
100
AcDbLine
 10
73.12499919214952
 20
101.0000001108869
 30
0.0
 11
73.12499919214952
 21
91.00000011088695
 31
0.0
  0
LINE
  5
3590
330
1F
100
AcDbEntity
  8
APL Joinery
 62
     8
100
AcDbLine
 10
71.12499919214951
 20
101.0000001108869
 30
0.0
 11
71.12499919214951
 21
91.00000011088695
 31
0.0
  0
LINE
  5
3591
330
1F
100
AcDbEntity
  8
APL Joinery
 62
     7
100
AcDbLine
 10
69.12499919214951
 20
101.0000001108869
 30
0.0
 11
69.12499919214951
 21
91.00000011088695
 31
0.0
  0
INSERT
  5
3593
330
1F
100
AcDbEntity
  8
APL Joinery
100
AcDbBlockReference
  2
9010313
 10
81.62499919214951
 20
82.75000011088707
 30
0.0
 50
180.0
  0
INSERT
  5
3596
330
1F
100
AcDbEntity
  8
APL Joinery
100
AcDbBlockReference
  2
9010600
 10
218.4999991921495
 20
258.0000001108869
 30
0.0
 41
-1.0
 50
180.0
  0
HATCH
  5
3731
330
1F
100
AcDbEntity
  8
APL Building
 62
     8
100
AcDbHatch
 10
0.0
 20
0.0
 30
0.0
210
0.0
220
0.0
230
1.0
  2
ANSI31
 70
     0
 71
     0
 91
        1
 92
        7
 72
     0
 73
     1
 93
       12
 10
85.12499919214951
 20
142.0000001108869
 10
110.1249991921495
 20
142.0000001108869
 10
110.1249991921495
 20
147.0000001108869
 10
90.12499919214951
 20
147.000000110887
 10
90.12499919214951
 20
199.0000001108869
 10
50.12499919214952
 20
199.000000110887
 10
50.12499919214953
 20
147.000000110887
 10
30.12499919214952
 20
147.0000001108869
 10
30.12499919214952
 20
142.0000001108869
 10
55.12499919214952
 20
142.0000001108869
 10
55.12499919214951
 20
194.000000110887
 10
85.12499919214951
 20
194.0000001108869
 97
        0
 75
     0
 76
     1
 52
90.0
 41
1.0
 77
     0
 78
     1
 53
135.0
 43
0.0
 44
0.0
 45
-2.245064030267288
 46
-2.245064030267287
 79
     0
 47
0.1218714758438645
 98
        1
 10
86.14847704536851
 20
190.0914923404086
  0
TEXT
  5
3736
330
1F
100
AcDbEntity
  8
APL Notes
100
AcDbText
 10
73.17598827809767
 20
251.000000110887
 30
0.0
 40
5.0
  1
WINDOW
  7
Arial-Bold
 72
     1
 11
88.49999919214951
 21
256.0000001108869
 31
0.0
100
AcDbText
 73
     3
  0
TEXT
  5
3737
330
1F
100
AcDbEntity
  8
APL Notes
100
AcDbText
 10
62.88778909665156
 20
347.000000110887
 30
0.0
 40
5.0
  1
SLIDING DOOR
  7
Arial-Bold
 72
     1
 11
88.49999919214951
 21
352.0000001108869
 31
0.0
100
AcDbText
 73
     3
  0
INSERT
  5
37FF
330
1F
100
AcDbEntity
  8
APL Joinery
100
AcDbBlockReference
  2
08475
 10
43.69499919214951
 20
61.43000011088679
 30
0.0
  0
MTEXT
  5
382E
330
1F
100
AcDbEntity
  8
APL Notes
100
AcDbMText
 10
249.659819862663
 20
422.5050498444447
 30
0.0
 40
5.0
 41
48.05273450497681
 71
     1
 72
     5
  1
Door Closer\PSupplied\Pby Others
  7
Arial-Bold
 73
     1
 44
1.0
1001
ACAD
1000
MTEXTBEGIN
1070
    73
1070
     1
1070
    44
1040
1.0
1070
    74
1070
     0
1000
MTEXTEND
  0
INSERT
  5
38F6
330
1F
100
AcDbEntity
  8
APL Joinery
100
AcDbBlockReference
  2
01659
 10
196.5998530400725
 20
173.000000110887
 30
0.0
 41
-1.0
  0
INSERT
  5
38F7
330
1F
100
AcDbEntity
  8
APL Joinery
100
AcDbBlockReference
  2
6Glass
 10
222.9999991921488
 20
192.3000001108867
 30
0.0
 41
-1.0
 50
180.0
  0
LINE
  5
38F8
330
1F
100
AcDbEntity
  8
APL Joinery
 62
     7
100
AcDbLine
 10
216.4999991921487
 20
205.0000001108868
 30
0.0
 11
216.4999991921487
 21
195.0000001108868
 31
0.0
  0
LINE
  5
38F9
330
1F
100
AcDbEntity
  8
APL Joinery
 62
     8
100
AcDbLine
 10
214.4999991921487
 20
205.0000001108868
 30
0.0
 11
214.4999991921487
 21
195.0000001108868
 31
0.0
  0
LINE
  5
38FA
330
1F
100
AcDbEntity
  8
APL Joinery
 62
     8
100
AcDbLine
 10
212.4999991921487
 20
205.0000001108868
 30
0.0
 11
212.4999991921487
 21
195.0000001108868
 31
0.0
  0
LINE
  5
38FB
330
1F
100
AcDbEntity
  8
APL Joinery
 62
     7
100
AcDbLine
 10
210.4999991921487
 20
205.0000001108868
 30
0.0
 11
210.4999991921487
 21
195.0000001108868
 31
0.0
  0
INSERT
  5
38FC
330
1F
100
AcDbEntity
  8
APL Joinery
100
AcDbBlockReference
  2
6Glass
 10
216.9999991921488
 20
192.3000001108867
 30
0.0
 41
-1.0
 50
180.0
  0
LINE
  5
38FE
330
1F
100
AcDbEntity
  8
APL Joinery
 62
     7
100
AcDbLine
 10
204.4999991921486
 20
205.0000001108868
 30
0.0
 11
204.4999991921486
 21
195.0000001108868
 31
0.0
  0
LINE
  5
38FF
330
1F
100
AcDbEntity
  8
APL Joinery
 62
     8
100
AcDbLine
 10
206.4999991921486
 20
205.0000001108868
 30
0.0
 11
206.4999991921486
 21
195.0000001108868
 31
0.0
  0
LINE
  5
3900
330
1F
100
AcDbEntity
  8
APL Joinery
 62
     8
100
AcDbLine
 10
208.4999991921486
 20
205.0000001108868
 30
0.0
 11
208.4999991921486
 21
195.0000001108868
 31
0.0
  0
INSERT
  5
3901
330
1F
100
AcDbEntity
  8
APL Joinery
100
AcDbBlockReference
  2
9010600
 10
218.4999991921495
 20
191.0000001108869
 30
0.0
  0
LWPOLYLINE
  5
3A10
330
1F
100
AcDbEntity
  8
0
100
AcDbPolyline
 90
        4
 70
     1
 43
0.0
 10
-0.0000008078504834
 20
482.0000001108869
 10
-0.0000008078504834
 20
0.0000001108869583
 10
353.9999991921495
 20
0.0000001108869583
 10
353.9999991921495
 20
482.0000001108869
  0
INSERT
  5
3BF1
330
1F
100
AcDbEntity
  8
APL Joinery
100
AcDbBlockReference
  2
Auto Door - Horizon frameless
 10
190.4999991921495
 20
227.0000001108869
 30
0.0
  0
INSERT
  5
3D11
330
1F
100
AcDbEntity
  8
APL Joinery
100
AcDbBlockReference
  2
9010640-4.0mm
 10
200.4999991921488
 20
258.0000001108869
 30
0.0
 41
-1.0
 50
180.0
  0
INSERT
  5
3D47
330
1F
100
AcDbEntity
  8
APL Joinery
100
AcDbBlockReference
  2
9010675-8.0mm
 10
61.12499919214951
 20
87.00000011088695
 30
0.0
  0
INSERT
  5
3D48
330
1F
100
AcDbEntity
  8
APL Joinery
100
AcDbBlockReference
  2
9010675-8.0mm
 10
61.12499919214951
 20
143.000000110887
 30
0.0
 41
-1.0
 50
180.0
  0
INSERT
  5
3D49
330
1F
100
AcDbEntity
  8
APL Joinery
100
AcDbBlockReference
  2
9010675-8.0mm
 10
270.9999991921495
 20
40.2000001108762
 30
0.0
 41
-1.0
 50
270.0
  0
INSERT
  5
3D4A
330
1F
100
AcDbEntity
  8
APL Joinery
100
AcDbBlockReference
  2
9010640-4.0mm
 10
200.4999991921488
 20
191.0000001108869
 30
0.0
  0
LWPOLYLINE
  5
3E4A
330
1F
100
AcDbEntity
  8
APL Notes
 62
     2
100
AcDbPolyline
 90
        4
 70
     0
 43
0.0
 10
88.49999919214953
 20
455.0000001108871
 10
16.99999919214952
 20
455.000000110887
 10
16.99999919214952
 20
369.000000110887
 10
88.49999919214953
 20
369.000000110887
  0
LWPOLYLINE
  5
3E4D
330
1F
100
AcDbEntity
  8
APL Notes
 62
     2
100
AcDbPolyline
 90
        2
 70
     0
 43
0.0
 10
161.9999991921495
 20
457.0000001108869
 10
14.99999919214952
 20
457.0000001108869
  0
LWPOLYLINE
  5
3E4E
330
1F
100
AcDbEntity
  8
APL Notes
 62
     2
100
AcDbPolyline
 90
        2
 70
     0
 43
0.0
 10
88.49999919214951
 20
457.000000110887
 10
88.49999919214951
 20
367.000000110887
  0
LWPOLYLINE
  5
3E4F
330
1F
100
AcDbEntity
  8
APL Notes
 62
     2
100
AcDbPolyline
 90
        4
 70
     1
 43
0.0
 10
161.9999991921495
 20
367.000000110887
 10
14.99999919214952
 20
367.000000110887
 10
14.99999919214952
 20
467.0000001108869
 10
161.9999991921495
 20
467.0000001108869
  0
LWPOLYLINE
  5
3E53
330
1F
100
AcDbEntity
  8
APL Notes
  6
Continuous
 62
     8
 48
10.0
100
AcDbPolyline
 90
        2
 70
     0
 43
0.0
 10
106.8749991921495
 20
383.0000001108869
 10
106.8749991921495
 20
361.000000110887
  0
LWPOLYLINE
  5
3E54
330
1F
100
AcDbEntity
  8
APL Notes
  6
Continuous
 62
     8
 48
20.0
100
AcDbPolyline
 90
        2
 70
     0
 43
0.0
 10
110.8749991921495
 20
361.0000001108869
 10
116.8749991921494
 20
361.0000001108869
1001
ACAD
1000
DSTYLE
1002
{
1070
   147
1040
0.625
1070
    77
1070
     0
1002
}
  0
LWPOLYLINE
  5
3E55
330
1F
100
AcDbEntity
  8
APL Notes
  6
Continuous
 62
     8
 48
10.0
100
AcDbPolyline
 90
        2
 70
     0
 43
0.0
 10
106.8749991921495
 20
473.0000001108869
 10
106.8749991921495
 20
451.000000110887
  0
LWPOLYLINE
  5
3E56
330
1F
100
AcDbEntity
  8
APL Notes
  6
Continuous
 62
     8
 48
20.0
100
AcDbPolyline
 90
        2
 70
     0
 43
0.0
 10
110.8749991921495
 20
473.0000001108869
 10
116.8749991921494
 20
473.0000001108869
1001
ACAD
1000
DSTYLE
1002
{
1070
   147
1040
0.625
1070
    77
1070
     0
1002
}
  0
LWPOLYLINE
  5
3E57
330
1F
100
AcDbEntity
  8
APL Notes
  6
Continuous
 62
     8
 48
20.0
100
AcDbPolyline
 90
        2
 70
     0
 43
0.0
 10
92.49999919214957
 20
302.0000001108869
 10
98.49999919214946
 20
302.0000001108869
1001
ACAD
1000
DSTYLE
1002
{
1070
   147
1040
0.625
1070
    77
1070
     0
1002
}
  0
LWPOLYLINE
  5
3E58
330
1F
100
AcDbEntity
  8
APL Notes
 62
     2
100
AcDbPolyline
 90
        4
 70
     1
 43
0.0
 10
16.99999919214952
 20
273.000000110887
 10
159.9999991921495
 20
273.0000001108869
 10
159.9999991921495
 20
317.000000110887
 10
16.99999919214952
 20
317.000000110887
  0
LWPOLYLINE
  5
3E5C
330
1F
100
AcDbEntity
  8
APL Notes
  6
Continuous
 62
     8
 48
20.0
100
AcDbPolyline
 90
        2
 70
     0
 43
0.0
 10
20.99999919214952
 20
300.0000001108869
 10
20.99999919214952
 20
306.0000001108869
1001
ACAD
1000
DSTYLE
1002
{
1070
   147
1040
0.625
1070
    77
1070
     0
1002
}
  0
LWPOLYLINE
  5
3E5D
330
1F
100
AcDbEntity
  8
APL Notes
  6
Continuous
 62
     8
 48
10.0
100
AcDbPolyline
 90
        2
 70
     0
 43
0.0
 10
70.1249991921495
 20
327.000000110887
 10
70.12499919214956
 20
310.000000110887
  0
LWPOLYLINE
  5
3E5E
330
1F
100
AcDbEntity
  8
APL Notes
  6
Continuous
 62
     8
 48
20.0
100
AcDbPolyline
 90
        2
 70
     0
 43
0.0
 10
74.12499919214956
 20
327.0000001108869
 10
80.12499919214944
 20
327.0000001108869
1001
ACAD
1000
DSTYLE
1002
{
1070
   147
1040
0.625
1070
    77
1070
     0
1002
}
  0
LWPOLYLINE
  5
3E5F
330
1F
100
AcDbEntity
  8
APL Notes
  6
Continuous
 62
     8
 48
10.0
100
AcDbPolyline
 90
        2
 70
     0
 43
0.0
 10
70.12499919214956
 20
282.0000001108869
 10
70.1249991921495
 20
265.000000110887
  0
LWPOLYLINE
  5
3E60
330
1F
100
AcDbEntity
  8
APL Notes
  6
Continuous
 62
     8
 48
20.0
100
AcDbPolyline
 90
        2
 70
     0
 43
0.0
 10
74.12499919214956
 20
265.0000001108869
 10
80.12499919214944
 20
265.0000001108869
1001
ACAD
1000
DSTYLE
1002
{
1070
   147
1040
0.625
1070
    77
1070
     0
1002
}
  0
LWPOLYLINE
  5
3E61
330
1F
100
AcDbEntity
  8
APL Notes
 62
     2
100
AcDbPolyline
 90
        2
 70
     0
 43
0.0
 10
51.74999919214951
 20
273.0000001108869
 10
51.74999919214952
 20
317.000000110887
  0
LWPOLYLINE
  5
3E62
330
1F
100
AcDbEntity
  8
APL Notes
 62
     2
100
AcDbPolyline
 90
        2
 70
     0
 43
0.0
 10
125.2499991921495
 20
273.0000001108869
 10
125.2499991921495
 20
317.000000110887
  0
LWPOLYLINE
  5
3E63
330
1F
100
AcDbEntity
  8
APL Notes
 62
     2
100
AcDbPolyline
 90
        2
 70
     0
 43
0.0
 10
88.49999919214951
 20
317.000000110887
 10
88.49999919214951
 20
273.0000001108869
  0
LWPOLYLINE
  5
3E64
330
1F
100
AcDbEntity
  8
APL Notes
 62
     2
100
AcDbPolyline
 90
        4
 70
     1
 43
0.0
 10
161.9999991921495
 20
271.000000110887
 10
14.99999919214952
 20
271.000000110887
 10
14.99999919214952
 20
321.000000110887
 10
161.9999991921495
 20
321.000000110887
  0
LWPOLYLINE
  5
3E68
330
1F
100
AcDbEntity
  8
APL Notes
  6
Continuous
 62
     8
 48
20.0
100
AcDbPolyline
 90
        2
 70
     0
 43
0.0
 10
8.999999192149516
 20
300.0000001108869
 10
8.999999192149516
 20
306.0000001108869
1001
ACAD
1000
DSTYLE
1002
{
1070
   147
1040
0.625
1070
    77
1070
     0
1002
}
  0
VIEWPORT
  5
2CC9
102
{ACAD_XDICTIONARY
360
412B
102
}
330
2CC1
100
AcDbEntity
 67
     1
  8
0
100
AcDbViewport
 10
99.91724538803099
 20
143.1184201240539
 30
0.0
 40
430.1964563810208
 41
299.4231128286808
 68
     1
 69
     1
 12
99.91724538803099
 22
143.1184201240539
 13
0.0
 23
0.0
 14
10.0
 24
10.0
 15
10.0
 25
10.0
 16
0.0
 26
0.0
 36
1.0
 17
0.0
 27
0.0
 37
0.0
 42
50.0
 43
0.0
 44
0.0
 45
299.4231128286808
 50
0.0
 51
0.0
 72
 20000
 90
    32800
  1

281
     0
 71
     1
 74
     0
110
0.0
120
0.0
130
0.0
111
1.0
121
0.0
131
0.0
112
0.0
122
1.0
132
0.0
 79
     0
146
0.0
  0
VIEWPORT
  5
2CCB
102
{ACAD_XDICTIONARY
360
412D
102
}
330
2CC1
100
AcDbEntity
 67
     1
  8
0
100
AcDbViewport
 10
100.595
 20
131.1899999999999
 30
0.0
 40
178.0
 41
241.9999999999999
 68
     2
 69
     2
 12
177.0000016649617
 22
241.0000034778235
 13
0.0
 23
0.0
 14
10.0
 24
10.0
 15
10.0
 25
10.0
 16
0.0
 26
0.0
 36
1.0
 17
0.0
 27
0.0
 37
0.0
 42
50.0
 43
0.0
 44
0.0
 45
483.9999999999998
 50
0.0
 51
0.0
 72
 20000
 90
    36960
  1

281
     0
 71
     1
 74
     0
110
0.0
120
0.0
130
0.0
111
1.0
121
0.0
131
0.0
112
0.0
122
1.0
132
0.0
 79
     0
146
0.0
  0
INSERT
  5
2CD0
330
2CC1
100
AcDbEntity
 67
     1
  8
APL Border
100
AcDbBlockReference
  2
vantage a4 SM border
 10
0.0
 20
0.0
 30
0.0
  0
INSERT
  5
2D10
330
2CC1
100
AcDbEntity
 67
     1
  8
APL Border
100
AcDbBlockReference
 66
     1
  2
vantage a4 SM attributes (2)
 10
0.0
 20
0.0
 30
0.0
  0
ATTRIB
  5
2D12
330
2D10
100
AcDbEntity
 67
     1
  8
APL Border
100
AcDbText
 10
41.78979785863009
 20
269.19
 30
0.0
 40
3.5
  1
25MM GLAZING CHANNEL SUITE 
  7
Arial-Bold
100
AcDbAttribute
  2
DRAWINGTITLE_1
 70
     0
  0
ATTRIB
  5
2D13
330
2D10
100
AcDbEntity
 67
     1
  8
APL Border
100
AcDbText
 10
41.78979785863009
 20
263.19
 30
0.0
 40
3.0
  1
CROSS SECTION
  7
Arial-Regular
100
AcDbAttribute
  2
DRAWINGTITLE_2
 70
     0
  0
ATTRIB
  5
2D14
330
2D10
100
AcDbEntity
 67
     1
  8
APL Border
100
AcDbText
 10
165.845
 20
273.69
 30
0.0
 40
2.5
  1
VCSF09-0
  7
Arial-Regular
100
AcDbAttribute
  2
AW123-456
 70
     0
  0
ATTRIB
  5
2D15
330
2D10
100
AcDbEntity
 67
     1
  8
APL Border
100
AcDbText
 10
147.5475920873124
 20
257.1899999999999
 30
0.0
 40
2.5
  1
01.06.11
  7
Arial-Regular
 72
     1
 11
154.345
 21
257.1899999999999
 31
0.0
100
AcDbAttribute
  2
24.05.02
 70
     0
  0
ATTRIB
  5
2D16
330
2D10
100
AcDbEntity
 67
     1
  8
APL Border
100
AcDbText
 10
175.4174761255116
 20
257.1899999999999
 30
0.0
 40
2.5
  1
1:2
  7
Arial-Regular
 72
     1
 11
177.845
 21
257.1899999999999
 31
0.0
100
AcDbAttribute
  2
1:2
 70
     0
  0
ATTRIB
  5
2D17
330
2D10
100
AcDbEntity
 67
     1
  8
APL Border
100
AcDbText
 10
11.59500000000003
 20
1.189999999999997
 30
0.0
 40
3.75
  1

  7
Arial-Bold
100
AcDbAttribute
  2
1.2.34
 70
     0
  0
ATTRIB
  5
2D18
330
2D10
100
AcDbEntity
 67
     1
  8
APL Border
100
AcDbText
 10
189.595
 20
1.189999999999997
 30
0.0
 40
3.75
  1

  7
Arial-Bold
 72
     2
 11
189.595
 21
1.189999999999997
 31
0.0
100
AcDbAttribute
  2
1.2.34
 70
     0
  0
SEQEND
  5
2D11
330
2D10
100
AcDbEntity
 67
     1
  8
APL Border
  0
ENDSEC
  0
SECTION
  2
OBJECTS
  0
DICTIONARY
  5
C
330
0
100
AcDbDictionary
281
     1
  3
ACAD_COLOR
350
399D
  3
ACAD_GROUP
350
D
  3
ACAD_LAYOUT
350
1A
  3
ACAD_MATERIAL
350
3973
  3
ACAD_MLEADERSTYLE
350
39C2
  3
ACAD_MLINESTYLE
350
17
  3
ACAD_PLOTSETTINGS
350
19
  3
ACAD_PLOTSTYLENAME
350
E
  3
ACAD_SCALELIST
350
39A0
  3
ACAD_TABLESTYLE
350
399E
  3
ACAD_VISUALSTYLE
350
398C
  3
AcadDim
350
86
  3
ACDB_RECOMPOSE_DATA
350
3A4A
  3
ACDBHEADERROUNDTRIPXREC
350
45C6
  3
AcDbVariableDictionary
350
3B
  3
DWGPROPS
350
45C5
  0
DICTIONARY
  5
3A4C
330
8
100
AcDbDictionary
280
     1
281
     1
  3
ACAD_XREC_ROUNDTRIP
360
411D
  0
DICTIONARY
  5
39E4
330
2
100
AcDbDictionary
280
     1
281
     1
  3
ACAD_LAYERFILTERS
360
3CD7
  3
ACAD_LAYERSTATES
360
39E5
  3
ACLYDICTIONARY
360
3CD6
  0
DICTIONARY
  5
3A1C
330
10
100
AcDbDictionary
280
     1
281
     1
  3
ACAD_XREC_ROUNDTRIP
360
411E
  3
ADSK_XREC_LAYER_RECONCILED
360
3A1D
  0
DICTIONARY
  5
3A1E
330
2B
100
AcDbDictionary
280
     1
281
     1
  3
ACAD_XREC_ROUNDTRIP
360
4121
  3
ADSK_XREC_LAYER_RECONCILED
360
3A1F
  0
DICTIONARY
  5
3A20
330
75
100
AcDbDictionary
280
     1
281
     1
  3
ACAD_XREC_ROUNDTRIP
360
4122
  3
ADSK_XREC_LAYER_RECONCILED
360
3A21
  0
DICTIONARY
  5
3A22
330
282D
100
AcDbDictionary
280
     1
281
     1
  3
ACAD_XREC_ROUNDTRIP
360
4123
  3
ADSK_XREC_LAYER_RECONCILED
360
3A23
  0
DICTIONARY
  5
414A
330
3ACC
100
AcDbDictionary
280
     1
281
     1
  3
ACAD_XREC_ROUNDTRIP
360
414B
  0
DICTIONARY
  5
414C
330
3FA8
100
AcDbDictionary
280
     1
281
     1
  3
ACAD_XREC_ROUNDTRIP
360
414D
  0
DICTIONARY
  5
2C09
330
1F
100
AcDbDictionary
280
     1
281
     1
  3
ACAD_SORTENTS
360
2C0A
  0
DICTIONARY
  5
4574
330
3056
100
AcDbDictionary
280
     1
281
     1
  0
DICTIONARY
  5
4579
330
3186
100
AcDbDictionary
280
     1
281
     1
  0
DICTIONARY
  5
457E
330
318C
100
AcDbDictionary
280
     1
281
     1
  0
DICTIONARY
  5
4591
330
31E6
100
AcDbDictionary
280
     1
281
     1
  0
DICTIONARY
  5
4599
330
37FA
100
AcDbDictionary
280
     1
281
     1
  0
DICTIONARY
  5
419A
330
4199
100
AcDbDictionary
280
     1
281
     1
  3
ACAD_SORTENTS
360
419B
  0
DICTIONARY
  5
4198
330
4197
100
AcDbDictionary
280
     1
281
     1
  0
DICTIONARY
  5
412B
330
2CC9
100
AcDbDictionary
280
     1
281
     1
  3
ACAD_XREC_ROUNDTRIP
360
412C
  0
DICTIONARY
  5
412D
330
2CCB
100
AcDbDictionary
280
     1
281
     1
  3
ACAD_XREC_ROUNDTRIP
360
412E
  0
DICTIONARY
  5
399D
102
{ACAD_REACTORS
330
C
102
}
330
C
100
AcDbDictionary
281
     1
  0
DICTIONARY
  5
D
102
{ACAD_REACTORS
330
C
102
}
330
C
100
AcDbDictionary
281
     1
  0
DICTIONARY
  5
1A
102
{ACAD_REACTORS
330
C
102
}
330
C
100
AcDbDictionary
281
     1
  3
Model
350
22
  3
Vantage A4
350
2CC2
  0
DICTIONARY
  5
3973
102
{ACAD_REACTORS
330
C
102
}
330
C
100
AcDbDictionary
281
     1
  3
ByBlock
350
397C
  3
ByLayer
350
3974
  3
Global
350
3984
  0
DICTIONARY
  5
39C2
102
{ACAD_REACTORS
330
C
102
}
330
C
100
AcDbDictionary
281
     1
  3
Standard
350
4105
  0
DICTIONARY
  5
17
102
{ACAD_REACTORS
330
C
102
}
330
C
100
AcDbDictionary
281
     1
  3
Standard
350
18
  0
DICTIONARY
  5
19
102
{ACAD_REACTORS
330
C
102
}
330
C
100
AcDbDictionary
281
     1
  3
A4 Specifier Manual Hardcopy
350
297B
  3
A4 Specifier Manual PDF
350
297C
  0
ACDBDICTIONARYWDFLT
  5
E
102
{ACAD_REACTORS
330
C
102
}
330
C
100
AcDbDictionary
281
     1
  3
Normal
350
F
100
AcDbDictionaryWithDefault
340
F
  0
DICTIONARY
  5
39A0
102
{ACAD_REACTORS
330
C
102
}
330
C
100
AcDbDictionary
281
     1
  3
A0
350
39A1
  3
A1
350
39A2
  3
A2
350
39A3
  3
A3
350
39A4
  3
A4
350
39A5
  3
A5
350
39A6
  3
A6
350
39A7
  3
A7
350
39A8
  3
A8
350
39A9
  3
A9
350
39AA
  3
B0
350
39AB
  3
B1
350
39AC
  3
B2
350
39AD
  3
B3
350
39AE
  3
B4
350
39AF
  3
B5
350
39B0
  3
B6
350
39B1
  3
B7
350
39B2
  3
B8
350
39B3
  3
B9
350
39B4
  3
C0
350
39B5
  3
C1
350
39B6
  3
C2
350
39B7
  3
C3
350
39B8
  3
C4
350
39B9
  3
C5
350
39BA
  3
C6
350
39BB
  3
C7
350
39BC
  3
C8
350
39BD
  3
C9
350
39BE
  3
D0
350
39BF
  3
D1
350
39C0
  3
D2
350
39C1
  0
DICTIONARY
  5
399E
102
{ACAD_REACTORS
330
C
102
}
330
C
100
AcDbDictionary
281
     1
  3
Standard
350
399F
  0
DICTIONARY
  5
398C
102
{ACAD_REACTORS
330
C
102
}
330
C
100
AcDbDictionary
281
     1
  3
2dWireframe
350
3992
  3
3D Hidden
350
3994
  3
3dWireframe
350
3993
  3
Basic
350
3991
  3
Brighten
350
3998
  3
ColorChange
350
399C
  3
Conceptual
350
3995
  3
Dim
350
3997
  3
Facepattern
350
399B
  3
Flat
350
398D
  3
FlatWithEdges
350
398E
  3
Gouraud
350
398F
  3
GouraudWithEdges
350
3990
  3
Linepattern
350
399A
  3
Realistic
350
3996
  3
Thicken
350
3999
  0
XRECORD
  5
86
102
{ACAD_REACTORS
330
C
102
}
330
C
100
AcDbXrecord
280
     1
 90
   990106
  3

 60
     0
 61
     0
 62
     1
 63
     3
 64
     0
 65
     0
 66
     0
 67
     3
 68
     1
 69
     0
 70
     0
 71
     0
 72
     0
 40
8.188652110585962
170
     0
  0
XRECORD
  5
3A4A
102
{ACAD_REACTORS
330
C
102
}
330
C
100
AcDbXrecord
280
     1
 90
        1
330
399F
  0
DICTIONARY
  5
45C6
102
{ACAD_REACTORS
330
C
102
}
330
C
100
AcDbDictionary
281
     1
  0
DICTIONARY
  5
3B
102
{ACAD_REACTORS
330
C
102
}
330
C
100
AcDbDictionary
281
     1
  3
CANNOSCALE
350
3A7E
  3
CMLEADERSTYLE
350
3CC5
  3
CTABLESTYLE
350
3A7D
  3
DIMASSOC
350
3D
  3
HIDETEXT
350
3C
  3
INDEXCTL
350
3A7F
  3
PROJECTNAME
350
4181
  3
SORTENTS
350
2C0C
  0
XRECORD
  5
45C5
102
{ACAD_REACTORS
330
C
102
}
330
C
100
AcDbXrecord
280
     1
  1
DWGPROPS COOKIE
  2

  3

  4

  6

  7

  8
homer
  9

300
=
301
=
302
=
303
=
304
=
305
=
306
=
307
=
308
=
309
=
 40
0.8102471527777778
 41
2452311.390521435
 42
2455660.610126551
  1

 90
        0
  0
XRECORD
  5
411D
102
{ACAD_REACTORS
330
3A4C
102
}
330
3A4C
100
AcDbXrecord
280
     1
102
VTR_0.000_0.000_1.000_1.000_VISUALSTYLE
340
3992
102
VTR_0.000_0.000_1.000_1.000_GRIDDISPLAY
 70
     3
102
VTR_0.000_0.000_1.000_1.000_GRIDMAJOR
 70
     5
102
VTR_0.000_0.000_1.000_1.000_DEFAULTLIGHTING
280
     1
102
VTR_0.000_0.000_1.000_1.000_DEFAULTLIGHTINGTYPE
 70
     1
102
VTR_0.000_0.000_1.000_1.000_BRIGHTNESS
141
0.0
102
VTR_0.000_0.000_1.000_1.000_CONTRAST
142
0.0
  0
DICTIONARY
  5
3CD7
102
{ACAD_REACTORS
330
39E4
102
}
330
39E4
100
AcDbDictionary
281
     1
  0
DICTIONARY
  5
39E5
102
{ACAD_REACTORS
330
39E4
102
}
330
39E4
100
AcDbDictionary
281
     1
  0
DICTIONARY
  5
3CD6
102
{ACAD_REACTORS
330
39E4
102
}
330
39E4
100
AcDbDictionary
281
     1
1001
ACAD
1000
<All
  0
XRECORD
  5
411E
102
{ACAD_REACTORS
330
3A1C
102
}
330
3A1C
100
AcDbXrecord
280
     1
102
MATERIAL
340
3984
  0
XRECORD
  5
3A1D
102
{ACAD_REACTORS
330
3A1C
102
}
330
3A1C
100
AcDbXrecord
280
     1
290
     1
  0
XRECORD
  5
4121
102
{ACAD_REACTORS
330
3A1E
102
}
330
3A1E
100
AcDbXrecord
280
     1
102
MATERIAL
340
3984
  0
XRECORD
  5
3A1F
102
{ACAD_REACTORS
330
3A1E
102
}
330
3A1E
100
AcDbXrecord
280
     1
290
     1
  0
XRECORD
  5
4122
102
{ACAD_REACTORS
330
3A20
102
}
330
3A20
100
AcDbXrecord
280
     1
102
MATERIAL
340
3984
  0
XRECORD
  5
3A21
102
{ACAD_REACTORS
330
3A20
102
}
330
3A20
100
AcDbXrecord
280
     1
290
     1
  0
XRECORD
  5
4123
102
{ACAD_REACTORS
330
3A22
102
}
330
3A22
100
AcDbXrecord
280
     1
102
MATERIAL
340
3984
  0
XRECORD
  5
3A23
102
{ACAD_REACTORS
330
3A22
102
}
330
3A22
100
AcDbXrecord
280
     1
290
     1
  0
XRECORD
  5
414B
102
{ACAD_REACTORS
330
414A
102
}
330
414A
100
AcDbXrecord
280
     1
102
MATERIAL
340
3984
  0
XRECORD
  5
414D
102
{ACAD_REACTORS
330
414C
102
}
330
414C
100
AcDbXrecord
280
     1
102
MATERIAL
340
3984
  0
SORTENTSTABLE
  5
2C0A
102
{ACAD_REACTORS
330
2C09
102
}
330
2C09
100
AcDbSortentsTable
330
1F
331
38FF
  5
3E60
331
3215
  5
326B
331
323F
  5
32F6
331
31C4
  5
3205
331
3E68
  5
31C4
331
3510
  5
394B
331
3E57
  5
3596
331
3519
  5
3D48
331
33A8
  5
3926
331
2DC2
  5
31D6
331
305B
  5
31FD
331
3E58
  5
3519
331
38FC
  5
3E5E
331
358E
  5
3E4D
331
322B
  5
32CB
331
3E54
  5
31CD
331
2DBF
  5
3185
331
32CA
  5
38F7
331
32BA
  5
3593
331
321F
  5
3297
331
3249
  5
3340
331
38F9
  5
3E5B
331
3E62
  5
3240
331
3D49
  5
3E67
331
2DBC
  5
2DC2
331
32D0
  5
38F9
331
32B7
  5
358F
331
3246
  5
32F8
331
38F6
  5
3E58
331
3225
  5
32B7
331
31EC
  5
3214
331
31CB
  5
3207
331
3517
  5
3D11
331
3E5F
  5
32B8
331
3E4E
  5
322A
331
3591
  5
3E50
331
32DD
  5
38FB
331
326B
  5
3510
331
32F6
  5
38FC
331
32B4
  5
3586
331
3736
  5
3E54
331
3514
  5
3BF1
331
3E5C
  5
32F7
331
37FF
  5
3E56
331
3900
  5
3E61
331
3D47
  5
3E65
331
351A
  5
3D49
331
32BE
  5
3731
331
358F
  5
3E4E
331
3E55
  5
2DC1
331
31C2
  5
31FE
331
32CB
  5
38F8
331
324A
  5
33AD
331
38FA
  5
3E5C
331
3229
  5
32BD
331
3E63
  5
323F
331
3D4A
  5
3E68
331
32C8
  5
38F6
331
2DBD
  5
2DC3
331
382E
  5
3E57
331
3236
  5
32D0
331
32B8
  5
3590
331
38F7
  5
3E59
331
31ED
  5
321F
331
3E4F
  5
3220
331
3E60
  5
329F
331
3340
  5
3901
331
32F7
  5
38FE
331
2DBA
  5
2DC0
331
32B5
  5
358D
331
3737
  5
3E55
331
3586
  5
3E4B
331
3E5D
  5
32C6
331
33AD
  5
3928
331
32C2
  5
37FF
331
3901
  5
3E62
331
3217
  5
3295
331
31D6
  5
3208
331
3220
  5
329B
331
351B
  5
3D4A
331
2DC4
  5
31ED
331
32BF
  5
3736
331
38FE
  5
3E5F
331
3214
  5
324A
331
323E
  5
32DD
331
3731
  5
3E53
331
3E56
  5
2DBE
331
31C3
  5
31FF
331
3518
  5
3D47
331
3A10
  5
2DBC
331
38FB
  5
3E5D
331
358D
  5
3E4C
331
3596
  5
3E52
331
3E53
  5
31EC
331
353D
  5
3E4A
331
3E64
  5
323E
331
2DBE
  5
2DC4
331
3BF1
  5
3E63
331
32D2
  5
38FA
331
32B9
  5
3591
331
321E
  5
3296
331
3237
  5
32D2
331
3248
  5
3315
331
38F8
  5
3E5A
331
3227
  5
32B9
331
3593
  5
3E51
331
33C1
  5
3929
331
3E61
  5
3248
331
3D48
  5
3E66
331
32F8
  5
38FF
331
32C6
  5
382E
331
32B6
  5
358E
331
3590
  5
3E4F
331
3E4D
  5
351A
331
3315
  5
3900
331
3E5E
  5
32BA
331
32B3
  5
353D
331
3221
  5
329C
331
3D11
  5
3E64
331
3E4A
  5
351B
331
32C0
  5
3737
331
324F
  5
33C1
  0
SORTENTSTABLE
  5
419B
102
{ACAD_REACTORS
330
419A
102
}
330
419A
100
AcDbSortentsTable
330
4199
  0
XRECORD
  5
412C
102
{ACAD_REACTORS
330
412B
102
}
330
412B
100
AcDbXrecord
280
     1
102
VISUALSTYLE
340
3992
102
GRIDDISPLAY
 70
     0
102
GRIDMAJOR
 70
     5
102
DEFAULTLIGHTING
280
     1
102
DEFAULTLIGHTINGTYPE
 70
     1
102
BRIGHTNESS
141
0.0
102
CONTRAST
142
0.0
102
SHADEPLOT
 70
     0
  0
XRECORD
  5
412E
102
{ACAD_REACTORS
330
412D
102
}
330
412D
100
AcDbXrecord
280
     1
102
VISUALSTYLE
340
3992
102
GRIDDISPLAY
 70
     0
102
GRIDMAJOR
 70
     5
102
DEFAULTLIGHTING
280
     1
102
DEFAULTLIGHTINGTYPE
 70
     1
102
BRIGHTNESS
141
0.0
102
CONTRAST
142
0.0
102
SHADEPLOT
 70
     0
  0
LAYOUT
  5
22
102
{ACAD_XDICTIONARY
360
45C7
102
}
102
{ACAD_REACTORS
330
1A
102
}
330
1A
100
AcDbPlotSettings
  1

  2
A4 Specifier Manual.pc3
  4
A4
  6

 40
6.0
 41
5.0
 42
6.97332763671875
 43
5.96832275390625
 44
209.9733276367187
 45
296.9683227539062
 46
10.5
 47
1.0
 48
55.19893561856474
 49
77.41415496436935
140
329.6878846931311
141
251.7976535946928
142
1.0
143
2.0
 70
 11952
 72
     1
 73
     0
 74
     1
  7
A4 Specifier Manual.ctb
 75
    17
147
0.5
148
2.754291127759756
149
26.13925401387087
100
AcDbLayout
  1
Model
 70
     1
 71
     0
 10
0.0
 20
0.0
 11
12.0
 21
9.0
 12
0.0
 22
0.0
 32
0.0
 14
0.0
 24
0.0
 34
0.0
 15
0.0
 25
0.0
 35
0.0
146
0.0
 13
0.0
 23
0.0
 33
0.0
 16
1.0
 26
0.0
 36
0.0
 17
0.0
 27
1.0
 37
0.0
 76
     0
330
1F
331
3951
  0
LAYOUT
  5
2CC2
102
{ACAD_XDICTIONARY
360
39F7
102
}
102
{ACAD_REACTORS
330
1A
102
}
330
1A
100
AcDbPlotSettings
  1

  2
\\Aplfp01\APL Technical HP5100 PSLaser
  4
A4
  6

 40
5.027082920074462
 41
5.408084392547607
 42
5.70440673828125
 43
5.365753173828125
 44
209.8886566162109
 45
297.0530090332031
 46
0.0
 47
0.0
 48
0.0
 49
0.0
140
0.0
141
0.0
142
1.0
143
1.0
 70
   176
 72
     1
 73
     0
 74
     5
  7
A4 Specifier Manual.ctb
 75
    16
147
1.0
148
0.0
149
0.0
100
AcDbLayout
  1
Vantage A4
 70
     1
 71
     1
 10
-5.027082920074462
 20
-5.408084392547607
 11
204.8615736961365
 21
291.6449246406555
 12
0.0
 22
0.0
 32
0.0
 14
11.46014299460751
 24
3.285575844812797
 34
-0.0015258207003583
 15
189.6073677543587
 25
282.2033753668244
 35
0.0000000349246037
146
0.0
 13
0.0
 23
0.0
 33
0.0
 16
1.0
 26
0.0
 36
0.0
 17
0.0
 27
1.0
 37
0.0
 76
     0
330
2CC1
331
2CC9
1001
ACAD_PSEXT
1000
\\Aplfp01\APL Technical HP5100 PSLaser
1000
HP LaserJet 5100 PS
1000
APL Technical Office
1000

1070
     0
  0
MATERIAL
  5
397C
102
{ACAD_XDICTIONARY
360
397D
102
}
102
{ACAD_REACTORS
330
3973
102
}
330
3973
100
AcDbMaterial
  1
ByBlock
 72
     0
 73
     2
 43
0.0008202099737533
 43
0.0
 43
0.0
 43
0.0
 43
0.0
 43
0.0008202099737533
 43
0.0
 43
0.0
 43
0.0
 43
0.0
 43
1.0
 43
0.0
 43
0.0
 43
0.0
 43
0.0
 43
1.0
 77
     0
 78
     2
 47
0.0008202099737533
 47
0.0
 47
0.0
 47
0.0
 47
0.0
 47
0.0008202099737533
 47
0.0
 47
0.0
 47
0.0
 47
0.0
 47
1.0
 47
0.0
 47
0.0
 47
0.0
 47
0.0
 47
1.0
171
     0
172
     2
 49
0.0008202099737533
 49
0.0
 49
0.0
 49
0.0
 49
0.0
 49
0.0008202099737533
 49
0.0
 49
0.0
 49
0.0
 49
0.0
 49
1.0
 49
0.0
 49
0.0
 49
0.0
 49
0.0
 49
1.0
175
     0
176
     2
142
0.0008202099737533
142
0.0
142
0.0
142
0.0
142
0.0
142
0.0008202099737533
142
0.0
142
0.0
142
0.0
142
0.0
142
1.0
142
0.0
142
0.0
142
0.0
142
0.0
142
1.0
179
     0
270
     2
144
0.0008202099737533
144
0.0
144
0.0
144
0.0
144
0.0
144
0.0008202099737533
144
0.0
144
0.0
144
0.0
144
0.0
144
1.0
144
0.0
144
0.0
144
0.0
144
0.0
144
1.0
274
     2
147
0.0008202099737533
147
0.0
147
0.0
147
0.0
147
0.0
147
0.0008202099737533
147
0.0
147
0.0
147
0.0
147
0.0
147
1.0
147
0.0
147
0.0
147
0.0
147
0.0
147
1.0
  0
MATERIAL
  5
3974
102
{ACAD_XDICTIONARY
360
3975
102
}
102
{ACAD_REACTORS
330
3973
102
}
330
3973
100
AcDbMaterial
  1
ByLayer
 72
     0
 73
     2
 43
0.0008202099737533
 43
0.0
 43
0.0
 43
0.0
 43
0.0
 43
0.0008202099737533
 43
0.0
 43
0.0
 43
0.0
 43
0.0
 43
1.0
 43
0.0
 43
0.0
 43
0.0
 43
0.0
 43
1.0
 77
     0
 78
     2
 47
0.0008202099737533
 47
0.0
 47
0.0
 47
0.0
 47
0.0
 47
0.0008202099737533
 47
0.0
 47
0.0
 47
0.0
 47
0.0
 47
1.0
 47
0.0
 47
0.0
 47
0.0
 47
0.0
 47
1.0
171
     0
172
     2
 49
0.0008202099737533
 49
0.0
 49
0.0
 49
0.0
 49
0.0
 49
0.0008202099737533
 49
0.0
 49
0.0
 49
0.0
 49
0.0
 49
1.0
 49
0.0
 49
0.0
 49
0.0
 49
0.0
 49
1.0
175
     0
176
     2
142
0.0008202099737533
142
0.0
142
0.0
142
0.0
142
0.0
142
0.0008202099737533
142
0.0
142
0.0
142
0.0
142
0.0
142
1.0
142
0.0
142
0.0
142
0.0
142
0.0
142
1.0
179
     0
270
     2
144
0.0008202099737533
144
0.0
144
0.0
144
0.0
144
0.0
144
0.0008202099737533
144
0.0
144
0.0
144
0.0
144
0.0
144
1.0
144
0.0
144
0.0
144
0.0
144
0.0
144
1.0
274
     2
147
0.0008202099737533
147
0.0
147
0.0
147
0.0
147
0.0
147
0.0008202099737533
147
0.0
147
0.0
147
0.0
147
0.0
147
1.0
147
0.0
147
0.0
147
0.0
147
0.0
147
1.0
  0
MATERIAL
  5
3984
102
{ACAD_XDICTIONARY
360
3985
102
}
102
{ACAD_REACTORS
330
3973
102
}
330
3973
100
AcDbMaterial
  1
Global
 72
     0
 73
     2
 43
0.0008202099737533
 43
0.0
 43
0.0
 43
0.0
 43
0.0
 43
0.0008202099737533
 43
0.0
 43
0.0
 43
0.0
 43
0.0
 43
1.0
 43
0.0
 43
0.0
 43
0.0
 43
0.0
 43
1.0
 77
     0
 78
     2
 47
0.0008202099737533
 47
0.0
 47
0.0
 47
0.0
 47
0.0
 47
0.0008202099737533
 47
0.0
 47
0.0
 47
0.0
 47
0.0
 47
1.0
 47
0.0
 47
0.0
 47
0.0
 47
0.0
 47
1.0
171
     0
172
     2
 49
0.0008202099737533
 49
0.0
 49
0.0
 49
0.0
 49
0.0
 49
0.0008202099737533
 49
0.0
 49
0.0
 49
0.0
 49
0.0
 49
1.0
 49
0.0
 49
0.0
 49
0.0
 49
0.0
 49
1.0
175
     0
176
     2
142
0.0008202099737533
142
0.0
142
0.0
142
0.0
142
0.0
142
0.0008202099737533
142
0.0
142
0.0
142
0.0
142
0.0
142
1.0
142
0.0
142
0.0
142
0.0
142
0.0
142
1.0
179
     0
270
     2
144
0.0008202099737533
144
0.0
144
0.0
144
0.0
144
0.0
144
0.0008202099737533
144
0.0
144
0.0
144
0.0
144
0.0
144
1.0
144
0.0
144
0.0
144
0.0
144
0.0
144
1.0
274
     2
147
0.0008202099737533
147
0.0
147
0.0
147
0.0
147
0.0
147
0.0008202099737533
147
0.0
147
0.0
147
0.0
147
0.0
147
1.0
147
0.0
147
0.0
147
0.0
147
0.0
147
1.0
  0
ACAD_PROXY_OBJECT
  5
4105
102
{ACAD_REACTORS
330
39C2
102
}
330
39C2
100
AcDbProxyObject
 90
      499
 91
      511
 95
   983063
 70
     0
 93
      618
310
40901902A4063FBFFFFFE000000000000002040AD7A3703D0AD73F4254DD185B99185C99000000000000000104090141901A00000000000004100000000000000041025764000000000000300FC0
340
14
340
0
340
11
340
0
 94
        0
1001
ACAD_MLEADERVER
1070
     2
1001
ACAD
1000
AcRTDxfName
1000
MLEADERSTYLE
1000
AcRTDxfName
1000
MLEADERSTYLE
1000
AcRTDxfName
1000
MLEADERSTYLE
  0
MLINESTYLE
  5
18
102
{ACAD_REACTORS
330
17
102
}
330
17
100
AcDbMlineStyle
  2
STANDARD
 70
     0
  3

 62
   256
 51
90.0
 52
90.0
 71
     2
 49
0.5
 62
   256
  6
BYLAYER
 49
-0.5
 62
   256
  6
BYLAYER
  0
PLOTSETTINGS
  5
297B
102
{ACAD_XDICTIONARY
360
45C9
102
}
102
{ACAD_REACTORS
330
19
102
}
330
19
100
AcDbPlotSettings
  1
A4 Specifier Manual Hardcopy
  2
A4 Specifier Manual.pc3
  4
A4
  6

 40
6.0
 41
5.0
 42
6.97332763671875
 43
5.96832275390625
 44
209.9733276367187
 45
296.9683227539062
 46
10.5
 47
-1.0
 48
55.19893561856474
 49
77.41415496436935
140
329.6878846931311
141
251.7976535946928
142
1.0
143
2.0
 70
  1712
 72
     1
 73
     0
 74
     1
  7
A4 specifier manual.ctb
 75
    17
147
0.5
148
2.225667800726114
149
26.13925412475783
  0
PLOTSETTINGS
  5
297C
102
{ACAD_XDICTIONARY
360
45CB
102
}
102
{ACAD_REACTORS
330
19
102
}
330
19
100
AcDbPlotSettings
  1
A4 Specifier Manual PDF
  2
Acrobat Distiller.pc3
  4
A4
  6

 40
3.174999952316284
 41
3.174999952316284
 42
3.175003051757812
 43
3.17498779296875
 44
209.9098358154297
 45
297.0318298339844
 46
12.0
 47
3.0
 48
55.19893561856474
 49
77.41415496436935
140
329.6878846931311
141
251.7976535946928
142
1.0
143
2.0
 70
  1712
 72
     1
 73
     0
 74
     1
  7
A4 Specifier Manual.ctb
 75
    17
147
0.5
148
2.231438335389952
149
26.15846035871732
  0
ACDBPLACEHOLDER
  5
F
102
{ACAD_REACTORS
330
E
102
}
330
E
  0
ACAD_PROXY_OBJECT
  5
39A1
102
{ACAD_REACTORS
330
39A0
102
}
330
39A0
100
AcDbProxyObject
 90
      499
 91
      510
 95
   983063
 70
     0
 93
       49
310
904313A3100580
 94
        0
1001
ACAD
1000
AcRTDxfName
1000
SCALE
1000
AcRTDxfName
1000
SCALE
1000
AcRTDxfName
1000
SCALE
  0
ACAD_PROXY_OBJECT
  5
39A2
102
{ACAD_REACTORS
330
39A0
102
}
330
39A0
100
AcDbProxyObject
 90
      499
 91
      510
 95
   983063
 70
     0
 93
      113
310
904313A32004000000000000004040
 94
        0
1001
ACAD
1000
AcRTDxfName
1000
SCALE
1000
AcRTDxfName
1000
SCALE
1000
AcRTDxfName
1000
SCALE
  0
ACAD_PROXY_OBJECT
  5
39A3
102
{ACAD_REACTORS
330
39A0
102
}
330
39A0
100
AcDbProxyObject
 90
      499
 91
      510
 95
   983063
 70
     0
 93
      113
310
904313A34004000000000000104040
 94
        0
1001
ACAD
1000
AcRTDxfName
1000
SCALE
1000
AcRTDxfName
1000
SCALE
1000
AcRTDxfName
1000
SCALE
  0
ACAD_PROXY_OBJECT
  5
39A4
102
{ACAD_REACTORS
330
39A0
102
}
330
39A0
100
AcDbProxyObject
 90
      499
 91
      510
 95
   983063
 70
     0
 93
      113
310
904313A35004000000000000144040
 94
        0
1001
ACAD
1000
AcRTDxfName
1000
SCALE
1000
AcRTDxfName
1000
SCALE
1000
AcRTDxfName
1000
SCALE
  0
ACAD_PROXY_OBJECT
  5
39A5
102
{ACAD_REACTORS
330
39A0
102
}
330
39A0
100
AcDbProxyObject
 90
      499
 91
      510
 95
   983063
 70
     0
 93
      113
310
904313A38004000000000000204040
 94
        0
1001
ACAD
1000
AcRTDxfName
1000
SCALE
1000
AcRTDxfName
1000
SCALE
1000
AcRTDxfName
1000
SCALE
  0
ACAD_PROXY_OBJECT
  5
39A6
102
{ACAD_REACTORS
330
39A0
102
}
330
39A0
100
AcDbProxyObject
 90
      499
 91
      510
 95
   983063
 70
     0
 93
      121
310
905313A3130004000000000000244000
 94
        0
1001
ACAD
1000
AcRTDxfName
1000
SCALE
1000
AcRTDxfName
1000
SCALE
1000
AcRTDxfName
1000
SCALE
  0
ACAD_PROXY_OBJECT
  5
39A7
102
{ACAD_REACTORS
330
39A0
102
}
330
39A0
100
AcDbProxyObject
 90
      499
 91
      510
 95
   983063
 70
     0
 93
      121
310
905313A3136004000000000000304040
 94
        0
1001
ACAD
1000
AcRTDxfName
1000
SCALE
1000
AcRTDxfName
1000
SCALE
1000
AcRTDxfName
1000
SCALE
  0
ACAD_PROXY_OBJECT
  5
39A8
102
{ACAD_REACTORS
330
39A0
102
}
330
39A0
100
AcDbProxyObject
 90
      499
 91
      510
 95
   983063
 70
     0
 93
      121
310
905313A3230004000000000000344000
 94
        0
1001
ACAD
1000
AcRTDxfName
1000
SCALE
1000
AcRTDxfName
1000
SCALE
1000
AcRTDxfName
1000
SCALE
  0
ACAD_PROXY_OBJECT
  5
39A9
102
{ACAD_REACTORS
330
39A0
102
}
330
39A0
100
AcDbProxyObject
 90
      499
 91
      510
 95
   983063
 70
     0
 93
      121
310
905313A33300040000000000003E4040
 94
        0
1001
ACAD
1000
AcRTDxfName
1000
SCALE
1000
AcRTDxfName
1000
SCALE
1000
AcRTDxfName
1000
SCALE
  0
ACAD_PROXY_OBJECT
  5
39AA
102
{ACAD_REACTORS
330
39A0
102
}
330
39A0
100
AcDbProxyObject
 90
      499
 91
      510
 95
   983063
 70
     0
 93
      121
310
905313A3430004000000000000444000
 94
        0
1001
ACAD
1000
AcRTDxfName
1000
SCALE
1000
AcRTDxfName
1000
SCALE
1000
AcRTDxfName
1000
SCALE
  0
ACAD_PROXY_OBJECT
  5
39AB
102
{ACAD_REACTORS
330
39A0
102
}
330
39A0
100
AcDbProxyObject
 90
      499
 91
      510
 95
   983063
 70
     0
 93
      121
310
905313A3530004000000000000494001
 94
        0
1001
ACAD
1000
AcRTDxfName
1000
SCALE
1000
AcRTDxfName
1000
SCALE
1000
AcRTDxfName
1000
SCALE
  0
ACAD_PROXY_OBJECT
  5
39AC
102
{ACAD_REACTORS
330
39A0
102
}
330
39A0
100
AcDbProxyObject
 90
      499
 91
      510
 95
   983063
 70
     0
 93
      129
310
906313A313030004000000000000594000
 94
        0
1001
ACAD
1000
AcRTDxfName
1000
SCALE
1000
AcRTDxfName
1000
SCALE
1000
AcRTDxfName
1000
SCALE
  0
ACAD_PROXY_OBJECT
  5
39AD
102
{ACAD_REACTORS
330
39A0
102
}
330
39A0
100
AcDbProxyObject
 90
      499
 91
      510
 95
   983063
 70
     0
 93
      113
310
904323A31000000000000000010165
 94
        0
1001
ACAD
1000
AcRTDxfName
1000
SCALE
1000
AcRTDxfName
1000
SCALE
1000
AcRTDxfName
1000
SCALE
  0
ACAD_PROXY_OBJECT
  5
39AE
102
{ACAD_REACTORS
330
39A0
102
}
330
39A0
100
AcDbProxyObject
 90
      499
 91
      510
 95
   983063
 70
     0
 93
      113
310
904343A31000000000000000410101
 94
        0
1001
ACAD
1000
AcRTDxfName
1000
SCALE
1000
AcRTDxfName
1000
SCALE
1000
AcRTDxfName
1000
SCALE
  0
ACAD_PROXY_OBJECT
  5
39AF
102
{ACAD_REACTORS
330
39A0
102
}
330
39A0
100
AcDbProxyObject
 90
      499
 91
      510
 95
   983063
 70
     0
 93
      113
310
904383A31000000000000000810165
 94
        0
1001
ACAD
1000
AcRTDxfName
1000
SCALE
1000
AcRTDxfName
1000
SCALE
1000
AcRTDxfName
1000
SCALE
  0
ACAD_PROXY_OBJECT
  5
39B0
102
{ACAD_REACTORS
330
39A0
102
}
330
39A0
100
AcDbProxyObject
 90
      499
 91
      510
 95
   983063
 70
     0
 93
      121
310
90531303A31000000000000000910120
 94
        0
1001
ACAD
1000
AcRTDxfName
1000
SCALE
1000
AcRTDxfName
1000
SCALE
1000
AcRTDxfName
1000
SCALE
  0
ACAD_PROXY_OBJECT
  5
39B1
102
{ACAD_REACTORS
330
39A0
102
}
330
39A0
100
AcDbProxyObject
 90
      499
 91
      510
 95
   983063
 70
     0
 93
      129
310
9063130303A31000000000000001650100
 94
        0
1001
ACAD
1000
AcRTDxfName
1000
SCALE
1000
AcRTDxfName
1000
SCALE
1000
AcRTDxfName
1000
SCALE
  0
ACAD_PROXY_OBJECT
  5
39B2
102
{ACAD_REACTORS
330
39A0
102
}
330
39A0
100
AcDbProxyObject
 90
      499
 91
      510
 95
   983063
 70
     0
 93
      265
310
90F312F31323822203D2031272D302200000000000000200FC000000000000284018
 94
        0
1001
ACAD
1000
AcRTDxfName
1000
SCALE
1000
AcRTDxfName
1000
SCALE
1000
AcRTDxfName
1000
SCALE
  0
ACAD_PROXY_OBJECT
  5
39B3
102
{ACAD_REACTORS
330
39A0
102
}
330
39A0
100
AcDbProxyObject
 90
      499
 91
      510
 95
   983063
 70
     0
 93
      257
310
90E312F363422203D2031272D302200000000000000240FC000000000000284000
 94
        0
1001
ACAD
1000
AcRTDxfName
1000
SCALE
1000
AcRTDxfName
1000
SCALE
1000
AcRTDxfName
1000
SCALE
  0
ACAD_PROXY_OBJECT
  5
39B4
102
{ACAD_REACTORS
330
39A0
102
}
330
39A0
100
AcDbProxyObject
 90
      499
 91
      510
 95
   983063
 70
     0
 93
      257
310
90E312F333222203D2031272D302200000000000000280FC000000000000284040
 94
        0
1001
ACAD
1000
AcRTDxfName
1000
SCALE
1000
AcRTDxfName
1000
SCALE
1000
AcRTDxfName
1000
SCALE
  0
ACAD_PROXY_OBJECT
  5
39B5
102
{ACAD_REACTORS
330
39A0
102
}
330
39A0
100
AcDbProxyObject
 90
      499
 91
      510
 95
   983063
 70
     0
 93
      257
310
90E312F313622203D2031272D3022000000000000002C0FC000000000000284000
 94
        0
1001
ACAD
1000
AcRTDxfName
1000
SCALE
1000
AcRTDxfName
1000
SCALE
1000
AcRTDxfName
1000
SCALE
  0
ACAD_PROXY_OBJECT
  5
39B6
102
{ACAD_REACTORS
330
39A0
102
}
330
39A0
100
AcDbProxyObject
 90
      499
 91
      510
 95
   983063
 70
     0
 93
      257
310
90E332F333222203D2031272D3022000000000000002E0FC000000000000284040
 94
        0
1001
ACAD
1000
AcRTDxfName
1000
SCALE
1000
AcRTDxfName
1000
SCALE
1000
AcRTDxfName
1000
SCALE
  0
ACAD_PROXY_OBJECT
  5
39B7
102
{ACAD_REACTORS
330
39A0
102
}
330
39A0
100
AcDbProxyObject
 90
      499
 91
      510
 95
   983063
 70
     0
 93
      249
310
90D312F3822203D2031272D302200000000000000300FC000000000000284040
 94
        0
1001
ACAD
1000
AcRTDxfName
1000
SCALE
1000
AcRTDxfName
1000
SCALE
1000
AcRTDxfName
1000
SCALE
  0
ACAD_PROXY_OBJECT
  5
39B8
102
{ACAD_REACTORS
330
39A0
102
}
330
39A0
100
AcDbProxyObject
 90
      499
 91
      510
 95
   983063
 70
     0
 93
      257
310
90E332F313622203D2031272D302200000000000000320FC000000000000284040
 94
        0
1001
ACAD
1000
AcRTDxfName
1000
SCALE
1000
AcRTDxfName
1000
SCALE
1000
AcRTDxfName
1000
SCALE
  0
ACAD_PROXY_OBJECT
  5
39B9
102
{ACAD_REACTORS
330
39A0
102
}
330
39A0
100
AcDbProxyObject
 90
      499
 91
      510
 95
   983063
 70
     0
 93
      249
310
90D312F3422203D2031272D302200000000000000340FC000000000000284040
 94
        0
1001
ACAD
1000
AcRTDxfName
1000
SCALE
1000
AcRTDxfName
1000
SCALE
1000
AcRTDxfName
1000
SCALE
  0
ACAD_PROXY_OBJECT
  5
39BA
102
{ACAD_REACTORS
330
39A0
102
}
330
39A0
100
AcDbProxyObject
 90
      499
 91
      510
 95
   983063
 70
     0
 93
      249
310
90D332F3822203D2031272D302200000000000000360FC000000000000284028
 94
        0
1001
ACAD
1000
AcRTDxfName
1000
SCALE
1000
AcRTDxfName
1000
SCALE
1000
AcRTDxfName
1000
SCALE
  0
ACAD_PROXY_OBJECT
  5
39BB
102
{ACAD_REACTORS
330
39A0
102
}
330
39A0
100
AcDbProxyObject
 90
      499
 91
      510
 95
   983063
 70
     0
 93
      249
310
90D312F3222203D2031272D302200000000000000380FC000000000000284040
 94
        0
1001
ACAD
1000
AcRTDxfName
1000
SCALE
1000
AcRTDxfName
1000
SCALE
1000
AcRTDxfName
1000
SCALE
  0
ACAD_PROXY_OBJECT
  5
39BC
102
{ACAD_REACTORS
330
39A0
102
}
330
39A0
100
AcDbProxyObject
 90
      499
 91
      510
 95
   983063
 70
     0
 93
      249
310
90D332F3422203D2031272D3022000000000000003A0FC000000000000284028
 94
        0
1001
ACAD
1000
AcRTDxfName
1000
SCALE
1000
AcRTDxfName
1000
SCALE
1000
AcRTDxfName
1000
SCALE
  0
ACAD_PROXY_OBJECT
  5
39BD
102
{ACAD_REACTORS
330
39A0
102
}
330
39A0
100
AcDbProxyObject
 90
      499
 91
      510
 95
   983063
 70
     0
 93
      169
310
90B3122203D2031272D3022004000000000000284000
 94
        0
1001
ACAD
1000
AcRTDxfName
1000
SCALE
1000
AcRTDxfName
1000
SCALE
1000
AcRTDxfName
1000
SCALE
  0
ACAD_PROXY_OBJECT
  5
39BE
102
{ACAD_REACTORS
330
39A0
102
}
330
39A0
100
AcDbProxyObject
 90
      499
 91
      510
 95
   983063
 70
     0
 93
      265
310
90F312D312F3222203D2031272D3022000000000000003E0FC000000000000284018
 94
        0
1001
ACAD
1000
AcRTDxfName
1000
SCALE
1000
AcRTDxfName
1000
SCALE
1000
AcRTDxfName
1000
SCALE
  0
ACAD_PROXY_OBJECT
  5
39BF
102
{ACAD_REACTORS
330
39A0
102
}
330
39A0
100
AcDbProxyObject
 90
      499
 91
      510
 95
   983063
 70
     0
 93
      233
310
90B3322203D2031272D30220000000000000002100000000000000284000
 94
        0
1001
ACAD
1000
AcRTDxfName
1000
SCALE
1000
AcRTDxfName
1000
SCALE
1000
AcRTDxfName
1000
SCALE
  0
ACAD_PROXY_OBJECT
  5
39C0
102
{ACAD_REACTORS
330
39A0
102
}
330
39A0
100
AcDbProxyObject
 90
      499
 91
      510
 95
   983063
 70
     0
 93
      233
310
90B3622203D2031272D3022000000000000000610000000000000028405D
 94
        0
1001
ACAD
1000
AcRTDxfName
1000
SCALE
1000
AcRTDxfName
1000
SCALE
1000
AcRTDxfName
1000
SCALE
  0
ACAD_PROXY_OBJECT
  5
39C1
102
{ACAD_REACTORS
330
39A0
102
}
330
39A0
100
AcDbProxyObject
 90
      499
 91
      510
 95
   983063
 70
     0
 93
      257
310
90E31272D3022203D2031272D3022000000000000000A100000000000000284000
 94
        0
1001
ACAD
1000
AcRTDxfName
1000
SCALE
1000
AcRTDxfName
1000
SCALE
1000
AcRTDxfName
1000
SCALE
  0
TABLESTYLE
  5
399F
102
{ACAD_XDICTIONARY
360
3A48
102
}
102
{ACAD_REACTORS
330
399E
102
}
330
399E
100
AcDbTableStyle
  3
Standard
 70
     0
 71
     0
 40
1.5
 41
1.5
280
     0
281
     0
  7
Standard
140
4.5
170
     2
 62
     0
 63
     7
283
     0
274
    -2
284
     1
 64
     0
275
    -2
285
     1
 65
     0
276
    -2
286
     1
 66
     0
277
    -2
287
     1
 67
     0
278
    -2
288
     1
 68
     0
279
    -2
289
     1
 69
     0
  7
Standard
140
6.0
170
     5
 62
     0
 63
     7
283
     0
274
    -2
284
     1
 64
     0
275
    -2
285
     1
 65
     0
276
    -2
286
     1
 66
     0
277
    -2
287
     1
 67
     0
278
    -2
288
     1
 68
     0
279
    -2
289
     1
 69
     0
  7
Standard
140
4.5
170
     5
 62
     0
 63
     7
283
     0
274
    -2
284
     1
 64
     0
275
    -2
285
     1
 65
     0
276
    -2
286
     1
 66
     0
277
    -2
287
     1
 67
     0
278
    -2
288
     1
 68
     0
279
    -2
289
     1
 69
     0
  0
ACAD_PROXY_OBJECT
  5
3992
102
{ACAD_REACTORS
330
398C
102
}
330
398C
100
AcDbProxyObject
 90
      499
 91
      508
 95
   983063
 70
     0
 93
      444
310
430C9915DA5C99599C985B59401049028333333333333E3BF0000000000000FB0107901411070040501600405405064090741402480A0340
 94
        0
1001
ACAD
1000
AcDbSavedByObjectVersion
1070
     0
1000
AcRTDxfName
1000
VISUALSTYLE
1000
AcRTDxfName
1000
VISUALSTYLE
1000
AcRTDxfName
1000
VISUALSTYLE
  0
ACAD_PROXY_OBJECT
  5
3994
102
{ACAD_REACTORS
330
398C
102
}
330
398C
100
AcDbProxyObject
 90
      499
 91
      508
 95
   983063
 70
     0
 93
      508
310
428CD108121A5919195B8010640502408333333333333E3BF0000000000000FB01079024090700405020000000000001110200405405064090740C02480A0340
 94
        0
1001
ACAD
1000
AcDbSavedByObjectVersion
1070
     0
1000
AcRTDxfName
1000
VISUALSTYLE
1000
AcRTDxfName
1000
VISUALSTYLE
1000
AcRTDxfName
1000
VISUALSTYLE
  0
ACAD_PROXY_OBJECT
  5
3993
102
{ACAD_REACTORS
330
398C
102
}
330
398C
100
AcDbProxyObject
 90
      499
 91
      508
 95
   983063
 70
     0
 93
      444
310
430CD915DA5C99599C985B59401059028333333333333E3BF0000000000000FB0107901411070040501600405405064090741402480A0340
 94
        0
1001
ACAD
1000
AcDbSavedByObjectVersion
1070
     0
1000
AcRTDxfName
1000
VISUALSTYLE
1000
AcRTDxfName
1000
VISUALSTYLE
1000
AcRTDxfName
1000
VISUALSTYLE
  0
ACAD_PROXY_OBJECT
  5
3991
102
{ACAD_REACTORS
330
398C
102
}
330
398C
100
AcDbProxyObject
 90
      499
 91
      508
 95
   983063
 70
     0
 93
      396
310
4190985CDA58C0107406404333333333333E3BF0000000000000FB0107A41107004050150841D405064090741402480A0354
 94
        0
1001
ACAD
1000
AcDbSavedByObjectVersion
1070
     0
1000
AcRTDxfName
1000
VISUALSTYLE
1000
AcRTDxfName
1000
VISUALSTYLE
1000
AcRTDxfName
1000
VISUALSTYLE
  0
ACAD_PROXY_OBJECT
  5
3998
102
{ACAD_REACTORS
330
398C
102
}
330
398C
100
AcDbProxyObject
 90
      499
 91
      508
 95
   983063
 70
     0
 93
      436
310
42509C9A59DA1D195B8010C409028333333333333E3BF0000000000000FB010790141107004050150841D405064090741402480A02995A
 94
        0
1001
ACAD
1000
AcDbSavedByObjectVersion
1070
     0
1000
AcRTDxfName
1000
VISUALSTYLE
1000
AcRTDxfName
1000
VISUALSTYLE
1000
AcRTDxfName
1000
VISUALSTYLE
  0
ACAD_PROXY_OBJECT
  5
399C
102
{ACAD_REACTORS
330
398C
102
}
330
398C
100
AcDbProxyObject
 90
      499
 91
      508
 95
   983063
 70
     0
 93
      460
310
4310DBDB1BDC90DA185B99D9401104090240C333333333333E3BF0000000000000FB0108901411070040501508421405064090741402480A035E
 94
        0
1001
ACAD
1000
AcDbSavedByObjectVersion
1070
     0
1000
AcRTDxfName
1000
VISUALSTYLE
1000
AcRTDxfName
1000
VISUALSTYLE
1000
AcRTDxfName
1000
VISUALSTYLE
  0
ACAD_PROXY_OBJECT
  5
3995
102
{ACAD_REACTORS
330
398C
102
}
330
398C
100
AcDbProxyObject
 90
      499
 91
      508
 95
   983063
 70
     0
 93
      508
310
42D0DBDB98D95C1D1D585B0010940D028333333333333E3BF0000000000000FB0107902409070040501000000000000111010841D405064090740C02480A0340
 94
        0
1001
ACAD
1000
AcDbSavedByObjectVersion
1070
     0
1000
AcRTDxfName
1000
VISUALSTYLE
1000
AcRTDxfName
1000
VISUALSTYLE
1000
AcRTDxfName
1000
VISUALSTYLE
  0
ACAD_PROXY_OBJECT
  5
3997
102
{ACAD_REACTORS
330
398C
102
}
330
398C
100
AcDbProxyObject
 90
      499
 91
      508
 95
   983063
 70
     0
 93
      420
310
41111A5B4010B409028333333333333E3BF0000000000000FB010790141107004050150841D405064090741402480A02677FFFFFD2
 94
        0
1001
ACAD
1000
AcDbSavedByObjectVersion
1070
     0
1000
AcRTDxfName
1000
VISUALSTYLE
1000
AcRTDxfName
1000
VISUALSTYLE
1000
AcRTDxfName
1000
VISUALSTYLE
  0
ACAD_PROXY_OBJECT
  5
399B
102
{ACAD_REACTORS
330
398C
102
}
330
398C
100
AcDbProxyObject
 90
      499
 91
      508
 95
   983063
 70
     0
 93
      452
310
43119858D95C185D1D195C9B8010F409028333333333333E3BF0000000000000FB010790141107004050150841D405064090741402480A0354
 94
        0
1001
ACAD
1000
AcDbSavedByObjectVersion
1070
     0
1000
AcRTDxfName
1000
VISUALSTYLE
1000
AcRTDxfName
1000
VISUALSTYLE
1000
AcRTDxfName
1000
VISUALSTYLE
  0
ACAD_PROXY_OBJECT
  5
398D
102
{ACAD_REACTORS
330
398C
102
}
330
398C
100
AcDbProxyObject
 90
      499
 91
      508
 95
   983063
 70
     0
 93
      396
310
41519B185D00240901404333333333333E3BF0000000000000F9010740A41107004050150841D405064090741402480A1B58
 94
        0
1001
ACAD
1000
AcDbSavedByObjectVersion
1070
     0
1000
AcRTDxfName
1000
VISUALSTYLE
1000
AcRTDxfName
1000
VISUALSTYLE
1000
AcRTDxfName
1000
VISUALSTYLE
  0
ACAD_PROXY_OBJECT
  5
398E
102
{ACAD_REACTORS
330
398C
102
}
330
398C
100
AcDbProxyObject
 90
      499
 91
      508
 95
   983063
 70
     0
 93
      484
310
43919B185D15DA5D1A115919D95CC010140901404333333333333E3BF0000000000000F9010740901411070040501600405405064090741402480A1B58
 94
        0
1001
ACAD
1000
AcDbSavedByObjectVersion
1070
     0
1000
AcRTDxfName
1000
VISUALSTYLE
1000
AcRTDxfName
1000
VISUALSTYLE
1000
AcRTDxfName
1000
VISUALSTYLE
  0
ACAD_PROXY_OBJECT
  5
398F
102
{ACAD_REACTORS
330
398C
102
}
330
398C
100
AcDbProxyObject
 90
      499
 91
      508
 95
   983063
 70
     0
 93
      420
310
4211DBDD5C985D590010240902404333333333333E3BF0000000000000F9010740A411070040501641D405064090741402480A1B58
 94
        0
1001
ACAD
1000
AcDbSavedByObjectVersion
1070
     0
1000
AcRTDxfName
1000
VISUALSTYLE
1000
AcRTDxfName
1000
VISUALSTYLE
1000
AcRTDxfName
1000
VISUALSTYLE
  0
ACAD_PROXY_OBJECT
  5
3990
102
{ACAD_REACTORS
330
398C
102
}
330
398C
100
AcDbProxyObject
 90
      499
 91
      508
 95
   983063
 70
     0
 93
      508
310
4451DBDD5C985D5915DA5D1A115919D95CC010340902404333333333333E3BF0000000000000F9010740901411070040501600405405064090741402480A1B50
 94
        0
1001
ACAD
1000
AcDbSavedByObjectVersion
1070
     0
1000
AcRTDxfName
1000
VISUALSTYLE
1000
AcRTDxfName
1000
VISUALSTYLE
1000
AcRTDxfName
1000
VISUALSTYLE
  0
ACAD_PROXY_OBJECT
  5
399A
102
{ACAD_REACTORS
330
398C
102
}
330
398C
100
AcDbProxyObject
 90
      499
 91
      508
 95
   983063
 70
     0
 93
      452
310
43131A5B995C185D1D195C9B8010E409028333333333333E3BF0000000000000FB010790141107004050750841D405064090741402483A0353
 94
        0
1001
ACAD
1000
AcDbSavedByObjectVersion
1070
     0
1000
AcRTDxfName
1000
VISUALSTYLE
1000
AcRTDxfName
1000
VISUALSTYLE
1000
AcRTDxfName
1000
VISUALSTYLE
  0
ACAD_PROXY_OBJECT
  5
3996
102
{ACAD_REACTORS
330
398C
102
}
330
398C
100
AcDbProxyObject
 90
      499
 91
      508
 95
   983063
 70
     0
 93
      428
310
429499585B1A5CDD1A58C0108409028333333333333E3BF0000000000000FB01079019070040501508421405064090741402480A1B49
 94
        0
1001
ACAD
1000
AcDbSavedByObjectVersion
1070
     0
1000
AcRTDxfName
1000
VISUALSTYLE
1000
AcRTDxfName
1000
VISUALSTYLE
1000
AcRTDxfName
1000
VISUALSTYLE
  0
ACAD_PROXY_OBJECT
  5
3999
102
{ACAD_REACTORS
330
398C
102
}
330
398C
100
AcDbProxyObject
 90
      499
 91
      508
 95
   983063
 70
     0
 93
      420
310
42151A1A58DAD95B8010D409028333333333333E3BF0000000000000FB010790141107004050150C41D405064090741402480A0352
 94
        0
1001
ACAD
1000
AcDbSavedByObjectVersion
1070
     0
1000
AcRTDxfName
1000
VISUALSTYLE
1000
AcRTDxfName
1000
VISUALSTYLE
1000
AcRTDxfName
1000
VISUALSTYLE
  0
DICTIONARYVAR
  5
3A7E
102
{ACAD_REACTORS
330
3B
102
}
330
3B
100
DictionaryVariables
280
     0
  1
1:1
  0
DICTIONARYVAR
  5
3CC5
102
{ACAD_REACTORS
330
3B
102
}
330
3B
100
DictionaryVariables
280
     0
  1
STANDARD
  0
DICTIONARYVAR
  5
3A7D
102
{ACAD_REACTORS
330
3B
102
}
330
3B
100
DictionaryVariables
280
     0
  1
STANDARD
  0
DICTIONARYVAR
  5
3D
102
{ACAD_REACTORS
330
3B
102
}
330
3B
100
DictionaryVariables
280
     0
  1
2
  0
DICTIONARYVAR
  5
3C
102
{ACAD_REACTORS
330
3B
102
}
330
3B
100
DictionaryVariables
280
     0
  1
1
  0
DICTIONARYVAR
  5
3A7F
102
{ACAD_REACTORS
330
3B
102
}
330
3B
100
DictionaryVariables
280
     0
  1
0
  0
DICTIONARYVAR
  5
4181
102
{ACAD_REACTORS
330
3B
102
}
330
3B
100
DictionaryVariables
280
     0
  1

  0
DICTIONARYVAR
  5
2C0C
102
{ACAD_REACTORS
330
3B
102
}
330
3B
100
DictionaryVariables
280
     0
  1
127
  0
DICTIONARY
  5
45C7
330
22
100
AcDbDictionary
280
     1
281
     1
  3
ACAD_XREC_ROUNDTRIP
360
45C8
  0
DICTIONARY
  5
39F7
330
2CC2
100
AcDbDictionary
280
     1
281
     1
  3
ACAD_XREC_ROUNDTRIP
360
45CD
  3
ADSK_XREC_LAYOUTTHUMBNAIL
360
39F8
  0
DICTIONARY
  5
397D
330
397C
100
AcDbDictionary
280
     1
281
     1
  3
ACAD_XREC_ROUNDTRIP
360
4138
  3
BUMPTILE
360
397F
  3
DIFFUSETILE
360
397E
  3
OPACITYTILE
360
3982
  3
REFLECTIONTILE
360
3981
  3
REFRACTIONTILE
360
3983
  3
SPECULARTILE
360
3980
  0
DICTIONARY
  5
3975
330
3974
100
AcDbDictionary
280
     1
281
     1
  3
ACAD_XREC_ROUNDTRIP
360
4137
  3
BUMPTILE
360
3977
  3
DIFFUSETILE
360
3976
  3
OPACITYTILE
360
397A
  3
REFLECTIONTILE
360
3979
  3
REFRACTIONTILE
360
397B
  3
SPECULARTILE
360
3978
  0
DICTIONARY
  5
3985
330
3984
100
AcDbDictionary
280
     1
281
     1
  3
ACAD_XREC_ROUNDTRIP
360
4139
  3
BUMPTILE
360
3987
  3
DIFFUSETILE
360
3986
  3
OPACITYTILE
360
398A
  3
REFLECTIONTILE
360
3989
  3
REFRACTIONTILE
360
398B
  3
SPECULARTILE
360
3988
  0
DICTIONARY
  5
45C9
330
297B
100
AcDbDictionary
280
     1
281
     1
  3
ACAD_XREC_ROUNDTRIP
360
45CA
  0
DICTIONARY
  5
45CB
330
297C
100
AcDbDictionary
280
     1
281
     1
  3
ACAD_XREC_ROUNDTRIP
360
45CC
  0
DICTIONARY
  5
3A48
330
399F
100
AcDbDictionary
280
     1
281
     1
  3
ACAD_ROUNDTRIP_2008_TABLESTYLE_CELLSTYLEMAP
360
411B
  3
ACAD_XREC_ROUNDTRIP
360
413A
  0
XRECORD
  5
45C8
102
{ACAD_REACTORS
330
45C7
102
}
330
45C7
100
AcDbXrecord
280
     1
102
SHADEPLOT
 70
     0
102
SHADEPLOTRESLEVEL
 70
     2
102
SHADEPLOTCUSTOMDPI
 70
   300
  0
XRECORD
  5
45CD
102
{ACAD_REACTORS
330
39F7
102
}
330
39F7
100
AcDbXrecord
280
     1
102
SHADEPLOT
 70
     1
102
SHADEPLOTRESLEVEL
 70
     2
102
SHADEPLOTCUSTOMDPI
 70
   300
  0
XRECORD
  5
39F8
102
{ACAD_REACTORS
330
39F7
102
}
330
39F7
100
AcDbXrecord
280
     1
310
28000000630000008C0000000100080000000000B0360000000000000000000000010000000000000000000000000000FFFFFF000000000000000000000000000000000000000000000000000000000000000000330000006600000099000000CC000000FF00000000330000333300006633000099330000CC330000FF3300
310
0000660000336600006666000099660000CC660000FF66000000990000339900006699000099990000CC990000FF99000000CC000033CC000066CC000099CC0000CCCC0000FFCC000000FF000033FF000066FF000099FF0000CCFF0000FFFF000000003300330033006600330099003300CC003300FF003300003333003333
310
33006633330099333300CC333300FF33330000663300336633006666330099663300CC663300FF66330000993300339933006699330099993300CC993300FF99330000CC330033CC330066CC330099CC3300CCCC3300FFCC330000FF330033FF330066FF330099FF3300CCFF3300FFFF330000006600330066006600660099
310
006600CC006600FF00660000336600333366006633660099336600CC336600FF33660000666600336666006666660099666600CC666600FF66660000996600339966006699660099996600CC996600FF99660000CC660033CC660066CC660099CC6600CCCC6600FFCC660000FF660033FF660066FF660099FF6600CCFF6600
310
FFFF660000009900330099006600990099009900CC009900FF00990000339900333399006633990099339900CC339900FF33990000669900336699006666990099669900CC669900FF66990000999900339999006699990099999900CC999900FF99990000CC990033CC990066CC990099CC9900CCCC9900FFCC990000FF99
310
0033FF990066FF990099FF9900CCFF9900FFFF99000000CC003300CC006600CC009900CC00CC00CC00FF00CC000033CC003333CC006633CC009933CC00CC33CC00FF33CC000066CC003366CC006666CC009966CC00CC66CC00FF66CC000099CC003399CC006699CC009999CC00CC99CC00FF99CC0000CCCC0033CCCC0066CC
310
CC0099CCCC00CCCCCC00FFCCCC0000FFCC0033FFCC0066FFCC0099FFCC00CCFFCC00FFFFCC000000FF003300FF006600FF009900FF00CC00FF00FF00FF000033FF003333FF006633FF009933FF00CC33FF00FF33FF000066FF003366FF006666FF009966FF00CC66FF00FF66FF000099FF003399FF006699FF009999FF00CC
310
99FF00FF99FF0000CCFF0033CCFF0066CCFF0099CCFF00CCCCFF00FFCCFF0000FFFF0033FFFF0066FFFF0099FFFF00CCFFFF00FFFFFF00000000000D0D0D001A1A1A00282828003535350043434300505050005D5D5D006B6B6B00787878008686860093939300A1A1A100AEAEAE00BBBBBB00C9C9C900D6D6D600E4E4E400
310
F1F1F100FFFFFF0000000000000000000000000000000000000000000000000000000000000000000000000000000000F5F5F5F5F5F5F5F5F5F5F5F5F5F5F5F5F5F5F5F5F5F5F5F5F5F5F5F5F5F5F5F5F5F5F5F5F5F5F5F5F5F5F5F5F5F5F5F5F5F5F5F5F5F5F5F5F5F5F5F5F5F5F5F5F5F5F5F5F5F5F5F5F5F5F5F5F5F5F5
310
F5F5F5F5F5F5F5F5F5F5F5F5F5F5F5F5F5F5F5EFFFE2E2E2E2E2E2E2E2E2E2E2E2E2E2E2E2E2E2E2E2E2E2E2E2E2E2E2E2E2E2E2E2E2E2E2E2E2E2E2E2E2E2E2E2E2E2E2E2E2E2E2E2E2E2E2E2E2E2E2E2E2E2E2E2E2E2E2E2E2E2E2E2E2E2E2E2E2E2E2E2E2E2E2E2E2E2E2E2E2E2E2E2E2E2E2E2E2F5EFFFE2E2E2E2E2E2
310
E2E2E2E2E2E2E2E2E2E2E2E2E2E2E2E2E2E2E2E2E2E2E2E2E2E2E2E2E2E2E2E2E2E2E2E2E2E2E2E2E2E2E2E2E2E2E2E2E2E2E2E2E2E2E2E2E2E2E2E2E2E2E2E2E2E2E2E2E2E2E2E2E2E2E2E2E2E2E2E2E2E2E2E2E2E2E2E2E2E2E2F5EFFFE2F5F5F5F5F5F5F5F5E2E2E2E2E2E2E2E2F5F5F5F5F5F5F5F5F5F5F5F5F5F5F5E2
310
E2E2E2E2E2E2E2E2F5F5F5F5F5F5F5F5F5F5F5F5F5F5E2E2E2E2E2E2E2E2E2F5F5F5F5F5F5F5F5F5F5F5F5F5F5F5E2E2E2E2E2E2E2E2F5F5F5F5F5F5F5F5E2E2F5EFFFE2F5E2E2E2E2E2E2E2E2E2E2E2E2E2E2E2E2E2E2E2E2E2E2E2E2E2E2F5F5E2E2E2E2E2E2E2E2E2E2E2E2E2E2E2E2E2E2E2E2E2E2E2E2E2E2E2E2E2E2
310
E2E2E2E2E2E2E2E2E2E2E2E2E2E2E2E2E2E2E2E2E2E2E2E2E2E2E2E2E2E2E2E2E2E2F5E2E2F5EFFFE2F5E2E2E2E2E2F5F5F5F5F5F5F5F5F5F5F5F5F5F5F5F5F5F5F5F5F5F5F5F5F5F5F5F5F5F5F5F5F5F5F5F5F5F5F5F5F5F5F5F5F5F5F5F5F5F5F5F5F5F5F5F5F5F5F5F5F5F5F5F5F5F5F5F5F5F5F5F5F5F5F5F5F5F5F5F5
310
F5F5F5E2E2E2E2F5E2E2F5EFFFE2F5E2E2E2E2E2F5F5F5F5F5F5F5F5F5F5F5F5F5F5F5F5F5F5F5F5F5F5F5F5F5F5F5F5F5F5F5F5F5F5F5F5F5F5F5F5F5F5F5F5F5F5F5F5F5F5F5F5F5F5F5F5F5F5F5F5F5F5F5F5F5F5F5F5F5F5F5F5F5F5F5F5F5F5F5F5F5F5F5F5E2E2E2F5E2E2F5EFFFE2F5E2E2E2E2E2E2E2E2E2E2E2E2
310
E2E2E2E2E2E2E2E2E2E2E2E2E2E2E2E2E2E2E2E2E2E2E2E2E2E2E2E2E2E2E2E2E2E2E2E2E2E2E2E2E2E2E2E2E2E2E2E2E2E2E2E2E2E2E2E2E2E2E2E2E2E2E2E2E2E2E2E2E2E2E2E2E2E2E2E2E2E2E2E2F5E2E2F5EFFFE2F5E2E2E2E2E2EAEAEAEAEAEAEAEAEAEAEAEAEAEAEAEAEAEAEAEAEAEAEAEAEAEAEAEAEAEAEAEAEAEA
310
EAEAEAEAEAEAEAEAEAEAEAEAEAEAEAEAEAEAEAEAEAEAEAEAEAEAEAEAEAEAEAEAEAEAEAEAEAEAEAEAEAEAEAEAEAEAEAEAEAEAE2E2E2F5E2E2F5EFFFE2F5E2E2E2E2E2EAE2E2E2E2E2E2E2E2E2E2E2E2E2E2E2E2E2E2E2E2E2E2E2E2E2E2E2E2E2E2E2E2E2E2E2E2E2E2E2E2E2E2E2E2E2E2E2E2E2E2E2E2E2E2E2E2E2E2E2E2
310
E2E2E2E2E2E2E2E2E2E2E2E2E2E2E2E2E2E2E2E2E2E2EAE2E2E2F5E2E2F5EFFFE2F5E2E2E2E2E2EAE2E2E2E2E2E2E2E2E2E2E2E2E2E2E2E2E2E2E2E2E2E2E2E2E2E2E2E2E2E2E2E2E2E2E2E2E2E2E2E2E2E2E2E2E2E2E2E2E2E2E2E2E2E2E2ECECE2E2E2E2E2E2E2E2E2E2E2E2E2E2E2E2E2E2E2E2E2E2E2E2E2EAE2E2E2F5
310
E2E2F5EFFFE2F5E2E2E2E2E2EAE2E2E2E2E2E2E2E2E2E2E2E2E2E2E2E2E2E2E2E2E2E2E2E2E2E2E2E2E2E2E2E2E2E2E2E2E2E2E2E2E2E2E2E2E2E2E2E2E2E2E2E2E2E2E2ECECE2E2E2E2E2E2E2E2E2E2E2E2E2E2E2E2E2E2E2E2E2E2E2E2E2EAE2E2E2F5E2E2F5EFFFE2E2E2E2E2E2E2EAE2E2E2E2E2E2E2E2E2F5F5F5F5F5
310
F5F5F5F5F5F5F5F5F5E2E2E2E2E2E2E2E2E2E2E2E2E2E2E2E2E2E2E2E2E2E2E2E2E2E2E2E2E2E2E2E2ECECF5F5F5F5F5F5F5F5F5F5F5F5F5E2E2E2E2E2E2E2E2E2E2E2E2EAE2E2E2E2E2E2F5EFFFE2E2E2E2E2E2E2EAE2E2E2E2E2E2E2E2E2F5F5F5F5F5F5F5F5F5F5F5F5F5F5E2E2E2E2E2E2E2E2E2E2E2E2E2E2E2E2E2E2
310
E2E2E2E2E2E2E2E2E2E2E2E2E2E2ECECF5F5F5F5F5F5F5F5F5F5F5F5F5E2E2E2E2E2E2E2E2E2E2E2E2EAE2E2E2E2E2E2F5EFFFE2E2E2E2E2E2E2EAE2E2E2E2E2E2E2E2E2F5F5F5F5F5F5F5F5F5F5F5F5F5F5E2E2E2E2E2E2E2E2E2E2E2E2E2E2E2E2E2E2E2E2E2E2E2E2E2E2E2E2E2E2E2E2ECECF5F5F5F5F5F5F5F5F5F5F5
310
F5F5E2E2E2E2E2E2E2E2E2E2E2E2EAE2E2E2E2E2E2F5EFE3E2E2E2E2E2E2E2EAE2E2E2E2E2E2E2E2E2E228ECE2E2E2E2E2E2E2E2E2E2E2E2E2E2E2E2E2E2E2E2E2E2E2E2E2E2E2E2E2E2E2E2E2E2E2E2E2E2E2E2E2E2E2ECECE2E2E2E2E2E2E2E2E2E2E2E2E2E2E2E2E2E2E2E2E2E2E2E2E2EAE2E2E2E2E2E2F5EFFFE2E2E2
310
E2E2E2E2EAE2E2E2E2E2E2E2E2E2E2ECECE2E2E2E2E2E2E2E2E2E2E2E2E2E2E2E2E2E2E2E2E2E2E2E2E2E2E2E2E2E2E2E2E2E2E2E2E2E2E2E2E2E2E2ECECEFEFEFEFEFEFEFE2E2E2E2E2E2E2E2E2E2E2E2E2E2E2E2E2E2EAE2E2E2E2E2E2F5EFFFE2E2E2E2E2E2E2EAE2E2E2E2E2E2E2E2E2EFECECF5F5F5F5F5E2E2E2E2E2
310
E2E2E2E2E2E2E2E2E2E2E2E2E2E2E2E2E2E2E2E2E2E2E2E2E2E2E2E2E2E2E2E2E2E2ECEFEFEFEFECECECE2E2E2E2E2E2E2E2E2E2E2E2E2E2E2E2E2E2EAE2E2E2E2E2E2F5EFFFE2E2E2E2E2E2E2EAE2E2E2E2E2E2E2E2E2EFECECF5F5F5F5F5E2E2E2E2E2E2E2E2E2E2E2E2E2E2E2E2E2E2E2E2E2E2E2E2E2E2E2E2E2E2E2E2
310
E2E2E2E2E2E2ECECEFEFE2ECECECECE2E2E2E2E2E2E2E2E2E2E2E2E2E2E2E2E2E2EAE2E2E2E2E2E2F5EFFFE2E2E2E2E2E2E2EAE2E2E2E2E2E2E2E2E2EFECECF5F5F5F5E2E2E2E2E2E2E2E2E2E2E2E2E2E2E2E2E2E2E2E2E2E2E2E2E2E2E2E2E2E2E2E2E2E2E2E2E2E2E2ECECEFE2F5ECECECECF5F5F5E2E2E2E2E2E2E2E2E2
310
E2E2E2E2E2E2EAE2E2E2E2E2E2F5EFFFE2E2E2E2E2E2E2EAE2E2E2E2E2E2E2E2E2EFECECE2E2E2E2E2E2E2E2E2E2E2E2E2E2E2E2E2E2E2E2E2E2E2E2E2E2E2E2E2E2E2E2E2E2E2E2E2E2E2E2E2E2E2ECECEFE2ECECECECECECECECE2E2E2E2E2E2E2E2E2E2E2E2E2E2E2EAE2E2E2E2E2E2F5EFFFE2E2E2E2E2E2E2EAE2E2E2
310
E2E2E2E2E2E2EFECECECECECE2ECECECECECECECECECE2E2E2E2E2E2E2E2E2E2E2E2E2E2E2E2E2E2E2E2E2E2E2E2E2E2E2E2E2E2ECECEFEFF5ECECECF5F5F5F5E2E2E2E2E2E2E2E2E2E2E2E2E2E2E2EAE2E2E2E2E2E2F5EFFFE2F5E2E2E2E2E2EAE2E2E2E2E2E2E2E2E2EFEFEFEFEFEFEFEFEFEFEFEFEFEFEFECE2E2E2E2E2
310
E2E2E2E2E2E2E2E2E2E2E2E2E2E2E2E2E2E2E2E2E2E2E2E2E2ECECEFEFEFEFECECEFE2E2E2E2E2E2E2E2E2E2E2E2E2E2E2E2E2E2EAE2E2E2F5E2E2F5EFFFE2F5E2E2E2E2E2EAE2E2E2E2E2E2E2E2E2EFEFEFEFEFEFEFEFEFEFEFEFEFEFEFE2E2E2E2E2E2E2E2E2E2E2E2E2E2E2E2E2E2E2E2E2E2E2E2E2E2E2E2E2E2E2ECEC
310
E2F5F5F5F5E2E2E2E2E2E2E2E2E2E2E2E2E2E2E2E2E2E2E2E2EAE2E2E2F5E2E2F5EFFFE2F5E2E2E2E2E2EAE2E2E2E2E2E2E2F5F5F5F5F5EFEFE2E2E2E2EFEFE2E2E2E2E2E2E2E2E2E2E2E2E2E2E2E2E2E2E2E2E2E2E2E2E2E2E2E2E2E2E2E2E2E2E2ECECE2E2E2E2E2E2E2E2E2E2E2E2E2E2E2E2E2E2E2E2E2E2E2E2E2EAE2
310
E2E2F5E2E2F5EFFFE2F5E2E2E2E2E2EAE2E2E2E2E2E2F5F5F5F5F5F5EFEFE2F5ECF5EFEFE2E2E2E2E2E2E2E2E2E2E2E2E2E2E2E2E2E2E2E2E2E2E2E2E2E2E2E2E2E2E2E2E2E2E2ECECE2E2E2E2E2E2E2E2E2E2E2E2E2E2E2E2E2E2E2E2E2E2E2E2E2EAE2E2E2F5E2E2F5EFFFE2F5E2E2E2E2E2EAE2E2E2E2E2E2F5F5F5F5F5
310
F5EFEFECECECECECEFE2E2E2E2E2E2E2E2E2E2E2E2E2E2E2E2E2E2E2E2E2E2E2E2E2E2E2E2E2E2E2E2E2E2E2ECECE2E2E2E2E2E2E2E2E2E2E2E2E2E2E2E2E2E2E2E2E2E2E2E2E2EAE2E2E2F5E2E2F5EFFFE2F5E2E2E2E2E2EAE2F5F5F5F5F5F5F5F5F5F5F5EFECECECECECECEFE2E2E2E2E2E2E2E2E2E2E2E2E2E2E2E2E2E2
310
E2E2E2E2E2E2E2E2E2E2E2E2E2E2E2E2E2ECECE2E2E2E2E2E2E2E2E2E2E2E2E2E2E2E2E2E2E2E2E2E2E2E2E2EAE2E2E2F5E2E2F5EFFFE2F5E2E2E2E2E2EAE2F5F5F5F5F5F5F5F5F5F5F5EFECECECECECECEFE2E2E2E2E2E2E2E2E2E2E2E2E2E2E2E2E2E2E2E2E2E2E2E2E2E2E2E2E2E2E2E2E2E2E2ECECE2E2E2E2E2E2E2E2
310
E2E2E2E2E2E2E2E2E2E2E2E2E2E2E2E2E2EAE2E2E2F5E2E2F5EFFFE2F5E2E2E2E2E2EAE2E2E2E2E2E2E2F5F5F5F5F5E2ECECECECECE2E2E2E2E2E2E2E2E2E2E2E2E2E2E2E2E2E2E2E2E2E2E2E2E2E2E2E2E2E2E2E2E2E2E2E2E2E2ECE2E2E2E2E2E2E2E2E2E2E2E2E2E2E2E2E2E2E2E2E2E2E2E2E2EAE2E2E2F5E2E2F5EFFF
310
E2F5E2E2E2E2E2EAE2E2E2E2E2E2E2E2E2E2E2E2E2E2E2F5ECF5E2E2E2E2E2E2E2E2E2E2E2E2E2E2E2E2E2E2E2E2E2E2E2E2E2E2E2E2E2E2E2E2E2E2E2E2E2E2E2E2E2E2E2E2E2E2E2E2E2E2E2E2E2E2E2E2E2E2E2E2E2E2E2E2EAE2E2E2F5E2E2F5EFFFE2F5E2E2E2E2E2EAE2E2E2E2E2E2E2E2E2E2E2E2E2E2E2F5ECF5E2
310
E2E2E2E2E2E2E2E2E2E2E2E2E2E2E2E2E2E2E2E2E2E2E2E2E2E2E2E2E2E2E2E2E2E2E2E2E2E2E2E2E2E2E2E2E2E2E2E2E2E2E2E2E2E2E2E2E2E2E2E2E2E2E2EAE2E2E2F5E2E2F5EFFFE2F5E2E2E2E2E2EAE2E2E2E2E2E2E2E2E2E2E2E2E2E2E2E2E2E2E2E2E2E2E2E2E2E2E2E2E2E2E2E2E2E2E2E2E2E2E2E2E2E2E2E2E2E2
310
E2E2E2E2E2E2E2E2E2E2E2E2E2E2E2E2E2E2E2E2E2E2E2E2E2E2E2E2E2E2E2E2E2E2E2E2EAE2E2E2F5E2E2F5EFFFE2F5E2E2E2E2E2EAE2E2E2E2E2E2E2E2E2E2E2E2E2E2E2E2E2E2E2E2E2E2E2E2E2E2E2E2E2E2E2E2E2E2E2E2E2E2E2E2E2E2E2E2E2E2E2E2E2E2E2E2E2E2E2E2E2E2E2E2E2E2E2E2E2E2E2E2E2E2E2E2E2
310
E2E2E2E2E2E2E2E2E2EAE2E2E2F5E2E2F5EFFFE2F5E2E2E2E2E2EAE2E2E2E2E2E2E2E2E2E2E2E2E2E2E2E2E2E2E2E2E2E2E2E2E2E2E2E2E2E2E2E2E2E2E2E2E2E2E2E2E2E2E2E2E2E2E2E2E2E2E2E2E2E2E2E2E2E2E2E2E2E2E2E2E2E2E2E2E2E2E2E2E2E2E2E2E2E2E2E2E2E2EAE2E2E2F5E2E2F5EFFFE2F5E2E2E2E2E2EA
310
E2E2E2E2E2E2E2E2E2E2E2E2E2E2E2E2E2E2E2E2E2E2E2E2E2E2E2E2E2E2E2E2E2E2E2E2E2E2E2E2E2E2E2E2E2E2E2E2E2E2E2E2E2E2E2E2E2E2E2E2E2E2E2E2E2E2E2E2E2E2E2E2E2E2E2E2E2E2E2E2E2E2EAE2E2E2F5E2E2F5EFFFE2F5E2E2E2E2E2EAE2E2E2E2E2E2E2E2E2E2E2E2E2E2E2E2E2E2E2E2E2E2E2E2E2E2E2
310
E2E2E2E2E2E2E2E2E2E2E2E2E2E2E2E2E2E2E2E2E2E2E2E2E2E2E2E2E2E2E2E2E2E2E2E2E2E2E2E2E2E2E2E2E2E2E2E2E2E2E2E2E2E2E2EAE2E2E2F5E2E2F5EFFFE2F5E2E2E2E2E2EAE2E2E2E2E2E2E2E2E2E2E2E2E2E2E2E2E2E2E2E2E2E2E2E2E2E2E2E2E2E2E2E2E2E2E2E2E2E2E2E2E2E2E2E2E2E2E2E2E2E2E2E2E2E2
310
E2E2E2E2E2E2E2E2E2E2E2E2E2E2E2E2E2E2E2E2E2E2E2E2E2E2E2E2EAE2E2E2F5E2E2F5EFFFE2F5E2E2E2E2E2EAE2E2E2E2E2E2E2E2E2E2E2E2E2E2E2F5ECF5E2E2E2E2E2E2E2E2E2E2E2E2E2E2E2E2E2E2E2E2E2E2E2E2E2E2E2E2E2E2E2E2E2E2E2E2E2E2E2E2E2E2E2E2E2E2E2E2E2E2E2E2E2E2E2E2E2E2E2E2E2E2E2
310
E2EAE2E2E2F5E2E2F5EFFFE2E2E2E2E2E2E2EAE2E2E2E2E2E2E2E2E2E2E2E2E2E2E2F5ECF5E2E2E2E2E2E2E2E2E2E2E2E2E2E2E2E2E2E2E2E2E2E2E2E2E2E2E2E2E2E2E2E2E2E2E2E2E2E2E2E2E2E2E2E2E2E2E2E2E2E2E2E2E2E2E2E2E2E2E2E2E2E2E2E2EAE2E2E2E2E2E2F5EFFFE2E2E2E2E2E2E2EAE2E2E2E2E2E2E2E2
310
E2E2E2E2E2E2E2ECECF5E2E2E2E2E2E2E2E2E2E2E2E2E2E2E2E2E2E2E2E2E2E2E2E2F5F5F5F5F5F5F5F5F5F5F5F5F5E2E2E2E2E2E2E2E2E2E2E2E2E2E2E2E2E2E2E2E2E2E2E2E2E2E2E2EAE2E2E2E2E2E2F5EFFFE2E2E2E2E2E2E2EAE2E2E2E2E2E228ECECECECECECECECECECECECECEC28ECECECECE2E2E2E2E2E2E2E2E2
310
E2E2E2E2E2E2E2F5F5F5F5F5F5F5F5F5F5F5E2F5E2E2E2E2E2E2E2E2E2E2E2E2E2E2E2E2E2E2E2E2E2E2E2E2E2E2E2EAE2E2E2E2E2E2F5EFFFE2E2E2E2E2E2E2EAE2E2E2E2E2E2ECECECECECECECECECECECECECECECECECECECECE2E2E2E2E2E2E2E2E2E2E2E2E2E2E2E2F5F5F5F5F5F5F5F5F5F5F5F5F5E2E2E2E2E2E2E2
310
E2E2E2E2E2E2E2E2E2E2E2E2E2E2E2E2E2E2E2E2EAE2E2E2E2E2E2F5EFFFE2E2E2E2E2E2E2EAE2E2E2E2F5F5F5F5F5F5E2ECECECECECECECEC28ECE2E2E2E2E2E2E2E2E2E2E2E2E2E2E2E2E2E2E2E2E2E2E2E2E2E2E2E2E2E2E2E2E2E2E2E2E2E2E2E2E2E2E2E2E2E2E2E2E2E2E2E2E2E2E2E2E2E2E2E2E2EAE2E2E2E2E2E2
310
F5EFFFE2E2E2E2E2E2E2EAF5F5F5F5F5F5F5F5F5F5E2ECECEFECF5ECECEFECECE2E2E2E2E2E2E2E2E2E2E2E2E2E2E2E2E2E2E2E2E2E2E2E2E2E2E2E2E2E2E2E2E2E2E2E2E2E2E2E2E2E2E2E2E2E2E2E2E2E2E2E2E2E2E2E2E2E2E2E2E2EAE2E2E2E2E2E2F5EFFFE2E2E2E2E2E2E2EAF5F5F5F5F5F5F5F5F5F5E2ECECEFE2F5
310
ECF5EFECECE2E2E2E2E2E2E2E2E2E2E2E2E2E2E2E2E2E2E2E2ECE2ECECECECECECECECECECECE2E2E2E2E2E2E2E2E2E2E2E2E2E2E2E2E2E2E2E2E2E2E2E2E2E2E2E2EAE2E2E2E2E2E2F5EFFFE2E2E2E2E2E2E2EAE2E2E2E2E2E2F5F5F5F5E2ECECEFE2E2E2E2EFECECE2E2E2E2E2E2E2E2E2E2E2E2E2E2E2E2E2E2E2E2ECEC
310
ECECECECECECECECEC28ECF5F5F5F5F5F5F5F5F5F5F5E2E2E2E2E2E2E2E2E2E2E2E2E2E2E2E2E2EAE2E2E2E2E2E2F5EFFFE2E2E2E2E2E2E2EAE2E2E2E2E2E2F5F5F5F5E2ECECEFE2E2E2E2EFECECE2E2E2E2E2E2E2E2E2E2E2E2E2E2E2E2E2E2E2E2E2E2E2E2EFEFEFEFEFEFEFECECF5F5F5F5F5F5F5F5F5F5F5E2E2E2E2E2
310
E2E2E2E2E2E2E2E2E2E2E2E2EAE2E2E2E2E2E2F5EFFFE2F5E2E2E2E2E2EAE2E2E2E2E2E2E2E2E2E2E2E2ECEFE2E2E2E2EFECECE2E2E2E2E2E2E2E2E2E2E2E2E2E2E2E2E2E2E2E2E2E2E2E2EFEFEFEFEFEFEFECECF5F5F5F5F5F5F5F5F5F5E2E2E2E2E2E2E2E2E2E2E2E2E2E2E2E2E2E2EAE2E2E2F5E2E2F5EFFFE2F5E2E2E2
310
E2E2EAE2E2E2E2E2E2E2E2E2E2E2ECECEFE2E2E2E2EFECECE2E2E2E2E2E2E2E2E2E2E2E2E2E2E2E2E2E2E2F5F5F5F5F5EFEFE2E2E2E2EFECECF5F5F5F5F5F5F5F5F5F5E2E2E2E2E2E2E2E2E2E2E2E2E2E2E2E2E2E2EAE2E2E2F5E2E2F5EFFFE2F5E2E2E2E2E2EAE2E2E2E2E2E2E2E2E2E2E2ECECEFE2E2E2E2EFECECE2E2E2
310
E2E2E2E2E2E2E2E2E2E2E2E2E2E2E2E2F5F5F5F5F5EFECECECECECEFECECF5F5F5F5E2E2E2E2E2E2E2E2E2E2E2E2E2E2E2E2E2E2E2E2E2E2E2E2EAE2E2E2F5E2E2F5EFFFE2F5E2E2E2E2E2EAE2E2E2E2E2E2E2E2E2E2E2ECECEFE2E2E2E2EFECECE2E2E2E2E2E2E2E2E2E2E2E2E2E2E2E2E2E2E2E2E2E2E2E2EFECECECECEC
310
ECECECECECECECECECECECE2ECECECECECECECECECECECECECECECECE2E2E2EAE2E2E2F5E2E2F5EFFFE2F5E2E2E2E2E2EAE2E2E2E2E2E2E2E2E2E2E2ECECEFEFEFEFEFEFECECE2E2E2E2E2E2E2E2E2E2E2E2E2E2E2E2E2E2E2E2E2E2E2E2EFECECECECECECECECECECECECECECECECECECECE2ECECECECECECECECECECECEC
310
ECECE2E2EAE2E2E2F5E2E2F5EFFFE2F5E2E2E2E2E2EAE2E2E2E2E2E2E2E2E2E2E2ECEC28ECECECECECECECE2E2E2E2E2E2E2E2E2E2E2E2E2E2E2E2E2E2E2E2E2E2E2E2EFECECECECECEFECECECECECECECECECECECEC28ECECECECECECECECECECECECECEC28E2E2EAE2E2E2F5E2E2F5EFFFE2F5E2E2E2E2E2EAE2E2E2E2E2
310
E2E2E2E2E2E2ECECECECECECECECECECE2E2E2E2E2E2E2E2E2E2E2E2E2E2E2E2E2E2E2E2E2E2E2E2E2E2ECECECF5E2E2E2E2E2E2E2E2E2E2E2E2E2E2E2E2E2E2E2E2E2E2E2E2E2E2E2E2E2E2E2EAE2E2E2F5E2E2F5EFFFE2F5E2E2E2E2E2EAE2E2E2E2E2E2E2E2E2E2E2E2E2E2E2E2E2E2E2E2E2E2E2E2E2E2E2E2E2E2E2E2
310
E2E2E2E2E2E2E2E2E2E2E2E2E2E2E2ECECECF5E2E2E2E2E2E2E2E2E2E2E2E2E2E2E2E2E2E2E2E2E2E2E2E2E2E2E2E2E2E2E2EAE2E2E2F5E2E2F5EFFFE2F5E2E2E2E2E2EAE2E2E2E2E2E2E2E2E2E2E2E2E2E2E2E2E2E2E2E2E2E2E2E2E2E2E2E2E2E2E2E2E2E2E2E2E2E2E2E2E2E2E2E2E2E2E2ECECECF5E2E2E2E2E2E2E2E2
310
E2E2E2E2E2E2E2E2E2E2E2E2E2E2E2E2E2E2E2E2E2E2E2EAE2E2E2F5E2E2F5EFFFE2F5E2E2E2E2E2EAE2E2E2E2E2E2E2E2E2E2E2E2E2E2E2E2E2E2E2E2E2E2E2E2E2E2E2E2E2E2E2E2E2E2E2E2E2E2E2E2E2E2E2E2E2E2E2E2E2E2E2E2E2E2E2E2E2E2E2E2E2E2E2E2E2E2E2E2E2E2E2E2E2E2E2E2E2E2E2E2E2E2EAE2E2E2
310
F5E2E2F5EFFFE2F5E2E2E2E2E2EAE2E2E2E2E2E2E2E2E2E2E2E2E2E2E2E2E2E2E2E2E2E2E2E2E2E2E2E2E2E2E2E2E2E2E2E2E2E2E2E2E2E2E2E2E2E2E2E2E2E2E2E2E2E2E2E2E2E2E2E2E2E2E2E2E2E2E2E2E2E2E2E2E2E2E2E2E2E2E2E2E2E2EAE2E2E2F5E2E2F5EFFFE2F5E2E2E2E2E2EAE2E2E2E2E2E2E2E2E2E2E2E2E2
310
E2E2E2E2E2E2E2E2E2E2E2E2E2E2E2E2E2E2E2E2E2E2E2E2E2E2E2E2E2E2E2E2E2E2E2E2E2E2E2E2E2E2E2E2E2E2E2E2E2E2E2E2E2E2E2E2E2E2E2E2E2E2E2E2E2E2E2E2E2EAE2E2E2F5E2E2F5EFFFE2F5E2E2E2E2E2EAE2E2E2E2E2E2E2E2E2E2E2E2E2E2E2E2E2E2E2E2E2E2E2E2E2E2E2E2E2E2E2E2E2E2E2E2E2E2E2E2
310
E2E2E2E2E2E2E2E2E2E2E2E2E2E2E2E2E2E2E2E2E2E2E2E2E2E2E2E2E2E2E2E2E2E2E2E2E2E2E2E2E2E2EAE2E2E2F5E2E2F5EFFFE2F5E2E2E2E2E2EAE2E2E2E2E2E2E2E2E2E2E2E2E2E2E2E2E2E2E2E2E2E2E2E2E2E2E2E2E2E2E2E2E2E2E2E2E2E2E2E2E2E2E2E2E2E2E2E2E2E2E2E2E2E2F5E2E2F5E2E2E2E2E2E2E2E2E2
310
E2E2E2E2E2E2E2E2E2E2E2E2E2E2E2EAE2E2E2F5E2E2F5EFFFE2F5E2E2E2E2E2EAE2E2E2E2E2E2E2E2E2E2E2E2E2E2E2E2E2E2E2E2E2E2E2E2E2E2E2E2E2E2E2E2E2E2E2E2E2E2E2E2E2E2E2E2E2E2E2E2E2E2E2E2E2E2F5E2E2F5E2E2E2E2E2E2E2E2E2E2E2E2E2E2E2E2E2E2E2E2E2E2E2E2EAE2E2E2F5E2E2F5EFFFE2F5
310
E2E2E2E2E2EAE2E2E2E2E2E2E2E2E2E2E2E2E2E2E2E2E2E2E2E2E2E2E2E2E2E2E2E2E2E2E2E2E2E2E2E2E2E2E2E2E2E2E2E2E2E2E2E2E2E2E2E2E2E2F5E2E2F5E2E2E2E2E2E2E2E2E2E2E2E2E2E2E2E2E2E2E2E2E2E2E2E2EAE2E2E2F5E2E2F5EFFFE2F5E2E2E2E2E2EAE2E2E2E2E2E2E2E2E2E2E2E2E2E2E2E2E2E2E2E2E2
310
E2E2E2E2E2E2E2E2E2E2E2E2E2E2E2E2E2E2E2E2E2E2E2E2E2E2E2E2E2E2E2E2E2F5E2E2F5E2E2E2E2E2E2E2E2E2E2E2E2E2E2E2E2E2E2E2E2E2E2E2E2EAE2E2E2F5E2E2F5EFFFE2E2E2E2E2E2E2EAE2E2E2E2E2E2E2E2E2E2E2E2E2E2E2E2E2E2E2E2E2E2E2E2E2E2E2E2E2E2E2E2E2E2E2E2E2E2E2E2E2E2E2E2E2E2E2EC
310
ECECF5E2E2E2F5E2E2F5E2E2E2E2E2E2E2E2E2E2E2E2E2E2E2E2E2E2E2E2E2E2E2E2EAE2E2E2E2E2E2F5EFFFE2E2E2E2E2E2E2EAE2E2E2E2E2E2E2E2E2E2E2E2E2E2E2E2F5F5F5F5F5F5F5E2E2E2E2E2E2E2E2E2E2E2E2E2E2E2E2E2E2E2E2E2E2E2E2ECECECF5E2E2E2F5E2E2F5E2E2E2E2E2E2E2E2E2E2E2E2E2E2E2E2E2
310
E2E2E2E2E2E2E2EAE2E2E2E2E2E2F5EFFFE2E2E2E2E2E2E2EAE2E2E2E2E2E2E2E2E2E2E2E2E2E2E2E2F5F5F5F5F5F5F5E2E2E2E2E2E2E2E2E2E2E2E2E2E2E2E2E2E2E2E2E2E2E2ECECECECECE2E2E2F5E2E2F5EFEFEFEFEFEFEFEFEFEFEFEFE2E2E2E2E2E2E2E2E2E2E2E2EAE2E2E2E2E2E2F5EFFFE2E2E2E2E2E2E2EAE2E2
310
E2E2E2E2E2E2E2E2E2E2E2E2E2E2E2E2F5F5E2E2E2E2E2E2E2E2E2E2E2E2E2E2E2E2E2E2E2E2E2E2E2E2E2EFECECECECECECE2ECF5E2E2F5EFEFEFEFE2E2E2E2E2E2E2EFEFE2E2E2E2E2E2E2E2E2E2E2EAE2E2E2E2E2E2F5EFFFE2E2E2E2E2E2E2EAE2E2E2E2E2E2E2E2E2E2E2E2E2E2E2E2ECE2F5F5E2E2E2E2E2E2E2E2E2
310
E2E2E2E2E2E2E2E2E2E2E2E2E2E2E2E2EFECECECECECECE2ECF5E2E2F5ECECE2EFE2E2E2E2E2E2E2EFEFE2E2E2E2E2E2E2E2E2E2E2EAE2E2E2E2E2E2F5EFFFE2E2E2E2E2E2E2EAE2E2E2E2E2E2E2E2E2E2E2E2E2E2E2ECECECF5F5E2E2E2E2E2E2E2E2E2E2E2E2E2E2E2E2E2E2E2E2F5F5F5F5F5EFECECECECECECE2ECF5EC
310
ECF5ECECECECE2E2E2E2E2E2E2E2E2EFE2E2E2E2E2E2E2E2E2E2EAE2E2E2E2E2E2F5EFFFE2E2E2E2E2E2E2EAE2E2E2DCDCDCDCDCDCDCDCDCDCDCDCDCDCDCDCDCDCDCDCDCDCDCDCDCDCDCDCDCDCDCDCDCDCDCE2E2F5F5F5F5F5EFEFECECECF5EFECECF5ECECF5ECECECECECECE2E2E2E2E2E2E2E2EFE2E2E2E2E2E2E2E2E2EA
310
E2E2E2E2E2E2F5EFFFE2E2E2E2E2E2E2EAE2E2E2DCE2E2E2E2E2E2E2DCE2E2E2ECE2E2E2E2DCE2E2E2E2E2E2E2DCE2E2E2E2E2E2E2E2DCE2E2E2E2E2E2E2EFEFECECECF5EFE2ECF5ECECF5ECECECECE2E2E2E2E2E2E2E2E2E2EFEFDCE2E2E2E2E2E2E2EAE2E2E2E2E2E2F5EFFFE2E2E2E2E2E2E2EAE2E2E2DCE2E2E2E2E2E2
310
E2DCE2E2E2ECE2E2E2E2DCE2E2E2E2E2E2E2DCE2E2E2E2E2E2E2E2DCE2E2E2E2E2E2E2EFEFEFEFEFEFEFE2ECF5E2E2F5ECE2E2E2E2E2E2E2E2E2E2E2E2E2E2EFEFDCE2E2E2E2E2E2EAE2E2E2E2E2E2F5EFFFE2E2E2E2E2E2E2EAE2E2E2DCE2E2E2E2E2E2E2DCE2E2E2ECE2E2E2E2DCE2F5F5F5F5F5E2DCE2E2E2E2E2E2E2E2
310
DCE2E2E2E2E2E2EFEFEFEFEFEFEFEFE2ECF5E2E2F5ECE2E2E2E2E2E2E2E2E2E2E2E2E2E2E2EFEFEFE2E2E2E2E2EAE2E2E2E2E2E2F5EFFFE2F5E2E2E2E2E2EAE2E2E2DCE2E2E2E2E2E2E2DCE2E2E2E2E2E2E2E2DCE2F5F5F5F5F5E2DCE2E2E2E2E2E2E2E2DCE2E2E2E2E2E2EFEFEFEFEFEFEFEFE2ECF5E2E2F5ECE2E2E2E2E2
310
E2E2E2E2E2E2E2E2E2E2E2E2EFEFE2E2E2E2EAE2E2E2F5E2E2F5EFFFE2F5E2E2E2E2E2EAE2E2E2DCE2E2E2E2E2E2E2DCE2E2E2E2E2E2E2E2DCE2F5F5F5E2E2E2DCE2E2E2E2E2E2E2E2DCE2E2E2E2E2E2EFEFEFEFECEFECEFECECF5E2E2F5ECE2E2E2E2E2E2E2E2E2E2E2E2E2E2E2E2E2EFEFEFE2E2E2EAE2E2E2F5E2E2F5EF
310
FFE2F5E2E2E2E2E2EAE2ECECDCECE2E2E2E2E2E2DCE2E2E2E2E2E2E2E2DCE2F5F5F5F5F5F5DCE2E2E2E2E2E2E2E2DCE2E2E2E2E2E2EFEFE2E2ECECECECECECF5F5F5F5ECE2E2E2E2E2E2E2E2E2E2E2E2E2E2E2E2E2E2EFEFEFE2E2EAE2E2E2F5E2E2F5EFFFE2F5E2E2E2E2E2EAE2ECE2DCECE2E2E2E2E2E2DCE2E2E2E2E2E2
310
E2E2ECECF5F5F5F5F5F5DCE2E2E2E2E2E2E2E2DCE2E2E2E2E2E2EFEFE2E2ECE2E2E2ECE2E2E2E2ECECE2E2E2E2E2E2E2E2E2E2E2E2E2E2E2E2E2E2E2EFEFE2E2EAE2E2E2F5E2E2F5EFFFE2F5E2E2E2E2E2EAE2ECF5DCECF5E2E2E2E2E2DCE2E2E2E2E2E2E2E2DCE2E2E2E2E2E2E2DCE2E2E2E2E2E2E2E2DCE2E2E2E2E2E2EF
310
EFE2E2ECE2E2E2ECE2E2E2E2ECECE2E2E2E2E2E2E2E2E2E2E2E2E2E2E2E2E2E2E2EFEFE2E2EAE2E2E2F5E2E2F5EFFFE2F5E2E2E2E2E2EAE2F5F5DCF5F5E2E2E2E2E2DCE2E2E2ECE2E2E2E2DCE2E2E2E2E2E2E2DCE2E2E2E2E2E2E2E2DCE2E2E2E2E2E2EFEFE2E2ECE2E2E2ECECECECECECECE2E2E2E2E2E2E2E2E2E2E2E2E2
310
E2E2E2E2E2E2EFEFE2E2EAE2E2E2F5E2E2F5EFFFE2F5E2E2E2E2E2EAE2E2E2DCE2E2E2E2E2E2E2DCE2E2E2ECE2E2E2E2DCE2E2E2E2E2E2E2DCE2E2E2E2E2E2E2E2DCE2E2E2E2E2E2EFEFE2E2ECE2E2E2ECECE2ECECECECECE2E2E2E2E2E2E2E2E2E2E2E2E2E2E2E2E2E2EFEFE2E2EAE2E2E2F5E2E2F5EFFFE2F5E2E2E2E2E2
310
EAE2E2E2DCDCDCDCDCDCDCDCDCDCDCDCDCDCDCDCDCDCDCDCDCDCDCDCDCDCDCDCDCDCDCDCDCDCDCE2E2E2E2E2E2EFEFE2E2ECE2E2E2ECECE2ECECECECECECECE2E2E2E2E2E2E2E2E2E2E2E2E2E2E2E2EFEFE2E2EAE2E2E2F5E2E2F5EFFFE2F5E2E2E2E2E2EAE2E2E2DCDCDCDCDCDCDCDCDCDCDCDCECDCDCF5F5DCDCDCDCDCDC
310
DCDCDCDCDCDCDCDCDCDCDCDCE2E2E2E2E2E2EFEFE2E2ECE2E2E2ECECE2ECE2ECECECECECECECE2E2E2E2E2E2E2E2E2E2E2E2E2E2EFEFE2E2EAE2E2E2F5E2E2F5EFFFE2F5E2E2E2E2E2EAE2E2E2E2E2E2E2E2E2E2E2E2E2E2E2ECECECF5F5E2E2E2E2E2E2E2E2E2E2E2E2E2E2E2E2E2E2E2E2E2E2E2E2EFEFE2E2ECE2E2E2EC
310
ECE2ECECECECECECECE2E2E2E2E2E2E2E2E2E2E2E2E2E2E2E2EFEFE2E2EAE2E2E2F5E2E2F5EFFFE2F5E2E2E2E2E2EAE2E2E2E2E2E2E2E2E2E2E2E2E2E2E2E2E2E2E2E2E2E2E2E2E2E2E2E2E2E2E2E2E2E2E2E2E2E2E2E2E2E2E2E2EFEFE2E2ECE2E2E2ECECE2E2E2ECECE2E2E2E2E2E2E2E2E2E2E2E2E2E2E2E2E2E2E2EFEF
310
E2E2EAE2E2E2F5E2E2F5EFFFE2F5E2E2E2E2E2EAE2E2E2E2E2E2E2E2E2E2E2E2E2E2E2E2E2E2E2E2E2E2E2E2E2E2E2E2E2E2E2E2E2E2E2E2E2E2E2E2E2E2E2E2EFEFE2E2ECE2E2E2ECECE2ECECECECE2E2E2E2E2E2E2E2E2E2E2E2E2E2E2E2E2E2E2EFEFE2E2EAE2E2E2F5E2E2F5EFFFE2F5E2E2E2E2E2EAE2E2E2E2E2E2E2
310
E2E2E2E2E2E2E2E2E2E2E2E2E2E2E2E2E2E2E2E2E2E2E2E2E2E2E2E2E2E2E2E2E2E2E2E2E2EFEFE2E2ECE2E2E2ECECE2ECECECECE2E2E2E2E2E2E2E2E2E2E2E2E2E2E2E2E2E2E2EFEFE2E2EAE2E2E2F5E2E2F5EFFFE2F5E2E2E2E2E2EAE2E2E2E2E2E2E2E2E2E2E2E2E2E2F5F5F5F5F5F5F5F5F5F5F5F5E2E2E2E2E2E2E2E2
310
E2E2E2E2E2E2E2E2E2E2EFEFE2E2ECECECECECECE2ECECECE2E2E2E2E2E2E2E2E2E2E2E2E2E2E2E2E2E2E2E2EFEFE2E2EAE2E2E2F5E2E2F5EFFFE2F5E2E2E2E2E2EAE2E2E2E2E2E2E2E2E2E2E2E2E2E2F5F5F5F5F5F5F5F5F5F5F5F5E2E2E2E2E2E2E2E2E2E2E2E2E2E2E2E2E2E2EFEFE2E2ECECE2ECECECE2ECECECE2E2E2
310
E2E2E2E2E2E2E2E2E2E2E2E2E2E2E2E2E2EFEFE2E2EAE2E2E2F5E2E2F5EFFFE2F5E2E2E2E2E2EAE2E2E2E2E2E2E2E2E2E2E2E2E2E2E2E2E2E2E2E2E2E2E2E2E2E2E2F5F5E2E2E2E2E2E2E2E2E2E2E2E2E2E2E2EFEFE2EFEFE2E2E2E2ECECECECECE2E2E2E2E2E2E2E2E2E2E2E2E2E2E2E2E2E2E2E2EFEFE2E2EAE2E2E2F5E2
310
E2F5EFFFE2F5E2E2E2E2E2EAE2E2E2E2E2E2E2E2E2E2E2E2E2E2E2E2E2E2E2E2E2E2E2E2E2E2E2F5F5E2E2E2E2E2E2E2E2E2E2E2E2E2E2E2EFEFEFEFEFE2E2E2E2E2ECECECECE2E2E2E2E2E2E2E2E2E2E2E2E2E2E2E2E2E2E2E2EFEFE2E2EAE2E2E2F5E2E2F5EFFFE2E2E2E2E2E2E2EAE2E2E2E2E2E2E2E2E2E2E2E2E2E2E2
310
E2E2E2E2E2E2E2E2E2ECECECF5F5E2E2E2E2E2E2E2E2E2E2E2E2E2E2E2EFEFEFEFE2E2E2E2E2E2E2E2ECE2E2E2E2E2E2E2E2E2E2E2E2E2E2E2E2E2E2E2E2E2EFEFE2E2EAE2E2E2E2E2E2F5EFFFE2E2E2E2E2E2E2EAE2E2E2DCDCDCDCDCDCDCDCDCDCDCDCDCDCDCDCDCDCDCDCDCDCDCDCDCDCDCDCDCDCDCDCDCDCDCE2E2E2E2
310
E2E2EFEFEFEFE2E2E2E2E2E2E2E2E2E2E2E2E2E2E2E2E2E2E2E2E2E2E2E2E2E2E2E2E2E2EFEFE2E2EAE2E2E2E2E2E2F5EFFFE2E2E2E2E2E2E2EAE2E2E2DCDCDCDCDCDCDCDCDCDCDCDCDCDCDCDCDCDCE2E2E2ECE2E2E2E2E2E2E2E2E2E2E2E2DCE2E2E2E2E2E2EFEFEFEFE2E2E2E2E2E2E2E2E2E2E2E2E2E2E2E2E2E2E2E2E2
310
E2E2E2E2E2E2E2E2E2EFEFE2E2EAE2E2E2E2E2E2F5EFFFE2E2E2E2E2E2E2EAE2E2E2DCE2E2E2E2E2E2E2E2E2E2E2E2E2E2E2E2DCE2E2E2ECE2E2E2E2E2E2E2E2E2E2E2E2DCE2E2E2E2E2E2EFEFE2E2E2E2E2E2E2E2E2E2E2E2E2E2E2E2E2E2E2E2E2E2E2E2E2E2E2E2E2E2E2E2EFEFE2E2EAE2E2E2E2E2E2F5EFFFE2E2E2E2
310
E2E2E2EAE2E2E2DCE2E2E2E2E2E2E2E2E2E2E2E2E2E2E2E2DCE2E2E2ECE2E2E2E2E2E2E2E2E2E2E2E2DCE2E2E2E2E2E2EFEFE2E2E2E2E2E2E2E2E2E2E2E2E2E2E2E2E2E2E2E2E2E2E2E2E2E2E2E2E2E2E2E2EFEFE2E2EAE2E2E2E2E2E2F5EFFFE2E2E2E2E2E2E2EAE2E2E2DCE2E2E2E2E2E2E2E2E2E2E2E2E2E2E2E2DCE2E2
310
E2ECE2E2E2E2E2E2E2E2E2E2E2E2DCE2E2E2E2E2E2EFEFE2E2E2E2E2E2E2E2E2E2E2E2E2E2E2E2E2E2E2E2E2E2E2E2E2E2E2E2E2E2E2E2EFEFE2E2EAE2E2E2E2E2E2F5EFFFE2E2E2E2E2E2E2EAE2E2E2DCE2E2E2E2E2E2E2E2E2E2E2E2E2E2E2E2DCE2E2E2E2E2E2E2E2E2E2E2E2E2E2E2E2DCE2E2E2E2E2E2EFEFE2E2E2E2
310
E2E2E2E2E2E2E2E2E2E2E2E2E2E2E2E2E2E2E2E2E2E2E2E2E2E2E2E2EFEFE2E2EAE2E2E2E2E2E2F5EFFFE2E2E2E2E2E2E2EAE2E2E2DCE2E2E2E2E2E2E2E2E2E2E2E2E2E2E2E2DCE2E2E2E2E2E2E2E2E2E2E2E2E2E2E2E2DCE2E2E2E2E2E2EFEFE2E2E2E2E2E2E2E2E2E2E2E2E2E2E2E2E2E2E2E2E2E2E2E2E2E2E2E2E2E2E2
310
E2EFEFE2E2EAE2E2E2E2E2E2F5EFFFE2E2E2E2E2E2E2EAE2E2E2DCE2E2E2E2E2E2E2E2E2E2E2E2E2E2E2E2DCE2E2E2E2E2E2E2E2E2E2E2E2E2E2E2E2DCE2E2E2E2E2E2EFEFE2E2E2E2E2E2E2E2E2E2E2E2E2E2E2E2E2E2E2E2E2E2E2E2E2E2E2E2E2E2E2E2EFEFE2E2EAE2E2E2E2E2E2F5EFFFE2F5E2E2E2E2E2EAE2E2E2DC
310
E2E2E2E2E2E2E2E2E2E2E2E2E2E2E2E2DCE2E2E2E2E2E2E2E2E2E2E2E2E2E2E2E2DCE2E2E2E2E2E2EFEFE2E2E2E2E2E2E2E2E2E2E2F5F5F5F5F5F5F5F5E2E2E2E2E2E2E2E2E2E2E2E2E2EFEFE2E2EAE2E2E2F5E2E2F5EFFFE2F5E2E2E2E2E2EAE2E2E2DCE2E2E2E2E2E2E2E2E2E2E2E2E2E2E2E2DCE2E2E2E2E2E2E2F5E2E2
310
E2E2E2E2E2E2DCE2E2E2E2E2E2EFEFE2E2E2E2E2E2E2E2E2E2E2F5F5F5F5F5F5F5F5E2E2E2E2E2E2E2E2E2E2E2E2E2EFEFE2E2EAE2E2E2F5E2E2F5EFFFE2F5E2E2E2E2E2EAE2E2E2DCE2E2E2E2E2E2E2E2E2E2E2E2E2E2E2E2DCE2E2E2E2E2E2F5F5F5F5E2E2E2E2E2E2DCE2E2E2E2E2E2EFEFE2E2E2E2E2E2E2E2E2E2E2F5
310
F5F5F5F5F5F5E2E2E2E2E2E2E2E2E2E2E2E2E2E2EFEFE2E2EAE2E2E2F5E2E2F5EFFFE2F5E2E2E2E2E2EAE2E2E2DCE2E2E2E2E2E2E2E2E2E2E2E2E2E2E2E2DCE2E2E2E2E2F5E2F5F5F5E2E2E2E2E2E2DCE2E2E2E2E2E2EFEFE2E2E2E2E2E2E2E2E2E2E2E2E2E2E2E2E2E2E2E2E2E2E2E2E2E2E2E2E2E2E2E2EFEFE2E2EAE2E2
310
E2F5E2E2F5EFFFE2F5E2E2E2E2E2EAE2E2E2DCE2E2E2E2E2E2E2E2E2E2E2E2E2E2E2E2DCE2E2E2E2E2E2F5F5E2E2E2E2E2E2E2E2DCE2E2E2E2E2E2EFEFEFEFE2E2E2E2E2E2E2E2E2F5F5F5F5F5F5F5F5F5F5E2E2E2E2E2E2E2E2E2E2E2EFEFE2E2EAE2E2E2F5E2E2F5EFFFE2F5E2E2E2E2E2EAE2E2E2DCE2E2E2E2E2E2E2E2
310
E2E2E2E2E2E2E2E2DCE2E2E2E2E2E2E2E2E2E2E2E2E2E2E2E2DCE2E2E2E2E2E2EFEFEFEFE2E2E2E2E2E2E2E2E2E2E2E2E2E2E2E2E2E2E2E2E2E2E2E2E2E2E2E2E2E2EFEFE2E2EAE2E2E2F5E2E2F5EFFFE2F5E2E2E2E2E2EAE2E2E2DCE2E2E2E2E2E2E2E2E2E2E2E2E2E2E2E2DCE2E2E2E2E2E2E2E2E2E2E2E2E2E2E2E2DCE2
310
E2E2E2E2E2EFEFE2E2E2E2E2E2E2E2E2E2E2E2E2E2E2E2E2E2E2E2E2E2E2E2E2E2E2E2E2E2E2E2EFEFE2E2EAE2E2E2F5E2E2F5EFFFE2F5E2E2E2E2E2EAE2E2E2DCE2E2E2E2E2E2E2E2E2E2E2E2E2E2E2E2DCE2E2E2E2E2E2E2E2E2E2E2E2E2E2E2E2DCE2E2E2E2E2E2EFEFEFEFE2E2E2E2E2E2E2E2E2E2E2E2E2E2E2E2E2E2
310
E2E2E2E2E2E2E2E2E2E2E2E2EFEFE2E2EAE2E2E2F5E2E2F5EFFFE2F5E2E2E2E2E2EAE2E2E2DCE2E2E2E2E2E2E2E2E2E2E2E2E2E2E2E2DCE2E2E2E2E2E2E2E2E2E2E2E2E2E2E2E2DCE2E2E2E2E2E2EFEFEFEFE2E2E2E2E2E2E2E2E2E2E2E2E2E2E2E2E2E2E2E2E2E2E2E2E2E2E2E2E2E2EFEFE2E2EAE2E2E2F5E2E2F5EFFFE2
310
F5E2E2E2E2E2EAE2E2E2DCE2E2E2E2E2E2E2E2E2E2E2E2E2E2E2E2DCE2E2E2E2E2E2E2E2E2E2E2E2E2E2E2E2DCE2E2E2E2E2E2EFEFE2E2E2E2E2E2E2E2E2E2E2E2E2E2E2E2E2E2E2E2E2E2E2E2E2E2E2E2E2EFEFEFEFEFE2E2EAE2E2E2F5E2E2F5EFFFE2F5E2E2E2E2E2EAE2E2E2DCE2E2E2E2E2E2E2E2E2E2E2E2E2E2E2E2
310
DCE2E2E2E2E2E2E2E2E2E2E2E2E2E2E2E2DCE2E2E2E2E2E2EFEFE2E2E2E2E2E2E2E2E2E2E2E2E2E2E2E2E2E2E2E2E2E2E2E2E2E2E2E2E2EFEFEFEFEFE2E2EAE2E2E2F5E2E2F5EFFFE2F5E2E2E2E2E2EAE2E2E2DCE2E2E2E2E2E2E2E2E2E2E2E2E2E2E2E2DCE2E2E2E2E2E2E2E2E2E2E2E2E2E2E2E2DCE2E2E2E2E2E2EFEFE2
310
E2E2E2E2E2E2E2E2E2E2E2E2E2E2E2E2E2E2E2E2E2E2E2E2E2E2E2EFEFEFEFEFEFE2E2EAE2E2E2F5E2E2F5EFFFE2F5E2E2E2E2E2EAE2E2E2DCE2E2E2E2E2E2E2E2E2E2E2E2E2E2E2E2DCE2E2E2ECE2E2E2E2E2E2E2E2E2E2E2E2DCE2E2E2E2E2E2EFEFE2E2E2E2E2E2E2E2E2E2E2E2E2E2E2E2E2E2E2E2E2E2E2E2E2E2E2E2
310
EFEFEFEFEFEFE2E2EAE2E2E2F5E2E2F5EFFFE2F5E2E2E2E2E2EAE2E2E2DCDCDCDCDCDCDCDCDCDCDCDCDCDCDCDCDCDCDCDCDCDCDCDCDCDCDCDCDCDCDCDCDCDCDCE2E2E2E2E2E2EFEFEFE2E2E2E2E2E2E2E2E2E2E2E2E2E2E2E2E2E2E2E2E2E2E2E2E2E2E2EFEFEFEFEFEFE2E2EAE2E2E2F5E2E2F5EFFFE2F5E2E2E2E2E2EAE2
310
E2E2DCE2E2E2E2E2E2E2E2E2E2E2E2E2E2E2E2E2E2E2E2ECE2E2E2E2E2E2E2E2E2E2E2E2DCE2E2E2E2E2E2EFEFEFEFE2E2E2E2E2E2E2E2E2E2E2E2E2E2E2E2E2E2E2E2E2E2E2E2E2E2EFEFEFEFEFE2E2E2EAE2E2E2F5E2E2F5EFFFE2F5E2E2E2E2E2EAE2E2E2DCDCDCDCDCDCDCDCDCDCDCDCDCDCDCDCDCDCDCDCDCDCDCDCDC
310
DCDCDCDCDCDCDCDCDCDCE2E2E2E2E2E2EFEFEFEFEFEFEFEFEFEFEFEFEFEFEFEFEFEFEFEFEFEFEFEFEFEFEFEFEFEFEFEFEFEFE2E2E2E2EAE2E2E2F5E2E2F5EFFFE2F5E2E2E2E2E2EAE2E2E2E2E2E2E2E2E2E2E2E2E2E2E2E2E2E2E2E2E2E2E2E2ECE2E2F5F5E2E2E2E2E2E2E2E2E2E2E2E2E2E2E2E2E2E2E2E2E2E2E2E2E2E2
310
E2E2E2E2E2E2E2E2E2E2E2E2E2E2E2E2E2E2E2E2E2E2E2E2E2E2E2EAE2E2E2F5E2E2F5EFFFE2E2E2E2E2E2E2EAE2E2E2E2E2E2E2E2E2E2E2E2E2E2E2E2E2E2E2E2E2E2E2E2ECECECF5F5E2E2E2E2E2E2E2E2E2E2E2E2E2E2E2E2E2E2E2E2E2E2E2E2E2E2E2E2E2E2E2E2E2E2E2E2E2E2E2E2E2E2E2E2E2E2E2E2E2E2E2E2E2
310
EAE2E2E2E2E2E2F5EFFFE2E2E2E2E2E2E2EAE2E2E2E2E2E2E2E2E2E2E2E2E2E2E2E2E2E2E2E2E2E2E2E2E2E2E2E2E2E2E2E2E2E2E2E2E2E2E2E2E2E2E2E2E2E2E2E2E2E2E2E2E2E2E2E2E2E2E2E2E2E2E2E2E2E2E2E2E2E2E2E2E2E2E2E2E2E2E2E2E2E2EAE2E2E2E2E2E2F5EFFFE2E2E2E2E2E2E2EAEAEAEAEAEAEAEAEAEA
310
EAEAEAEAEAEAEAEAEAEAEAEAEAEAEAEAEAEAEAEAEAEAEAEAEAEAEAEAEAEAEAEAEAEAEAEAEAEAEAEAEAEAEAEAEAEAEAEAEAEAEAEAEAEAEAEAEAEAEAEAEAEAEAEAEAEAEAEAEAEAEAEAEAEAE2E2E2E2E2E2F5EFFFE2E2E2E2E2E2E2E2E2E2E2E2E2F5F5F5F5F5F5F5F5F5F5F5F5F5F5F5F5F5F5F5F5F5F5F5F5F5F5F5F5F5F5F5
310
F5F5F5F5F5F5F5F5F5F5F5F5F5F5F5F5F5F5F5F5F5F5F5F5F5F5F5F5F5F5F5F5F5F5F5F5F5F5F5F5F5F5F5F5F5F5F5E2E2E2E2E2E2F5EFFFE2E2E2E2E2E2E2E2E2E2E2E2E2F5E2E2E2E2E2E2E2E2E2E2E2E2E2E2E2E2E2E2E2E2E2E2E2E2E2E2E2E2E2E2E2E2E2E2E2E2E2E2E2E2E2E2E2E2E2E2E2E2E2E2E2E2E2E2F5E2F5
310
F5F5F5F5F5F5E2E2F5E2E2E2F5F5E2E2E2E2E2F5E2E2E2E2E2E2F5EFFFE2E2E2E2E2E2E2E2E2E2E2E2ECECECE2E2E2E2E2E2E2E2E2E2E2E2E2E2E2E2E2E2E2E2E2E2E2E2E2E2E2E2E2E2E2E2E2E2E2E2E2E2E2E2E2E2E2E2E2E2E2E2E2E2E2E2E2F5E2F5F5F5F5F5F5F5E2E2F5E2E2E2F5F5E2E2E2E2E2F5E2E2E2E2E2E2F5
310
EFFFE2E2E2E2E2E2E2E2E2E2E2E2ECECECECE2E2E2E2E2E2E2E2E2E2E2E2E2E2E2E2E2E2E2E2E2E2E2E2E2E2E2E2E2E2E2E2E2E2E2E2E2E2E2E2E2E2E2E2E2E2E2E2E2E2E2E2F5E2E2E2E2E2E2E2E2E2E2F5E2E2E2E2E2E2E2E2E2E2F5E2E2E2E2E2E2F5EFFFE2E2E2E2E2E2E2E2E2E2E2ECECECECECE2E2E2E2E2F5F5F5F5
310
F5F5F5F5F5F5F5F5F5F5F5F5E2E2E2E2E2E2E2E2E2E2E2E2E2E2E2E2E2E2E2E2E2E2E2E2E2E2E2E2E2E2E2F5E2E2F5F5F5F5F5E2E2E2F5E2E2F5F5F5F5F5E2E2E2F5E2E2E2E2E2E2F5EFFFE2E2E2E2E2E2E2E2E2E2E2ECECECECECECE2E2E2E2F5F5F5F5F5F5F5F5F5F5F5F5F5F5F5F5E2E2E2E2E2E2E2E2E2E2E2E2E2E2E2
310
E2E2E2E2E2E2E2E2E2E2E2E2E2E2E2E2F5E2E2E2E2E2E2E2E2E2E2F5E2E2E2E2E2E2E2E2E2E2F5E2E2E2E2E2E2F5EFFFE2E2E2E2E2E2E2E2E2E2ECECECECECECECE2E2E2E2E2E2E2E2E2E2E2E2E2E2E2E2E2E2E2E2E2E2E2E2E2E2E2E2E2E2E2E2E2E2E2E2E2E2E2E2E2E2E2E2E2E2E2E2E2E2E2F5E2E2E2E2E2E2E2E2E2E2
310
F5E2E2E2E2E2E2E2E2E2E2F5E2E2E2E2E2E2F5EFFFE2F5E2E2E2E2E2E2E2E2ECECECECECECECECE2E2E2F5F5F5F5F5F5F5F5F5F5F5F5F5F5F5F5F5F5F5F5F5F5F5F5F5F5F5F5F5F5F5F5F5F5F5F5F5F5F5F5F5F5F5F5F5E2E2F5F5F5F5F5F5F5F5F5F5F5F5F5F5F5F5F5F5F5F5F5F5F5E2E2E2F5E2E2F5EFFFE2F5E2E2E2E2
310
E2E2E2ECECECECECECECECECE2E2E2F5F5F5F5F5F5F5F5F5F5F5F5F5F5F5F5F5F5F5F5F5F5F5F5F5F5F5F5F5F5F5F5F5F5F5F5F5F5F5F5F5F5F5F5F5E2E2F5E2E2E2E2E2E2E2E2E2E2E2E2E2E2E2E2E2E2E2E2E2F5E2E2E2F5E2E2F5EFFFE2F5E2E2E2E2E2E2ECECECECECECECECECECECE2E2E2E2E2E2E2E2E2E2E2E2E2E2
310
E2E2E2E2E2E2E2E2E2E2E2E2E2E2E2E2E2E2E2E2E2E2E2E2E2E2E2E2E2E2E2E2E2E2E2F5E2F5F5F5F5F5F5F5F5E2F5F5F5F5F5F5F5E2E2E2E2F5E2E2E2F5E2E2F5EFFFE2F5E2E2E2E2E2E2ECECECECECECECECECECECE2E2E2E2E2E2E2E2E2E2E2E2E2E2E2E2E2E2E2E2E2E2E2E2E2E2E2E2E2E2E2E2E2E2E2E2E2E2E2E2E2
310
E2E2E2E2E2E2E2E2F5E2F5F5F5F5F5F5F5F5E2F5F5F5F5F5F5F5E2E2E2E2F5E2E2E2F5E2E2F5EFFFE2F5E2E2E2E2E2ECECECECECECECECECECECECECE2E2E2E2E2E2E2E2E2E2E2E2E2E2E2E2E2E2E2E2E2E2E2E2E2E2E2E2E2E2E2E2E2E2E2E2E2E2E2E2E2E2E2E2E2E2E2E2F5E2E2E2E2E2E2E2E2E2E2E2E2E2E2E2E2E2E2
310
E2E2E2F5E2E2E2F5E2E2F5EFFFE2F5E2E2E2E2E2ECECECECECECF5ECECECECECECE2E2E2E2E2E2E2E2E2E2E2E2E2E2E2E2E2E2E2E2E2E2E2E2E2E2E2E2E2E2E2E2E2E2E2E2E2E2E2E2E2E2E2E2E2E2E2E2F5E2E2E2E2E2E2E2E2E2E2E2E2E2E2E2E2E2E2E2E2E2F5E2E2E2F5E2E2F5EFFFE2F5E2E2E2E2E2E2E2E2E2E2E2F5
310
F5F5F5F5F5F5F5F5F5F5F5F5F5F5F5F5F5F5F5F5F5F5F5F5F5F5F5F5F5F5F5F5F5F5F5F5F5F5F5F5F5F5F5F5F5F5F5F5F5F5F5F5F5F5F5F5F5F5F5F5F5F5F5F5F5F5F5F5F5F5F5F5F5F5F5F5F5E2E2E2F5E2E2F5EFFFE2F5E2E2E2E2E2E2E2E2E2E2E2E2E2E2E2E2E2E2E2E2E2E2E2E2E2E2E2E2E2E2E2E2E2E2E2E2E2E2E2
310
E2E2E2E2E2E2E2E2E2E2E2E2E2E2E2E2E2E2E2E2E2E2E2E2E2E2E2E2E2E2E2E2E2E2E2E2E2E2E2E2E2E2E2E2E2E2E2E2E2E2E2E2E2F5E2E2F5EFFFE2F5F5F5F5F5F5F5F5E2E2E2E2E2E2E2E2F5F5F5F5F5F5F5F5F5F5F5F5F5F5F5E2E2E2E2E2E2E2E2E2F5F5F5F5F5F5F5F5F5F5F5F5F5F5E2E2E2E2E2E2E2E2E2F5F5F5F5
310
F5F5F5F5F5F5F5F5F5F5F5E2E2E2E2E2E2E2E2F5F5F5F5F5F5F5F5E2E2F5EFFFE2E2E2E2E2E2E2E2E2E2E2E2E2E2E2E2E2E2E2E2E2E2E2E2E2E2E2E2E2E2E2E2E2E2E2E2E2E2E2E2E2E2E2E2E2E2E2E2E2E2E2E2E2E2E2E2E2E2E2E2E2E2E2E2E2E2E2E2E2E2E2E2E2E2E2E2E2E2E2E2E2E2E2E2E2E2E2E2E2E2E2E2E2E2E2
310
E2E2F5EFFFE2E2E2E2E2E2E2E2E2E2E2E2E2E2E2E2E2E2E2E2E2E2E2E2E2E2E2E2E2E2E2E2E2E2E2E2E2E2E2E2E2E2E2E2E2E2E2E2E2E2E2E2E2E2E2E2E2E2E2E2E2E2E2E2E2E2E2E2E2E2E2E2E2E2E2E2E2E2E2E2E2E2E2E2E2E2E2E2E2E2E2E2E2E2E2E2E2F5EFFFF5F5F5F5F5F5F5F5F5F5F5F5F5F5F5F5F5F5F5F5F5F5
310
F5F5F5F5F5F5F5F5F5F5F5F5F5F5F5F5F5F5F5F5F5F5F5F5F5F5F5F5F5F5F5F5F5F5F5F5F5F5F5F5F5F5F5F5F5F5F5F5F5F5F5F5F5F5F5F5F5F5F5F5F5F5F5F5F5F5F5F5F5F5F5F5F5F5F5F5EFFF
  0
XRECORD
  5
4138
102
{ACAD_REACTORS
330
397D
102
}
330
397D
100
AcDbXrecord
280
     1
102
MATERIAL
148
0.0
149
0.0
149
0.0
 93
        0
 94
      127
282
     0
 72
     0
 77
     0
171
     0
175
     0
179
     0
273
     0
  0
XRECORD
  5
397F
102
{ACAD_REACTORS
330
397D
102
}
330
397D
100
AcDbXrecord
280
     1
270
     1
271
     1
  0
XRECORD
  5
397E
102
{ACAD_REACTORS
330
397D
102
}
330
397D
100
AcDbXrecord
280
     1
270
     1
271
     1
  0
XRECORD
  5
3982
102
{ACAD_REACTORS
330
397D
102
}
330
397D
100
AcDbXrecord
280
     1
270
     1
271
     1
  0
XRECORD
  5
3981
102
{ACAD_REACTORS
330
397D
102
}
330
397D
100
AcDbXrecord
280
     1
270
     1
271
     1
  0
XRECORD
  5
3983
102
{ACAD_REACTORS
330
397D
102
}
330
397D
100
AcDbXrecord
280
     1
270
     1
271
     1
  0
XRECORD
  5
3980
102
{ACAD_REACTORS
330
397D
102
}
330
397D
100
AcDbXrecord
280
     1
270
     1
271
     1
  0
XRECORD
  5
4137
102
{ACAD_REACTORS
330
3975
102
}
330
3975
100
AcDbXrecord
280
     1
102
MATERIAL
148
0.0
149
0.0
149
0.0
 93
        0
 94
      127
282
     0
 72
     0
 77
     0
171
     0
175
     0
179
     0
273
     0
  0
XRECORD
  5
3977
102
{ACAD_REACTORS
330
3975
102
}
330
3975
100
AcDbXrecord
280
     1
270
     1
271
     1
  0
XRECORD
  5
3976
102
{ACAD_REACTORS
330
3975
102
}
330
3975
100
AcDbXrecord
280
     1
270
     1
271
     1
  0
XRECORD
  5
397A
102
{ACAD_REACTORS
330
3975
102
}
330
3975
100
AcDbXrecord
280
     1
270
     1
271
     1
  0
XRECORD
  5
3979
102
{ACAD_REACTORS
330
3975
102
}
330
3975
100
AcDbXrecord
280
     1
270
     1
271
     1
  0
XRECORD
  5
397B
102
{ACAD_REACTORS
330
3975
102
}
330
3975
100
AcDbXrecord
280
     1
270
     1
271
     1
  0
XRECORD
  5
3978
102
{ACAD_REACTORS
330
3975
102
}
330
3975
100
AcDbXrecord
280
     1
270
     1
271
     1
  0
XRECORD
  5
4139
102
{ACAD_REACTORS
330
3985
102
}
330
3985
100
AcDbXrecord
280
     1
102
MATERIAL
148
0.0
149
0.0
149
0.0
 93
        0
 94
      127
282
     0
 72
     0
 77
     0
171
     0
175
     0
179
     0
273
     0
  0
XRECORD
  5
3987
102
{ACAD_REACTORS
330
3985
102
}
330
3985
100
AcDbXrecord
280
     1
270
     1
271
     1
  0
XRECORD
  5
3986
102
{ACAD_REACTORS
330
3985
102
}
330
3985
100
AcDbXrecord
280
     1
270
     1
271
     1
  0
XRECORD
  5
398A
102
{ACAD_REACTORS
330
3985
102
}
330
3985
100
AcDbXrecord
280
     1
270
     1
271
     1
  0
XRECORD
  5
3989
102
{ACAD_REACTORS
330
3985
102
}
330
3985
100
AcDbXrecord
280
     1
270
     1
271
     1
  0
XRECORD
  5
398B
102
{ACAD_REACTORS
330
3985
102
}
330
3985
100
AcDbXrecord
280
     1
270
     1
271
     1
  0
XRECORD
  5
3988
102
{ACAD_REACTORS
330
3985
102
}
330
3985
100
AcDbXrecord
280
     1
270
     1
271
     1
  0
XRECORD
  5
45CA
102
{ACAD_REACTORS
330
45C9
102
}
330
45C9
100
AcDbXrecord
280
     1
102
SHADEPLOT
 70
     0
102
SHADEPLOTRESLEVEL
 70
     2
102
SHADEPLOTCUSTOMDPI
 70
   300
  0
XRECORD
  5
45CC
102
{ACAD_REACTORS
330
45CB
102
}
330
45CB
100
AcDbXrecord
280
     1
102
SHADEPLOT
 70
     0
102
SHADEPLOTRESLEVEL
 70
     2
102
SHADEPLOTCUSTOMDPI
 70
   300
  0
ACAD_PROXY_OBJECT
  5
411B
102
{ACAD_REACTORS
330
3A48
102
}
330
3A48
100
AcDbProxyObject
 90
      499
 91
      515
 95
   983063
 70
     0
 93
     5304
310
40D054060020000020000003200101A000080002A5058000000C10000000000000006101010000000000003E0FC000000000000F83F0000000000003E0FC000000000000F83F000000000000049000000000000001240419019018000000C1003FBFFFFFE0000000000003C8FD029018000000C1003FBFFFFFE00000000000
310
03C8FD049018000000C1003FBFFFFFE0000000000003C8FD089018000000C1003FBFFFFFE0000000000003C8FD109018000000C1003FBFFFFFE0000000000003C8FD209018000000C1003FBFFFFFE0000000000003C8FD01405075F5449544C450041501A8000000C800406800020000A94160000003040000000000000012
310
40404000000000000F83F0000000000003E0FC000000000000F83F0000000000003E0FC0000000000001240000000000000049010640640600000030400FEFFFFFF8000000000000F23F40A40600000030400FEFFFFFF8000000000000F23F41240600000030400FEFFFFFF8000000000000F23F42240600000030400FEFFF
310
FFF8000000000000F23F44240600000030400FEFFFFFF8000000000000F23F48240600000030400FEFFFFFF8000000000000F23F409014217D2115051115480105406A0000003200101A000080002A5028000000C10000000000000004901010000000000003E0FC000000000000F83F0000000000003E0FC000000000000F
310
83F000000000000049000000000000001240419019018000000C1003FBFFFFFE0000000000003C8FD029018000000C1003FBFFFFFE0000000000003C8FD049018000000C1003FBFFFFFE0000000000003C8FD089018000000C1003FBFFFFFE0000000000003C8FD109018000000C1003FBFFFFFE0000000000003C8FD20901
310
8000000C1003FBFFFFFE0000000000003C8FD03409065F444154410053
340
11
340
0
340
0
340
0
340
0
340
0
340
0
340
11
340
0
340
0
340
0
340
0
340
0
340
0
340
11
340
0
340
0
340
0
340
0
340
0
340
0
 94
        0
1001
ACAD
1000
AcRTDxfName
1000
CELLSTYLEMAP
1000
AcRTDxfName
1000
CELLSTYLEMAP
1000
AcRTDxfName
1000
CELLSTYLEMAP
  0
XRECORD
  5
413A
102
{ACAD_REACTORS
330
3A48
102
}
330
3A48
100
AcDbXrecord
280
     1
102
ACAD_ROUNDTRIP_PRE2007_TABLESTYLE
 90
      512
 91
        0
  1

 92
      512
 93
        0
  2

 94
      512
 95
        0
  3

  0
ENDSEC
  0
EOF
