  0
SECTION
  2
HEADER
  9
$ACADVER
  1
AC1015
  9
$ACADMAINTVER
 70
    20
  9
$DWGCODEPAGE
  3
ANSI_1252
  9
$INSBASE
 10
0.0
 20
0.0
 30
0.0
  9
$EXTMIN
 10
0.0
 20
0.0
 30
0.0
  9
$EXTMAX
 10
356.0
 20
483.9999999999998
 30
0.0
  9
$LIMMIN
 10
11.59500000000003
 20
10.19
  9
$LIMMAX
 10
189.595
 20
252.19
  9
$ORTHOMODE
 70
     0
  9
$REGENMODE
 70
     1
  9
$FILLMODE
 70
     1
  9
$QTEXTMODE
 70
     0
  9
$MIRRTEXT
 70
     0
  9
$LTSCALE
 40
0.25
  9
$ATTMODE
 70
     1
  9
$TEXTSIZE
 40
5.0
  9
$TRACEWID
 40
1.0
  9
$TEXTSTYLE
  7
Arial-Bold
  9
$CLAYER
  8
APL Joinery
  9
$CELTYPE
  6
ByLayer
  9
$CECOLOR
 62
   256
  9
$CELTSCALE
 40
1.0
  9
$DISPSILH
 70
     0
  9
$DIMSCALE
 40
1.0
  9
$DIMASZ
 40
2.5
  9
$DIMEXO
 40
0.625
  9
$DIMDLI
 40
3.75
  9
$DIMRND
 40
0.0
  9
$DIMDLE
 40
0.0
  9
$DIMEXE
 40
1.25
  9
$DIMTP
 40
0.0
  9
$DIMTM
 40
0.0
  9
$DIMTXT
 40
2.5
  9
$DIMCEN
 40
2.5
  9
$DIMTSZ
 40
0.0
  9
$DIMTOL
 70
     0
  9
$DIMLIM
 70
     0
  9
$DIMTIH
 70
     0
  9
$DIMTOH
 70
     0
  9
$DIMSE1
 70
     0
  9
$DIMSE2
 70
     0
  9
$DIMTAD
 70
     1
  9
$DIMZIN
 70
     8
  9
$DIMBLK
  1

  9
$DIMASO
 70
     1
  9
$DIMSHO
 70
     1
  9
$DIMPOST
  1

  9
$DIMAPOST
  1

  9
$DIMALT
 70
     0
  9
$DIMALTD
 70
     3
  9
$DIMALTF
 40
0.03937007874016
  9
$DIMLFAC
 40
1.0
  9
$DIMTOFL
 70
     1
  9
$DIMTVP
 40
0.0
  9
$DIMTIX
 70
     0
  9
$DIMSOXD
 70
     0
  9
$DIMSAH
 70
     0
  9
$DIMBLK1
  1

  9
$DIMBLK2
  1

  9
$DIMSTYLE
  2
ISO-25
  9
$DIMCLRD
 70
     0
  9
$DIMCLRE
 70
     0
  9
$DIMCLRT
 70
     0
  9
$DIMTFAC
 40
1.0
  9
$DIMGAP
 40
0.625
  9
$DIMJUST
 70
     0
  9
$DIMSD1
 70
     0
  9
$DIMSD2
 70
     0
  9
$DIMTOLJ
 70
     0
  9
$DIMTZIN
 70
     8
  9
$DIMALTZ
 70
     0
  9
$DIMALTTZ
 70
     0
  9
$DIMUPT
 70
     0
  9
$DIMDEC
 70
     2
  9
$DIMTDEC
 70
     2
  9
$DIMALTU
 70
     2
  9
$DIMALTTD
 70
     3
  9
$DIMTXSTY
  7
Standard
  9
$DIMAUNIT
 70
     0
  9
$DIMADEC
 70
     0
  9
$DIMALTRND
 40
0.0
  9
$DIMAZIN
 70
     0
  9
$DIMDSEP
 70
    44
  9
$DIMATFIT
 70
     3
  9
$DIMFRAC
 70
     0
  9
$DIMLDRBLK
  1

  9
$DIMLUNIT
 70
     2
  9
$DIMLWD
 70
    -2
  9
$DIMLWE
 70
    -2
  9
$DIMTMOVE
 70
     0
  9
$LUNITS
 70
     2
  9
$LUPREC
 70
     4
  9
$SKETCHINC
 40
1.0
  9
$FILLETRAD
 40
0.0
  9
$AUNITS
 70
     0
  9
$AUPREC
 70
     0
  9
$MENU
  1
.
  9
$ELEVATION
 40
0.0
  9
$PELEVATION
 40
0.0
  9
$THICKNESS
 40
0.0
  9
$LIMCHECK
 70
     0
  9
$CHAMFERA
 40
10.0
  9
$CHAMFERB
 40
10.0
  9
$CHAMFERC
 40
20.0
  9
$CHAMFERD
 40
0.0
  9
$SKPOLY
 70
     0
  9
$TDCREATE
 40
2452682.337302118
  9
$TDUCREATE
 40
2452681.837302118
  9
$TDUPDATE
 40
2455659.590580671
  9
$TDUUPDATE
 40
2455659.090580671
  9
$TDINDWG
 40
0.6867907755
  9
$TDUSRTIMER
 40
0.6867901968
  9
$USRTIMER
 70
     1
  9
$ANGBASE
 50
0.0
  9
$ANGDIR
 70
     0
  9
$PDMODE
 70
     0
  9
$PDSIZE
 40
0.0
  9
$PLINEWID
 40
0.0
  9
$SPLFRAME
 70
     0
  9
$SPLINETYPE
 70
     6
  9
$SPLINESEGS
 70
     8
  9
$HANDSEED
  5
12A6
  9
$SURFTAB1
 70
     6
  9
$SURFTAB2
 70
     6
  9
$SURFTYPE
 70
     6
  9
$SURFU
 70
     6
  9
$SURFV
 70
     6
  9
$UCSBASE
  2

  9
$UCSNAME
  2

  9
$UCSORG
 10
0.0
 20
0.0
 30
0.0
  9
$UCSXDIR
 10
1.0
 20
0.0
 30
0.0
  9
$UCSYDIR
 10
0.0
 20
1.0
 30
0.0
  9
$UCSORTHOREF
  2

  9
$UCSORTHOVIEW
 70
     0
  9
$UCSORGTOP
 10
0.0
 20
0.0
 30
0.0
  9
$UCSORGBOTTOM
 10
0.0
 20
0.0
 30
0.0
  9
$UCSORGLEFT
 10
0.0
 20
0.0
 30
0.0
  9
$UCSORGRIGHT
 10
0.0
 20
0.0
 30
0.0
  9
$UCSORGFRONT
 10
0.0
 20
0.0
 30
0.0
  9
$UCSORGBACK
 10
0.0
 20
0.0
 30
0.0
  9
$PUCSBASE
  2

  9
$PUCSNAME
  2

  9
$PUCSORG
 10
0.0
 20
0.0
 30
0.0
  9
$PUCSXDIR
 10
1.0
 20
0.0
 30
0.0
  9
$PUCSYDIR
 10
0.0
 20
1.0
 30
0.0
  9
$PUCSORTHOREF
  2

  9
$PUCSORTHOVIEW
 70
     0
  9
$PUCSORGTOP
 10
0.0
 20
0.0
 30
0.0
  9
$PUCSORGBOTTOM
 10
0.0
 20
0.0
 30
0.0
  9
$PUCSORGLEFT
 10
0.0
 20
0.0
 30
0.0
  9
$PUCSORGRIGHT
 10
0.0
 20
0.0
 30
0.0
  9
$PUCSORGFRONT
 10
0.0
 20
0.0
 30
0.0
  9
$PUCSORGBACK
 10
0.0
 20
0.0
 30
0.0
  9
$USERI1
 70
     0
  9
$USERI2
 70
     0
  9
$USERI3
 70
     0
  9
$USERI4
 70
     0
  9
$USERI5
 70
     0
  9
$USERR1
 40
0.0
  9
$USERR2
 40
0.0
  9
$USERR3
 40
0.0
  9
$USERR4
 40
0.0
  9
$USERR5
 40
0.0
  9
$WORLDVIEW
 70
     1
  9
$SHADEDGE
 70
     3
  9
$SHADEDIF
 70
    70
  9
$TILEMODE
 70
     0
  9
$MAXACTVP
 70
    64
  9
$PINSBASE
 10
0.0
 20
0.0
 30
0.0
  9
$PLIMCHECK
 70
     0
  9
$PEXTMIN
 10
11.45461722120995
 20
3.285575844812797
 30
-0.0015258207003583
  9
$PEXTMAX
 10
189.6018419809611
 20
282.2033753668244
 30
0.0000000349246037
  9
$PLIMMIN
 10
-8.027083396911621
 20
-5.408084392547607
  9
$PLIMMAX
 10
201.8615732192993
 20
291.6449246406555
  9
$UNITMODE
 70
     0
  9
$VISRETAIN
 70
     1
  9
$PLINEGEN
 70
     0
  9
$PSLTSCALE
 70
     1
  9
$TREEDEPTH
 70
  3020
  9
$CMLSTYLE
  2
Standard
  9
$CMLJUST
 70
     0
  9
$CMLSCALE
 40
20.0
  9
$PROXYGRAPHICS
 70
     1
  9
$MEASUREMENT
 70
     1
  9
$CELWEIGHT
370
    -1
  9
$ENDCAPS
280
     0
  9
$JOINSTYLE
280
     0
  9
$LWDISPLAY
290
     0
  9
$INSUNITS
 70
     4
  9
$HYPERLINKBASE
  1

  9
$STYLESHEET
  1

  9
$XEDIT
290
     1
  9
$CEPSNTYPE
380
     0
  9
$PSTYLEMODE
290
     1
  9
$FINGERPRINTGUID
  2
{5C5B7ED4-663B-48E1-9F7A-5A0E9EDC2DBF}
  9
$VERSIONGUID
  2
{E66116E6-84B8-4E29-9BC2-A5C2AA68A2F8}
  9
$EXTNAMES
290
     1
  9
$PSVPSCALE
 40
0.0
  9
$OLESTARTUP
290
     0
  0
ENDSEC
  0
SECTION
  2
CLASSES
  0
CLASS
  1
ACDBDICTIONARYWDFLT
  2
AcDbDictionaryWithDefault
  3
ObjectDBX Classes
 90
        0
280
     0
281
     0
  0
CLASS
  1
ACDBPLACEHOLDER
  2
AcDbPlaceHolder
  3
ObjectDBX Classes
 90
        0
280
     0
281
     0
  0
CLASS
  1
LAYOUT
  2
AcDbLayout
  3
ObjectDBX Classes
 90
        0
280
     0
281
     0
  0
CLASS
  1
DICTIONARYVAR
  2
AcDbDictionaryVar
  3
ObjectDBX Classes
 90
        0
280
     0
281
     0
  0
CLASS
  1
SORTENTSTABLE
  2
AcDbSortentsTable
  3
ObjectDBX Classes
 90
        0
280
     0
281
     0
  0
CLASS
  1
MATERIAL
  2
AcDbMaterial
  3
ObjectDBX Classes
 90
        0
280
     0
281
     0
  0
CLASS
  1
VISUALSTYLE
  2
AcDbVisualStyle
  3
ObjectDBX Classes
 90
     4095
280
     0
281
     0
  0
CLASS
  1
TABLESTYLE
  2
AcDbTableStyle
  3
ObjectDBX Classes
 90
     2047
280
     0
281
     0
  0
CLASS
  1
SCALE
  2
AcDbScale
  3
ObjectDBX Classes
 90
     1153
280
     0
281
     0
  0
CLASS
  1
MLEADERSTYLE
  2
AcDbMLeaderStyle
  3
ACDB_MLEADERSTYLE_CLASS
 90
     4095
280
     0
281
     0
  0
CLASS
  1
EXACTERMXREFMAP
  2
ExAcTermXrefMap
  3
EXAC_SERVICE
 90
    33793
280
     0
281
     0
  0
CLASS
  1
NPOCOLLECTION
  2
AcDbImpNonPersistentObjectsCollection
  3
ObjectDBX Classes
 90
    33921
280
     0
281
     0
  0
CLASS
  1
EXACXREFPANELOBJECT
  2
ExAcXREFPanelObject
  3
EXAC_ESW
 90
    33793
280
     0
281
     0
  0
CLASS
  1
CELLSTYLEMAP
  2
AcDbCellStyleMap
  3
ObjectDBX Classes
 90
     1152
280
     0
281
     0
  0
ENDSEC
  0
SECTION
  2
TABLES
  0
TABLE
  2
VPORT
  5
8
102
{ACAD_XDICTIONARY
360
90D
102
}
330
0
100
AcDbSymbolTable
 70
     1
  0
VPORT
  5
B15
330
8
100
AcDbSymbolTableRecord
100
AcDbViewportTableRecord
  2
*Active
 70
     0
 10
0.0
 20
0.0
 11
1.0
 21
1.0
 12
178.0000008288771
 22
242.0000011269003
 13
0.0
 23
0.0
 14
10.0
 24
10.0
 15
10.0
 25
10.0
 16
0.0
 26
0.0
 36
1.0
 17
0.0
 27
0.0
 37
0.0
 40
488.0799974258322
 41
2.243016759776536
 42
50.0
 43
0.0
 44
0.0
 50
0.0
 51
0.0
 71
     0
 72
 20000
 73
     1
 74
     2
 75
     0
 76
     0
 77
     0
 78
     0
281
     0
 65
     1
110
0.0
120
0.0
130
0.0
111
1.0
121
0.0
131
0.0
112
0.0
122
1.0
132
0.0
 79
     0
146
0.0
  0
ENDTAB
  0
TABLE
  2
LTYPE
  5
5
330
0
100
AcDbSymbolTable
 70
     2
  0
LTYPE
  5
14
330
5
100
AcDbSymbolTableRecord
100
AcDbLinetypeTableRecord
  2
ByBlock
 70
     0
  3

 72
    65
 73
     0
 40
0.0
  0
LTYPE
  5
15
330
5
100
AcDbSymbolTableRecord
100
AcDbLinetypeTableRecord
  2
ByLayer
 70
     0
  3

 72
    65
 73
     0
 40
0.0
  0
LTYPE
  5
16
330
5
100
AcDbSymbolTableRecord
100
AcDbLinetypeTableRecord
  2
Continuous
 70
     0
  3
Solid line
 72
    65
 73
     0
 40
0.0
  0
LTYPE
  5
6A
330
5
100
AcDbSymbolTableRecord
100
AcDbLinetypeTableRecord
  2
DASHED
 70
     0
  3
Dashed __ __ __ __ __ __ __ __ __ __ __ __ __ _
 72
    65
 73
     2
 40
19.05
 49
12.7
 74
     0
 49
-6.349999999999999
 74
     0
  0
ENDTAB
  0
TABLE
  2
LAYER
  5
2
102
{ACAD_XDICTIONARY
360
7CB
102
}
330
0
100
AcDbSymbolTable
 70
     6
  0
LAYER
  5
10
102
{ACAD_XDICTIONARY
360
844
102
}
330
2
100
AcDbSymbolTableRecord
100
AcDbLayerTableRecord
  2
0
 70
     4
 62
     7
  6
Continuous
290
     0
370
    -3
390
F
  0
LAYER
  5
41
102
{ACAD_XDICTIONARY
360
846
102
}
330
2
100
AcDbSymbolTableRecord
100
AcDbLayerTableRecord
  2
APL Border
 70
     0
 62
     7
  6
Continuous
370
    -3
390
F
  0
LAYER
  5
42
102
{ACAD_XDICTIONARY
360
848
102
}
330
2
100
AcDbSymbolTableRecord
100
AcDbLayerTableRecord
  2
APL Notes
 70
     0
 62
     7
  6
Continuous
370
    -3
390
F
  0
LAYER
  5
11C
102
{ACAD_XDICTIONARY
360
84E
102
}
330
2
100
AcDbSymbolTableRecord
100
AcDbLayerTableRecord
  2
APL Joinery
 70
     0
 62
     2
  6
Continuous
370
    -3
390
F
  0
LAYER
  5
7B6
102
{ACAD_XDICTIONARY
360
854
102
}
330
2
100
AcDbSymbolTableRecord
100
AcDbLayerTableRecord
  2
APL Hatch
 70
     0
 62
   253
  6
Continuous
370
    -3
390
F
  0
ENDTAB
  0
TABLE
  2
STYLE
  5
3
330
0
100
AcDbSymbolTable
 70
     6
  0
STYLE
  5
11
330
3
100
AcDbSymbolTableRecord
100
AcDbTextStyleTableRecord
  2
Standard
 70
     0
 40
0.0
 41
1.0
 50
0.0
 71
     0
 42
2.5
  3
txt
  4

  0
STYLE
  5
71
330
3
100
AcDbSymbolTableRecord
100
AcDbTextStyleTableRecord
  2
Arial-Regular
 70
     0
 40
0.0
 41
1.0
 50
0.0
 71
     0
 42
5.0
  3
ARIAL.TTF
  4

1001
ACAD
1000
Arial
1071
       34
  0
STYLE
  5
72
330
3
100
AcDbSymbolTableRecord
100
AcDbTextStyleTableRecord
  2
Arial-Bold
 70
     0
 40
0.0
 41
1.0
 50
0.0
 71
     0
 42
5.0
  3
ARIALBD.TTF
  4

1001
ACAD
1000
Arial
1071
 33554466
  0
ENDTAB
  0
TABLE
  2
VIEW
  5
6
330
0
100
AcDbSymbolTable
 70
     0
  0
ENDTAB
  0
TABLE
  2
UCS
  5
7
330
0
100
AcDbSymbolTable
 70
     0
  0
ENDTAB
  0
TABLE
  2
APPID
  5
9
330
0
100
AcDbSymbolTable
 70
    10
  0
APPID
  5
12
330
9
100
AcDbSymbolTableRecord
100
AcDbRegAppTableRecord
  2
ACAD
 70
     0
  0
APPID
  5
7AB
330
9
100
AcDbSymbolTableRecord
100
AcDbRegAppTableRecord
  2
ACAD_MLEADERVER
 70
     0
  0
APPID
  5
7B7
330
9
100
AcDbSymbolTableRecord
100
AcDbRegAppTableRecord
  2
DCO15
 70
     0
  0
APPID
  5
A3F
330
9
100
AcDbSymbolTableRecord
100
AcDbRegAppTableRecord
  2
ACAD_PSEXT
 70
     0
  0
APPID
  5
CF5
330
9
100
AcDbSymbolTableRecord
100
AcDbRegAppTableRecord
  2
ACAUTHENVIRON
 70
     0
  0
APPID
  5
CF6
330
9
100
AcDbSymbolTableRecord
100
AcDbRegAppTableRecord
  2
AcDbDynamicBlockTrueName
 70
     0
  0
APPID
  5
CF7
330
9
100
AcDbSymbolTableRecord
100
AcDbRegAppTableRecord
  2
AcDbDynamicBlockGUID
 70
     0
  0
APPID
  5
CF8
330
9
100
AcDbSymbolTableRecord
100
AcDbRegAppTableRecord
  2
AcDbBlockRepETag
 70
     0
  0
APPID
  5
CF9
330
9
100
AcDbSymbolTableRecord
100
AcDbRegAppTableRecord
  2
AcDbBlockRepBTag
 70
     0
  0
APPID
  5
CFA
330
9
100
AcDbSymbolTableRecord
100
AcDbRegAppTableRecord
  2
ACAD_EXEMPT_FROM_CAD_STANDARDS
 70
     0
  0
ENDTAB
  0
TABLE
  2
DIMSTYLE
  5
A
330
0
100
AcDbSymbolTable
 70
     2
100
AcDbDimStyleTable
 71
     1
340
27
  0
DIMSTYLE
105
27
330
A
100
AcDbSymbolTableRecord
100
AcDbDimStyleTableRecord
  2
ISO-25
 70
     0
 41
2.5
 42
0.625
 43
3.75
 44
1.25
 73
     0
 74
     0
 77
     1
 78
     8
140
2.5
141
2.5
143
0.03937007874016
147
0.625
171
     3
172
     1
271
     2
272
     2
274
     3
278
    44
283
     0
284
     8
340
11
  0
ENDTAB
  0
TABLE
  2
BLOCK_RECORD
  5
1
330
0
100
AcDbSymbolTable
 70
    28
  0
BLOCK_RECORD
  5
1F
102
{ACAD_XDICTIONARY
360
357
102
}
330
1
100
AcDbSymbolTableRecord
100
AcDbBlockTableRecord
  2
*Model_Space
340
22
  0
BLOCK_RECORD
  5
1B
330
1
100
AcDbSymbolTableRecord
100
AcDbBlockTableRecord
  2
*Paper_Space
340
1E
  0
BLOCK_RECORD
  5
45
330
1
100
AcDbSymbolTableRecord
100
AcDbBlockTableRecord
  2
vantage a4 SM border
340
0
102
{BLKREFS
331
4B
102
}
1001
ACAD
1000
DesignCenter Data
1002
{
1070
     1
1070
     4
1002
}
  0
BLOCK_RECORD
  5
1A1
102
{ACAD_XDICTIONARY
360
1257
102
}
330
1
100
AcDbSymbolTableRecord
100
AcDbBlockTableRecord
  2
08735
340
0
102
{BLKREFS
331
6BC
331
6C1
331
ACC
102
}
1001
ACAD
1000
DesignCenter Data
1002
{
1070
     1
1070
     4
1002
}
  0
BLOCK_RECORD
  5
1FA
330
1
100
AcDbSymbolTableRecord
100
AcDbBlockTableRecord
  2
9010317
340
0
102
{BLKREFS
331
6BD
331
6C2
102
}
1001
ACAD
1000
DesignCenter Data
1002
{
1070
     1
1070
     4
1002
}
  0
BLOCK_RECORD
  5
277
102
{ACAD_XDICTIONARY
360
125C
102
}
330
1
100
AcDbSymbolTableRecord
100
AcDbBlockTableRecord
  2
08713
340
0
102
{BLKREFS
331
6B8
331
6BE
102
}
1001
ACAD
1000
DesignCenter Data
1002
{
1070
     1
1070
     4
1002
}
  0
BLOCK_RECORD
  5
42D
102
{ACAD_XDICTIONARY
360
1263
102
}
330
1
100
AcDbSymbolTableRecord
100
AcDbBlockTableRecord
  2
08712
340
0
102
{BLKREFS
331
6BA
331
6C0
331
ACB
102
}
1001
ACAD
1000
DesignCenter Data
1002
{
1070
     1
1070
     4
1002
}
  0
BLOCK_RECORD
  5
435
102
{ACAD_XDICTIONARY
360
1268
102
}
330
1
100
AcDbSymbolTableRecord
100
AcDbBlockTableRecord
  2
08732
340
0
102
{BLKREFS
331
6B9
331
6BF
102
}
1001
ACAD
1000
DesignCenter Data
1002
{
1070
     1
1070
     4
1002
}
  0
BLOCK_RECORD
  5
557
330
1
100
AcDbSymbolTableRecord
100
AcDbBlockTableRecord
  2
vantage a4 SM attributes (4)
340
0
102
{BLKREFS
331
572
102
}
  0
BLOCK_RECORD
  5
6F6
330
1
100
AcDbSymbolTableRecord
100
AcDbBlockTableRecord
  2
01009
340
0
102
{BLKREFS
331
6FB
102
}
1001
ACAD
1000
DesignCenter Data
1002
{
1070
     1
1070
     4
1002
}
  0
BLOCK_RECORD
  5
6FC
330
1
100
AcDbSymbolTableRecord
100
AcDbBlockTableRecord
  2
9010357
340
0
102
{BLKREFS
331
711
102
}
1001
ACAD
1000
DesignCenter Data
1002
{
1070
     1
1070
     4
1002
}
  0
BLOCK_RECORD
  5
712
102
{ACAD_XDICTIONARY
360
1270
102
}
330
1
100
AcDbSymbolTableRecord
100
AcDbBlockTableRecord
  2
01010
340
0
102
{BLKREFS
331
732
102
}
1001
ACAD
1000
DesignCenter Data
1002
{
1070
     1
1070
     4
1002
}
  0
BLOCK_RECORD
  5
719
330
1
100
AcDbSymbolTableRecord
100
AcDbBlockTableRecord
  2
9010340
340
0
102
{BLKREFS
331
733
102
}
1001
ACAD
1000
DesignCenter Data
1002
{
1070
     1
1070
     4
1002
}
  0
BLOCK_RECORD
  5
7F7
330
1
100
AcDbSymbolTableRecord
100
AcDbBlockTableRecord
  2
9010250l
340
0
102
{BLKREFS
331
80B
331
D8E
102
}
1001
ACAD
1000
DesignCenter Data
1002
{
1070
     1
1070
     4
1002
}
  0
BLOCK_RECORD
  5
7FB
330
1
100
AcDbSymbolTableRecord
100
AcDbBlockTableRecord
  2
9010312r
340
0
102
{BLKREFS
331
811
331
D8D
102
}
1001
ACAD
1000
DesignCenter Data
1002
{
1070
     1
1070
     4
1002
}
  0
BLOCK_RECORD
  5
7FE
330
1
100
AcDbSymbolTableRecord
100
AcDbBlockTableRecord
  2
6Glass
340
0
102
{BLKREFS
331
80C
331
80E
331
D88
331
D8A
102
}
  0
BLOCK_RECORD
  5
806
330
1
100
AcDbSymbolTableRecord
100
AcDbBlockTableRecord
  2
08638
340
0
102
{BLKREFS
331
80D
331
D89
102
}
1001
ACAD
1000
DesignCenter Data
1002
{
1070
     1
1070
     4
1002
}
  0
BLOCK_RECORD
  5
AED
102
{ACAD_XDICTIONARY
360
127B
102
}
330
1
100
AcDbSymbolTableRecord
100
AcDbBlockTableRecord
  2
08932
340
0
102
{BLKREFS
331
AF2
102
}
1001
ACAD
1000
DesignCenter Data
1002
{
1070
     1
1070
     4
1002
}
  0
BLOCK_RECORD
  5
D84
102
{ACAD_XDICTIONARY
360
D85
102
}
330
1
100
AcDbSymbolTableRecord
100
AcDbBlockTableRecord
  2
08638 bead
340
0
310
2800000020000000200000000100080000000000000400000000000000000000000000000000000000000000000080000080000000808000800000008000800080800000C0C0C000C0DCC000F0CAA6000020400000206000002080000020A0000020C0000020E00000400000004020000040400000406000004080000040A0
310
000040C0000040E00000600000006020000060400000606000006080000060A0000060C0000060E00000800000008020000080400000806000008080000080A0000080C0000080E00000A0000000A0200000A0400000A0600000A0800000A0A00000A0C00000A0E00000C0000000C0200000C0400000C0600000C0800000C0
310
A00000C0C00000C0E00000E0000000E0200000E0400000E0600000E0800000E0A00000E0C00000E0E00040000000400020004000400040006000400080004000A0004000C0004000E00040200000402020004020400040206000402080004020A0004020C0004020E000404000004040200040404000404060004040800040
310
40A0004040C0004040E00040600000406020004060400040606000406080004060A0004060C0004060E00040800000408020004080400040806000408080004080A0004080C0004080E00040A0000040A0200040A0400040A0600040A0800040A0A00040A0C00040A0E00040C0000040C0200040C0400040C0600040C08000
310
40C0A00040C0C00040C0E00040E0000040E0200040E0400040E0600040E0800040E0A00040E0C00040E0E00080000000800020008000400080006000800080008000A0008000C0008000E00080200000802020008020400080206000802080008020A0008020C0008020E00080400000804020008040400080406000804080
310
008040A0008040C0008040E00080600000806020008060400080606000806080008060A0008060C0008060E00080800000808020008080400080806000808080008080A0008080C0008080E00080A0000080A0200080A0400080A0600080A0800080A0A00080A0C00080A0E00080C0000080C0200080C0400080C0600080C0
310
800080C0A00080C0C00080C0E00080E0000080E0200080E0400080E0600080E0800080E0A00080E0C00080E0E000C0000000C0002000C0004000C0006000C0008000C000A000C000C000C000E000C0200000C0202000C0204000C0206000C0208000C020A000C020C000C020E000C0400000C0402000C0404000C0406000C0
310
408000C040A000C040C000C040E000C0600000C0602000C0604000C0606000C0608000C060A000C060C000C060E000C0800000C0802000C0804000C0806000C0808000C080A000C080C000C080E000C0A00000C0A02000C0A04000C0A06000C0A08000C0A0A000C0A0C000C0A0E000C0C00000C0C02000C0C04000C0C06000
310
C0C08000C0C0A000F0FBFF00A4A0A000808080000000FF0000FF000000FFFF00FF000000FF00FF00FFFF0000FFFFFF00000000000000000000000000000000000000000000000000000000000000000000000000000000FBFBFBFBFBFBFBFBFBFBFBFBFBFBFBFBFB000000000000000000000000000000FBF7F7F7F7F7F7F7
310
F7F7F7F7F7F7F7F7FB00000000000000000000000000F7FBFBF7FBFBFBFBFBFBFBFBFBFBFBFBFBF7FB00000000000000000000000000FBFBF7FB00000000000000FBFBF700FBFBA4A40000000000000000000000000000FBFBF700000000000000FBA4A4A4A4A4A4A40000000000000000000000000000FBFB000000000000
310
00A4A4000000000000A40000000000000000000000000000FBFB0000000000000000A4A4A4A4A4A40000A400000000000000000000000000FBFB000000000000000000A4A400A4A4A400A400000000000000000000000000FBFB00000000FFFFFFFFFFA4A4FFA4A4FFA4A4FFFF0000000000000000000000FBFB00000000FF
310
A4A4A4A4A4A4A4A4A4A4A4A4A4A40000000000000000000000FBFB00000000FF00000000000000000000000000000000000000000000000000FBFB00000000FFA4A4A4A4A4A4A4A4A4A4A4A4A4A400000000000000000000F7FBFB00000000FFFFFFFFFFFFFFFFFFFFFFFFFFFFFF00000000000000000000FBFBF700000000
310
FF000000FF0000000000000000000000000000000000000000FBFB0000000000FF000000FF0000000000000000000000000000000000000000F7F70000000000FF000000FF000000000000000000000000000000000000000000000000000000FF000000FF0000000000000000000000000000000000000000000000000000
310
00FF000000FF000000000000000000000000000000000000000000000000000000FF000000FF000000000000000000000000000000000000000000000000000000FF000000FF000000000000000000000000000000000000000000000000000000FF000000FF00000000000000000000000000000000000000000000000000
310
0000FFFFFFFFFFFFFFFFFFFFFFFFFFFFFF0000000000000000000000000000000000FFA4A4A4A4A4A4A4A4A4A4A4A4A4A40000000000000000000000000000000000FF00000000000000000000000000000000000000000000000000000000000000FFA4A4A4A4A4A4A4A4A4A4A4A4A4A40000000000000000000000000000
310
000000FFFFA4A4A4A4A4FFA4A4A4A4A4A4FF00000000000000000000000000000000000000A4A4A4A4A4A4A4A4A400A4A4000000000000000000000000000000000000000000000000A400A4A4A400A4000000000000000000000000000000000000000000000000A4A4A4A400A4A400000000000000000000000000000000
310
0000000000000000000000000000000000000000000000000000000000000000000000000000000000000000000000000000000000000000
102
{BLKREFS
331
D97
331
D98
102
}
1001
AcDbDynamicBlockGUID
1000
{7373C32E-A89B-4FF4-80E0-FE867D9D217D}
1001
AcDbBlockRepETag
1070
     1
1071
        7
1001
ACAD
1000
DesignCenter Data
1002
{
1070
     1
1070
     4
1002
}
  0
BLOCK_RECORD
  5
E7C
102
{ACAD_XDICTIONARY
360
E7D
102
}
330
1
100
AcDbSymbolTableRecord
100
AcDbBlockTableRecord
  2
vantage black & white logo
340
0
310
2800000020000000200000000100080000000000000400000000000000000000000000000000000000000000000080000080000000808000800000008000800080800000C0C0C000C0DCC000F0CAA6000020400000206000002080000020A0000020C0000020E00000400000004020000040400000406000004080000040A0
310
000040C0000040E00000600000006020000060400000606000006080000060A0000060C0000060E00000800000008020000080400000806000008080000080A0000080C0000080E00000A0000000A0200000A0400000A0600000A0800000A0A00000A0C00000A0E00000C0000000C0200000C0400000C0600000C0800000C0
310
A00000C0C00000C0E00000E0000000E0200000E0400000E0600000E0800000E0A00000E0C00000E0E00040000000400020004000400040006000400080004000A0004000C0004000E00040200000402020004020400040206000402080004020A0004020C0004020E000404000004040200040404000404060004040800040
310
40A0004040C0004040E00040600000406020004060400040606000406080004060A0004060C0004060E00040800000408020004080400040806000408080004080A0004080C0004080E00040A0000040A0200040A0400040A0600040A0800040A0A00040A0C00040A0E00040C0000040C0200040C0400040C0600040C08000
310
40C0A00040C0C00040C0E00040E0000040E0200040E0400040E0600040E0800040E0A00040E0C00040E0E00080000000800020008000400080006000800080008000A0008000C0008000E00080200000802020008020400080206000802080008020A0008020C0008020E00080400000804020008040400080406000804080
310
008040A0008040C0008040E00080600000806020008060400080606000806080008060A0008060C0008060E00080800000808020008080400080806000808080008080A0008080C0008080E00080A0000080A0200080A0400080A0600080A0800080A0A00080A0C00080A0E00080C0000080C0200080C0400080C0600080C0
310
800080C0A00080C0C00080C0E00080E0000080E0200080E0400080E0600080E0800080E0A00080E0C00080E0E000C0000000C0002000C0004000C0006000C0008000C000A000C000C000C000E000C0200000C0202000C0204000C0206000C0208000C020A000C020C000C020E000C0400000C0402000C0404000C0406000C0
310
408000C040A000C040C000C040E000C0600000C0602000C0604000C0606000C0608000C060A000C060C000C060E000C0800000C0802000C0804000C0806000C0808000C080A000C080C000C080E000C0A00000C0A02000C0A04000C0A06000C0A08000C0A0A000C0A0C000C0A0E000C0C00000C0C02000C0C04000C0C06000
310
C0C08000C0C0A000F0FBFF00A4A0A000808080000000FF0000FF000000FFFF00FF000000FF00FF00FFFF0000FFFFFF0000000000000000000000000000000000000000000000000000000000000000000000000000000000000000000000000000000000000000000000000000000000000000000000000000000000000000
310
0000000000000000000000000000000000000000000000000000000000000000A4A40000000000000000000000000000000000000000000000000000000000A400000700000000000000000000000000000000000000000000000000000000A4000707000000000000000000000000000000000000000000000000000000A4
310
00A4A407070000000000000000000000000000000000000000000000000000A400A400A40700000000000000000000000000000000000000000000000000A400A4A400A407070000000000000000000000000000000000000000000000A40700A4000000A4070000000000000000000000000000000000000000000000A400
310
A4A4000000A40707000000000000000000000000000000000000000000A400A4A4000000A4A4A400070000000000000000000000000000000000000000A400A400000000A400A4070700000000000000000000000000000000000000A400A4A4000000A4A40000A40007000000000000000000000000000000000000A400A4
310
A4A4A4A4A4A4A4A4A407070000000000000000000000000000000000A400A4A4A4A4A4A4A4A4A4A4A4A40007000000000000000000000000000000A40000A4A4A4A4A4A4A4A4A4A4A4A40700070000000000000000000000000000A400A4A400A4A4A4A4A4A4A4A4A4A4A4070700000000000000000000000000A400A4A4A4
310
A4A4A4A4A4A4A4A4A4A4A4A4070007000000000000000000000000A400A4A4A4A4A4A4A4A4A4A4A4A4A4A4A4A407070000000000000000000000A400A4A400A4A4A4A4A4A4A4A4A4A4A4A4A4A4070007000000000000000000A40700A4A400A4A4A4A4A4A4A4A4A4A4A4A4A400A40707000000000000000000A400A4A4A4A4
310
A4A4A4A4A4A4A4A4A4A4A4A4A4A4A407000700000000000000A400A4A4A4A4A4A4A4A4A4A4A4A4A4A4A4A4A4A4A4A4A4070007000000000000A400A4A4A4A4A4A4A4A4A4A4A4A4A4A4A4A4A4A4A4A4A40700070000000000A400A4A400A4A4A4A4A4A4A4A4A4A4A4A4A4A4A4A4A4A4A40007000700000000A400A4A4A400A4
310
A4A4A4A4A4A4A4A4A4A4A4A4A4A4A4A4A4000700070000000700A4A4A4A4A4A4A4A4A4A4A4A4A4A4A4A4A4A4A4A4A4A4A4A4A40700070000A407A4A4A4A4A4A4A4A4A4A4A4A4A4A4A4A4A4A4A4A4A4A4A4A4A4A407A40000000000000000000000000000000000000000000000000000000000000000000000000000000000
310
0000000000000000000000000000000000000000000000000000000000000000000000000000000000000000000000000000000000000000
102
{BLKREFS
331
E7A
102
}
1001
AcDbDynamicBlockGUID
1000
{7D04BC3F-8AE2-40EA-A482-CE6E620AF154}
1001
AcDbBlockRepETag
1070
     1
1071
      907
1001
ACAD
1000
DesignCenter Data
1002
{
1070
     1
1070
     4
1002
}
  0
ENDTAB
  0
ENDSEC
  0
SECTION
  2
BLOCKS
  0
BLOCK
  5
20
330
1F
100
AcDbEntity
  8
0
100
AcDbBlockBegin
  2
*Model_Space
 70
     0
 10
0.0
 20
0.0
 30
0.0
  3
*Model_Space
  1

  0
ENDBLK
  5
21
330
1F
100
AcDbEntity
  8
0
100
AcDbBlockEnd
  0
BLOCK
  5
1C
330
1B
100
AcDbEntity
 67
     1
  8
0
100
AcDbBlockBegin
  2
*Paper_Space
 70
     0
 10
0.0
 20
0.0
 30
0.0
  3
*Paper_Space
  1

  0
ENDBLK
  5
1D
330
1B
100
AcDbEntity
 67
     1
  8
0
100
AcDbBlockEnd
  0
BLOCK
  5
46
330
45
100
AcDbEntity
  8
0
100
AcDbBlockBegin
  2
vantage a4 SM border
 70
     0
 10
0.0
 20
0.0
 30
0.0
  3
vantage a4 SM border
  1
vantage a4 SM border.dwg
  0
TEXT
  5
E6E
330
45
100
AcDbEntity
  8
APL Border
100
AcDbText
 10
11.59500000000003
 20
3.979818213543524
 30
0.0
 40
1.5
  1
VANTAGE SPECIFIER'S GUIDE 2011:1     ARCHITECTURAL PROFILES LTD. NB. TECHNICAL SPECIFICATIONS SUBJECT TO CHANGE WITHOUT NOTICE.
 41
1.175568529931163
  7
Arial-Regular
 72
     5
 11
189.595
 21
3.979818213543524
 31
0.0
100
AcDbText
  0
LINE
  5
E6F
330
45
100
AcDbEntity
  8
APL Border
100
AcDbLine
 10
11.59500000000003
 20
6.189999999999997
 30
0.0
 11
189.595
 21
6.189999999999997
 31
0.0
  0
MTEXT
  5
E70
330
45
100
AcDbEntity
  8
APL Border
100
AcDbMText
 10
57.55102029361978
 20
3.879818213543526
 30
0.0
 40
1.5
 41
0.0
 71
     8
 72
     5
  1
{\fCommercialPi BT|b0|i0|c2|p18;a}
  7
Arial-Regular
 73
     1
 44
1.0
1001
ACAD
1000
MTEXTBEGIN
1070
    73
1070
     1
1070
    44
1040
1.0
1070
    74
1070
     0
1000
MTEXTEND
  0
LINE
  5
E71
330
45
100
AcDbEntity
  8
APL Border
100
AcDbLine
 10
189.595
 20
268.19
 30
0.0
 11
142.595
 21
268.19
 31
0.0
  0
LINE
  5
E72
330
45
100
AcDbEntity
  8
APL Border
100
AcDbLine
 10
189.595
 20
282.19
 30
0.0
 11
189.595
 21
254.19
 31
0.0
  0
LINE
  5
E73
330
45
100
AcDbEntity
  8
APL Border
100
AcDbLine
 10
166.095
 20
268.19
 30
0.0
 11
166.095
 21
254.19
 31
0.0
  0
LINE
  5
E74
330
45
100
AcDbEntity
  8
APL Border
100
AcDbLine
 10
189.595
 20
254.19
 30
0.0
 11
24.99473224900737
 21
254.19
 31
0.0
  0
LINE
  5
E75
330
45
100
AcDbEntity
  8
APL Border
100
AcDbLine
 10
189.595
 20
282.19
 30
0.0
 11
24.99473224900737
 21
282.19
 31
0.0
  0
LINE
  5
E76
330
45
100
AcDbEntity
  8
APL Border
100
AcDbLine
 10
142.595
 20
282.19
 30
0.0
 11
142.595
 21
254.19
 31
0.0
  0
TEXT
  5
E77
330
45
100
AcDbEntity
  8
APL Border
100
AcDbText
 10
147.845
 20
273.69
 30
0.0
 40
2.5
  1
CAD REF.
  7
Arial-Regular
100
AcDbText
  0
TEXT
  5
E78
330
45
100
AcDbEntity
  8
APL Border
100
AcDbText
 10
149.6877694406548
 20
262.19
 30
0.0
 40
2.5
  1
DATE
  7
Arial-Regular
 72
     1
 11
154.345
 21
262.19
 31
0.0
100
AcDbText
  0
TEXT
  5
E79
330
45
100
AcDbEntity
  8
APL Border
100
AcDbText
 10
172.1185334242838
 20
262.19
 30
0.0
 40
2.5
  1
SCALE
  7
Arial-Regular
 72
     1
 11
177.845
 21
262.19
 31
0.0
100
AcDbText
  0
INSERT
  5
E7A
102
{ACAD_XDICTIONARY
360
E7B
102
}
330
45
100
AcDbEntity
  8
APL Border
100
AcDbBlockReference
  2
vantage black & white logo
 10
24.99473224900737
 20
256.19
 30
0.0
 41
0.5
 42
0.5
 43
0.5
  0
LINE
  5
EBF
330
45
100
AcDbEntity
  8
APL Border
100
AcDbLine
 10
24.99473224900737
 20
256.19
 30
0.0
 11
24.99473224900737
 21
254.19
 31
0.0
  0
LINE
  5
EC0
330
45
100
AcDbEntity
  8
APL Border
100
AcDbLine
 10
24.99473224900716
 20
279.6304177948761
 30
0.0
 11
24.99473224900737
 21
282.19
 31
0.0
  0
ENDBLK
  5
47
330
45
100
AcDbEntity
  8
0
100
AcDbBlockEnd
  0
BLOCK
  5
1A2
330
1A1
100
AcDbEntity
  8
0
100
AcDbBlockBegin
  2
08735
 70
     0
 10
0.0
 20
0.0
 30
0.0
  3
08735
  1
08735.dwg
  0
LWPOLYLINE
  5
1255
102
{ACAD_REACTORS
330
1256
102
}
330
1A1
100
AcDbEntity
  8
APL Joinery
  6
Continuous
100
AcDbPolyline
 90
       26
 70
     1
 43
0.0
 10
32.81010205144007
 20
-1.499999999999612
 42
0.904069105618463
 10
33.79999999999673
 20
-1.399999999999636
 10
33.79999999999673
 20
-0.25
 42
0.4142135623730951
 10
33.54999999999673
 20
0.0
 10
0.4499999999999993
 20
0.0
 42
0.4142135623730951
 10
0.1999999999999993
 20
-0.25
 10
0.1999999999999803
 20
-1.399999999999636
 42
0.9040691056184559
 10
1.189897948556517
 20
-1.5
 10
1.449999999999999
 20
-1.5
 42
-0.4142135623730951
 10
1.699999999999999
 20
-1.75
 10
1.699999999999999
 20
-15.24999999999886
 10
1.199999999999999
 20
-15.24999999999886
 42
0.5773502691895979
 10
0.9834936490539796
 20
-15.62499999999886
 10
2.433493649053653
 20
-18.13647367097351
 42
0.767326987979131
 10
2.899999999999817
 20
-18.0114736709736
 10
2.899999999999817
 20
-3.0
 42
-0.4142135623730951
 10
3.899999999999817
 20
-2.0
 10
30.09999999999691
 20
-2.0
 42
-0.4142135623730951
 10
31.09999999999691
 20
-3.0
 10
31.09999999999691
 20
-18.0114736709736
 42
0.767326987979131
 10
31.56650635094293
 20
-18.1364736709736
 10
33.01650635094285
 20
-15.62499999999884
 42
0.5773502691895971
 10
32.79999999999673
 20
-15.24999999999886
 10
32.29999999999673
 20
-15.24999999999886
 10
32.29999999999673
 20
-1.75
 42
-0.4142135623730951
 10
32.54999999999673
 20
-1.5
  0
HATCH
  5
1256
330
1A1
100
AcDbEntity
  8
APL Hatch
100
AcDbHatch
 10
0.0
 20
0.0
 30
0.0
210
0.0
220
0.0
230
1.0
  2
SOLID
 70
     1
 71
     1
 91
        1
 92
        1
 93
       26
 72
     2
 10
33.29999999999672
 20
-1.399999999999637
 40
0.500000000000012
 50
191.5369590328124
 51
360.0000000000001
 73
     1
 72
     1
 10
33.79999999999673
 20
-1.399999999999636
 11
33.79999999999673
 21
-0.25
 72
     2
 10
33.54999999999673
 20
-0.25
 40
0.25
 50
0.0
 51
90.0
 73
     1
 72
     1
 10
33.54999999999673
 20
0.0
 11
0.4500000000000029
 21
0.0
 72
     2
 10
0.4499999999999993
 20
-0.25
 40
0.25
 50
90.0
 51
180.0
 73
     1
 72
     1
 10
0.1999999999999993
 20
-0.25
 11
0.1999999999999803
 21
-1.399999999999636
 72
     2
 10
0.6999999999999483
 20
-1.399999999999832
 40
0.499999999999968
 50
179.9999999999774
 51
348.4630409671642
 73
     1
 72
     1
 10
1.189897948556517
 20
-1.5
 11
1.449999999999999
 21
-1.5
 72
     2
 10
1.449999999999999
 20
-1.75
 40
0.25
 50
270.0
 51
360.0
 73
     0
 72
     1
 10
1.699999999999999
 20
-1.75
 11
1.699999999999999
 21
-15.24999999999886
 72
     1
 10
1.699999999999999
 20
-15.24999999999886
 11
1.199999999999999
 21
-15.24999999999886
 72
     2
 10
1.200000000000054
 20
-15.49999999999884
 40
0.2499999999999805
 50
90.00000000001273
 51
210.0000000000078
 73
     1
 72
     1
 10
0.9834936490539796
 20
-15.62499999999886
 11
2.433493649053653
 21
-18.13647367097351
 72
     2
 10
2.649999999999817
 20
-18.0114736709736
 40
0.2500000000000005
 50
209.9999999999755
 51
360.0
 73
     1
 72
     1
 10
2.899999999999817
 20
-18.0114736709736
 11
2.899999999999817
 21
-3.0
 72
     2
 10
3.899999999999817
 20
-3.0
 40
1.0
 50
180.0
 51
270.0
 73
     0
 72
     1
 10
3.899999999999817
 20
-2.0
 11
30.09999999999691
 21
-2.0
 72
     2
 10
30.09999999999691
 20
-3.0
 40
1.0
 50
270.0
 51
360.0
 73
     0
 72
     1
 10
31.09999999999691
 20
-3.0
 11
31.09999999999691
 21
-18.0114736709736
 72
     2
 10
31.34999999999685
 20
-18.01147367097366
 40
0.2499999999999396
 50
179.9999999999853
 51
330.0000000000093
 73
     1
 72
     1
 10
31.56650635094293
 20
-18.1364736709736
 11
33.01650635094285
 21
-15.62499999999884
 72
     2
 10
32.79999999999673
 20
-15.49999999999886
 40
0.2499999999999993
 50
330.0000000000046
 51
450.0
 73
     1
 72
     1
 10
32.79999999999673
 20
-15.24999999999886
 11
32.29999999999673
 21
-15.24999999999886
 72
     1
 10
32.29999999999673
 20
-15.24999999999886
 11
32.29999999999673
 21
-1.75
 72
     2
 10
32.54999999999673
 20
-1.75
 40
0.25
 50
180.0
 51
270.0
 73
     0
 72
     1
 10
32.54999999999673
 20
-1.5
 11
32.81010205144007
 21
-1.499999999999612
 97
        1
330
1255
 75
     0
 76
     1
 98
        1
 10
0.0
 20
0.0
  0
ENDBLK
  5
1A3
330
1A1
100
AcDbEntity
  8
0
100
AcDbBlockEnd
  0
BLOCK
  5
1FE
330
1FA
100
AcDbEntity
  8
0
100
AcDbBlockBegin
  2
9010317
 70
     0
 10
0.0
 20
0.0
 30
0.0
  3
9010317
  1

  0
LWPOLYLINE
  5
1FB
330
1FA
100
AcDbEntity
  8
APL Joinery
  6
Continuous
 62
   252
100
AcDbPolyline
 90
       12
 70
     1
 43
0.0
 10
-0.7211145618000483
 20
-1.985557280900001
 10
-2.071114561800071
 20
0.7144427190998162
 42
0.4884978633711547
 10
-2.38043739035703
 20
0.776611632788729
 10
-3.221719572323456
 20
0.0528238181521985
 42
-0.6414138097735301
 10
-5.700000000000045
 20
1.189911064067302
 10
-5.700000000000045
 20
3.474999999999965
 42
0.4142135623730951
 10
-6.700000000000045
 20
4.474999999999965
 10
-10.20000000000004
 20
4.474999999999965
 42
0.4142135623730951
 10
-10.70000000000004
 20
3.974999999999965
 10
-10.70000000000004
 20
-1.275000000000034
 42
0.4142135623730951
 10
-9.700000000000045
 20
-2.275000000000034
 10
-0.9000000000000341
 20
-2.275000000000034
 42
0.5575365158350433
  0
LWPOLYLINE
  5
1FC
330
1FA
100
AcDbEntity
  8
APL Joinery
  6
Continuous
 62
   252
100
AcDbPolyline
 90
        7
 70
     0
 43
0.0
 10
-1.962054778372532
 20
0.49632315224477
 10
-2.409268373872578
 20
0.2727163544948894
 10
-1.385410196625116
 20
-1.775000000000034
 10
-6.282931759278142
 20
-1.775000000000034
 10
-6.282931759278142
 20
0.2249999999999659
 10
-6.782931759278142
 20
0.2249999999999659
 10
-6.782931759278142
 20
-2.275000000000034
  0
HATCH
  5
1FD
330
1FA
100
AcDbEntity
  8
APL Joinery
 62
   252
 48
20.0
100
AcDbHatch
 10
0.0
 20
0.0
 30
0.0
210
0.0
220
0.0
230
1.0
  2
ANSI31
 70
     0
 71
     0
 91
        1
 92
        7
 72
     1
 73
     1
 93
        9
 10
-0.7211145618000501
 20
-1.985557280899996
 42
0.0
 10
-1.962054778372538
 20
0.4963231522447665
 42
0.0
 10
-2.409268373872576
 20
0.2727163544948894
 42
0.0
 10
-1.385410196625116
 20
-1.775000000000034
 42
0.0
 10
-6.282931759278142
 20
-1.775000000000034
 42
0.0
 10
-6.282931759278142
 20
0.2249999999999659
 42
0.0
 10
-6.782931759278142
 20
0.2249999999999659
 42
0.0
 10
-6.782931759278142
 20
-2.275000000000034
 42
0.0
 10
-0.9000000000000483
 20
-2.275000000000034
 42
0.5575365158350776
 97
        0
 75
     0
 76
     1
 52
-81.00000000000001
 41
0.15
 77
     0
 78
     1
 53
324.0
 43
10.33962909005746
 44
8.215365886992856
 45
0.2799327264042904
 46
0.3852943435710686
 79
     0
 47
0.0385128446248554
 98
        1
 10
-6.304056648925865
 20
-1.998916977421401
  0
ENDBLK
  5
1FF
330
1FA
100
AcDbEntity
  8
0
100
AcDbBlockEnd
  0
BLOCK
  5
278
330
277
100
AcDbEntity
  8
0
100
AcDbBlockBegin
  2
08713
 70
     0
 10
0.0
 20
0.0
 30
0.0
  3
08713
  1
08713.dwg
  0
LWPOLYLINE
  5
1259
102
{ACAD_REACTORS
330
125B
102
}
330
277
100
AcDbEntity
  8
APL Joinery
  6
Continuous
100
AcDbPolyline
 90
       71
 70
     1
 43
0.0
 10
-47.0
 20
15.49999999999954
 10
-3.000000000000454
 20
15.5
 42
-0.4142135623730951
 10
-2.0
 20
14.5
 10
-2.0
 20
4.616025403784078
 10
-2.499999999999772
 20
4.616025403784533
 42
0.5773502691899043
 10
-2.716506350946474
 20
4.241025403784533
 10
-2.0
 20
3.0
 10
-2.000000000000454
 20
0.25
 42
0.4142135623730951
 10
-1.75
 20
0.0
 10
-0.2500000000004548
 20
-0.0000000000000002
 42
0.4142135623730951
 10
0.0
 20
0.25
 10
-0.0000000000004545
 20
121.7500000000005
 42
0.4142135623730951
 10
-0.25
 20
122.0000000000005
 10
-12.09999999999991
 20
122.0000000000002
 42
0.4142135623731284
 10
-12.30000000000018
 20
121.8000000000002
 10
-12.30000000000018
 20
120.0000000000005
 10
-13.50000000000045
 20
120.0000000000005
 42
0.4142135623730951
 10
-14.0
 20
119.5000000000005
 10
-14.00000000000045
 20
117.9500000000003
 42
0.9999999999999998
 10
-13.0
 20
117.9500000000003
 10
-13.00000000000045
 20
118.7000000000003
 10
-11.5
 20
118.7000000000003
 10
-11.50000000000045
 20
113.2000000000003
 10
-13.0
 20
113.2000000000003
 10
-13.00000000000045
 20
113.9500000000003
 42
0.9999999999999998
 10
-14.0
 20
113.9500000000003
 10
-14.00000000000045
 20
113.2000000000003
 42
0.4142135623730951
 10
-12.5
 20
111.7000000000003
 10
-11.50000000000045
 20
111.7000000000003
 42
0.4142135623730951
 10
-10.0
 20
113.2000000000003
 10
-10.00000000000045
 20
119.0000000000005
 42
-0.4142135623730951
 10
-9.0
 20
120.0000000000005
 10
-3.500000000000454
 20
120.0000000000005
 42
-0.4142135623730951
 10
-2.5
 20
119.0000000000005
 10
-2.500000000000453
 20
101.0
 42
-0.4142135623730951
 10
-3.500000000000454
 20
100.0
 10
-18.60000000000082
 20
100.0
 10
-19.0
 20
99.59999999999991
 10
-19.40000000000009
 20
100.0
 10
-32.00000000000045
 20
99.99999999999955
 42
0.9999999999999998
 10
-32.0
 20
98.99999999999955
 10
-29.50000000000045
 20
98.99999999999955
 42
-0.4142135623730951
 10
-29.0
 20
98.49999999999955
 10
-29.00000000000046
 20
96.69999999999982
 42
-0.4142135623730951
 10
-29.50000000000045
 20
96.19999999999983
 10
-35.30000000000064
 20
96.19999999999983
 42
0.4142135623730951
 10
-35.80000000000064
 20
95.69999999999982
 10
-35.80000000000064
 20
92.05000000000017
 42
-0.4142135623730951
 10
-36.05000000000018
 20
91.80000000000019
 10
-40.60000000000082
 20
91.80000000000019
 10
-41.00000000000045
 20
91.40000000000009
 10
-41.40000000000054
 20
91.80000000000019
 10
-48.00000000000046
 20
91.80000000000045
 42
-0.4142135623731367
 10
-48.19999999999982
 20
92.00000000000045
 10
-48.19999999999982
 20
95.5
 10
-48.50000000000045
 20
95.5
 10
-48.5
 20
98.50000000000001
 10
-47.75000000000045
 20
98.50000000000001
 42
0.4744978678080451
 10
-47.50505102572204
 20
98.79999999999988
 42
0.3563939586926243
 10
-48.97474487139198
 20
100.0
 10
-49.75000000000045
 20
100.0
 42
0.4142135623730951
 10
-50.0
 20
99.75000000000001
 10
-50.00000000000046
 20
0.2499999999997727
 42
0.4142135623730951
 10
-49.75000000000045
 20
-0.0000000000002274
 10
-48.25000000000045
 20
-0.0000000000002276
 42
0.4142135623730951
 10
-48.00000000000046
 20
0.2499999999997726
 10
-48.00000000000046
 20
2.999999999999772
 10
-47.28349364905433
 20
4.241025403784549
 42
0.5773502691899044
 10
-47.50000000000045
 20
4.61602540378476
 10
-48.0
 20
4.616025403784078
 10
-48.00000000000046
 20
14.5
 42
-0.4142135623730951
  0
LWPOLYLINE
  5
125A
102
{ACAD_REACTORS
330
125B
102
}
330
277
100
AcDbEntity
  8
APL Joinery
  6
Continuous
100
AcDbPolyline
 90
       36
 70
     1
 43
0.0
 10
-46.5
 20
17.49999999999954
 10
-28.78120351211146
 20
17.5
 42
0.5817493364589096
 10
-28.35152129482593
 20
18.25568181818161
 42
-0.3393313848620822
 10
-27.79500000000056
 20
22.96992187387835
 42
-0.9999999999999998
 10
-26.50500000000052
 20
21.71457331670348
 42
0.4062616689884759
 10
-26.50500000000053
 20
18.78542668329649
 42
-0.1648355108495845
 10
-26.25629242343017
 20
18.26399160454113
 42
0.2897347765159865
 10
-23.74370757657061
 20
18.26399160454113
 42
-0.164835510849614
 10
-23.49500000000039
 20
18.78542668329652
 42
0.4062616689884758
 10
-23.49500000000038
 20
21.71457331670396
 42
-1.0
 10
-22.20500000000035
 20
22.96992187387789
 42
-0.3393313848620891
 10
-21.64847870517477
 20
18.25568181818183
 42
0.5817493364588371
 10
-21.21879648788945
 20
17.5
 10
-3.500000000000454
 20
17.5
 42
0.4142135623730951
 10
-2.5
 20
18.5
 10
-2.500000000000453
 20
97.0
 42
0.4142135623730951
 10
-3.5
 20
98.0
 10
-21.00782014433253
 20
98.0
 42
0.5478429810284516
 10
-21.46147694611305
 20
97.28977272727281
 42
-0.3109069628422618
 10
-22.20500000000035
 20
92.9300781261222
 42
-0.9999999999999998
 10
-23.49500000000039
 20
94.18542668329662
 42
0.4062616689884758
 10
-23.49500000000038
 20
97.11457331670359
 42
-0.164835510849614
 10
-23.74370757657073
 20
97.63600839545896
 42
0.2897347765159867
 10
-26.25629242343031
 20
97.63600839545931
 42
-0.1648355108495844
 10
-26.50500000000052
 20
97.11457331670358
 42
0.4062616689884759
 10
-26.50500000000053
 20
94.18542668329658
 42
-0.9999999999999996
 10
-27.79500000000056
 20
92.9300781261222
 42
-0.0813493913066486
 10
-28.51664372206091
 20
93.96381586649303
 42
0.3375437766430256
 10
-29.05624623441668
 20
94.23969867789915
 42
-0.0446413837325515
 10
-29.5
 20
94.19999999999982
 10
-34.0
 20
94.19999999999982
 10
-34.00000000000046
 20
92.30000000000018
 42
-0.4142135623730951
 10
-36.5
 20
89.80000000000018
 10
-46.50000000000045
 20
89.80000000000018
 42
0.4142135623730951
 10
-47.5
 20
88.80000000000018
 10
-47.50000000000045
 20
18.5
 42
0.4142135623730951
  0
HATCH
  5
125B
330
277
100
AcDbEntity
  8
APL Hatch
100
AcDbHatch
 10
0.0
 20
0.0
 30
0.0
210
0.0
220
0.0
230
1.0
  2
SOLID
 70
     1
 71
     1
 91
        2
 92
       16
 93
       36
 72
     1
 10
-46.5
 20
17.49999999999954
 11
-28.78120351211146
 21
17.5
 72
     2
 10
-28.78120351211124
 20
17.99999999999991
 40
0.4999999999999148
 50
269.9999999999747
 51
390.7547036330205
 73
     1
 72
     2
 10
-25.00000000000015
 20
20.25000000000023
 40
3.900000000000379
 50
149.2452963669645
 51
224.2200444276805
 73
     0
 72
     2
 10
-27.15000000000054
 20
22.34224759529091
 40
0.9000000000001625
 50
224.2200444276918
 51
404.2200444276916
 73
     0
 72
     2
 10
-25.00000000000045
 20
20.24999999999998
 40
2.100000000000019
 50
135.7799555723185
 51
224.2200444276809
 73
     1
 72
     2
 10
-27.15000000000064
 20
18.15775240470905
 40
0.9000000000002284
 50
315.7799555723113
 51
353.2207959829693
 73
     0
 72
     2
 10
-25.00000000000039
 20
20.2500000000001
 40
2.350000000000121
 50
237.683718614824
 51
302.3162813851761
 73
     1
 72
     2
 10
-22.85000000000033
 20
18.15775240470934
 40
0.9000000000000147
 50
186.7792040170136
 51
224.2200444276782
 73
     0
 72
     2
 10
-25.0000000000007
 20
20.25000000000025
 40
2.100000000000348
 50
315.7799555723185
 51
404.2200444276808
 73
     1
 72
     2
 10
-22.85000000000037
 20
22.34224759529093
 40
0.8999999999998253
 50
135.7799555723292
 51
315.7799555723296
 73
     0
 72
     2
 10
-25.00000000000013
 20
20.24999999999999
 40
3.899999999999778
 50
315.7799555723153
 51
390.7547036330328
 73
     0
 72
     2
 10
-21.21879648788945
 20
18.0
 40
0.5000000000000022
 50
149.2452963669666
 51
269.9999999999996
 73
     1
 72
     1
 10
-21.21879648788945
 20
17.5
 11
-3.500000000000454
 21
17.5
 72
     2
 10
-3.500000000000227
 20
18.50000000000022
 40
1.000000000000227
 50
269.999999999987
 51
359.999999999987
 73
     1
 72
     1
 10
-2.5
 20
18.5
 11
-2.500000000000453
 21
97.0
 72
     2
 10
-3.500000000000226
 20
97.00000000000024
 40
0.9999999999997729
 50
359.999999999987
 51
449.999999999987
 73
     1
 72
     1
 10
-3.5
 20
98.0
 11
-21.00782014433253
 21
98.0
 72
     2
 10
-21.0078201443326
 20
97.5
 40
0.5
 50
89.99999999999227
 51
204.8632881668761
 73
     1
 72
     2
 10
-25.00000000000047
 20
95.6500000000001
 40
3.900000000000015
 50
335.1367118331153
 51
404.2200444276811
 73
     0
 72
     2
 10
-22.85000000000037
 20
93.5577524047094
 40
0.8999999999999989
 50
44.22004442768142
 51
224.2200444276813
 73
     0
 72
     2
 10
-25.00000000000046
 20
95.65000000000011
 40
2.100000000000026
 50
315.7799555723185
 51
404.2200444276806
 73
     1
 72
     2
 10
-22.85000000000043
 20
97.74224759529097
 40
0.9000000000000669
 50
135.7799555723076
 51
173.2207959829724
 73
     0
 72
     2
 10
-25.0000000000008
 20
95.65000000000017
 40
2.350000000000131
 50
57.68371861481578
 51
122.316281385168
 73
     1
 72
     2
 10
-27.15000000000126
 20
97.74224759529099
 40
0.9000000000006608
 50
6.779204017001253
 51
44.22004442765913
 73
     0
 72
     2
 10
-25.00000000000045
 20
95.65000000000006
 40
2.100000000000026
 50
135.7799555723184
 51
224.2200444276807
 73
     1
 72
     2
 10
-27.15000000000055
 20
93.55775240470938
 40
0.8999999999999864
 50
315.779955572319
 51
495.779955572319
 73
     0
 72
     2
 10
-24.99999999999854
 20
95.65000000000052
 40
3.900000000001672
 50
135.7799555723339
 51
154.3828985143161
 73
     0
 72
     2
 10
-28.96749548129951
 20
93.74763841347887
 40
0.5000000000002296
 50
25.6171014857324
 51
100.2242633052207
 73
     1
 72
     2
 10
-29.50000000000017
 20
96.69999999999726
 40
2.499999999997442
 50
79.775736694819
 51
89.99999999999603
 73
     0
 72
     1
 10
-29.5
 20
94.19999999999982
 11
-34.0
 21
94.19999999999982
 72
     1
 10
-34.0
 20
94.19999999999982
 11
-34.00000000000046
 21
92.30000000000018
 72
     2
 10
-36.50000000000023
 20
92.29999999999995
 40
2.499999999999772
 50
359.9999999999948
 51
449.9999999999948
 73
     0
 72
     1
 10
-36.5
 20
89.80000000000018
 11
-46.50000000000045
 21
89.80000000000018
 72
     2
 10
-46.50000000000022
 20
88.80000000000041
 40
0.9999999999997726
 50
90.00000000001303
 51
180.000000000013
 73
     1
 72
     1
 10
-47.5
 20
88.80000000000018
 11
-47.50000000000045
 21
18.5
 72
     2
 10
-46.5
 20
18.5
 40
1.000000000000454
 50
180.0
 51
270.0
 73
     1
 97
        1
330
125A
 92
        1
 93
       71
 72
     1
 10
-47.0
 20
15.49999999999954
 11
-3.000000000000454
 21
15.5
 72
     2
 10
-3.000000000000227
 20
14.49999999999977
 40
1.000000000000227
 50
269.999999999987
 51
359.999999999987
 73
     0
 72
     1
 10
-2.0
 20
14.5
 11
-2.0
 21
4.616025403784078
 72
     1
 10
-2.0
 20
4.616025403784078
 11
-2.499999999999772
 21
4.616025403784533
 72
     2
 10
-2.500000000000173
 20
4.366025403784423
 40
0.2500000000001101
 50
89.99999999990819
 51
209.9999999999562
 73
     1
 72
     1
 10
-2.716506350946474
 20
4.241025403784533
 11
-2.0
 21
3.0
 72
     1
 10
-2.0
 20
3.0
 11
-2.000000000000454
 21
0.25
 72
     2
 10
-1.750000000000227
 20
0.2500000000002274
 40
0.2500000000002274
 50
180.0000000000521
 51
270.0000000000521
 73
     1
 72
     1
 10
-1.75
 20
0.0
 11
-0.2500000000004547
 21
-0.0000000000000002
 72
     2
 10
-0.2500000000002275
 20
0.2500000000002273
 40
0.2500000000002275
 50
269.9999999999479
 51
359.9999999999479
 73
     1
 72
     1
 10
0.0
 20
0.25
 11
-0.0000000000004545
 21
121.7500000000005
 72
     2
 10
-0.2500000000002273
 20
121.7500000000007
 40
0.2499999999997727
 50
359.9999999999479
 51
449.9999999999478
 73
     1
 72
     1
 10
-0.25
 20
122.0000000000005
 11
-12.09999999999991
 21
122.0000000000002
 72
     2
 10
-12.10000000000005
 20
121.8000000000001
 40
0.2000000000001165
 50
89.99999999995827
 51
179.9999999999674
 73
     1
 72
     1
 10
-12.30000000000018
 20
121.8000000000002
 11
-12.30000000000018
 21
120.0000000000005
 72
     1
 10
-12.30000000000018
 20
120.0000000000005
 11
-13.50000000000045
 21
120.0000000000005
 72
     2
 10
-13.50000000000022
 20
119.5000000000007
 40
0.4999999999997727
 50
90.00000000002605
 51
180.000000000026
 73
     1
 72
     1
 10
-14.0
 20
119.5000000000005
 11
-14.00000000000045
 21
117.9500000000003
 72
     2
 10
-13.50000000000022
 20
117.9500000000003
 40
0.5000000000002274
 50
180.0
 51
360.0
 73
     1
 72
     1
 10
-13.0
 20
117.9500000000003
 11
-13.00000000000045
 21
118.7000000000003
 72
     1
 10
-13.00000000000045
 20
118.7000000000003
 11
-11.5
 21
118.7000000000003
 72
     1
 10
-11.5
 20
118.7000000000003
 11
-11.50000000000045
 21
113.2000000000003
 72
     1
 10
-11.50000000000045
 20
113.2000000000003
 11
-13.0
 21
113.2000000000003
 72
     1
 10
-13.0
 20
113.2000000000003
 11
-13.00000000000045
 21
113.9500000000003
 72
     2
 10
-13.50000000000022
 20
113.9500000000003
 40
0.4999999999997727
 50
0.0
 51
180.0
 73
     1
 72
     1
 10
-14.0
 20
113.9500000000003
 11
-14.00000000000045
 21
113.2000000000003
 72
     2
 10
-12.50000000000023
 20
113.2000000000005
 40
1.500000000000229
 50
180.0000000000086
 51
270.0000000000086
 73
     1
 72
     1
 10
-12.5
 20
111.7000000000003
 11
-11.50000000000045
 21
111.7000000000003
 72
     2
 10
-11.50000000000023
 20
113.2000000000005
 40
1.500000000000227
 50
269.9999999999914
 51
359.9999999999913
 73
     1
 72
     1
 10
-10.0
 20
113.2000000000003
 11
-10.00000000000045
 21
119.0000000000005
 72
     2
 10
-9.000000000000227
 20
119.0000000000003
 40
1.000000000000227
 50
180.000000000013
 51
270.000000000013
 73
     0
 72
     1
 10
-9.0
 20
120.0000000000005
 11
-3.500000000000454
 21
120.0000000000005
 72
     2
 10
-3.500000000000227
 20
119.0000000000003
 40
1.000000000000227
 50
269.999999999987
 51
359.999999999987
 73
     0
 72
     1
 10
-2.5
 20
119.0000000000005
 11
-2.500000000000453
 21
101.0
 72
     2
 10
-3.500000000000454
 20
101.0
 40
1.0
 50
360.0
 51
450.0
 73
     0
 72
     1
 10
-3.500000000000454
 20
100.0
 11
-18.60000000000082
 21
100.0
 72
     1
 10
-18.60000000000082
 20
100.0
 11
-19.0
 21
99.59999999999991
 72
     1
 10
-19.0
 20
99.59999999999991
 11
-19.40000000000009
 21
100.0
 72
     1
 10
-19.40000000000009
 20
100.0
 11
-32.00000000000045
 21
99.99999999999955
 72
     2
 10
-32.00000000000023
 20
99.49999999999954
 40
0.5
 50
90.00000000002605
 51
270.000000000026
 73
     1
 72
     1
 10
-32.0
 20
98.99999999999955
 11
-29.50000000000045
 21
98.99999999999955
 72
     2
 10
-29.50000000000023
 20
98.49999999999932
 40
0.5000000000002274
 50
269.9999999999739
 51
359.999999999974
 73
     0
 72
     1
 10
-29.0
 20
98.49999999999955
 11
-29.00000000000046
 21
96.69999999999982
 72
     2
 10
-29.50000000000045
 20
96.69999999999982
 40
0.5
 50
360.0
 51
450.0
 73
     0
 72
     1
 10
-29.50000000000045
 20
96.19999999999983
 11
-35.30000000000064
 21
96.19999999999983
 72
     2
 10
-35.30000000000064
 20
95.69999999999982
 40
0.5
 50
90.0
 51
180.0
 73
     1
 72
     1
 10
-35.80000000000064
 20
95.69999999999982
 11
-35.80000000000064
 21
92.05000000000017
 72
     2
 10
-36.05000000000041
 20
92.04999999999996
 40
0.2499999999997726
 50
359.9999999999479
 51
449.9999999999478
 73
     0
 72
     1
 10
-36.05000000000018
 20
91.80000000000019
 11
-40.60000000000082
 21
91.80000000000019
 72
     1
 10
-40.60000000000082
 20
91.80000000000019
 11
-41.00000000000045
 21
91.40000000000009
 72
     1
 10
-41.00000000000045
 20
91.40000000000009
 11
-41.40000000000054
 21
91.80000000000019
 72
     1
 10
-41.40000000000054
 20
91.80000000000019
 11
-48.00000000000046
 21
91.80000000000045
 72
     2
 10
-48.00000000000014
 20
92.00000000000011
 40
0.1999999999996618
 50
90.00000000008752
 51
180.0000000000977
 73
     0
 72
     1
 10
-48.19999999999982
 20
92.00000000000045
 11
-48.19999999999982
 21
95.5
 72
     1
 10
-48.19999999999982
 20
95.5
 11
-48.50000000000045
 21
95.5
 72
     1
 10
-48.50000000000045
 20
95.5
 11
-48.5
 21
98.50000000000001
 72
     1
 10
-48.5
 20
98.50000000000001
 11
-47.75000000000045
 21
98.50000000000001
 72
     2
 10
-47.75000000000037
 20
98.75
 40
0.25
 50
269.9999999999821
 51
371.5369590327888
 73
     1
 72
     2
 10
-48.97474487139198
 20
98.50000000000001
 40
1.499999999999999
 50
11.53695903281095
 51
90.0
 73
     1
 72
     1
 10
-48.97474487139198
 20
100.0
 11
-49.75000000000045
 21
100.0
 72
     2
 10
-49.75000000000022
 20
99.75000000000022
 40
0.2499999999997726
 50
90.00000000005213
 51
180.0000000000521
 73
     1
 72
     1
 10
-50.0
 20
99.75000000000001
 11
-50.00000000000046
 21
0.2499999999997726
 72
     2
 10
-49.75000000000045
 20
0.2499999999997726
 40
0.25
 50
180.0
 51
270.0
 73
     1
 72
     1
 10
-49.75000000000045
 20
-0.0000000000002274
 11
-48.25000000000045
 21
-0.0000000000002276
 72
     2
 10
-48.25000000000045
 20
0.2499999999997725
 40
0.2500000000000001
 50
270.0
 51
360.0
 73
     1
 72
     1
 10
-48.00000000000046
 20
0.2499999999997726
 11
-48.00000000000046
 21
2.999999999999772
 72
     1
 10
-48.00000000000046
 20
2.999999999999772
 11
-47.28349364905433
 21
4.241025403784549
 72
     2
 10
-47.5000000000004
 20
4.366025403784712
 40
0.2500000000000468
 50
329.9999999999629
 51
450.0000000000114
 73
     1
 72
     1
 10
-47.50000000000045
 20
4.61602540378476
 11
-48.0
 21
4.616025403784078
 72
     1
 10
-48.0
 20
4.616025403784078
 11
-48.00000000000046
 21
14.5
 72
     2
 10
-47.00000000000045
 20
14.49999999999954
 40
1.0
 50
180.000000000026
 51
270.000000000026
 73
     0
 97
        1
330
1259
 75
     0
 76
     1
 98
        1
 10
0.0
 20
0.0
  0
ENDBLK
  5
279
330
277
100
AcDbEntity
  8
0
100
AcDbBlockEnd
  0
BLOCK
  5
42E
330
42D
100
AcDbEntity
  8
0
100
AcDbBlockBegin
  2
08712
 70
     0
 10
0.0
 20
0.0
 30
0.0
  3
08712
  1
08712.dwg
  0
LWPOLYLINE
  5
125E
102
{ACAD_REACTORS
330
1262
102
}
330
42D
100
AcDbEntity
  8
APL Joinery
  6
Continuous
100
AcDbPolyline
 90
        4
 70
     1
 43
0.0
 10
63.19999999999982
 20
11.09999999998934
 10
63.19999999999978
 20
23.09999999999924
 10
104.0999999999999
 20
23.09999999999922
 10
104.0999999999999
 20
11.09999999998933
  0
LWPOLYLINE
  5
125F
102
{ACAD_REACTORS
330
1262
102
}
330
42D
100
AcDbEntity
  8
APL Joinery
  6
Continuous
100
AcDbPolyline
 90
      188
 70
   128
 43
0.0
 10
61.1999999999998
 20
25.55000000000082
 10
61.19999999999987
 20
30.65000000000073
 42
-0.9999999999999998
 10
61.1999999999998
 20
31.45000000000136
 10
61.1999999999998
 20
36.55000000000077
 10
59.1999999999998
 20
36.55000000000077
 10
59.19999999999982
 20
35.80000000000076
 42
-0.4142135623730951
 10
58.9499999999998
 20
35.55000000000076
 10
58.44999999999981
 20
35.55000000000076
 42
-0.4142135623730951
 10
58.1999999999998
 20
35.80000000000076
 10
58.1999999999998
 20
36.54999999999986
 10
56.19999999999987
 20
36.54999999999957
 42
-0.9999999999999994
 10
56.1999999999998
 20
37.94999999999955
 10
61.00000000000005
 20
37.94999999999943
 42
0.4142135623730952
 10
61.49999999999998
 20
38.44999999999949
 10
61.50000000000007
 20
41.0499999999994
 42
0.4142135623730951
 10
61.0
 20
41.54999999999946
 10
57.5
 20
41.54999999999946
 10
57.50000000000025
 20
40.64999999999976
 42
-0.6681786379196256
 10
57.1585786437621
 20
40.5085786437619
 10
55.55857864376275
 20
42.10857864376125
 42
-0.1989123673796841
 10
55.50000000000006
 20
42.24999999999927
 10
55.50000000000008
 20
44.74999999999922
 42
-0.4142135623730951
 10
55.75000000000006
 20
44.99999999999933
 10
67.44999999999989
 20
44.99999999999928
 42
-0.4142135623730951
 10
67.69999999999988
 20
44.74999999999922
 10
67.69999999999988
 20
42.99999999999921
 10
69.1499999999997
 20
42.99999999999927
 42
-0.4142135623730951
 10
69.39999999999969
 20
42.74999999999922
 10
69.39999999999965
 20
41.44999999999909
 42
-0.4142135623730951
 10
69.14999999999963
 20
41.19999999999904
 10
66.14999999999965
 20
41.19999999999909
 42
-0.4142135623730951
 10
65.89999999999964
 20
41.44999999999903
 10
65.89999999999969
 20
42.99999999999921
 10
63.19999999999987
 20
42.99999999999927
 10
63.19999999999989
 20
34.59999999999958
 42
0.4142135623730951
 10
63.69999999999982
 20
34.09999999999964
 10
69.14999999999968
 20
34.09999999999964
 42
-0.4142135623730951
 10
69.39999999999966
 20
33.84999999999958
 10
69.39999999999965
 20
30.24999999999933
 42
-0.4142135623730951
 10
69.14999999999963
 20
29.99999999999927
 10
68.14999999999965
 20
29.99999999999933
 42
-0.4142135623730951
 10
67.89999999999963
 20
30.24999999999927
 10
67.89999999999963
 20
32.2999999999994
 10
63.69999999999989
 20
32.2999999999994
 42
0.4142135623730784
 10
63.19999999999982
 20
31.79999999999951
 10
63.19999999999982
 20
24.99999999999939
 10
78.50000000002364
 20
24.99999999999922
 10
79.00000000002364
 20
24.49999999999922
 10
79.50000000002365
 20
24.99999999999922
 10
104.0
 20
24.9999999999992
 10
104.0
 20
29.9999999999992
 10
100.25
 20
29.9999999999992
 42
-0.4142135623730951
 10
100.0
 20
30.2499999999992
 10
100.0
 20
31.7499999999992
 42
-0.4142135623730951
 10
100.25
 20
31.9999999999992
 10
100.75
 20
31.9999999999992
 42
-0.4142135623730951
 10
101.0
 20
31.7499999999992
 10
101.0
 20
30.9999999999992
 10
103.0
 20
30.9999999999992
 10
103.0
 20
31.7499999999992
 42
-0.4142135623730951
 10
103.25
 20
31.9999999999992
 10
104.0
 20
31.9999999999992
 10
104.0
 20
36.09999999999957
 10
103.0000000000001
 20
36.09999999999911
 42
-1.000000000000781
 10
103.0
 20
36.89999999999975
 10
104.0
 20
36.89999999999975
 10
104.0
 20
40.9999999999992
 10
103.25
 20
40.9999999999992
 42
-0.4142135623730951
 10
103.0
 20
41.2499999999992
 10
103.0
 20
41.9999999999992
 10
101.0
 20
41.9999999999992
 10
101.0
 20
41.2499999999992
 42
-0.4142135623730951
 10
100.75
 20
40.9999999999992
 10
100.25
 20
40.9999999999992
 42
-0.4142135623730951
 10
100.0
 20
41.2499999999992
 10
100.0000000000001
 20
42.7499999999992
 42
-0.4142135623730951
 10
100.25
 20
42.9999999999992
 10
101.6999999999999
 20
42.9999999999992
 10
101.6999999999999
 20
44.7499999999992
 42
-0.4142135623730951
 10
101.9499999999998
 20
44.9999999999992
 10
157.0000000000001
 20
44.99999999999919
 42
-0.4142135623730951
 10
158.0
 20
43.99999999999919
 10
158.0000000000002
 20
0.1999999999990187
 42
-0.4142135623730121
 10
157.8000000000002
 20
-0.0000000000007994
 10
153.4777301318572
 20
-0.0000000000007994
 42
-0.339454258863418
 10
152.9947672187127
 20
0.3705904774479869
 10
152.5085185434277
 20
2.185295238723593
 42
-0.4931454260312743
 10
152.75
 20
2.4999999999992
 10
153.75
 20
2.4999999999992
 42
-0.4142135623730951
 10
154.0
 20
2.2499999999992
 10
154.0
 20
1.4999999999992
 10
156.1
 20
1.4999999999992
 10
156.1
 20
9.199999999991856
 10
135.3127717305691
 20
9.199999999991856
 42
0.5127349250323721
 10
134.8388407711658
 20
8.540659340647717
 42
-0.2223085985795538
 10
134.4513114174556
 20
5.130813953477339
 42
0.5864085658433281
 10
134.6643553321142
 20
4.749999999988741
 10
134.7499999999987
 20
4.749999999988798
 42
-0.4142135623729619
 10
134.9999999999986
 20
4.499999999988741
 10
134.9999999999987
 20
3.499999999988798
 42
-0.4142135623726955
 10
134.7499999999987
 20
3.249999999988514
 10
127.2499999999987
 20
3.249999999988798
 42
-0.4142135623731617
 10
126.9999999999987
 20
3.499999999988741
 10
126.9999999999987
 20
4.499999999988798
 42
-0.4142135623731617
 10
127.2499999999987
 20
4.749999999988741
 10
127.9625413911814
 20
4.749999999988798
 42
0.4142135623729619
 10
128.2125413911813
 20
4.999999999988741
 10
128.212541391181
 20
5.249999999988798
 42
-0.6577630104416215
 10
129.7302551177036
 20
5.904545454533828
 42
0.3973597071193551
 10
132.2697448822945
 20
5.904545454534396
 42
-0.1432248589116112
 10
132.7197603731963
 20
6.134238260736477
 42
0.2959768337491857
 10
132.7197603731963
 20
8.365761739241232
 42
-0.1432248589116187
 10
132.2697448822939
 20
8.595454545443654
 42
0.397359707119352
 10
129.730255117703
 20
8.595454545443143
 42
-0.5217286696036603
 10
128.2849018289932
 20
8.896428571417569
 42
0.3003359330539515
 10
127.8251020722201
 20
9.199999999988218
 10
105.8999999999999
 20
9.199999999991856
 10
105.8999999999999
 20
0.6999999999991893
 42
-0.9999999999999998
 10
104.5
 20
0.6999999999991325
 10
104.4999999999999
 20
9.199999999991856
 10
83.34511219650423
 20
9.199999999992439
 42
0.505463363425156
 10
82.86762733974814
 20
8.55164835164096
 42
-0.223470253581946
 10
82.39167863719158
 20
5.136627906968396
 42
0.5956940613858938
 10
82.60104151602879
 20
4.749999999991711
 10
82.75000000002368
 20
4.749999999991768
 42
-0.4142135623730951
 10
83.00000000002368
 20
4.499999999991711
 10
83.00000000002368
 20
3.599999999991791
 42
-0.4142135623730951
 10
82.75000000002368
 20
3.349999999991734
 10
75.2500000000237
 20
3.349999999992018
 42
-0.4142135623731617
 10
75.00000000002365
 20
3.599999999991961
 10
75.0000000000237
 20
4.599999999992018
 42
-0.4142135623731617
 10
75.25000000002364
 20
4.849999999991961
 10
75.96254139120635
 20
4.849999999992018
 42
0.4142135623729619
 10
76.21254139120622
 20
5.099999999991961
 10
76.212541391206
 20
5.349999999992018
 42
-0.6577630104416058
 10
77.73025511772854
 20
6.004545454537105
 42
0.397359707119352
 10
80.26974488231946
 20
6.004545454537616
 42
-0.1432248589116096
 10
80.7197603732213
 20
6.234238260739697
 42
0.2959768337491939
 10
80.71976037322125
 20
8.465761739244452
 42
-0.1432248589116187
 10
80.26974488231891
 20
8.695454545446931
 42
0.3973597071193521
 10
77.73025511772797
 20
8.695454545446477
 42
-0.4968272475439913
 10
76.31542445614321
 20
8.932142857135158
 42
0.2789039971404323
 10
75.87258171444171
 20
9.19999999999187
 10
50.0
 20
9.199999999992041
 10
50.00000000000001
 20
0.6999999999992604
 42
-0.9999999999999998
 10
48.59999999999999
 20
0.6999999999992604
 10
48.59999999999996
 20
9.19999999999187
 10
29.77487057628817
 20
9.199999999990222
 42
-0.5993632334828326
 10
28.26974488230071
 20
8.695454545445397
 42
0.3973597071193521
 10
25.73025511770977
 20
8.695454545444885
 42
-0.1432248589116099
 10
25.28023962680796
 20
8.465761739242804
 42
0.2959768337492226
 10
25.28023962680801
 20
6.234238260738049
 42
-0.1432248589116128
 10
25.73025511771034
 20
6.00454545453557
 42
0.397359707119352
 10
28.26974488230128
 20
6.004545454536138
 42
-0.6577630104416067
 10
29.78745860882288
 20
5.34999999999054
 10
29.78745860882288
 20
4.84999999999054
 10
30.75000000000553
 20
4.84999999999054
 42
-0.4142135623730951
 10
31.00000000000552
 20
4.59999999999054
 10
31.00000000000547
 20
3.59999999999054
 42
-0.4142135623730951
 10
30.75000000000546
 20
3.34999999999054
 10
23.40000000000511
 20
3.34999999999054
 42
-0.4142135623730951
 10
23.15000000000509
 20
3.59999999999054
 10
23.15000000000515
 20
9.199999999990904
 10
1.800000000000238
 20
9.199999999990918
 10
1.800000000000181
 20
1.499999999999285
 10
4.0
 20
1.499999999999285
 10
4.000000000000014
 20
2.249999999999229
 42
-0.4142135623730951
 10
4.25
 20
2.499999999999285
 10
5.250000000000014
 20
2.499999999999229
 42
-0.4931454260312799
 10
5.491481456571818
 20
2.185295238723679
 10
5.005232781287318
 20
0.3705904774480153
 42
-0.3394542588633991
 10
4.52226986814275
 20
-0.0000000000007141
 10
0.1999999999998252
 20
-0.000000000000032
 42
-0.4142135623730951
 10
0.0
 20
0.2000000000000135
 10
0.0000000000000711
 20
24.74999999999923
 42
-0.4142135623730951
 10
0.2500000000000568
 20
24.99999999999929
 10
12.55000000000022
 20
24.99999999999929
 10
24.84999999999946
 20
24.99999999999927
 10
25.25
 20
24.59999999999963
 10
25.64999999999964
 20
24.99999999999927
 10
58.19999999999982
 20
24.99999999999927
 10
58.1999999999998
 20
26.30000000000082
 42
-0.4142135623730951
 10
58.44999999999981
 20
26.55000000000082
 10
58.9499999999998
 20
26.55000000000082
 42
-0.4142135623730951
 10
59.19999999999982
 20
26.30000000000082
 10
59.1999999999998
 20
25.55000000000082
 10
61.1999999999998
 20
25.55000000000076
 10
59.1999999999998
 20
25.55000000000082
  0
LWPOLYLINE
  5
1260
102
{ACAD_REACTORS
330
1262
102
}
330
42D
100
AcDbEntity
  8
APL Joinery
  6
Continuous
100
AcDbPolyline
 90
       22
 70
   129
 43
0.0
 10
21.5
 20
22.49999999999927
 42
-0.4142135623730951
 10
21.25
 20
22.74999999999927
 10
21.25
 20
23.2
 10
15.60000000000001
 20
23.20000000000002
 10
15.60000000000001
 20
22.74999999999929
 42
-0.4142135623730951
 10
15.35000000000001
 20
22.49999999999928
 10
10.70000000000078
 20
22.49999999999928
 42
-0.4142135623730951
 10
10.45000000000078
 20
22.74999999999929
 10
10.45000000000078
 20
23.20000000000002
 10
2.60000000000042
 20
23.19999999999996
 42
0.4142135623730868
 10
1.60000000000042
 20
22.20000000000001
 10
1.60000000000042
 20
16.48284271240899
 10
2.441421356181876
 20
15.64142135622753
 42
-0.4142135623730951
 10
2.441421356181848
 20
15.35857864375296
 10
1.60000000000042
 20
14.51715728757144
 10
1.60000000000042
 20
12.09999999999021
 42
0.4142135623730951
 10
2.60000000000042
 20
11.09999999999021
 10
61.39999999999978
 20
11.09999999998912
 10
61.39999999999986
 20
23.19999999999863
 10
30.75
 20
23.2
 10
30.75
 20
22.74999999999927
 42
-0.4142135623730951
 10
30.5
 20
22.49999999999927
  0
LWPOLYLINE
  5
1261
102
{ACAD_REACTORS
330
1262
102
}
330
42D
100
AcDbEntity
  8
APL Joinery
  6
Continuous
100
AcDbPolyline
 90
       29
 70
     1
 43
0.0
 10
153.0
 20
32.849999999999
 10
153.0
 20
32.099999999999
 10
155.0
 20
32.099999999999
 10
155.0
 20
32.84999999999899
 42
-0.4142135623730951
 10
155.25
 20
33.09999999999899
 10
156.1000000000001
 20
33.09999999999899
 10
156.1
 20
37.19999999999935
 10
155.0000000000001
 20
37.1999999999989
 42
-1.000000000000781
 10
155.0
 20
37.99999999999953
 10
156.1000000000001
 20
37.99999999999953
 10
156.1000000000001
 20
42.09999999999898
 10
155.25
 20
42.09999999999898
 42
-0.4142135623730951
 10
155.0
 20
42.34999999999899
 10
155.0
 20
43.09999999999898
 10
153.0
 20
43.099999999999
 10
153.0
 20
42.34999999999899
 42
-0.4142135623730951
 10
152.75
 20
42.099999999999
 10
152.25
 20
42.099999999999
 42
-0.4142135623730951
 10
152.0
 20
42.34999999999899
 10
152.0
 20
43.099999999999
 10
105.9
 20
43.099999999999
 10
105.8999999999999
 20
11.09999999998933
 10
156.1
 20
11.09999999998933
 10
156.1000000000001
 20
31.099999999999
 10
152.25
 20
31.099999999999
 42
-0.4142135623730951
 10
152.0
 20
31.349999999999
 10
152.0
 20
32.849999999999
 42
-0.4142135623730951
 10
152.25
 20
33.099999999999
 10
152.75
 20
33.099999999999
 42
-0.4142135623730951
  0
HATCH
  5
1262
330
42D
100
AcDbEntity
  8
APL Hatch
100
AcDbHatch
 10
0.0
 20
0.0
 30
0.0
210
0.0
220
0.0
230
1.0
  2
SOLID
 70
     1
 71
     1
 91
        6
 92
        0
 93
       29
 72
     1
 10
153.0
 20
32.849999999999
 11
153.0
 21
32.099999999999
 72
     1
 10
153.0
 20
32.099999999999
 11
155.0
 21
32.099999999999
 72
     1
 10
155.0
 20
32.099999999999
 11
155.0
 21
32.84999999999899
 72
     2
 10
155.25
 20
32.84999999999899
 40
0.25
 50
180.0
 51
270.0
 73
     0
 72
     1
 10
155.25
 20
33.09999999999899
 11
156.1000000000001
 21
33.09999999999899
 72
     1
 10
156.1000000000001
 20
33.09999999999899
 11
156.1
 21
37.19999999999935
 72
     1
 10
156.1
 20
37.19999999999935
 11
155.0000000000001
 21
37.1999999999989
 72
     2
 10
154.9999999999998
 20
37.59999999999922
 40
0.4000000000003184
 50
89.99999999995115
 51
270.0000000000407
 73
     0
 72
     1
 10
155.0
 20
37.99999999999953
 11
156.1000000000001
 21
37.99999999999953
 72
     1
 10
156.1000000000001
 20
37.99999999999953
 11
156.1000000000001
 21
42.09999999999898
 72
     1
 10
156.1000000000001
 20
42.09999999999898
 11
155.25
 21
42.09999999999898
 72
     2
 10
155.25
 20
42.34999999999899
 40
0.25
 50
90.0
 51
180.0
 73
     0
 72
     1
 10
155.0
 20
42.34999999999899
 11
155.0
 21
43.09999999999898
 72
     1
 10
155.0
 20
43.09999999999898
 11
153.0
 21
43.099999999999
 72
     1
 10
153.0
 20
43.099999999999
 11
153.0
 21
42.34999999999899
 72
     2
 10
152.75
 20
42.34999999999899
 40
0.25
 50
360.0
 51
450.0
 73
     0
 72
     1
 10
152.75
 20
42.099999999999
 11
152.25
 21
42.099999999999
 72
     2
 10
152.25
 20
42.34999999999899
 40
0.25
 50
90.0
 51
180.0
 73
     0
 72
     1
 10
152.0
 20
42.34999999999899
 11
152.0
 21
43.099999999999
 72
     1
 10
152.0
 20
43.099999999999
 11
105.9
 21
43.099999999999
 72
     1
 10
105.9
 20
43.099999999999
 11
105.8999999999999
 21
11.09999999998933
 72
     1
 10
105.8999999999999
 20
11.09999999998933
 11
156.1
 21
11.09999999998933
 72
     1
 10
156.1
 20
11.09999999998933
 11
156.1000000000001
 21
31.099999999999
 72
     1
 10
156.1000000000001
 20
31.099999999999
 11
152.25
 21
31.099999999999
 72
     2
 10
152.25
 20
31.349999999999
 40
0.25
 50
90.0
 51
180.0
 73
     0
 72
     1
 10
152.0
 20
31.349999999999
 11
152.0
 21
32.849999999999
 72
     2
 10
152.25
 20
32.849999999999
 40
0.25
 50
180.0
 51
270.0
 73
     0
 72
     1
 10
152.25
 20
33.099999999999
 11
152.75
 21
33.099999999999
 72
     2
 10
152.75
 20
32.849999999999
 40
0.25
 50
270.0
 51
360.0
 73
     0
 97
        1
330
1261
 92
        0
 93
       22
 72
     2
 10
21.5
 20
22.74999999999927
 40
0.25
 50
90.0
 51
180.0
 73
     0
 72
     1
 10
21.25
 20
22.74999999999927
 11
21.25
 21
23.2
 72
     1
 10
21.25
 20
23.2
 11
15.60000000000001
 21
23.20000000000002
 72
     1
 10
15.60000000000001
 20
23.20000000000002
 11
15.60000000000001
 21
22.74999999999929
 72
     2
 10
15.35000000000001
 20
22.74999999999929
 40
0.25
 50
360.0
 51
450.0
 73
     0
 72
     1
 10
15.35000000000001
 20
22.49999999999928
 11
10.70000000000078
 21
22.49999999999928
 72
     2
 10
10.70000000000078
 20
22.74999999999929
 40
0.25
 50
90.0
 51
180.0
 73
     0
 72
     1
 10
10.45000000000078
 20
22.74999999999929
 11
10.45000000000078
 21
23.20000000000002
 72
     1
 10
10.45000000000078
 20
23.20000000000002
 11
2.60000000000042
 21
23.19999999999996
 72
     2
 10
2.600000000000406
 20
22.19999999999997
 40
0.9999999999999857
 50
89.9999999999992
 51
179.9999999999975
 73
     1
 72
     1
 10
1.60000000000042
 20
22.20000000000001
 11
1.60000000000042
 21
16.48284271240899
 72
     1
 10
1.60000000000042
 20
16.48284271240899
 11
2.441421356181876
 21
15.64142135622753
 72
     2
 10
2.299999999944574
 20
15.49999999999026
 40
0.1999999999999694
 50
315.0000000000058
 51
405.0000000000057
 73
     0
 72
     1
 10
2.441421356181848
 20
15.35857864375296
 11
1.60000000000042
 21
14.51715728757144
 72
     1
 10
1.60000000000042
 20
14.51715728757144
 11
1.60000000000042
 21
12.09999999999021
 72
     2
 10
2.60000000000042
 20
12.09999999999021
 40
1.0
 50
180.0
 51
270.0
 73
     1
 72
     1
 10
2.60000000000042
 20
11.09999999999021
 11
61.39999999999978
 21
11.09999999998912
 72
     1
 10
61.39999999999978
 20
11.09999999998912
 11
61.39999999999986
 21
23.19999999999863
 72
     1
 10
61.39999999999986
 20
23.19999999999863
 11
30.75
 21
23.2
 72
     1
 10
30.75
 20
23.2
 11
30.75
 21
22.74999999999927
 72
     2
 10
30.5
 20
22.74999999999927
 40
0.25
 50
360.0
 51
450.0
 73
     0
 72
     1
 10
30.5
 20
22.49999999999927
 11
21.5
 21
22.49999999999927
 97
        1
330
1260
 92
        0
 93
        4
 72
     1
 10
63.19999999999982
 20
11.09999999998934
 11
63.19999999999978
 21
23.09999999999924
 72
     1
 10
63.19999999999978
 20
23.09999999999924
 11
104.0999999999999
 21
23.09999999999922
 72
     1
 10
104.0999999999999
 20
23.09999999999922
 11
104.0999999999999
 21
11.09999999998933
 72
     1
 10
104.0999999999999
 20
11.09999999998933
 11
63.19999999999982
 21
11.09999999998934
 97
        1
330
125E
 92
       16
 93
      186
 72
     1
 10
61.1999999999998
 20
25.55000000000082
 11
61.19999999999987
 21
30.65000000000073
 72
     2
 10
61.19999999999984
 20
31.05000000000105
 40
0.4000000000003184
 50
89.99999999999491
 51
269.9999999999949
 73
     0
 72
     1
 10
61.1999999999998
 20
31.45000000000136
 11
61.1999999999998
 21
36.55000000000077
 72
     1
 10
61.1999999999998
 20
36.55000000000077
 11
59.1999999999998
 21
36.55000000000077
 72
     1
 10
59.1999999999998
 20
36.55000000000077
 11
59.19999999999982
 21
35.80000000000076
 72
     2
 10
58.94999999999981
 20
35.80000000000077
 40
0.2500000000000071
 50
0.0000000000016284
 51
90.00000000000163
 73
     0
 72
     1
 10
58.9499999999998
 20
35.55000000000076
 11
58.44999999999981
 21
35.55000000000076
 72
     2
 10
58.44999999999981
 20
35.80000000000077
 40
0.2500000000000071
 50
89.99999999999836
 51
179.9999999999984
 73
     0
 72
     1
 10
58.1999999999998
 20
35.80000000000076
 11
58.1999999999998
 21
36.54999999999986
 72
     1
 10
58.1999999999998
 20
36.54999999999986
 11
56.19999999999987
 21
36.54999999999957
 72
     2
 10
56.19999999999984
 20
37.24999999999956
 40
0.6999999999999887
 50
89.9999999999971
 51
269.9999999999971
 73
     0
 72
     1
 10
56.1999999999998
 20
37.94999999999955
 11
61.00000000000005
 21
37.94999999999943
 72
     2
 10
60.99999999999999
 20
38.44999999999943
 40
0.4999999999999929
 50
270.0000000000073
 51
360.0000000000073
 73
     1
 72
     1
 10
61.49999999999998
 20
38.44999999999949
 11
61.50000000000007
 21
41.0499999999994
 72
     2
 10
61.00000000000001
 20
41.04999999999939
 40
0.500000000000064
 50
0.0000000000008142
 51
90.00000000000081
 73
     1
 72
     1
 10
61.0
 20
41.54999999999946
 11
57.5
 21
41.54999999999946
 72
     1
 10
57.5
 20
41.54999999999946
 11
57.50000000000025
 21
40.64999999999976
 72
     2
 10
57.29999999999975
 20
40.64999999999957
 40
0.2000000000005002
 50
359.9999999999471
 51
494.999999999997
 73
     0
 72
     1
 10
57.1585786437621
 20
40.5085786437619
 11
55.55857864376275
 21
42.10857864376125
 72
     2
 10
55.7000000000009
 20
42.24999999999892
 40
0.2000000000008487
 50
135.0000000000964
 51
180.0000000001018
 73
     0
 72
     1
 10
55.50000000000006
 20
42.24999999999927
 11
55.50000000000008
 21
44.74999999999922
 72
     2
 10
55.75000000000013
 20
44.74999999999929
 40
0.2500000000000426
 50
179.9999999999837
 51
269.9999999999838
 73
     0
 72
     1
 10
55.75000000000006
 20
44.99999999999933
 11
67.44999999999989
 21
44.99999999999928
 72
     2
 10
67.44999999999985
 20
44.74999999999925
 40
0.2500000000000213
 50
270.0000000000098
 51
360.0000000000081
 73
     0
 72
     1
 10
67.69999999999988
 20
44.74999999999922
 11
67.69999999999988
 21
42.99999999999921
 72
     1
 10
67.69999999999988
 20
42.99999999999921
 11
69.1499999999997
 21
42.99999999999927
 72
     2
 10
69.14999999999967
 20
42.74999999999925
 40
0.2500000000000213
 50
270.0000000000098
 51
360.0000000000081
 73
     0
 72
     1
 10
69.39999999999969
 20
42.74999999999922
 11
69.39999999999965
 21
41.44999999999909
 72
     2
 10
69.1499999999996
 20
41.44999999999907
 40
0.2500000000000426
 50
359.9999999999951
 51
449.9999999999935
 73
     0
 72
     1
 10
69.14999999999963
 20
41.19999999999904
 11
66.14999999999965
 21
41.19999999999909
 72
     2
 10
66.14999999999961
 20
41.44999999999907
 40
0.2499999999999787
 50
89.99999999999023
 51
179.9999999999918
 73
     0
 72
     1
 10
65.89999999999964
 20
41.44999999999903
 11
65.89999999999969
 21
42.99999999999921
 72
     1
 10
65.89999999999969
 20
42.99999999999921
 11
63.19999999999987
 21
42.99999999999927
 72
     1
 10
63.19999999999987
 20
42.99999999999927
 11
63.19999999999989
 21
34.59999999999958
 72
     2
 10
63.69999999999983
 20
34.59999999999958
 40
0.4999999999999361
 50
179.9999999999992
 51
269.9999999999992
 73
     1
 72
     1
 10
63.69999999999982
 20
34.09999999999964
 11
69.14999999999968
 21
34.09999999999964
 72
     2
 10
69.14999999999963
 20
33.84999999999962
 40
0.2500000000000213
 50
270.0000000000098
 51
360.0000000000081
 73
     0
 72
     1
 10
69.39999999999966
 20
33.84999999999958
 11
69.39999999999965
 21
30.24999999999933
 72
     2
 10
69.1499999999996
 20
30.24999999999931
 40
0.2500000000000426
 50
359.9999999999951
 51
449.9999999999935
 73
     0
 72
     1
 10
69.14999999999963
 20
29.99999999999927
 11
68.14999999999965
 21
29.99999999999933
 72
     2
 10
68.14999999999961
 20
30.24999999999931
 40
0.2499999999999787
 50
89.99999999999023
 51
179.9999999999918
 73
     0
 72
     1
 10
67.89999999999963
 20
30.24999999999927
 11
67.89999999999963
 21
32.2999999999994
 72
     1
 10
67.89999999999963
 20
32.2999999999994
 11
63.69999999999989
 21
32.2999999999994
 72
     2
 10
63.69999999999981
 20
31.79999999999941
 40
0.4999999999999929
 50
89.99999999999104
 51
179.9999999999882
 73
     1
 72
     1
 10
63.19999999999982
 20
31.79999999999951
 11
63.19999999999982
 21
24.99999999999939
 72
     1
 10
63.19999999999982
 20
24.99999999999939
 11
78.50000000002364
 21
24.99999999999922
 72
     1
 10
78.50000000002364
 20
24.99999999999922
 11
79.00000000002364
 21
24.49999999999922
 72
     1
 10
79.00000000002364
 20
24.49999999999922
 11
79.50000000002365
 21
24.99999999999922
 72
     1
 10
79.50000000002365
 20
24.99999999999922
 11
104.0
 21
24.9999999999992
 72
     1
 10
104.0
 20
24.9999999999992
 11
104.0
 21
29.9999999999992
 72
     1
 10
104.0
 20
29.9999999999992
 11
100.25
 21
29.9999999999992
 72
     2
 10
100.25
 20
30.24999999999922
 40
0.2500000000000142
 50
89.99999999999674
 51
179.9999999999967
 73
     0
 72
     1
 10
100.0
 20
30.2499999999992
 11
100.0
 21
31.7499999999992
 72
     2
 10
100.25
 20
31.74999999999922
 40
0.2499999999999858
 50
179.9999999999967
 51
269.9999999999968
 73
     0
 72
     1
 10
100.25
 20
31.9999999999992
 11
100.75
 21
31.9999999999992
 72
     2
 10
100.75
 20
31.74999999999922
 40
0.2499999999999858
 50
270.0000000000033
 51
360.0000000000032
 73
     0
 72
     1
 10
101.0
 20
31.7499999999992
 11
101.0
 21
30.9999999999992
 72
     1
 10
101.0
 20
30.9999999999992
 11
103.0
 21
30.9999999999992
 72
     1
 10
103.0
 20
30.9999999999992
 11
103.0
 21
31.7499999999992
 72
     2
 10
103.25
 20
31.74999999999922
 40
0.2499999999999858
 50
179.9999999999967
 51
269.9999999999968
 73
     0
 72
     1
 10
103.25
 20
31.9999999999992
 11
104.0
 21
31.9999999999992
 72
     1
 10
104.0
 20
31.9999999999992
 11
104.0
 21
36.09999999999957
 72
     1
 10
104.0
 20
36.09999999999957
 11
103.0000000000001
 21
36.09999999999911
 72
     2
 10
102.9999999999997
 20
36.49999999999943
 40
0.4000000000003184
 50
89.9999999999491
 51
270.0000000000386
 73
     0
 72
     1
 10
103.0
 20
36.89999999999975
 11
104.0
 21
36.89999999999975
 72
     1
 10
104.0
 20
36.89999999999975
 11
104.0
 21
40.9999999999992
 72
     1
 10
104.0
 20
40.9999999999992
 11
103.25
 21
40.9999999999992
 72
     2
 10
103.25
 20
41.24999999999921
 40
0.2500000000000142
 50
89.99999999999674
 51
179.9999999999967
 73
     0
 72
     1
 10
103.0
 20
41.2499999999992
 11
103.0
 21
41.9999999999992
 72
     1
 10
103.0
 20
41.9999999999992
 11
101.0
 21
41.9999999999992
 72
     1
 10
101.0
 20
41.9999999999992
 11
101.0
 21
41.2499999999992
 72
     2
 10
100.75
 20
41.24999999999921
 40
0.2500000000000142
 50
0.0000000000032569
 51
90.00000000000325
 73
     0
 72
     1
 10
100.75
 20
40.9999999999992
 11
100.25
 21
40.9999999999992
 72
     2
 10
100.25
 20
41.24999999999921
 40
0.2500000000000142
 50
89.99999999999674
 51
179.9999999999967
 73
     0
 72
     1
 10
100.0
 20
41.2499999999992
 11
100.0000000000001
 21
42.7499999999992
 72
     2
 10
100.2500000000001
 20
42.74999999999922
 40
0.2499999999999858
 50
179.9999999999967
 51
269.9999999999968
 73
     0
 72
     1
 10
100.25
 20
42.9999999999992
 11
101.6999999999999
 21
42.9999999999992
 72
     1
 10
101.6999999999999
 20
42.9999999999992
 11
101.6999999999999
 21
44.7499999999992
 72
     2
 10
101.9499999999999
 20
44.74999999999922
 40
0.2499999999999858
 50
179.9999999999967
 51
269.9999999999968
 73
     0
 72
     1
 10
101.9499999999998
 20
44.9999999999992
 11
157.0000000000001
 21
44.99999999999919
 72
     2
 10
157.0
 20
43.9999999999992
 40
0.9999999999999857
 50
270.0000000000017
 51
360.0000000000008
 73
     0
 72
     1
 10
158.0
 20
43.99999999999919
 11
158.0000000000002
 21
0.1999999999990223
 72
     2
 10
157.8000000000002
 20
0.1999999999991324
 40
0.1999999999999318
 50
0.0000000000325689
 51
90.00000000001628
 73
     0
 72
     1
 10
157.8000000000002
 20
-0.0000000000007994
 11
153.4777301318572
 21
-0.0000000000007994
 72
     2
 10
153.4777301318572
 20
0.4999999999991833
 40
0.4999999999999826
 50
90.0
 51
165.0000000000075
 73
     0
 72
     1
 10
152.9947672187127
 20
0.3705904774479869
 11
152.5085185434277
 21
2.185295238723593
 72
     2
 10
152.75
 20
2.2499999999992
 40
0.2500000000000003
 50
165.0000000000055
 51
270.0
 73
     0
 72
     1
 10
152.75
 20
2.4999999999992
 11
153.75
 21
2.4999999999992
 72
     2
 10
153.75
 20
2.2499999999992
 40
0.25
 50
270.0
 51
360.0
 73
     0
 72
     1
 10
154.0
 20
2.2499999999992
 11
154.0
 21
1.4999999999992
 72
     1
 10
154.0
 20
1.4999999999992
 11
156.1
 21
1.4999999999992
 72
     1
 10
156.1
 20
1.4999999999992
 11
156.1
 21
9.199999999991856
 72
     1
 10
156.1
 20
9.199999999991856
 11
135.3127717305691
 21
9.199999999991856
 72
     2
 10
135.3127717305704
 20
8.699999999990023
 40
0.5000000000018332
 50
90.00000000014981
 51
198.5831953639837
 73
     1
 72
     2
 10
130.9999999999976
 20
7.249999999990074
 40
4.050000000001252
 50
341.4168046361756
 51
391.5508995539795
 73
     0
 72
     2
 10
134.6643553321136
 20
4.999999999988923
 40
0.250000000000187
 50
148.4491004460425
 51
270.0000000001303
 73
     1
 72
     1
 10
134.6643553321142
 20
4.749999999988741
 11
134.7499999999987
 21
4.749999999988798
 72
     2
 10
134.7499999999986
 20
4.499999999988769
 40
0.2500000000000284
 50
270.0000000000326
 51
360.0000000000065
 73
     0
 72
     1
 10
134.9999999999986
 20
4.499999999988741
 11
134.9999999999987
 21
3.499999999988798
 72
     2
 10
134.7499999999984
 20
3.499999999988855
 40
0.2500000000003411
 50
0.0000000000130276
 51
89.99999999993486
 73
     0
 72
     1
 10
134.7499999999987
 20
3.249999999988514
 11
127.2499999999987
 21
3.249999999988798
 72
     2
 10
127.2499999999986
 20
3.499999999988769
 40
0.2499999999999716
 50
89.99999999998046
 51
179.9999999999935
 73
     0
 72
     1
 10
126.9999999999987
 20
3.499999999988741
 11
126.9999999999987
 21
4.499999999988798
 72
     2
 10
127.2499999999986
 20
4.499999999988826
 40
0.2499999999999147
 50
179.9999999999935
 51
270.0000000000065
 73
     0
 72
     1
 10
127.2499999999987
 20
4.749999999988741
 11
127.9625413911814
 21
4.749999999988798
 72
     2
 10
127.9625413911813
 20
4.999999999988769
 40
0.2499999999999716
 50
270.0000000000196
 51
359.9999999999935
 73
     1
 72
     1
 10
128.2125413911813
 20
4.999999999988741
 11
128.212541391181
 21
5.249999999988798
 72
     2
 10
129.1125413911812
 20
5.249999999988389
 40
0.9000000000001477
 50
180.000000000026
 51
313.3417582272344
 73
     0
 72
     2
 10
130.9999999999987
 20
7.249999999989308
 40
1.850000000000401
 50
226.6582417728066
 51
313.3417582272202
 73
     1
 72
     2
 10
132.8874586088167
 20
5.2499999999887
 40
0.9000000000002453
 50
226.6582417727835
 51
259.2612357600413
 73
     0
 72
     2
 10
130.9999999999984
 20
7.24999999998881
 40
2.050000000000345
 50
327.0249334069771
 51
392.9750665930259
 73
     1
 72
     2
 10
132.887458608817
 20
9.249999999989963
 40
0.9000000000012512
 50
100.7387642399687
 51
133.3417582272279
 73
     0
 72
     2
 10
130.9999999999988
 20
7.249999999988173
 40
1.850000000000441
 50
46.65824177280538
 51
133.3417582272183
 73
     1
 72
     2
 10
129.1125413911809
 20
9.249999999988681
 40
0.9000000000000524
 50
46.6582417727818
 51
156.867603600725
 73
     0
 72
     2
 10
127.8251020722219
 20
8.699999999987081
 40
0.5000000000011462
 50
23.13239639948056
 51
90.00000000020191
 73
     1
 72
     1
 10
127.8251020722201
 20
9.199999999988218
 11
105.8999999999999
 21
9.199999999991856
 72
     1
 10
105.8999999999999
 20
9.199999999991856
 11
105.8999999999999
 21
0.6999999999991893
 72
     2
 10
105.2
 20
0.699999999999161
 40
0.6999999999999887
 50
359.9999999999976
 51
539.9999999999976
 73
     0
 72
     1
 10
104.5
 20
0.6999999999991325
 11
104.4999999999999
 21
9.199999999991856
 72
     1
 10
104.4999999999999
 20
9.199999999991856
 11
83.34511219650423
 21
9.199999999992439
 72
     2
 10
83.34511219650421
 20
8.699999999992465
 40
0.4999999999999734
 50
89.99999999999674
 51
197.2597026414549
 73
     1
 72
     2
 10
79.00000000002258
 20
7.349999999993325
 40
4.050000000001244
 50
342.7402973585452
 51
393.1280236396844
 73
     0
 72
     2
 10
82.60104151602893
 20
4.999999999991573
 40
0.2499999999998633
 50
146.8719763602906
 51
269.9999999999707
 73
     1
 72
     1
 10
82.60104151602879
 20
4.749999999991711
 11
82.75000000002368
 21
4.749999999991768
 72
     2
 10
82.75000000002364
 20
4.499999999991739
 40
0.2500000000000284
 50
270.0000000000065
 51
360.0000000000065
 73
     0
 72
     1
 10
83.00000000002368
 20
4.499999999991711
 11
83.00000000002368
 21
3.599999999991791
 72
     2
 10
82.75000000002364
 20
3.599999999991762
 40
0.2500000000000284
 50
359.9999999999935
 51
449.9999999999935
 73
     0
 72
     1
 10
82.75000000002368
 20
3.349999999991734
 11
75.2500000000237
 21
3.349999999992018
 72
     2
 10
75.25000000002362
 20
3.59999999999199
 40
0.2499999999999716
 50
89.99999999998046
 51
179.9999999999935
 73
     0
 72
     1
 10
75.00000000002365
 20
3.599999999991961
 11
75.0000000000237
 21
4.599999999992018
 72
     2
 10
75.25000000002362
 20
4.599999999992046
 40
0.2499999999999147
 50
179.9999999999935
 51
270.0000000000065
 73
     0
 72
     1
 10
75.25000000002364
 20
4.849999999991961
 11
75.96254139120635
 21
4.849999999992018
 72
     2
 10
75.96254139120626
 20
5.09999999999199
 40
0.2499999999999716
 50
270.0000000000196
 51
359.9999999999935
 73
     1
 72
     1
 10
76.21254139120622
 20
5.099999999991961
 11
76.212541391206
 21
5.349999999992018
 72
     2
 10
77.11254139120618
 20
5.349999999991618
 40
0.9000000000001762
 50
180.0000000000254
 51
313.341758227231
 73
     0
 72
     2
 10
79.00000000002373
 20
7.349999999992572
 40
1.85000000000043
 50
226.6582417728051
 51
313.3417582272179
 73
     1
 72
     2
 10
80.88745860884172
 20
5.349999999991911
 40
0.9000000000002616
 50
226.6582417727832
 51
259.2612357600405
 73
     0
 72
     2
 10
79.00000000002339
 20
7.34999999999203
 40
2.050000000000297
 50
327.0249334069762
 51
392.9750665930267
 73
     1
 72
     2
 10
80.88745860884207
 20
9.349999999993212
 40
0.9000000000012951
 50
100.7387642399737
 51
133.3417582272331
 73
     0
 72
     2
 10
79.00000000002369
 20
7.349999999991478
 40
1.850000000000449
 50
46.65824177280383
 51
133.3417582272167
 73
     1
 72
     2
 10
77.11254139120581
 20
9.349999999991958
 40
0.9000000000000307
 50
46.65824177277798
 51
152.3359955038362
 73
     0
 72
     2
 10
75.87258171444227
 20
8.699999999992162
 40
0.4999999999997092
 50
27.6640044962248
 51
90.00000000006513
 73
     1
 72
     1
 10
75.87258171444171
 20
9.19999999999187
 11
50.0
 21
9.199999999992041
 72
     1
 10
50.0
 20
9.199999999992041
 11
50.00000000000001
 21
0.6999999999992604
 72
     2
 10
49.3
 20
0.6999999999992605
 40
0.70000000000001
 50
360.0
 51
540.0
 73
     0
 72
     1
 10
48.59999999999999
 20
0.6999999999992604
 11
48.59999999999996
 21
9.19999999999187
 72
     1
 10
48.59999999999996
 20
9.19999999999187
 11
29.77487057628817
 21
9.199999999990222
 72
     2
 10
28.88745860882311
 20
9.349999999990938
 40
0.9000000000002311
 50
9.594068226904198
 51
133.3417582272299
 73
     0
 72
     2
 10
27.00000000000552
 20
7.349999999989915
 40
1.85000000000045
 50
46.65824177280508
 51
133.341758227218
 73
     1
 72
     2
 10
25.11254139118752
 20
9.34999999999054
 40
0.9000000000002156
 50
46.65824177278165
 51
79.26123576003901
 73
     0
 72
     2
 10
27.00000000000567
 20
7.34999999999047
 40
2.050000000000131
 50
147.0249334069731
 51
212.9750665930298
 73
     1
 72
     2
 10
25.11254139118716
 20
5.349999999989256
 40
0.9000000000013315
 50
280.7387642399744
 51
313.3417582272325
 73
     0
 72
     2
 10
27.00000000000551
 20
7.34999999999108
 40
1.850000000000449
 50
226.6582417728064
 51
313.3417582272193
 73
     1
 72
     2
 10
28.88745860882307
 20
5.349999999990602
 40
0.8999999999998072
 50
226.6582417727982
 51
360.000000000004
 73
     0
 72
     1
 10
29.78745860882288
 20
5.34999999999054
 11
29.78745860882288
 21
4.84999999999054
 72
     1
 10
29.78745860882288
 20
4.84999999999054
 11
30.75000000000553
 21
4.84999999999054
 72
     2
 10
30.75000000000552
 20
4.599999999990547
 40
0.2499999999999929
 50
270.0000000000017
 51
360.0000000000016
 73
     0
 72
     1
 10
31.00000000000552
 20
4.59999999999054
 11
31.00000000000547
 21
3.59999999999054
 72
     2
 10
30.75000000000546
 20
3.599999999990547
 40
0.2500000000000071
 50
0.0000000000016284
 51
90.00000000000163
 73
     0
 72
     1
 10
30.75000000000546
 20
3.34999999999054
 11
23.40000000000511
 21
3.34999999999054
 72
     2
 10
23.4000000000051
 20
3.599999999990547
 40
0.2500000000000071
 50
89.99999999999836
 51
179.9999999999984
 73
     0
 72
     1
 10
23.15000000000509
 20
3.59999999999054
 11
23.15000000000515
 21
9.199999999990904
 72
     1
 10
23.15000000000515
 20
9.199999999990904
 11
1.800000000000238
 21
9.199999999990918
 72
     1
 10
1.800000000000238
 20
9.199999999990918
 11
1.800000000000181
 21
1.499999999999285
 72
     1
 10
1.800000000000181
 20
1.499999999999285
 11
4.0
 21
1.499999999999285
 72
     1
 10
4.0
 20
1.499999999999285
 11
4.000000000000014
 21
2.249999999999229
 72
     2
 10
4.250000000000035
 20
2.249999999999264
 40
0.2500000000000213
 50
179.9999999999918
 51
269.9999999999919
 73
     0
 72
     1
 10
4.25
 20
2.499999999999285
 11
5.250000000000014
 21
2.499999999999229
 72
     2
 10
5.249999999999803
 20
2.249999999999439
 40
0.2499999999997899
 50
270.0000000000482
 51
375.0000000000437
 73
     0
 72
     1
 10
5.491481456571818
 20
2.185295238723679
 11
5.005232781287318
 21
0.3705904774480153
 72
     2
 10
4.522269868142794
 20
0.499999999999276
 40
0.4999999999999904
 50
15.00000000000034
 51
90.00000000000509
 73
     0
 72
     1
 10
4.52226986814275
 20
-0.0000000000007141
 11
0.1999999999998252
 21
-0.000000000000032
 72
     2
 10
0.1999999999999353
 20
0.1999999999999034
 40
0.1999999999999353
 50
90.00000000003154
 51
180.0000000000315
 73
     0
 72
     1
 10
0.0
 20
0.2000000000000135
 11
0.0000000000000711
 21
24.74999999999923
 72
     2
 10
0.2500000000000924
 20
24.74999999999927
 40
0.2500000000000213
 50
179.9999999999918
 51
269.9999999999919
 73
     0
 72
     1
 10
0.2500000000000568
 20
24.99999999999929
 11
12.55000000000022
 21
24.99999999999929
 72
     1
 10
12.55000000000022
 20
24.99999999999929
 11
24.84999999999946
 21
24.99999999999927
 72
     1
 10
24.84999999999946
 20
24.99999999999927
 11
25.25
 21
24.59999999999963
 72
     1
 10
25.25
 20
24.59999999999963
 11
25.64999999999964
 21
24.99999999999927
 72
     1
 10
25.64999999999964
 20
24.99999999999927
 11
58.19999999999982
 21
24.99999999999927
 72
     1
 10
58.19999999999982
 20
24.99999999999927
 11
58.1999999999998
 21
26.30000000000082
 72
     2
 10
58.44999999999981
 20
26.30000000000081
 40
0.2500000000000071
 50
180.0000000000016
 51
270.0000000000017
 73
     0
 72
     1
 10
58.44999999999981
 20
26.55000000000082
 11
58.9499999999998
 21
26.55000000000082
 72
     2
 10
58.94999999999981
 20
26.30000000000081
 40
0.2500000000000071
 50
269.9999999999984
 51
359.9999999999984
 73
     0
 72
     1
 10
59.19999999999982
 20
26.30000000000082
 11
59.1999999999998
 21
25.55000000000082
 72
     1
 10
59.1999999999998
 20
25.55000000000082
 11
61.1999999999998
 21
25.55000000000076
 97
        1
330
125F
 92
       33
 93
      186
 72
     1
 10
61.1999999999998
 20
25.55000000000082
 11
61.19999999999987
 21
30.65000000000073
 72
     1
 10
59.1999999999998
 20
25.55000000000082
 11
61.1999999999998
 21
25.55000000000076
 72
     1
 10
59.19999999999982
 20
26.30000000000082
 11
59.1999999999998
 21
25.55000000000082
 72
     2
 10
58.94999999999981
 20
26.30000000000081
 40
0.2500000000000071
 50
0.0000000000016284
 51
90.00000000000161
 73
     1
 72
     1
 10
58.44999999999981
 20
26.55000000000082
 11
58.9499999999998
 21
26.55000000000082
 72
     2
 10
58.44999999999981
 20
26.30000000000081
 40
0.2500000000000071
 50
89.99999999999836
 51
179.9999999999984
 73
     1
 72
     1
 10
58.19999999999982
 20
24.99999999999927
 11
58.1999999999998
 21
26.30000000000082
 72
     1
 10
25.64999999999964
 20
24.99999999999927
 11
58.19999999999982
 21
24.99999999999927
 72
     1
 10
25.25
 20
24.59999999999963
 11
25.64999999999964
 21
24.99999999999927
 72
     1
 10
24.84999999999946
 20
24.99999999999927
 11
25.25
 21
24.59999999999963
 72
     1
 10
12.55000000000022
 20
24.99999999999929
 11
24.84999999999946
 21
24.99999999999927
 72
     1
 10
0.2500000000000568
 20
24.99999999999929
 11
12.55000000000022
 21
24.99999999999929
 72
     2
 10
0.2500000000000924
 20
24.74999999999927
 40
0.2500000000000213
 50
90.00000000000813
 51
180.0000000000081
 73
     1
 72
     1
 10
0.0
 20
0.2000000000000135
 11
0.0000000000000711
 21
24.74999999999923
 72
     2
 10
0.1999999999999353
 20
0.1999999999999034
 40
0.1999999999999353
 50
179.9999999999684
 51
269.9999999999684
 73
     1
 72
     1
 10
4.52226986814275
 20
-0.0000000000007141
 11
0.1999999999998252
 21
-0.000000000000032
 72
     2
 10
4.522269868142794
 20
0.499999999999276
 40
0.4999999999999904
 50
269.9999999999949
 51
344.9999999999997
 73
     1
 72
     1
 10
5.491481456571818
 20
2.185295238723679
 11
5.005232781287318
 21
0.3705904774480153
 72
     2
 10
5.249999999999803
 20
2.249999999999439
 40
0.2499999999997899
 50
344.9999999999563
 51
449.9999999999517
 73
     1
 72
     1
 10
4.25
 20
2.499999999999285
 11
5.250000000000014
 21
2.499999999999229
 72
     2
 10
4.250000000000035
 20
2.249999999999264
 40
0.2500000000000213
 50
90.00000000000813
 51
180.0000000000081
 73
     1
 72
     1
 10
4.0
 20
1.499999999999285
 11
4.000000000000014
 21
2.249999999999229
 72
     1
 10
1.800000000000181
 20
1.499999999999285
 11
4.0
 21
1.499999999999285
 72
     1
 10
1.800000000000238
 20
9.199999999990918
 11
1.800000000000181
 21
1.499999999999285
 72
     1
 10
23.15000000000515
 20
9.199999999990904
 11
1.800000000000238
 21
9.199999999990918
 72
     1
 10
23.15000000000509
 20
3.59999999999054
 11
23.15000000000515
 21
9.199999999990904
 72
     2
 10
23.4000000000051
 20
3.599999999990547
 40
0.2500000000000071
 50
180.0000000000016
 51
270.0000000000017
 73
     1
 72
     1
 10
30.75000000000546
 20
3.34999999999054
 11
23.40000000000511
 21
3.34999999999054
 72
     2
 10
30.75000000000546
 20
3.599999999990547
 40
0.2500000000000071
 50
269.9999999999984
 51
359.9999999999984
 73
     1
 72
     1
 10
31.00000000000552
 20
4.59999999999054
 11
31.00000000000547
 21
3.59999999999054
 72
     2
 10
30.75000000000552
 20
4.599999999990547
 40
0.2499999999999929
 50
359.9999999999984
 51
449.9999999999984
 73
     1
 72
     1
 10
29.78745860882288
 20
4.84999999999054
 11
30.75000000000553
 21
4.84999999999054
 72
     1
 10
29.78745860882288
 20
5.34999999999054
 11
29.78745860882288
 21
4.84999999999054
 72
     2
 10
28.88745860882307
 20
5.349999999990602
 40
0.8999999999998072
 50
359.999999999996
 51
493.3417582272018
 73
     1
 72
     2
 10
27.00000000000551
 20
7.34999999999108
 40
1.850000000000449
 50
226.6582417728064
 51
313.3417582272193
 73
     1
 72
     2
 10
25.11254139118716
 20
5.349999999989256
 40
0.9000000000013315
 50
46.65824177276753
 51
79.26123576002556
 73
     1
 72
     2
 10
27.00000000000567
 20
7.34999999999047
 40
2.050000000000131
 50
147.0249334069731
 51
212.9750665930298
 73
     1
 72
     2
 10
25.11254139118752
 20
9.34999999999054
 40
0.9000000000002156
 50
280.738764239961
 51
313.3417582272183
 73
     1
 72
     2
 10
27.00000000000552
 20
7.349999999989915
 40
1.85000000000045
 50
46.65824177280508
 51
133.341758227218
 73
     1
 72
     2
 10
28.88745860882311
 20
9.349999999990938
 40
0.9000000000002311
 50
226.6582417727701
 51
350.4059317730958
 73
     1
 72
     1
 10
48.59999999999996
 20
9.19999999999187
 11
29.77487057628817
 21
9.199999999990222
 72
     1
 10
48.59999999999999
 20
0.6999999999992604
 11
48.59999999999996
 21
9.19999999999187
 72
     2
 10
49.3
 20
0.6999999999992605
 40
0.70000000000001
 50
180.0
 51
360.0
 73
     1
 72
     1
 10
50.0
 20
9.199999999992041
 11
50.00000000000001
 21
0.6999999999992604
 72
     1
 10
75.87258171444171
 20
9.19999999999187
 11
50.0
 21
9.199999999992041
 72
     2
 10
75.87258171444227
 20
8.699999999992162
 40
0.4999999999997092
 50
27.6640044962248
 51
90.00000000006513
 73
     1
 72
     2
 10
77.11254139120581
 20
9.349999999991958
 40
0.9000000000000307
 50
207.6640044961638
 51
313.341758227222
 73
     1
 72
     2
 10
79.00000000002369
 20
7.349999999991478
 40
1.850000000000449
 50
46.65824177280383
 51
133.3417582272167
 73
     1
 72
     2
 10
80.88745860884207
 20
9.349999999993212
 40
0.9000000000012951
 50
226.6582417727668
 51
259.2612357600263
 73
     1
 72
     2
 10
79.00000000002339
 20
7.34999999999203
 40
2.050000000000297
 50
327.0249334069762
 51
392.9750665930267
 73
     1
 72
     2
 10
80.88745860884172
 20
5.349999999991911
 40
0.9000000000002616
 50
100.7387642399595
 51
133.3417582272168
 73
     1
 72
     2
 10
79.00000000002373
 20
7.349999999992572
 40
1.85000000000043
 50
226.6582417728051
 51
313.3417582272179
 73
     1
 72
     2
 10
77.11254139120618
 20
5.349999999991618
 40
0.9000000000001762
 50
46.65824177276902
 51
179.9999999999745
 73
     1
 72
     1
 10
76.21254139120622
 20
5.099999999991961
 11
76.212541391206
 21
5.349999999992018
 72
     2
 10
75.96254139120626
 20
5.09999999999199
 40
0.2499999999999716
 50
270.0000000000196
 51
359.9999999999935
 73
     1
 72
     1
 10
75.25000000002364
 20
4.849999999991961
 11
75.96254139120635
 21
4.849999999992018
 72
     2
 10
75.25000000002362
 20
4.599999999992046
 40
0.2499999999999147
 50
89.99999999999349
 51
180.0000000000065
 73
     1
 72
     1
 10
75.00000000002365
 20
3.599999999991961
 11
75.0000000000237
 21
4.599999999992018
 72
     2
 10
75.25000000002362
 20
3.59999999999199
 40
0.2499999999999716
 50
180.0000000000065
 51
270.0000000000196
 73
     1
 72
     1
 10
82.75000000002368
 20
3.349999999991734
 11
75.2500000000237
 21
3.349999999992018
 72
     2
 10
82.75000000002364
 20
3.599999999991762
 40
0.2500000000000284
 50
270.0000000000065
 51
360.0000000000065
 73
     1
 72
     1
 10
83.00000000002368
 20
4.499999999991711
 11
83.00000000002368
 21
3.599999999991791
 72
     2
 10
82.75000000002364
 20
4.499999999991739
 40
0.2500000000000284
 50
359.9999999999935
 51
449.9999999999935
 73
     1
 72
     1
 10
82.60104151602879
 20
4.749999999991711
 11
82.75000000002368
 21
4.749999999991768
 72
     2
 10
82.60104151602893
 20
4.999999999991573
 40
0.2499999999998633
 50
146.8719763602906
 51
269.9999999999707
 73
     1
 72
     2
 10
79.00000000002258
 20
7.349999999993325
 40
4.050000000001244
 50
326.8719763603156
 51
377.2597026414548
 73
     1
 72
     2
 10
83.34511219650421
 20
8.699999999992465
 40
0.4999999999999734
 50
89.99999999999674
 51
197.2597026414549
 73
     1
 72
     1
 10
104.4999999999999
 20
9.199999999991856
 11
83.34511219650423
 21
9.199999999992439
 72
     1
 10
104.5
 20
0.6999999999991325
 11
104.4999999999999
 21
9.199999999991856
 72
     2
 10
105.2
 20
0.699999999999161
 40
0.6999999999999887
 50
180.0000000000023
 51
360.0000000000023
 73
     1
 72
     1
 10
105.8999999999999
 20
9.199999999991856
 11
105.8999999999999
 21
0.6999999999991893
 72
     1
 10
127.8251020722201
 20
9.199999999988218
 11
105.8999999999999
 21
9.199999999991856
 72
     2
 10
127.8251020722219
 20
8.699999999987081
 40
0.5000000000011462
 50
23.13239639948056
 51
90.00000000020191
 73
     1
 72
     2
 10
129.1125413911809
 20
9.249999999988681
 40
0.9000000000000524
 50
203.132396399275
 51
313.3417582272182
 73
     1
 72
     2
 10
130.9999999999988
 20
7.249999999988173
 40
1.850000000000441
 50
46.65824177280538
 51
133.3417582272183
 73
     1
 72
     2
 10
132.887458608817
 20
9.249999999989963
 40
0.9000000000012512
 50
226.6582417727721
 51
259.2612357600313
 73
     1
 72
     2
 10
130.9999999999984
 20
7.24999999998881
 40
2.050000000000345
 50
327.0249334069771
 51
392.9750665930259
 73
     1
 72
     2
 10
132.8874586088167
 20
5.2499999999887
 40
0.9000000000002453
 50
100.7387642399587
 51
133.3417582272165
 73
     1
 72
     2
 10
130.9999999999987
 20
7.249999999989308
 40
1.850000000000401
 50
226.6582417728066
 51
313.3417582272202
 73
     1
 72
     2
 10
129.1125413911812
 20
5.249999999988389
 40
0.9000000000001477
 50
46.65824177276561
 51
179.999999999974
 73
     1
 72
     1
 10
128.2125413911813
 20
4.999999999988741
 11
128.212541391181
 21
5.249999999988798
 72
     2
 10
127.9625413911813
 20
4.999999999988769
 40
0.2499999999999716
 50
270.0000000000196
 51
359.9999999999935
 73
     1
 72
     1
 10
127.2499999999987
 20
4.749999999988741
 11
127.9625413911814
 21
4.749999999988798
 72
     2
 10
127.2499999999986
 20
4.499999999988826
 40
0.2499999999999147
 50
89.99999999999349
 51
180.0000000000065
 73
     1
 72
     1
 10
126.9999999999987
 20
3.499999999988741
 11
126.9999999999987
 21
4.499999999988798
 72
     2
 10
127.2499999999986
 20
3.499999999988769
 40
0.2499999999999716
 50
180.0000000000065
 51
270.0000000000196
 73
     1
 72
     1
 10
134.7499999999987
 20
3.249999999988514
 11
127.2499999999987
 21
3.249999999988798
 72
     2
 10
134.7499999999984
 20
3.499999999988855
 40
0.2500000000003411
 50
270.0000000000652
 51
359.999999999987
 73
     1
 72
     1
 10
134.9999999999986
 20
4.499999999988741
 11
134.9999999999987
 21
3.499999999988798
 72
     2
 10
134.7499999999986
 20
4.499999999988769
 40
0.2500000000000284
 50
359.9999999999935
 51
449.9999999999674
 73
     1
 72
     1
 10
134.6643553321142
 20
4.749999999988741
 11
134.7499999999987
 21
4.749999999988798
 72
     2
 10
134.6643553321136
 20
4.999999999988923
 40
0.250000000000187
 50
148.4491004460425
 51
270.0000000001303
 73
     1
 72
     2
 10
130.9999999999976
 20
7.249999999990074
 40
4.050000000001252
 50
328.4491004460206
 51
378.5831953638244
 73
     1
 72
     2
 10
135.3127717305704
 20
8.699999999990023
 40
0.5000000000018332
 50
90.00000000014981
 51
198.5831953639837
 73
     1
 72
     1
 10
156.1
 20
9.199999999991856
 11
135.3127717305691
 21
9.199999999991856
 72
     1
 10
156.1
 20
1.4999999999992
 11
156.1
 21
9.199999999991856
 72
     1
 10
154.0
 20
1.4999999999992
 11
156.1
 21
1.4999999999992
 72
     1
 10
154.0
 20
2.2499999999992
 11
154.0
 21
1.4999999999992
 72
     2
 10
153.75
 20
2.2499999999992
 40
0.25
 50
0.0
 51
90.0
 73
     1
 72
     1
 10
152.75
 20
2.4999999999992
 11
153.75
 21
2.4999999999992
 72
     2
 10
152.75
 20
2.2499999999992
 40
0.2500000000000003
 50
90.0
 51
194.9999999999944
 73
     1
 72
     1
 10
152.9947672187127
 20
0.3705904774479869
 11
152.5085185434277
 21
2.185295238723593
 72
     2
 10
153.4777301318572
 20
0.4999999999991833
 40
0.4999999999999826
 50
194.9999999999925
 51
270.0
 73
     1
 72
     1
 10
157.8000000000002
 20
-0.0000000000007994
 11
153.4777301318572
 21
-0.0000000000007994
 72
     2
 10
157.8000000000002
 20
0.1999999999991324
 40
0.1999999999999318
 50
269.9999999999838
 51
359.9999999999675
 73
     1
 72
     1
 10
158.0
 20
43.99999999999919
 11
158.0000000000002
 21
0.1999999999990223
 72
     2
 10
157.0
 20
43.9999999999992
 40
0.9999999999999857
 50
359.9999999999992
 51
449.9999999999984
 73
     1
 72
     1
 10
101.9499999999998
 20
44.9999999999992
 11
157.0000000000001
 21
44.99999999999919
 72
     2
 10
101.9499999999999
 20
44.74999999999922
 40
0.2499999999999858
 50
90.00000000000325
 51
180.0000000000032
 73
     1
 72
     1
 10
101.6999999999999
 20
42.9999999999992
 11
101.6999999999999
 21
44.7499999999992
 72
     1
 10
100.25
 20
42.9999999999992
 11
101.6999999999999
 21
42.9999999999992
 72
     2
 10
100.2500000000001
 20
42.74999999999922
 40
0.2499999999999858
 50
90.00000000000325
 51
180.0000000000032
 73
     1
 72
     1
 10
100.0
 20
41.2499999999992
 11
100.0000000000001
 21
42.7499999999992
 72
     2
 10
100.25
 20
41.24999999999921
 40
0.2500000000000142
 50
180.0000000000032
 51
270.0000000000033
 73
     1
 72
     1
 10
100.75
 20
40.9999999999992
 11
100.25
 21
40.9999999999992
 72
     2
 10
100.75
 20
41.24999999999921
 40
0.2500000000000142
 50
269.9999999999968
 51
359.9999999999968
 73
     1
 72
     1
 10
101.0
 20
41.9999999999992
 11
101.0
 21
41.2499999999992
 72
     1
 10
103.0
 20
41.9999999999992
 11
101.0
 21
41.9999999999992
 72
     1
 10
103.0
 20
41.2499999999992
 11
103.0
 21
41.9999999999992
 72
     2
 10
103.25
 20
41.24999999999921
 40
0.2500000000000142
 50
180.0000000000032
 51
270.0000000000033
 73
     1
 72
     1
 10
104.0
 20
40.9999999999992
 11
103.25
 21
40.9999999999992
 72
     1
 10
104.0
 20
36.89999999999975
 11
104.0
 21
40.9999999999992
 72
     1
 10
103.0
 20
36.89999999999975
 11
104.0
 21
36.89999999999975
 72
     2
 10
102.9999999999997
 20
36.49999999999943
 40
0.4000000000003184
 50
89.99999999996132
 51
270.0000000000509
 73
     1
 72
     1
 10
104.0
 20
36.09999999999957
 11
103.0000000000001
 21
36.09999999999911
 72
     1
 10
104.0
 20
31.9999999999992
 11
104.0
 21
36.09999999999957
 72
     1
 10
103.25
 20
31.9999999999992
 11
104.0
 21
31.9999999999992
 72
     2
 10
103.25
 20
31.74999999999922
 40
0.2499999999999858
 50
90.00000000000325
 51
180.0000000000032
 73
     1
 72
     1
 10
103.0
 20
30.9999999999992
 11
103.0
 21
31.7499999999992
 72
     1
 10
101.0
 20
30.9999999999992
 11
103.0
 21
30.9999999999992
 72
     1
 10
101.0
 20
31.7499999999992
 11
101.0
 21
30.9999999999992
 72
     2
 10
100.75
 20
31.74999999999922
 40
0.2499999999999858
 50
359.9999999999968
 51
449.9999999999968
 73
     1
 72
     1
 10
100.25
 20
31.9999999999992
 11
100.75
 21
31.9999999999992
 72
     2
 10
100.25
 20
31.74999999999922
 40
0.2499999999999858
 50
90.00000000000325
 51
180.0000000000032
 73
     1
 72
     1
 10
100.0
 20
30.2499999999992
 11
100.0
 21
31.7499999999992
 72
     2
 10
100.25
 20
30.24999999999922
 40
0.2500000000000142
 50
180.0000000000032
 51
270.0000000000033
 73
     1
 72
     1
 10
104.0
 20
29.9999999999992
 11
100.25
 21
29.9999999999992
 72
     1
 10
104.0
 20
24.9999999999992
 11
104.0
 21
29.9999999999992
 72
     1
 10
79.50000000002365
 20
24.99999999999922
 11
104.0
 21
24.9999999999992
 72
     1
 10
79.00000000002364
 20
24.49999999999922
 11
79.50000000002365
 21
24.99999999999922
 72
     1
 10
78.50000000002364
 20
24.99999999999922
 11
79.00000000002364
 21
24.49999999999922
 72
     1
 10
63.19999999999982
 20
24.99999999999939
 11
78.50000000002364
 21
24.99999999999922
 72
     1
 10
63.19999999999982
 20
31.79999999999951
 11
63.19999999999982
 21
24.99999999999939
 72
     2
 10
63.69999999999981
 20
31.79999999999941
 40
0.4999999999999929
 50
89.99999999999104
 51
179.9999999999882
 73
     1
 72
     1
 10
67.89999999999963
 20
32.2999999999994
 11
63.69999999999989
 21
32.2999999999994
 72
     1
 10
67.89999999999963
 20
30.24999999999927
 11
67.89999999999963
 21
32.2999999999994
 72
     2
 10
68.14999999999961
 20
30.24999999999931
 40
0.2499999999999787
 50
180.0000000000081
 51
270.0000000000098
 73
     1
 72
     1
 10
69.14999999999963
 20
29.99999999999927
 11
68.14999999999965
 21
29.99999999999933
 72
     2
 10
69.1499999999996
 20
30.24999999999931
 40
0.2500000000000426
 50
270.0000000000065
 51
360.0000000000049
 73
     1
 72
     1
 10
69.39999999999966
 20
33.84999999999958
 11
69.39999999999965
 21
30.24999999999933
 72
     2
 10
69.14999999999963
 20
33.84999999999962
 40
0.2500000000000213
 50
359.9999999999919
 51
449.9999999999902
 73
     1
 72
     1
 10
63.69999999999982
 20
34.09999999999964
 11
69.14999999999968
 21
34.09999999999964
 72
     2
 10
63.69999999999983
 20
34.59999999999958
 40
0.4999999999999361
 50
179.9999999999992
 51
269.9999999999992
 73
     1
 72
     1
 10
63.19999999999987
 20
42.99999999999927
 11
63.19999999999989
 21
34.59999999999958
 72
     1
 10
65.89999999999969
 20
42.99999999999921
 11
63.19999999999987
 21
42.99999999999927
 72
     1
 10
65.89999999999964
 20
41.44999999999903
 11
65.89999999999969
 21
42.99999999999921
 72
     2
 10
66.14999999999961
 20
41.44999999999907
 40
0.2499999999999787
 50
180.0000000000081
 51
270.0000000000098
 73
     1
 72
     1
 10
69.14999999999963
 20
41.19999999999904
 11
66.14999999999965
 21
41.19999999999909
 72
     2
 10
69.1499999999996
 20
41.44999999999907
 40
0.2500000000000426
 50
270.0000000000065
 51
360.0000000000049
 73
     1
 72
     1
 10
69.39999999999969
 20
42.74999999999922
 11
69.39999999999965
 21
41.44999999999909
 72
     2
 10
69.14999999999967
 20
42.74999999999925
 40
0.2500000000000213
 50
359.9999999999919
 51
449.9999999999902
 73
     1
 72
     1
 10
67.69999999999988
 20
42.99999999999921
 11
69.1499999999997
 21
42.99999999999927
 72
     1
 10
67.69999999999988
 20
44.74999999999922
 11
67.69999999999988
 21
42.99999999999921
 72
     2
 10
67.44999999999985
 20
44.74999999999925
 40
0.2500000000000213
 50
359.9999999999919
 51
449.9999999999902
 73
     1
 72
     1
 10
55.75000000000006
 20
44.99999999999933
 11
67.44999999999989
 21
44.99999999999928
 72
     2
 10
55.75000000000013
 20
44.74999999999929
 40
0.2500000000000426
 50
90.00000000001628
 51
180.0000000000162
 73
     1
 72
     1
 10
55.50000000000006
 20
42.24999999999927
 11
55.50000000000008
 21
44.74999999999922
 72
     2
 10
55.7000000000009
 20
42.24999999999892
 40
0.2000000000008487
 50
179.9999999998982
 51
224.9999999999036
 73
     1
 72
     1
 10
57.1585786437621
 20
40.5085786437619
 11
55.55857864376275
 21
42.10857864376125
 72
     2
 10
57.29999999999975
 20
40.64999999999957
 40
0.2000000000005002
 50
225.0000000000029
 51
360.0000000000529
 73
     1
 72
     1
 10
57.5
 20
41.54999999999946
 11
57.50000000000025
 21
40.64999999999976
 72
     1
 10
61.0
 20
41.54999999999946
 11
57.5
 21
41.54999999999946
 72
     2
 10
61.00000000000001
 20
41.04999999999939
 40
0.500000000000064
 50
0.0000000000008142
 51
90.00000000000081
 73
     1
 72
     1
 10
61.49999999999998
 20
38.44999999999949
 11
61.50000000000007
 21
41.0499999999994
 72
     2
 10
60.99999999999999
 20
38.44999999999943
 40
0.4999999999999929
 50
270.0000000000073
 51
360.0000000000073
 73
     1
 72
     1
 10
56.1999999999998
 20
37.94999999999955
 11
61.00000000000005
 21
37.94999999999943
 72
     2
 10
56.19999999999984
 20
37.24999999999956
 40
0.6999999999999887
 50
90.00000000000289
 51
270.0000000000029
 73
     1
 72
     1
 10
58.1999999999998
 20
36.54999999999986
 11
56.19999999999987
 21
36.54999999999957
 72
     1
 10
58.1999999999998
 20
35.80000000000076
 11
58.1999999999998
 21
36.54999999999986
 72
     2
 10
58.44999999999981
 20
35.80000000000077
 40
0.2500000000000071
 50
180.0000000000016
 51
270.0000000000017
 73
     1
 72
     1
 10
58.9499999999998
 20
35.55000000000076
 11
58.44999999999981
 21
35.55000000000076
 72
     2
 10
58.94999999999981
 20
35.80000000000077
 40
0.2500000000000071
 50
269.9999999999984
 51
359.9999999999984
 73
     1
 72
     1
 10
59.1999999999998
 20
36.55000000000077
 11
59.19999999999982
 21
35.80000000000076
 72
     1
 10
61.1999999999998
 20
36.55000000000077
 11
59.1999999999998
 21
36.55000000000077
 72
     1
 10
61.1999999999998
 20
31.45000000000136
 11
61.1999999999998
 21
36.55000000000077
 72
     2
 10
61.19999999999984
 20
31.05000000000105
 40
0.4000000000003184
 50
90.00000000000509
 51
270.0000000000051
 73
     1
 97
        1
330
125F
 92
        0
 93
        2
 72
     1
 10
59.1999999999998
 20
25.55000000000082
 11
61.1999999999998
 21
25.55000000000076
 72
     1
 10
61.1999999999998
 20
25.55000000000076
 11
59.1999999999998
 21
25.55000000000082
 97
        1
330
125F
 75
     0
 76
     1
 98
        1
 10
0.0
 20
0.0
  0
ENDBLK
  5
42F
330
42D
100
AcDbEntity
  8
0
100
AcDbBlockEnd
  0
BLOCK
  5
436
330
435
100
AcDbEntity
  8
0
100
AcDbBlockBegin
  2
08732
 70
     0
 10
0.0
 20
0.0
 30
0.0
  3
08732
  1
08732.dwg
  0
LWPOLYLINE
  5
1266
102
{ACAD_REACTORS
330
1267
102
}
330
435
100
AcDbEntity
  8
APL Joinery
  6
Continuous
100
AcDbPolyline
 90
       65
 70
     1
 43
0.0
 10
-24.74025825678302
 20
6.862514885252251
 42
-0.3589993750619431
 10
-20.52243059808713
 20
6.254806779048168
 42
-0.9999999999959355
 10
-21.63178936750555
 20
5.24519144608711
 42
0.4390496178058713
 10
-24.35565157594857
 20
5.258849781891957
 42
-0.1432248589152364
 10
-24.78955149520332
 20
4.99999927026046
 42
0.2638204180173052
 10
-24.77678312787892
 20
2.97748443699971
 42
-0.1432248589118023
 10
-24.33964961832292
 20
2.724132858979276
 42
0.4039324889490524
 10
-21.77210852495607
 20
2.616241214345559
 42
-0.5246917004122544
 10
-20.57339162759629
 20
2.322102819765226
 42
0.3112641035202479
 10
-20.10610918926477
 20
1.999999202041408
 10
-19.93955153330671
 20
1.999999202041408
 42
0.4142135623730951
 10
-19.68955153330671
 20
2.249999202041408
 10
-19.68955153330662
 20
2.999999202041408
 42
-0.9999999999999998
 10
-18.88955153330653
 20
2.999999202041408
 10
-18.88955153330653
 20
2.249999202041408
 42
0.4142135623730951
 10
-18.63955153330653
 20
1.999999202041408
 10
-14.78955153330662
 20
1.999999202041408
 10
-14.78955153330662
 20
2.999999202041408
 10
-13.78955153330662
 20
2.999999202041408
 10
-13.78955153330662
 20
4.999999202041408
 10
-14.53955153330662
 20
4.999999202041408
 42
-0.4142135623730951
 10
-14.78955153330662
 20
5.249999202041408
 10
-14.78955153330662
 20
5.749999202041408
 42
-0.4142135623730951
 10
-14.53955153330662
 20
5.999999202041408
 10
-13.03955153330662
 20
5.999999202041408
 42
-0.4142135623730951
 10
-12.78955153330662
 20
5.749999202041408
 10
-12.78955153330662
 20
2.499999202041408
 42
0.4142135623730951
 10
-12.28955153330662
 20
1.999999202041408
 10
-2.499998516523191
 20
1.999999202041408
 42
0.4142135623730951
 10
-1.999998516523191
 20
2.499999202041408
 10
-1.999998516522737
 20
157.7499992020432
 42
-0.4142135623730951
 10
-1.749998516522737
 20
157.9999992020432
 10
-0.2499985165227371
 20
157.9999992020423
 42
-0.4142135623730951
 10
0.0000014834772628
 20
157.7499992020423
 10
0.0000014834772628
 20
152.4999992020423
 42
0.4142135623730951
 10
0.2500014834772628
 20
152.2499992020423
 10
3.000001483477262
 20
152.2499992020423
 10
3.000001483477261
 20
152.7499992020417
 42
-0.5338017280246225
 10
3.345162192326188
 20
152.9811797364545
 10
5.121469964118604
 20
152.2499992020423
 10
7.995549328163463
 20
152.2499992020423
 42
-0.9999999999999998
 10
7.995549328163463
 20
151.2499992020423
 10
0.2500014832540761
 20
151.2499992020423
 42
0.414213561065705
 10
0.0000014832540818
 20
150.9999992031582
 10
0.0000011933346933
 20
86.04999932048423
 10
0.0000011933346933
 20
71.94999932048432
 10
0.0000014832536218
 20
6.999999200925477
 42
0.4142135610657001
 10
0.2500014832536216
 20
6.749999202041408
 10
7.995549328163008
 20
6.749999202041408
 42
-0.9999999999999998
 10
7.995549328163008
 20
5.749999202041408
 10
5.121469964118149
 20
5.749999202041409
 10
3.345162192325734
 20
5.018818667629208
 42
-0.5338017280246305
 10
3.000001483476808
 20
5.249999202041976
 10
3.000001483476808
 20
5.749999202041408
 10
0.2500014834768081
 20
5.749999202041408
 42
0.4142135623730951
 10
0.0000014834768081
 20
5.499999202041408
 10
0.0000014834768081
 20
0.2499992020414083
 42
-0.4142135623730951
 10
-0.249998516523192
 20
-0.0000007979585916
 10
-26.74999851652319
 20
-0.0000007979585916
 42
-0.4142135623730951
 10
-26.99999851652319
 20
0.2499992020414084
 10
-26.99999851652319
 20
7.749999202041408
 42
-0.4142135623730951
 10
-26.74999851652319
 20
7.999999202041408
 10
-25.74999851652319
 20
7.999999202041408
 42
-0.4142135623730951
 10
-25.49999851652319
 20
7.749999202041408
 10
-25.49999851652319
 20
7.289756031995239
 42
0.5849231395621868
  0
HATCH
  5
1267
330
435
100
AcDbEntity
  8
APL Hatch
100
AcDbHatch
 10
0.0
 20
0.0
 30
0.0
210
0.0
220
0.0
230
1.0
  2
SOLID
 70
     1
 71
     1
 91
        1
 92
        1
 93
       65
 72
     2
 10
-22.9999985165674
 20
3.999999202069054
 40
3.349999999982848
 50
238.7025877804153
 51
317.6950129596177
 73
     0
 72
     2
 10
-21.07710998279839
 20
5.749999112569893
 40
0.749999999972605
 50
317.6950129589703
 51
497.6950129585046
 73
     0
 72
     2
 10
-22.99999851649225
 20
3.999999202071493
 40
1.849999999980424
 50
42.30498704117906
 51
137.1204182266336
 73
     1
 72
     2
 10
-25.01515846976635
 20
5.871263577506084
 40
0.9000000000287112
 50
42.87958177334706
 51
75.4825757614189
 73
     0
 72
     2
 10
-22.99999851648309
 20
3.999999202057039
 40
2.050000000012996
 50
150.8035934069147
 51
209.9198265928864
 73
     1
 72
     2
 10
-24.99137177595153
 20
2.10344112452391
 40
0.8999999999807208
 50
283.7940042401371
 51
316.3969982274377
 73
     0
 72
     2
 10
-22.99999851652493
 20
3.999999202042569
 40
1.849999999975748
 50
223.6030017727996
 51
311.5845329588685
 73
     1
 72
     2
 10
-21.27431528510847
 20
2.055258246346052
 40
0.7500000000156729
 50
228.415467040574
 51
339.1579610942543
 73
     0
 72
     2
 10
-20.10610918926477
 20
2.499999202041409
 40
0.5000000000000006
 50
200.8420389058008
 51
270.0
 73
     1
 72
     1
 10
-20.10610918926477
 20
1.999999202041408
 11
-19.93955153330671
 21
1.999999202041408
 72
     2
 10
-19.93955153330671
 20
2.249999202041408
 40
0.25
 50
270.0
 51
360.0
 73
     1
 72
     1
 10
-19.68955153330671
 20
2.249999202041408
 11
-19.68955153330662
 21
2.999999202041408
 72
     2
 10
-19.28955153330657
 20
2.999999202041408
 40
0.4000000000000448
 50
180.0
 51
360.0
 73
     0
 72
     1
 10
-18.88955153330653
 20
2.999999202041408
 11
-18.88955153330653
 21
2.249999202041408
 72
     2
 10
-18.63955153330653
 20
2.249999202041408
 40
0.25
 50
180.0
 51
270.0
 73
     1
 72
     1
 10
-18.63955153330653
 20
1.999999202041408
 11
-14.78955153330662
 21
1.999999202041408
 72
     1
 10
-14.78955153330662
 20
1.999999202041408
 11
-14.78955153330662
 21
2.999999202041408
 72
     1
 10
-14.78955153330662
 20
2.999999202041408
 11
-13.78955153330662
 21
2.999999202041408
 72
     1
 10
-13.78955153330662
 20
2.999999202041408
 11
-13.78955153330662
 21
4.999999202041408
 72
     1
 10
-13.78955153330662
 20
4.999999202041408
 11
-14.53955153330662
 21
4.999999202041408
 72
     2
 10
-14.53955153330662
 20
5.249999202041408
 40
0.25
 50
90.0
 51
180.0
 73
     0
 72
     1
 10
-14.78955153330662
 20
5.249999202041408
 11
-14.78955153330662
 21
5.749999202041408
 72
     2
 10
-14.53955153330662
 20
5.749999202041408
 40
0.25
 50
180.0
 51
270.0
 73
     0
 72
     1
 10
-14.53955153330662
 20
5.999999202041408
 11
-13.03955153330662
 21
5.999999202041408
 72
     2
 10
-13.03955153330662
 20
5.749999202041408
 40
0.25
 50
270.0
 51
360.0
 73
     0
 72
     1
 10
-12.78955153330662
 20
5.749999202041408
 11
-12.78955153330662
 21
2.499999202041408
 72
     2
 10
-12.28955153330662
 20
2.499999202041408
 40
0.5
 50
180.0
 51
270.0
 73
     1
 72
     1
 10
-12.28955153330662
 20
1.999999202041408
 11
-2.499998516523191
 21
1.999999202041408
 72
     2
 10
-2.499998516523191
 20
2.499999202041408
 40
0.5
 50
270.0
 51
360.0
 73
     1
 72
     1
 10
-1.999998516523191
 20
2.499999202041408
 11
-1.999998516522737
 21
157.7499992020432
 72
     2
 10
-1.749998516522737
 20
157.7499992020432
 40
0.25
 50
180.0
 51
270.0
 73
     0
 72
     1
 10
-1.749998516522737
 20
157.9999992020432
 11
-0.2499985165227372
 21
157.9999992020423
 72
     2
 10
-0.2499985165227372
 20
157.7499992020423
 40
0.25
 50
270.0
 51
360.0
 73
     0
 72
     1
 10
0.0000014834772628
 20
157.7499992020423
 11
0.0000014834772628
 21
152.4999992020423
 72
     2
 10
0.2500014834772628
 20
152.4999992020423
 40
0.25
 50
180.0
 51
270.0
 73
     1
 72
     1
 10
0.2500014834772628
 20
152.2499992020423
 11
3.000001483477262
 21
152.2499992020423
 72
     1
 10
3.000001483477262
 20
152.2499992020423
 11
3.000001483477261
 21
152.7499992020417
 72
     2
 10
3.250001483477269
 20
152.7499992020417
 40
0.2500000000000075
 50
180.0
 51
292.3735070421778
 73
     0
 72
     1
 10
3.345162192326188
 20
152.9811797364545
 11
5.121469964118604
 21
152.2499992020423
 72
     1
 10
5.121469964118604
 20
152.2499992020423
 11
7.995549328163463
 21
152.2499992020423
 72
     2
 10
7.995549328163463
 20
151.7499992020423
 40
0.5
 50
270.0
 51
450.0
 73
     0
 72
     1
 10
7.995549328163463
 20
151.2499992020423
 11
0.250001483254076
 21
151.2499992020423
 72
     2
 10
0.2500014832540818
 20
150.9999992020423
 40
0.25
 50
90.00000000000129
 51
179.9999997442496
 73
     1
 72
     1
 10
0.0000014832540818
 20
150.9999992031582
 11
0.0000011933346933
 21
86.04999932048423
 72
     1
 10
0.0000011933346933
 20
86.04999932048423
 11
0.0000011933346933
 21
71.94999932048432
 72
     1
 10
0.0000011933346933
 20
71.94999932048432
 11
0.0000014832536218
 21
6.999999200925472
 72
     2
 10
0.2500014832536217
 20
6.999999202041408
 40
0.25
 50
180.0000002557526
 51
270.0
 73
     1
 72
     1
 10
0.2500014832536216
 20
6.749999202041408
 11
7.995549328163008
 21
6.749999202041408
 72
     2
 10
7.995549328163008
 20
6.249999202041408
 40
0.5
 50
270.0
 51
450.0
 73
     0
 72
     1
 10
7.995549328163008
 20
5.749999202041408
 11
5.121469964118149
 21
5.749999202041409
 72
     1
 10
5.121469964118149
 20
5.749999202041409
 11
3.345162192325734
 21
5.018818667629208
 72
     2
 10
3.250001483476811
 20
5.249999202041975
 40
0.2500000000000035
 50
67.62649295782103
 51
180.0000000000004
 73
     0
 72
     1
 10
3.000001483476808
 20
5.249999202041976
 11
3.000001483476808
 21
5.749999202041408
 72
     1
 10
3.000001483476808
 20
5.749999202041408
 11
0.2500014834768081
 21
5.749999202041408
 72
     2
 10
0.2500014834768081
 20
5.499999202041408
 40
0.25
 50
90.0
 51
180.0
 73
     1
 72
     1
 10
0.0000014834768081
 20
5.499999202041408
 11
0.0000014834768081
 21
0.2499992020414083
 72
     2
 10
-0.249998516523192
 20
0.2499992020414084
 40
0.25
 50
360.0
 51
450.0
 73
     0
 72
     1
 10
-0.249998516523192
 20
-0.0000007979585916
 11
-26.74999851652319
 21
-0.0000007979585916
 72
     2
 10
-26.74999851652319
 20
0.2499992020414083
 40
0.25
 50
90.0
 51
180.0
 73
     0
 72
     1
 10
-26.99999851652319
 20
0.2499992020414084
 11
-26.99999851652319
 21
7.749999202041408
 72
     2
 10
-26.74999851652319
 20
7.749999202041408
 40
0.25
 50
180.0
 51
270.0
 73
     0
 72
     1
 10
-26.74999851652319
 20
7.999999202041408
 11
-25.74999851652319
 21
7.999999202041408
 72
     2
 10
-25.74999851652319
 20
7.749999202041408
 40
0.25
 50
270.0
 51
360.0
 73
     0
 72
     1
 10
-25.49999851652319
 20
7.749999202041408
 11
-25.49999851652319
 21
7.289756031995239
 72
     2
 10
-24.99999851652308
 20
7.289756031995242
 40
0.5000000000001066
 50
180.0000000000004
 51
301.2974122202568
 73
     1
 97
        1
330
1266
 75
     0
 76
     1
 98
        0
  0
ENDBLK
  5
437
330
435
100
AcDbEntity
  8
0
100
AcDbBlockEnd
  0
BLOCK
  5
561
330
557
100
AcDbEntity
  8
0
100
AcDbBlockBegin
  2
vantage a4 SM attributes (4)
 70
     2
 10
0.0
 20
0.0
 30
0.0
  3
vantage a4 SM attributes (4)
  1

  0
ATTDEF
  5
558
330
557
100
AcDbEntity
  8
APL Border
100
AcDbText
 10
41.78979785863008
 20
275.28125
 30
0.0
 40
3.5
  1
DRAWING TITLE LINE 1
  7
Arial-Bold
100
AcDbAttributeDefinition
  3
Drawing Title Line 1
  2
DRAWINGTITLE_1
 70
     0
  0
ATTDEF
  5
559
330
557
100
AcDbEntity
  8
APL Border
100
AcDbText
 10
41.78979785863008
 20
269.28125
 30
0.0
 40
3.5
  1
DRAWING TITLE LINE 2
  7
Arial-Bold
100
AcDbAttributeDefinition
  3
Drawing Title Line 2
  2
DRAWINGTITLE_2
 70
     0
  0
ATTDEF
  5
55A
330
557
100
AcDbEntity
  8
APL Border
100
AcDbText
 10
41.78979785863008
 20
263.28125
 30
0.0
 40
3.5
  1
DRAWING TITLE LINE 3
  7
Arial-Bold
100
AcDbAttributeDefinition
  3
Drawing Title Line 3
  2
DRAWINGTITLE_3
 70
     0
  0
ATTDEF
  5
55B
330
557
100
AcDbEntity
  8
APL Border
100
AcDbText
 10
41.78979785863008
 20
257.28125
 30
0.0
 40
3.0
  1
DRAWING TITLE LINE 4
  7
Arial-Regular
100
AcDbAttributeDefinition
  3
Drawing Title Line 4
  2
DRAWINGTITLE_4
 70
     0
  0
ATTDEF
  5
55C
330
557
100
AcDbEntity
  8
APL Border
100
AcDbText
 10
165.845
 20
273.69
 30
0.0
 40
2.5
  1
AW123-456
  7
Arial-Regular
100
AcDbAttributeDefinition
  3
CAD Reference
  2
AW123-456
 70
     0
  0
ATTDEF
  5
55D
330
557
100
AcDbEntity
  8
APL Border
100
AcDbText
 10
147.5475920873124
 20
257.1899999999999
 30
0.0
 40
2.5
  1
24.05.02
  7
Arial-Regular
 72
     1
 11
154.345
 21
257.1899999999999
 31
0.0
100
AcDbAttributeDefinition
  3
Date
  2
24.05.02
 70
     0
  0
ATTDEF
  5
55E
330
557
100
AcDbEntity
  8
APL Border
100
AcDbText
 10
175.4174761255116
 20
257.1899999999999
 30
0.0
 40
2.5
  1
1:2
  7
Arial-Regular
 72
     1
 11
177.845
 21
257.1899999999999
 31
0.0
100
AcDbAttributeDefinition
  3
Scale
  2
1:2
 70
     0
  0
ATTDEF
  5
55F
330
557
100
AcDbEntity
  8
APL Border
100
AcDbText
 10
11.59500000000001
 20
1.189999999999997
 30
0.0
 40
3.75
  1
1.2.34
  7
Arial-Bold
100
AcDbAttributeDefinition
  3
Page Number (Left)
  2
1.2.34
 70
     0
  0
ATTDEF
  5
560
330
557
100
AcDbEntity
  8
APL Border
100
AcDbText
 10
175.0298567530696
 20
1.189999999999997
 30
0.0
 40
3.75
  1
1.2.34
  7
Arial-Bold
 72
     2
 11
189.595
 21
1.189999999999997
 31
0.0
100
AcDbAttributeDefinition
  3
Page Number (Right)
  2
1.2.34
 70
     0
  0
ENDBLK
  5
562
330
557
100
AcDbEntity
  8
0
100
AcDbBlockEnd
  0
BLOCK
  5
6F7
330
6F6
100
AcDbEntity
  8
0
100
AcDbBlockBegin
  2
01009
 70
     0
 10
0.0
 20
0.0
 30
0.0
  3
01009
  1
01009.dwg
  0
LWPOLYLINE
  5
126A
102
{ACAD_REACTORS
330
126B
102
}
330
6F6
100
AcDbEntity
  8
APL Joinery
  6
Continuous
100
AcDbPolyline
 90
       19
 70
     1
 43
0.0
 10
0.9999999999999998
 20
-3.5
 42
-0.4142135623730951
 10
0.0
 20
-2.5
 10
0.0
 20
-0.9999999999999998
 42
-0.4142135623730951
 10
1.0
 20
0.0
 10
25.25
 20
0.0
 42
-0.4142135623730951
 10
25.5
 20
-0.25
 10
25.5
 20
-1.75
 42
-0.4142135623730951
 10
25.25
 20
-2.0
 10
8.100000000000363
 20
-2.0
 10
8.100000000000363
 20
-2.5
 42
-0.4142135623730951
 10
7.100000000000363
 20
-3.5
 10
6.050000000000181
 20
-3.5
 42
-0.9999999999999998
 10
6.050000000000181
 20
-2.5
 10
6.800000000000181
 20
-2.5
 10
6.800000000000181
 20
-1.0
 10
1.300000000000181
 20
-1.0
 10
1.300000000000181
 20
-2.5
 10
2.050000000000181
 20
-2.5
 42
-0.9999999999999998
 10
2.050000000000181
 20
-3.5
  0
HATCH
  5
126B
330
6F6
100
AcDbEntity
  8
APL Hatch
100
AcDbHatch
 10
0.0
 20
0.0
 30
0.0
210
0.0
220
0.0
230
1.0
  2
SOLID
 70
     1
 71
     1
 91
        1
 92
        1
 93
       19
 72
     2
 10
0.9999999999999998
 20
-2.5
 40
1.0
 50
90.0
 51
180.0
 73
     0
 72
     1
 10
0.0
 20
-2.5
 11
0.0
 21
-1.0
 72
     2
 10
1.0
 20
-1.0
 40
1.0
 50
180.0
 51
270.0
 73
     0
 72
     1
 10
1.0
 20
0.0
 11
25.25
 21
0.0
 72
     2
 10
25.25
 20
-0.25
 40
0.25
 50
270.0
 51
360.0
 73
     0
 72
     1
 10
25.5
 20
-0.25
 11
25.5
 21
-1.75
 72
     2
 10
25.25
 20
-1.75
 40
0.25
 50
360.0
 51
450.0
 73
     0
 72
     1
 10
25.25
 20
-2.0
 11
8.100000000000363
 21
-2.0
 72
     1
 10
8.100000000000363
 20
-2.0
 11
8.100000000000363
 21
-2.5
 72
     2
 10
7.100000000000363
 20
-2.5
 40
1.0
 50
360.0
 51
450.0
 73
     0
 72
     1
 10
7.100000000000363
 20
-3.5
 11
6.050000000000181
 21
-3.5
 72
     2
 10
6.050000000000181
 20
-3.0
 40
0.5
 50
90.0
 51
270.0
 73
     0
 72
     1
 10
6.050000000000181
 20
-2.5
 11
6.800000000000181
 21
-2.5
 72
     1
 10
6.800000000000181
 20
-2.5
 11
6.800000000000181
 21
-1.0
 72
     1
 10
6.800000000000181
 20
-1.0
 11
1.300000000000181
 21
-1.0
 72
     1
 10
1.300000000000181
 20
-1.0
 11
1.300000000000181
 21
-2.5
 72
     1
 10
1.300000000000181
 20
-2.5
 11
2.050000000000181
 21
-2.5
 72
     2
 10
2.050000000000181
 20
-3.0
 40
0.5
 50
270.0
 51
450.0
 73
     0
 72
     1
 10
2.050000000000181
 20
-3.5
 11
0.9999999999999998
 21
-3.5
 97
        1
330
126A
 75
     0
 76
     1
 98
        1
 10
0.0
 20
0.0
  0
ENDBLK
  5
6F8
330
6F6
100
AcDbEntity
  8
0
100
AcDbBlockEnd
  0
BLOCK
  5
70A
330
6FC
100
AcDbEntity
  8
0
100
AcDbBlockBegin
  2
9010357
 70
     0
 10
0.0
 20
0.0
 30
0.0
  3
9010357
  1

  0
LINE
  5
6FD
330
6FC
100
AcDbEntity
  8
APL Joinery
 62
     8
100
AcDbLine
 10
-1.398990010960687
 20
-0.75
 30
0.0
 11
-2.524376619171377
 21
-6.749999999999971
 31
0.0
  0
LINE
  5
6FE
330
6FC
100
AcDbEntity
  8
APL Joinery
 62
     8
100
AcDbLine
 10
-1.610000000000127
 20
-1.875
 30
0.0
 11
-1.610000000000141
 21
-6.75
 31
0.0
  0
LINE
  5
6FF
330
6FC
100
AcDbEntity
  8
APL Joinery
 62
     8
100
AcDbLine
 10
-0.9660000000001218
 20
-0.75
 30
0.0
 11
-0.9660000000001076
 21
-6.749999999999971
 31
0.0
  0
LINE
  5
700
330
6FC
100
AcDbEntity
  8
APL Joinery
 62
     8
100
AcDbLine
 10
-0.3220000000001164
 20
-0.75
 30
0.0
 11
-0.3220000000001022
 21
-6.749999999999971
 31
0.0
  0
LINE
  5
701
330
6FC
100
AcDbEntity
  8
APL Joinery
 62
     8
100
AcDbLine
 10
0.3220000000000027
 20
-0.75
 30
0.0
 11
0.3220000000000027
 21
-6.749999999999971
 31
0.0
  0
LINE
  5
702
330
6FC
100
AcDbEntity
  8
APL Joinery
 62
     8
100
AcDbLine
 10
0.9660000000000081
 20
-0.75
 30
0.0
 11
0.9660000000000081
 21
-6.749999999999971
 31
0.0
  0
LINE
  5
703
330
6FC
100
AcDbEntity
  8
APL Joinery
 62
     8
100
AcDbLine
 10
1.610000000000013
 20
-1.875
 30
0.0
 11
1.610000000000013
 21
-6.75
 31
0.0
  0
LINE
  5
704
330
6FC
100
AcDbEntity
  8
APL Joinery
 62
     8
100
AcDbLine
 10
2.524376619171349
 20
-6.749999999999971
 30
0.0
 11
1.39899001096046
 21
-0.75
 31
0.0
  0
LINE
  5
705
330
6FC
100
AcDbEntity
  8
APL Joinery
 62
     8
100
AcDbLine
 10
2.450000000000045
 20
-0.25
 30
0.0
 11
-2.450000000000045
 21
-0.25
 31
0.0
  0
LINE
  5
706
330
6FC
100
AcDbEntity
  8
APL Joinery
 62
     8
100
AcDbLine
 10
2.450000000000045
 20
-0.75
 30
0.0
 11
-2.450000000000045
 21
-0.75
 31
0.0
  0
LINE
  5
707
330
6FC
100
AcDbEntity
  8
APL Joinery
 62
     8
100
AcDbLine
 10
2.450000000000045
 20
-0.75
 30
0.0
 11
2.450000000000045
 21
-0.25
 31
0.0
  0
LINE
  5
708
330
6FC
100
AcDbEntity
  8
APL Joinery
 62
     8
100
AcDbLine
 10
-2.450000000000045
 20
-0.25
 30
0.0
 11
-2.450000000000045
 21
-0.75
 31
0.0
  0
LINE
  5
709
330
6FC
100
AcDbEntity
  8
APL Joinery
 62
     8
100
AcDbLine
 10
0.0
 20
-0.75
 30
0.0
 11
0.0
 21
-8.75
 31
0.0
  0
ENDBLK
  5
70B
330
6FC
100
AcDbEntity
  8
0
100
AcDbBlockEnd
  0
BLOCK
  5
713
330
712
100
AcDbEntity
  8
0
100
AcDbBlockBegin
  2
01010
 70
     0
 10
0.0
 20
0.0
 30
0.0
  3
01010
  1
01010.dwg
  0
LWPOLYLINE
  5
126D
102
{ACAD_REACTORS
330
126F
102
}
330
712
100
AcDbEntity
  8
APL Joinery
 62
     2
100
AcDbPolyline
 90
       32
 70
     1
 43
0.0
 10
0.0
 20
19.92419365678984
 10
0.0
 20
20.50457841451885
 42
0.493145426031274
 10
-0.3147047612756069
 20
20.74605987109112
 10
-8.647047612756523
 20
18.51341533297796
 42
0.3394542588633802
 10
-10.50000000000029
 20
16.09860076725522
 10
-10.50000000000024
 20
-4.125128869403564
 42
0.4931454260313087
 10
-9.870590477448962
 20
-4.608091782548111
 10
-8.470590477448924
 20
-4.23296291314452
 42
0.3394542588633759
 10
-8.100000000000195
 20
-3.75
 10
-8.10000000000018
 20
-3.65000000000009
 42
0.4142135623730956
 10
-8.500000000000271
 20
-3.25
 10
-8.60000000000018
 20
-3.25
 10
-8.600000000000195
 20
-0.1500000000000936
 42
-0.4142135623730967
 10
-8.200000000000104
 20
0.25
 10
-5.700000000000089
 20
0.25
 42
-0.4142135623730956
 10
-5.299999999999998
 20
-0.1500000000000909
 10
-5.299999999999998
 20
-3.25
 10
-5.399999999999907
 20
-3.25
 42
0.4142135623730971
 10
-5.799999999999998
 20
-3.650000000000093
 10
-5.799999999999998
 20
-3.75
 42
0.4142135623731013
 10
-5.299999999999991
 20
-4.25
 10
-4.600000000000195
 20
-4.25
 42
0.4142135623730956
 10
-4.10000000000018
 20
-3.75
 10
-4.10000000000018
 20
-0.5
 42
-0.4142135623730961
 10
-3.600000000000182
 20
0.0
 10
-0.5000000000000001
 20
0.0
 42
0.4142135623730956
 10
0.0
 20
0.5
 10
0.0
 20
0.7499999999999715
 42
0.4142135623730956
 10
-0.25
 20
0.9999999999999715
 10
-0.8000000000001818
 20
0.9999999999999715
 10
-0.8000000000001818
 20
19.67419365678984
 10
-0.25
 20
19.67419365678984
 42
0.4142135623730951
  0
LWPOLYLINE
  5
126E
102
{ACAD_REACTORS
330
126F
102
}
330
712
100
AcDbEntity
  8
APL Joinery
 62
     2
100
AcDbPolyline
 90
        8
 70
     1
 43
0.0
 10
-8.258819045102741
 20
17.06452659354428
 10
-2.929409522551399
 20
18.49253757124666
 42
-0.4931454260312649
 10
-2.300000000000197
 20
18.00957465810211
 10
-2.300000000000197
 20
2.550000000000068
 42
-0.4142135623731045
 10
-3.300000000000201
 20
1.550000000000039
 10
-8.000000000000087
 20
1.550000000000039
 42
-0.4142135623731054
 10
-9.000000000000115
 20
2.550000000000046
 10
-9.000000000000229
 20
16.09860076725521
 42
-0.33945425886338
  0
HATCH
  5
126F
330
712
100
AcDbEntity
  8
APL Hatch
100
AcDbHatch
 10
0.0
 20
0.0
 30
0.0
210
0.0
220
0.0
230
1.0
  2
SOLID
 70
     1
 71
     1
 91
        2
 92
        1
 93
       32
 72
     1
 10
0.0
 20
19.92419365678984
 11
0.0
 21
20.50457841451885
 72
     2
 10
-0.2500000000000002
 20
20.50457841451885
 40
0.2500000000000002
 50
0.0
 51
104.9999999999944
 73
     1
 72
     1
 10
-0.3147047612756069
 20
20.74605987109112
 11
-8.647047612756523
 21
18.51341533297796
 72
     2
 10
-8.000000000000239
 20
16.09860076725523
 40
2.500000000000051
 50
104.9999999999992
 51
180.0000000000001
 73
     1
 72
     1
 10
-10.50000000000029
 20
16.09860076725522
 11
-10.50000000000024
 21
-4.125128869403564
 72
     2
 10
-10.00000000000023
 20
-4.125128869403567
 40
0.5000000000000107
 50
179.9999999999997
 51
285.0000000000006
 73
     1
 72
     1
 10
-9.870590477448962
 20
-4.608091782548111
 11
-8.470590477448924
 21
-4.23296291314452
 72
     2
 10
-8.60000000000018
 20
-3.75
 40
0.4999999999999858
 50
285.0
 51
360.0
 73
     1
 72
     1
 10
-8.100000000000195
 20
-3.75
 11
-8.10000000000018
 21
-3.65000000000009
 72
     2
 10
-8.500000000000271
 20
-3.65000000000009
 40
0.400000000000091
 50
360.0
 51
450.0
 73
     1
 72
     1
 10
-8.500000000000271
 20
-3.25
 11
-8.60000000000018
 21
-3.25
 72
     1
 10
-8.60000000000018
 20
-3.25
 11
-8.600000000000195
 21
-0.1500000000000936
 72
     2
 10
-8.200000000000104
 20
-0.1500000000000912
 40
0.400000000000091
 50
179.9999999999996
 51
270.0
 73
     0
 72
     1
 10
-8.200000000000104
 20
0.25
 11
-5.700000000000089
 21
0.25
 72
     2
 10
-5.700000000000089
 20
-0.1500000000000906
 40
0.4000000000000906
 50
270.0
 51
360.0
 73
     0
 72
     1
 10
-5.299999999999998
 20
-0.1500000000000909
 11
-5.299999999999998
 21
-3.25
 72
     1
 10
-5.299999999999998
 20
-3.25
 11
-5.399999999999907
 21
-3.25
 72
     2
 10
-5.399999999999907
 20
-3.65000000000009
 40
0.400000000000091
 50
90.0
 51
180.0000000000004
 73
     1
 72
     1
 10
-5.799999999999998
 20
-3.650000000000093
 11
-5.799999999999998
 21
-3.75
 72
     2
 10
-5.3
 20
-3.750000000000001
 40
0.4999999999999983
 50
179.9999999999998
 51
270.000000000001
 73
     1
 72
     1
 10
-5.299999999999991
 20
-4.25
 11
-4.600000000000195
 21
-4.25
 72
     2
 10
-4.600000000000187
 20
-3.749999999999993
 40
0.5000000000000067
 50
269.9999999999992
 51
359.9999999999992
 73
     1
 72
     1
 10
-4.10000000000018
 20
-3.75
 11
-4.10000000000018
 21
-0.5
 72
     2
 10
-3.600000000000182
 20
-0.4999999999999983
 40
0.4999999999999983
 50
179.9999999999998
 51
270.0
 73
     0
 72
     1
 10
-3.600000000000182
 20
0.0
 11
-0.5
 21
0.0
 72
     2
 10
-0.4999999999999997
 20
0.4999999999999997
 40
0.4999999999999997
 50
269.9999999999999
 51
360.0
 73
     1
 72
     1
 10
0.0
 20
0.5
 11
0.0
 21
0.7499999999999715
 72
     2
 10
-0.2499999999999998
 20
0.7499999999999718
 40
0.2499999999999998
 50
359.9999999999999
 51
450.0
 73
     1
 72
     1
 10
-0.25
 20
0.9999999999999715
 11
-0.8000000000001818
 21
0.9999999999999715
 72
     1
 10
-0.8000000000001818
 20
0.9999999999999715
 11
-0.8000000000001818
 21
19.67419365678984
 72
     1
 10
-0.8000000000001818
 20
19.67419365678984
 11
-0.25
 21
19.67419365678984
 72
     2
 10
-0.25
 20
19.92419365678984
 40
0.25
 50
270.0
 51
360.0
 73
     1
 97
        1
330
126D
 92
       16
 93
        8
 72
     1
 10
-8.258819045102741
 20
17.06452659354428
 11
-2.929409522551399
 21
18.49253757124666
 72
     2
 10
-2.800000000000198
 20
18.00957465810211
 40
0.5000000000000005
 50
255.0000000000071
 51
360.0
 73
     0
 72
     1
 10
-2.300000000000197
 20
18.00957465810211
 11
-2.300000000000197
 21
2.550000000000068
 72
     2
 10
-3.300000000000197
 20
2.550000000000039
 40
1.0
 50
359.9999999999984
 51
450.0000000000002
 73
     0
 72
     1
 10
-3.300000000000201
 20
1.550000000000039
 11
-8.000000000000087
 21
1.550000000000039
 72
     2
 10
-8.000000000000115
 20
2.550000000000039
 40
1.0
 50
89.99999999999836
 51
180.0000000000004
 73
     0
 72
     1
 10
-9.000000000000115
 20
2.550000000000046
 11
-9.000000000000229
 21
16.09860076725521
 72
     2
 10
-8.000000000000232
 20
16.09860076725522
 40
0.9999999999999964
 50
179.9999999999996
 51
255.0000000000006
 73
     0
 97
        1
330
126E
 75
     0
 76
     1
 98
        1
 10
0.0
 20
0.0
  0
ENDBLK
  5
714
330
712
100
AcDbEntity
  8
0
100
AcDbBlockEnd
  0
BLOCK
  5
726
330
719
100
AcDbEntity
  8
0
100
AcDbBlockBegin
  2
9010340
 70
     0
 10
0.0
 20
0.0
 30
0.0
  3
9010340
  1

  0
CIRCLE
  5
71A
330
719
100
AcDbEntity
  8
APL Joinery
 62
   252
100
AcDbCircle
 10
2.980443767928619
 20
0.017304041149032
 30
0.0
 40
1.649999999999999
  0
LINE
  5
71B
330
719
100
AcDbEntity
  8
APL Joinery
 62
   252
100
AcDbLine
 10
1.330443767928613
 20
0.017304041149032
 30
0.0
 11
-8.369556232071374
 21
0.017304041149032
 31
0.0
  0
LINE
  5
71C
330
719
100
AcDbEntity
  8
APL Joinery
 62
   252
100
AcDbLine
 10
1.335214324992151
 20
0.1426837847080833
 30
0.0
 11
-8.369556232071388
 21
0.5119392993285601
 31
0.0
  0
LINE
  5
71D
330
719
100
AcDbEntity
  8
APL Joinery
 62
   252
100
AcDbLine
 10
1.345637359451387
 20
0.2407050411507043
 30
0.0
 11
-8.36955623207136
 21
0.9014392500084511
 31
0.0
  0
LINE
  5
71E
330
719
100
AcDbEntity
  8
APL Joinery
 62
   252
100
AcDbLine
 10
1.363524933193843
 20
0.3460493557619486
 30
0.0
 11
-8.369556232071374
 21
1.325475228179669
 31
0.0
  0
LINE
  5
71F
330
719
100
AcDbEntity
  8
APL Joinery
 62
   252
100
AcDbLine
 10
1.391902580024961
 20
0.4634395523265767
 30
0.0
 11
-8.369556232071388
 21
1.808160265850148
 31
0.0
  0
LINE
  5
720
330
719
100
AcDbEntity
  8
APL Joinery
 62
   252
100
AcDbLine
 10
1.391902580024961
 20
-0.4288314700285128
 30
0.0
 11
-8.369556232071388
 21
-1.773552183552084
 31
0.0
  0
LINE
  5
721
330
719
100
AcDbEntity
  8
APL Joinery
 62
   252
100
AcDbLine
 10
1.363524933193843
 20
-0.3114412734638847
 30
0.0
 11
-8.369556232071374
 21
-1.290867145881605
 31
0.0
  0
LINE
  5
722
330
719
100
AcDbEntity
  8
APL Joinery
 62
   252
100
AcDbLine
 10
1.345637359451387
 20
-0.2060969588526404
 30
0.0
 11
-8.36955623207136
 21
-0.8668311677103872
 31
0.0
  0
LINE
  5
723
330
719
100
AcDbEntity
  8
APL Joinery
 62
   252
100
AcDbLine
 10
1.335214324992151
 20
-0.1080757024100194
 30
0.0
 11
-8.369556232071388
 21
-0.4773312170304962
 31
0.0
  0
LINE
  5
724
330
719
100
AcDbEntity
  8
APL Joinery
 62
   252
100
AcDbLine
 10
1.330443767928613
 20
0.017304041149032
 30
0.0
 11
-8.369556232071374
 21
0.017304041149032
 31
0.0
  0
CIRCLE
  5
725
330
719
100
AcDbEntity
  8
APL Joinery
 62
   252
100
AcDbCircle
 10
2.980443767928619
 20
0.017304041149032
 30
0.0
 40
1.5
  0
ENDBLK
  5
727
330
719
100
AcDbEntity
  8
0
100
AcDbBlockEnd
  0
BLOCK
  5
7F8
330
7F7
100
AcDbEntity
  8
0
100
AcDbBlockBegin
  2
9010250l
 70
     0
 10
0.0
 20
0.0
 30
0.0
  3
9010250l
  1

  0
LWPOLYLINE
  5
7F9
330
7F7
100
AcDbEntity
  8
APL Joinery
  6
Continuous
 62
   252
100
AcDbPolyline
 90
       35
 70
   129
 43
0.0
 10
6.44703759769132
 20
-5.223814239082557
 42
0.4340964952257526
 10
6.082059843849577
 20
-5.209309034231907
 42
-0.1536145893906839
 10
4.392218231910362
 20
-6.077348325469159
 42
-0.4648333009751577
 10
4.099999995644225
 20
-5.830938868413284
 10
4.099999995644225
 20
-4.651571529013864
 42
-0.2915390373815183
 10
4.388800495363284
 20
-4.198366530055267
 42
0.122912838877769
 10
6.56272970067701
 20
-2.437914397185934
 42
0.3152263475814818
 10
6.589934938151799
 20
-1.655903577981959
 10
6.531087620156512
 20
-1.56528665478649
 42
0.3630140704661038
 10
6.163200698857011
 20
-1.45213248458775
 42
-0.1219902707494916
 10
4.419208430897242
 20
-2.458282191302046
 42
-0.4989702342470917
 10
4.099999995644225
 20
-2.218052733304404
 10
4.099999995644338
 20
-1.17280761364293
 42
-0.3136800272017972
 10
4.426224443366351
 20
-0.7039770926329397
 42
0.1785411124350255
 10
6.636586807422759
 20
1.189434005323064
 42
0.1279718777770435
 10
6.699999995644247
 20
1.433138653988336
 10
6.699999995644247
 20
2.726869383082615
 42
0.4607623830565047
 10
6.411090109705128
 20
2.973822862054262
 10
0.2110901140605677
 20
1.99695347897159
 42
0.3941429072290372
 10
0.0009513254767768
 20
1.728211064312986
 10
0.1521502017843375
 20
-0.000000000000199
 10
1.699999995644247
 20
-0.000000000000199
 10
1.699999995644247
 20
-2.900000000000289
 10
1.199999995644247
 20
-2.900000000000289
 42
0.5486826681767417
 10
0.9734438043265214
 20
-3.255699064213771
 10
2.199999995644247
 20
-5.884709086297931
 10
2.199999995644247
 20
-6.364392571535034
 10
1.936602536022974
 20
-6.364392571535034
 42
0.5773502691896264
 10
1.731698725455132
 20
-6.71929638210301
 10
2.825833020563948
 20
-8.614392571535034
 42
0.2487009021145858
 10
3.222789489242927
 20
-8.863090825037559
 42
0.3109226116934106
 10
4.122894280104048
 20
-8.173236848605242
 42
-0.2088596723963019
 10
4.388553045802765
 20
-7.873849532333892
 42
0.1426663047989766
 10
6.629698845771201
 20
-5.921497873062122
 42
0.3321417186747404
 10
6.592250122233565
 20
-5.392085433604805
  0
ENDBLK
  5
7FA
330
7F7
100
AcDbEntity
  8
0
100
AcDbBlockEnd
  0
BLOCK
  5
7FC
330
7FB
100
AcDbEntity
  8
0
 48
3.0
100
AcDbBlockBegin
  2
9010312r
 70
     0
 10
399.4634067278245
 20
339.4121540145172
 30
0.0
  3
9010312r
  1
I:\DWG Master Blocks\9010312r.dwg
  0
LWPOLYLINE
  5
1273
330
7FB
100
AcDbEntity
  8
APL Joinery
  6
Continuous
 62
   252
100
AcDbPolyline
 90
       28
 70
   128
 43
0.0
 10
395.7634067278242
 20
336.2999919725366
 10
395.7634067278242
 20
343.1621540145172
 42
-0.7673269879789622
 10
396.2299130787703
 20
343.2871540145172
 10
396.7850145808851
 20
342.3256900094965
 10
399.2931562636775
 20
341.6536354710895
 42
-0.3626955242591878
 10
399.4775957926651
 20
341.3914870691883
 10
399.3134067278246
 20
339.4121540145172
 10
397.7634067278242
 20
339.4121540145172
 10
397.7634067278242
 20
336.5121540145171
 10
399.0135696498364
 20
336.5121540145171
 10
399.2752560951169
 20
337.3376963843301
 42
-0.6640183420487276
 10
399.7341578851304
 20
337.3798010733406
 42
-0.250000000000001
 10
399.7341578851305
 20
333.1445069556935
 42
-0.6640183420487097
 10
399.2752560951171
 20
333.1866116447042
 10
399.0135696498364
 20
334.0121540145171
 10
397.4635696498362
 20
334.0121540145171
 10
397.1898787608678
 20
334.2858449034854
 42
0.6681785464135807
 10
396.7631020655712
 20
334.1090682714504
 10
396.7631016544432
 20
332.4843569389277
 10
396.2607415896308
 20
329.0715154000631
 42
-0.9294717386060577
 10
395.7634067278242
 20
329.1079223518048
 10
395.7634067278242
 20
334.5749919747145
 42
-0.3563939586926081
 10
396.5634067278242
 20
335.5547878718279
 42
0.3563939586925715
 10
396.7634067278242
 20
335.7997368461061
 10
396.7634067278242
 20
339.3871540145172
 42
0.9999999999999998
 10
396.7134067278242
 20
339.3871540145172
 10
396.7134067278242
 20
336.2999919725366
 42
-0.9999999999999998
 10
395.76340673218
 20
336.2999919725366
  0
ENDBLK
  5
7FD
330
7FB
100
AcDbEntity
  8
0
 48
3.0
100
AcDbBlockEnd
  0
BLOCK
  5
7FF
330
7FE
100
AcDbEntity
  8
0
 48
3.0
100
AcDbBlockBegin
  2
6Glass
 70
     0
 10
101.8368839708302
 20
399.4111348733001
 30
0.0
  3
6Glass
  1
6Glass.dwg
  0
LINE
  5
800
330
7FE
100
AcDbEntity
  8
APL Joinery
 62
     7
100
AcDbLine
 10
95.33688397083029
 20
412.4111348732999
 30
0.0
 11
95.33688397083029
 21
392.4111348733
 31
0.0
  0
LINE
  5
801
330
7FE
100
AcDbEntity
  8
APL Joinery
 62
     7
100
AcDbLine
 10
89.33688397083029
 20
412.4111348732999
 30
0.0
 11
95.33688397083029
 21
412.4111348732999
 31
0.0
  0
LINE
  5
802
330
7FE
100
AcDbEntity
  8
APL Joinery
 62
     8
100
AcDbLine
 10
93.33688397083028
 20
412.4111348732999
 30
0.0
 11
93.33688397083028
 21
392.4111348733
 31
0.0
  0
LINE
  5
803
330
7FE
100
AcDbEntity
  8
APL Joinery
 62
     7
100
AcDbLine
 10
89.33688397083029
 20
412.4111348732999
 30
0.0
 11
89.33688397083029
 21
392.4111348733
 31
0.0
  0
LINE
  5
804
330
7FE
100
AcDbEntity
  8
APL Joinery
 62
     8
100
AcDbLine
 10
91.33688397083028
 20
412.4111348732999
 30
0.0
 11
91.33688397083028
 21
392.4111348733
 31
0.0
  0
ENDBLK
  5
805
330
7FE
100
AcDbEntity
  8
0
 48
3.0
100
AcDbBlockEnd
  0
BLOCK
  5
807
330
806
100
AcDbEntity
  8
0
 62
     7
 48
3.0
100
AcDbBlockBegin
  2
08638
 70
     0
 10
265.902225526263
 20
627.8565575453155
 30
0.0
  3
08638
  1
I:\DWG Master Blocks\08638.dwg
  0
LWPOLYLINE
  5
1276
102
{ACAD_REACTORS
330
1277
102
}
330
806
100
AcDbEntity
  8
APL Joinery
  6
Continuous
100
AcDbPolyline
 90
       48
 70
     1
 43
0.0
 10
282.9022255262626
 20
625.1565575453155
 42
-0.4142135623731117
 10
281.8022255262631
 20
626.2565575453159
 42
0.4142135623730951
 10
281.3022255262631
 20
626.7565575453159
 10
269.5022255262632
 20
626.7565575453161
 10
269.5022255262632
 20
624.799450764122
 42
-0.6681786379193133
 10
269.0754488309663
 20
624.6226740688253
 10
267.9754488309681
 20
625.7226740688241
 42
-0.4142135623730951
 10
267.9754488309663
 20
626.0762274594156
 10
268.402225526263
 20
626.5030041547123
 10
268.4022255262632
 20
627.6065575453156
 42
0.4142135623730951
 10
268.152225526263
 20
627.8565575453153
 10
266.1900934919069
 20
627.8565575453155
 42
-0.4142135623730951
 10
265.902225526263
 20
628.1444255109597
 10
265.9022255262628
 20
649.6065575453155
 42
-0.4142135623730951
 10
266.1522255262628
 20
649.8565575453156
 10
268.7022255262629
 20
649.8565575453156
 42
-0.4142135623730951
 10
269.202225526263
 20
649.3565575453158
 10
269.202225526263
 20
647.8565575453156
 10
270.402225526263
 20
647.8565575453155
 42
-0.4142135623730951
 10
270.902225526263
 20
647.3565575453155
 10
270.902225526263
 20
645.8065575453154
 42
-0.9999999999999998
 10
269.902225526263
 20
645.8065575453154
 10
269.902225526263
 20
646.5565575453156
 10
268.4022255262632
 20
646.5565575453156
 10
268.402225526263
 20
645.5565575453154
 42
-0.4142135623730617
 10
268.152225526263
 20
645.3065575453154
 10
267.6522255262628
 20
645.3065575453154
 42
0.4142135623730951
 10
267.4022255262628
 20
645.0565575453154
 10
267.4022255262627
 20
642.5565575453155
 42
0.4142135623730951
 10
267.6522255262628
 20
642.3065575453153
 10
268.152225526263
 20
642.3065575453155
 42
-0.4142135623730951
 10
268.402225526263
 20
642.0565575453155
 10
268.402225526263
 20
641.0565575453156
 10
269.902225526263
 20
641.0565575453155
 10
269.902225526263
 20
641.8065575453155
 42
-0.9999999999999998
 10
270.902225526263
 20
641.8065575453157
 10
270.9022255262632
 20
640.2565575453157
 42
-0.4142135623730951
 10
270.4022255262632
 20
639.7565575453157
 10
268.1422839132624
 20
639.7565575453154
 42
0.4216277665658041
 10
267.6424432595641
 20
639.2439353065858
 10
267.852995449367
 20
630.9060685903965
 42
0.3742242816206427
 10
269.6264661042266
 20
628.9693552852431
 42
-0.3814371313443093
 10
270.602225526263
 20
627.8763940422031
 10
270.602225526263
 20
627.856557545316
 10
281.3022255262634
 20
627.8565575453154
 42
-0.4142135623730284
 10
282.9022255262632
 20
626.2565575453156
 10
284.0422750324269
 20
626.2565575453156
 42
-3.927182716064489
 10
284.0422750324274
 20
625.1565575453152
  0
HATCH
  5
1277
330
806
100
AcDbEntity
  8
APL Hatch
100
AcDbHatch
 10
0.0
 20
0.0
 30
0.0
210
0.0
220
0.0
230
1.0
  2
SOLID
 70
     1
 71
     1
 91
        1
 92
        1
 93
       48
 72
     2
 10
282.9022255262629
 20
626.2565575453154
 40
1.099999999999909
 50
90.00000000001776
 51
180.0000000000236
 73
     0
 72
     2
 10
281.3022255262631
 20
626.2565575453159
 40
0.5
 50
0.0
 51
90.0
 73
     1
 72
     1
 10
281.3022255262631
 20
626.7565575453159
 11
269.5022255262632
 21
626.7565575453161
 72
     1
 10
269.5022255262632
 20
626.7565575453161
 11
269.5022255262632
 21
624.799450764122
 72
     2
 10
269.252225526263
 20
624.799450764122
 40
0.2500000000001705
 50
360.0
 51
494.9999999999907
 73
     0
 72
     1
 10
269.0754488309663
 20
624.6226740688253
 11
267.9754488309681
 21
625.7226740688241
 72
     2
 10
268.152225526263
 20
625.8994507641208
 40
0.249999999998756
 50
134.9999999997052
 51
224.9999999997053
 73
     0
 72
     1
 10
267.9754488309663
 20
626.0762274594156
 11
268.402225526263
 21
626.5030041547123
 72
     1
 10
268.402225526263
 20
626.5030041547123
 11
268.4022255262632
 21
627.6065575453156
 72
     2
 10
268.1522255262632
 20
627.6065575453153
 40
0.25
 50
0.0000000000521102
 51
90.00000000005213
 73
     1
 72
     1
 10
268.152225526263
 20
627.8565575453153
 11
266.1900934919069
 21
627.8565575453155
 72
     2
 10
266.190093491907
 20
628.1444255109595
 40
0.2878679656439544
 50
90.00000000002259
 51
180.0000000000226
 73
     0
 72
     1
 10
265.902225526263
 20
628.1444255109597
 11
265.9022255262628
 21
649.6065575453155
 72
     2
 10
266.1522255262628
 20
649.6065575453155
 40
0.25
 50
180.0
 51
270.0
 73
     0
 72
     1
 10
266.1522255262628
 20
649.8565575453156
 11
268.7022255262629
 21
649.8565575453156
 72
     2
 10
268.7022255262631
 20
649.3565575453157
 40
0.4999999999998864
 50
269.999999999987
 51
359.999999999987
 73
     0
 72
     1
 10
269.202225526263
 20
649.3565575453158
 11
269.202225526263
 21
647.8565575453156
 72
     1
 10
269.202225526263
 20
647.8565575453156
 11
270.402225526263
 21
647.8565575453155
 72
     2
 10
270.402225526263
 20
647.3565575453155
 40
0.5
 50
270.0
 51
360.0
 73
     0
 72
     1
 10
270.902225526263
 20
647.3565575453155
 11
270.902225526263
 21
645.8065575453154
 72
     2
 10
270.402225526263
 20
645.8065575453154
 40
0.5
 50
360.0
 51
540.0
 73
     0
 72
     1
 10
269.902225526263
 20
645.8065575453154
 11
269.902225526263
 21
646.5565575453156
 72
     1
 10
269.902225526263
 20
646.5565575453156
 11
268.4022255262632
 21
646.5565575453156
 72
     1
 10
268.4022255262632
 20
646.5565575453156
 11
268.402225526263
 21
645.5565575453154
 72
     2
 10
268.152225526263
 20
645.5565575453154
 40
0.25
 50
360.0
 51
450.0
 73
     0
 72
     1
 10
268.152225526263
 20
645.3065575453154
 11
267.6522255262628
 21
645.3065575453154
 72
     2
 10
267.6522255262628
 20
645.0565575453154
 40
0.25
 50
90.0
 51
180.0
 73
     1
 72
     1
 10
267.4022255262628
 20
645.0565575453154
 11
267.4022255262627
 21
642.5565575453155
 72
     2
 10
267.6522255262629
 20
642.5565575453154
 40
0.2500000000001137
 50
179.9999999999739
 51
269.999999999987
 73
     1
 72
     1
 10
267.6522255262628
 20
642.3065575453153
 11
268.152225526263
 21
642.3065575453155
 72
     2
 10
268.152225526263
 20
642.0565575453155
 40
0.25
 50
270.0
 51
360.0
 73
     0
 72
     1
 10
268.402225526263
 20
642.0565575453155
 11
268.402225526263
 21
641.0565575453156
 72
     1
 10
268.402225526263
 20
641.0565575453156
 11
269.902225526263
 21
641.0565575453155
 72
     1
 10
269.902225526263
 20
641.0565575453155
 11
269.902225526263
 21
641.8065575453155
 72
     2
 10
270.402225526263
 20
641.8065575453156
 40
0.5
 50
179.999999999987
 51
359.999999999987
 73
     0
 72
     1
 10
270.902225526263
 20
641.8065575453157
 11
270.9022255262632
 21
640.2565575453157
 72
     2
 10
270.4022255262632
 20
640.2565575453157
 40
0.5
 50
360.0
 51
450.0
 73
     0
 72
     1
 10
270.4022255262632
 20
639.7565575453157
 11
268.1422839132624
 21
639.7565575453154
 72
     2
 10
268.1422839132622
 20
639.2565575453154
 40
0.5
 50
89.99999999998046
 51
181.4465556865554
 73
     1
 72
     1
 10
267.6424432595641
 20
639.2439353065858
 11
267.852995449367
 21
630.9060685903965
 72
     2
 10
269.8523580641601
 20
630.9565575453157
 40
2.000000000000211
 50
181.446555686578
 51
263.5148335461263
 73
     1
 72
     2
 10
269.5022255262632
 20
627.8763940422031
 40
1.099999999999996
 50
276.4851664538729
 51
360.0
 73
     0
 72
     1
 10
270.602225526263
 20
627.8763940422031
 11
270.602225526263
 21
627.856557545316
 72
     1
 10
270.602225526263
 20
627.856557545316
 11
281.3022255262634
 21
627.8565575453154
 72
     2
 10
281.3022255262632
 20
626.2565575453154
 40
1.600000000000022
 50
270.0000000000061
 51
359.9999999999919
 73
     0
 72
     1
 10
282.9022255262632
 20
626.2565575453156
 11
284.0422750324269
 21
626.2565575453156
 72
     2
 10
285.0522255262633
 20
625.7065575453159
 40
1.15
 50
208.5718781422934
 51
511.428121857656
 73
     0
 72
     1
 10
284.0422750324274
 20
625.1565575453152
 11
282.9022255262626
 21
625.1565575453155
 97
        1
330
1276
 75
     0
 76
     1
 98
        1
 10
0.0
 20
0.0
  0
ENDBLK
  5
808
330
806
100
AcDbEntity
  8
0
 62
     7
 48
3.0
100
AcDbBlockEnd
  0
BLOCK
  5
AEE
330
AED
100
AcDbEntity
  8
0
100
AcDbBlockBegin
  2
08932
 70
     0
 10
0.0
 20
0.0
 30
0.0
  3
08932
  1
I:\DWG Master Blocks\08932.dwg
  0
LWPOLYLINE
  5
1279
102
{ACAD_REACTORS
330
127A
102
}
330
AED
100
AcDbEntity
  8
APL Joinery
100
AcDbPolyline
 90
       81
 70
     1
 43
0.0
 10
6.749999999992724
 20
-7.995547844675456
 42
-0.9999999999999998
 10
5.749999999992724
 20
-7.995547844675456
 10
5.749999999992724
 20
-5.121468480636394
 10
5.018819465571141
 20
-3.345160708846378
 42
-0.5338017280172929
 10
5.249999999992724
 20
-2.999999999996362
 10
5.749999999992724
 20
-2.999999999996362
 10
5.749999999992724
 20
-0.249999999996362
 42
0.4142135623730951
 10
5.499999999992724
 20
0.000000000003638
 10
0.249999999992724
 20
0.000000000003638
 42
-0.4142135623730951
 10
-0.000000000007276
 20
0.250000000003638
 10
-0.000000000007276
 20
26.75000000000364
 42
-0.4142135623730951
 10
0.249999999992724
 20
27.00000000000364
 10
7.749999999992724
 20
27.00000000000364
 42
-0.4142135623730951
 10
7.999999999992724
 20
26.75000000000364
 10
7.999999999992724
 20
25.75000000000364
 42
-0.4142135623730951
 10
7.749999999992724
 20
25.50000000000364
 10
7.289756829944963
 20
25.50000000000364
 42
0.5849231395647098
 10
6.862515683205856
 20
24.7402597402579
 42
-0.3589993750622573
 10
6.254807576995517
 20
20.52243208157597
 42
-0.9999999999983668
 10
5.245192244030476
 20
21.63179085097727
 42
0.4390496178069509
 10
5.258850579841237
 20
24.35565305943601
 42
-0.1432248589147041
 10
5.000000068212102
 20
24.78955297868379
 42
0.2638204180171853
 10
2.977485234943742
 20
24.77678461136384
 42
-0.1432248589121265
 10
2.724133656905906
 20
24.33965110180361
 42
0.4039324889475739
 10
2.616242012292786
 20
21.7721100084309
 42
-0.5246917004124354
 10
2.322103617705579
 20
20.57339311107717
 42
0.3112641035170172
 10
1.999999999992724
 20
20.10611067274294
 10
1.999999999992724
 20
19.93955301678579
 42
0.4142135623730951
 10
2.249999999992724
 20
19.68955301678579
 10
2.999999999992724
 20
19.68955301678579
 42
-0.9999999999999998
 10
2.999999999992724
 20
18.88955301678288
 10
2.249999999992724
 20
18.88955301678288
 42
0.4142135623730951
 10
1.999999999992724
 20
18.63955301678288
 10
1.999999999992724
 20
14.78955301678797
 10
2.999999999992724
 20
14.78955301678797
 10
2.999999999992724
 20
13.7895530167807
 10
4.999999999992724
 20
13.7895530167807
 10
4.999999999992724
 20
14.53955301678798
 42
-0.4142135623730951
 10
5.249999999992724
 20
14.78955301678797
 10
5.749999999992724
 20
14.78955301678797
 42
-0.4142135623730951
 10
5.999999999992724
 20
14.53955301678798
 10
5.999999999992724
 20
13.03955301678797
 42
-0.4142135623730951
 10
5.749999999992724
 20
12.78955301678798
 10
2.499999999992724
 20
12.78955301678798
 42
0.4142135623730951
 10
1.999999999992724
 20
12.28955301678797
 10
1.999999999992724
 20
2.500000000003637
 42
0.4142135623730951
 10
2.499999999992724
 20
2.000000000003637
 10
49.79999999998108
 20
2.000000000003637
 42
-0.4142135623730951
 10
52.29999999998108
 20
-0.4999999999963621
 10
52.29999999999563
 20
-3.499999999989086
 42
0.4142135623730951
 10
52.79999999999564
 20
-3.999999999989086
 10
64.79999999999563
 20
-3.999999999996362
 42
0.4142135623730951
 10
65.29999999999564
 20
-3.499999999996362
 10
65.29999999999564
 20
-0.4999999999963615
 42
-0.4142135623730951
 10
67.79999999999564
 20
2.000000000003637
 10
157.7499999999927
 20
2.000000000003637
 42
-0.4142135623730951
 10
157.9999999999927
 20
1.750000000003637
 10
157.9999999999927
 20
0.250000000003638
 42
-0.4142135623730951
 10
157.7499999999927
 20
0.000000000003638
 10
152.4999999999927
 20
0.000000000003638
 42
0.4142135623730951
 10
152.2499999999927
 20
-0.249999999996362
 10
152.2499999999927
 20
-2.999999999996362
 10
152.7499999999927
 20
-2.999999999996362
 42
-0.5338017280330753
 10
152.9811805343997
 20
-3.345160708846378
 10
152.2499999999927
 20
-5.121468480636394
 10
152.2499999999927
 20
-7.995547844675456
 42
-0.9999999999999998
 10
151.2499999999927
 20
-7.995547844675456
 10
151.2499999999927
 20
-0.2499999997780833
 42
0.4142135610688749
 10
151.0000000010841
 20
0.0000000002219167
 10
86.05000011843367
 20
0.0000002901433618
 10
71.95000011842785
 20
0.0000002901433618
 10
67.79999999776919
 20
0.0000001363696355
 42
0.4142135610656964
 10
67.29999999999563
 20
-0.4999998636303645
 10
67.29999999999563
 20
-3.499999999996362
 42
-0.4142135623730951
 10
64.79999999999563
 20
-5.999999999996362
 10
52.79999999999564
 20
-5.999999999996362
 42
-0.4142135623730951
 10
50.29999999999564
 20
-3.499999999996362
 10
50.29999999999564
 20
-0.4999999439824025
 42
0.414213563680511
 10
49.79999999776919
 20
0.0000000560175977
 10
6.999999998872226
 20
0.0000000002219167
 42
0.4142135610603506
 10
6.749999999992724
 20
-0.2499999997780832
  0
HATCH
  5
127A
330
AED
100
AcDbEntity
  8
APL Hatch
100
AcDbHatch
 10
0.0
 20
0.0
 30
0.0
210
0.0
220
0.0
230
1.0
  2
SOLID
 70
     1
 71
     1
 91
        1
 92
        1
 93
       81
 72
     2
 10
6.249999999992724
 20
-7.995547844675456
 40
0.5
 50
360.0
 51
540.0
 73
     0
 72
     1
 10
5.749999999992724
 20
-7.995547844675456
 11
5.749999999992724
 21
-5.121468480636394
 72
     1
 10
5.749999999992724
 20
-5.121468480636394
 11
5.018819465571141
 21
-3.345160708846378
 72
     2
 10
5.249999999991535
 20
-3.250000000001775
 40
0.2500000000054132
 50
157.6264929594017
 51
270.0000000002723
 73
     0
 72
     1
 10
5.249999999992724
 20
-2.999999999996362
 11
5.749999999992724
 21
-2.999999999996362
 72
     1
 10
5.749999999992724
 20
-2.999999999996362
 11
5.749999999992724
 21
-0.249999999996362
 72
     2
 10
5.499999999992724
 20
-0.249999999996362
 40
0.25
 50
0.0
 51
90.0
 73
     1
 72
     1
 10
5.499999999992724
 20
0.000000000003638
 11
0.249999999992724
 21
0.000000000003638
 72
     2
 10
0.249999999992724
 20
0.250000000003638
 40
0.25
 50
90.0
 51
180.0
 73
     0
 72
     1
 10
-0.000000000007276
 20
0.250000000003638
 11
-0.000000000007276
 21
26.75000000000364
 72
     2
 10
0.249999999992724
 20
26.75000000000364
 40
0.25
 50
180.0
 51
270.0
 73
     0
 72
     1
 10
0.249999999992724
 20
27.00000000000364
 11
7.749999999992724
 21
27.00000000000364
 72
     2
 10
7.749999999992724
 20
26.75000000000364
 40
0.25
 50
270.0
 51
360.0
 73
     0
 72
     1
 10
7.999999999992724
 20
26.75000000000364
 11
7.999999999992724
 21
25.75000000000364
 72
     2
 10
7.749999999992724
 20
25.75000000000364
 40
0.25
 50
360.0
 51
450.0
 73
     0
 72
     1
 10
7.749999999992724
 20
25.50000000000364
 11
7.289756829944963
 21
25.50000000000364
 72
     2
 10
7.289756829946592
 20
25.0000000000029
 40
0.500000000000739
 50
90.00000000018664
 51
211.2974122208739
 73
     1
 72
     2
 10
4.000000000030903
 20
23.00000000005264
 40
3.349999999970425
 50
328.7025877804934
 51
407.6950129597595
 73
     0
 72
     2
 10
5.749999910513903
 20
21.07711146627744
 40
0.7499999999676114
 50
47.69501295827812
 51
227.6950129580909
 73
     0
 72
     2
 10
4.000000000015139
 20
22.99999999997453
 40
1.849999999988044
 50
312.3049870409525
 51
407.1204182266145
 73
     1
 72
     2
 10
5.8712643754475
 20
25.01515995324798
 40
0.9000000000191036
 50
132.8795817732318
 51
165.4825757611841
 73
     0
 72
     2
 10
4.000000000000963
 20
22.99999999995814
 40
2.05000000002149
 50
60.80359340680035
 51
119.9198265927463
 73
     1
 72
     2
 10
2.103441922453781
 20
24.99137325946306
 40
0.9000000000008194
 50
13.79400424156777
 51
46.39699822894116
 73
     0
 72
     2
 10
3.999999999989295
 20
23.00000000001308
 40
1.849999999984208
 50
133.6030017734096
 51
221.5845329591872
 73
     1
 72
     2
 10
2.05525904429218
 20
21.27431676858863
 40
0.7500000000129529
 50
318.4154670409346
 51
429.1579610946475
 73
     0
 72
     2
 10
2.499999999993479
 20
20.1061106727493
 40
0.5000000000007566
 50
110.8420389072045
 51
180.0000000007287
 73
     1
 72
     1
 10
1.999999999992724
 20
20.10611067274294
 11
1.999999999992724
 21
19.93955301678579
 72
     2
 10
2.249999999992724
 20
19.93955301678579
 40
0.25
 50
180.0
 51
270.0
 73
     1
 72
     1
 10
2.249999999992724
 20
19.68955301678579
 11
2.999999999992724
 21
19.68955301678579
 72
     2
 10
2.999999999992724
 20
19.28955301678434
 40
0.4000000000014552
 50
270.0
 51
450.0
 73
     0
 72
     1
 10
2.999999999992724
 20
18.88955301678288
 11
2.249999999992724
 21
18.88955301678288
 72
     2
 10
2.249999999992724
 20
18.63955301678288
 40
0.25
 50
90.0
 51
180.0
 73
     1
 72
     1
 10
1.999999999992724
 20
18.63955301678288
 11
1.999999999992724
 21
14.78955301678797
 72
     1
 10
1.999999999992724
 20
14.78955301678797
 11
2.999999999992724
 21
14.78955301678797
 72
     1
 10
2.999999999992724
 20
14.78955301678797
 11
2.999999999992724
 21
13.7895530167807
 72
     1
 10
2.999999999992724
 20
13.7895530167807
 11
4.999999999992724
 21
13.7895530167807
 72
     1
 10
4.999999999992724
 20
13.7895530167807
 11
4.999999999992724
 21
14.53955301678798
 72
     2
 10
5.249999999992724
 20
14.53955301678798
 40
0.25
 50
180.0
 51
270.0
 73
     0
 72
     1
 10
5.249999999992724
 20
14.78955301678797
 11
5.749999999992724
 21
14.78955301678797
 72
     2
 10
5.749999999992724
 20
14.53955301678798
 40
0.25
 50
270.0
 51
360.0
 73
     0
 72
     1
 10
5.999999999992724
 20
14.53955301678798
 11
5.999999999992724
 21
13.03955301678797
 72
     2
 10
5.749999999992724
 20
13.03955301678797
 40
0.25
 50
360.0
 51
450.0
 73
     0
 72
     1
 10
5.749999999992724
 20
12.78955301678798
 11
2.499999999992724
 21
12.78955301678798
 72
     2
 10
2.499999999992724
 20
12.28955301678797
 40
0.5
 50
90.0
 51
180.0
 73
     1
 72
     1
 10
1.999999999992724
 20
12.28955301678797
 11
1.999999999992724
 21
2.500000000003637
 72
     2
 10
2.499999999992724
 20
2.500000000003637
 40
0.5
 50
180.0
 51
270.0
 73
     1
 72
     1
 10
2.499999999992724
 20
2.000000000003637
 11
49.79999999998108
 21
2.000000000003637
 72
     2
 10
49.79999999998108
 20
-0.4999999999963621
 40
2.5
 50
270.0
 51
360.0
 73
     0
 72
     1
 10
52.29999999998108
 20
-0.4999999999963621
 11
52.29999999999563
 21
-3.499999999989086
 72
     2
 10
52.79999999999564
 20
-3.499999999989086
 40
0.5
 50
180.0
 51
270.0
 73
     1
 72
     1
 10
52.79999999999564
 20
-3.999999999989086
 11
64.79999999999563
 21
-3.999999999996362
 72
     2
 10
64.79999999999563
 20
-3.499999999996362
 40
0.5
 50
270.0
 51
360.0
 73
     1
 72
     1
 10
65.29999999999564
 20
-3.499999999996362
 11
65.29999999999564
 21
-0.4999999999963616
 72
     2
 10
67.79999999999564
 20
-0.4999999999963618
 40
2.5
 50
180.0
 51
270.0
 73
     0
 72
     1
 10
67.79999999999564
 20
2.000000000003637
 11
157.7499999999927
 21
2.000000000003637
 72
     2
 10
157.7499999999927
 20
1.750000000003637
 40
0.25
 50
270.0
 51
360.0
 73
     0
 72
     1
 10
157.9999999999927
 20
1.750000000003637
 11
157.9999999999927
 21
0.250000000003638
 72
     2
 10
157.7499999999927
 20
0.250000000003638
 40
0.25
 50
360.0
 51
450.0
 73
     0
 72
     1
 10
157.7499999999927
 20
0.000000000003638
 11
152.4999999999927
 21
0.000000000003638
 72
     2
 10
152.4999999999927
 20
-0.249999999996362
 40
0.25
 50
90.0
 51
180.0
 73
     1
 72
     1
 10
152.2499999999927
 20
-0.249999999996362
 11
152.2499999999927
 21
-2.999999999996362
 72
     1
 10
152.2499999999927
 20
-2.999999999996362
 11
152.7499999999927
 21
-2.999999999996362
 72
     2
 10
152.7499999999928
 20
-3.249999999992788
 40
0.2499999999964269
 50
269.999999999987
 51
382.3735070436735
 73
     0
 72
     1
 10
152.9811805343997
 20
-3.345160708846378
 11
152.2499999999927
 21
-5.121468480636394
 72
     1
 10
152.2499999999927
 20
-5.121468480636394
 11
152.2499999999927
 21
-7.995547844675456
 72
     2
 10
151.7499999999927
 20
-7.995547844675456
 40
0.5
 50
360.0
 51
540.0
 73
     0
 72
     1
 10
151.2499999999927
 20
-7.995547844675456
 11
151.2499999999927
 21
-0.2499999997780833
 72
     2
 10
150.9999999999818
 20
-0.2499999997889972
 40
0.2500000000109139
 50
0.00000000250129
 51
89.9999997473697
 73
     1
 72
     1
 10
151.0000000010841
 20
0.0000000002219167
 11
86.05000011843367
 21
0.0000002901433618
 72
     1
 10
86.05000011843367
 20
0.0000002901433618
 11
71.95000011842785
 21
0.0000002901433618
 72
     1
 10
71.95000011842785
 20
0.0000002901433618
 11
67.79999999776919
 21
0.0000001363696355
 72
     2
 10
67.79999999999835
 20
-0.4999998636330777
 40
0.5000000000027132
 50
90.00000025544261
 51
179.9999999996891
 73
     1
 72
     1
 10
67.29999999999563
 20
-0.4999998636303645
 11
67.29999999999563
 21
-3.499999999996362
 72
     2
 10
64.79999999999563
 20
-3.499999999996362
 40
2.5
 50
360.0
 51
450.0
 73
     0
 72
     1
 10
64.79999999999563
 20
-5.999999999996362
 11
52.79999999999564
 21
-5.999999999996362
 72
     2
 10
52.79999999999564
 20
-3.499999999996362
 40
2.5
 50
90.0
 51
180.0
 73
     0
 72
     1
 10
50.29999999999564
 20
-3.499999999996362
 11
50.29999999999564
 21
-0.4999999439824024
 72
     2
 10
49.79999999999837
 20
-0.4999999439796747
 40
0.4999999999972716
 50
359.9999999996874
 51
450.0000002554442
 73
     1
 72
     1
 10
49.79999999776919
 20
0.0000000560175977
 11
6.999999998872226
 21
0.0000000002219167
 72
     2
 10
6.999999999992724
 20
-0.2499999997780832
 40
0.25
 50
90.00000025679909
 51
180.0
 73
     1
 72
     1
 10
6.749999999992724
 20
-0.2499999997780832
 11
6.749999999992724
 21
-7.995547844675456
 97
        1
330
1279
 75
     0
 76
     1
 98
        1
 10
0.0
 20
0.0
  0
ENDBLK
  5
AEF
330
AED
100
AcDbEntity
  8
0
100
AcDbBlockEnd
  0
BLOCK
  5
D87
330
D84
100
AcDbEntity
  8
0
100
AcDbBlockBegin
  2
08638 bead
 70
     0
 10
0.0
 20
0.0
 30
0.0
  3
08638 bead
  1

  0
INSERT
  5
D88
330
D84
100
AcDbEntity
  8
APL Joinery
 48
3.0
100
AcDbBlockReference
  2
6Glass
 10
-12.99999999999977
 20
18.49999999999994
 30
0.0
 41
-1.0
 43
-1.0
 50
270.0
210
0.0
220
0.0
230
-1.0
1001
AcDbBlockRepETag
1070
     1
1071
        0
1005
D88
  0
INSERT
  5
D89
330
D84
100
AcDbEntity
  8
APL Joinery
 48
3.0
100
AcDbBlockReference
  2
08638
 10
-6.000000000000454
 20
-21.99983707798913
 30
0.0
 41
-1.0
 50
270.0
1001
AcDbBlockRepETag
1070
     1
1071
        1
1005
D89
  0
INSERT
  5
D8A
330
D84
100
AcDbEntity
  8
APL Joinery
 48
3.0
100
AcDbBlockReference
  2
6Glass
 10
-12.99999999999988
 20
0.4999999999999432
 30
0.0
 41
-1.0
 43
-1.0
 50
270.0
210
0.0
220
0.0
230
-1.0
1001
AcDbBlockRepETag
1070
     1
1071
        2
1005
D8A
  0
LINE
  5
D8B
330
D84
100
AcDbEntity
  8
APL Joinery
 62
     7
 48
3.0
100
AcDbLine
 10
0.0
 20
6.0
 30
0.0
 11
0.0
 21
-6.0
 31
0.0
1001
AcDbBlockRepETag
1070
     1
1071
        3
1005
D8B
  0
LINE
  5
D8C
330
D84
100
AcDbEntity
  8
APL Joinery
 62
     7
 48
3.0
100
AcDbLine
 10
6.0
 20
6.0
 30
0.0
 11
6.0
 21
-6.0
 31
0.0
1001
AcDbBlockRepETag
1070
     1
1071
        4
1005
D8C
  0
INSERT
  5
D8D
330
D84
100
AcDbEntity
  8
APL Joinery
 48
3.0
100
AcDbBlockReference
  2
9010312r
 10
14.00000000000085
 20
15.69999999999919
 30
0.0
 41
-1.0
 50
269.9999999999959
1001
AcDbBlockRepETag
1070
     1
1071
        5
1005
D8D
  0
INSERT
  5
D8E
330
D84
100
AcDbEntity
  8
APL Joinery
 62
     7
 48
3.0
100
AcDbBlockReference
  2
9010250l
 10
14.0
 20
-18.69983707798766
 30
0.0
 41
-1.0
 50
270.0
1001
AcDbBlockRepETag
1070
     1
1071
        6
1005
D8E
  0
ENDBLK
  5
D8F
330
D84
100
AcDbEntity
  8
0
100
AcDbBlockEnd
  0
BLOCK
  5
E7F
330
E7C
100
AcDbEntity
  8
0
 62
     9
100
AcDbBlockBegin
  2
vantage black & white logo
 70
     0
 10
0.0
 20
0.0
 30
0.0
  3
vantage black & white logo
  1

  0
SPLINE
  5
E80
102
{ACAD_REACTORS
330
EB0
102
}
330
E7C
100
AcDbEntity
  8
APL Border
 62
     8
100
AcDbSpline
210
0.0
220
0.0
230
1.0
 70
     8
 71
     3
 72
    16
 73
    12
 74
    10
 42
0.0000000001
 43
0.0000000001
 44
0.0000000001
 40
0.0
 40
0.0
 40
0.0
 40
0.0
 40
0.1978277931646383
 40
0.361463118001824
 40
0.5540499897785108
 40
0.7796220130725381
 40
0.979106605438038
 40
1.222151590302332
 40
1.40748727220097
 40
1.607226525619232
 40
1.815049166761618
 40
1.815049166761618
 40
1.815049166761618
 40
1.815049166761618
 10
-6.679452083611295
 20
24.89125032803118
 30
0.0
 10
-6.685371732996674
 20
24.82559351525051
 30
0.0
 10
-6.696187882184245
 20
24.70562798418881
 30
0.0
 10
-6.721757155054659
 20
24.52229576436942
 30
0.0
 10
-6.768469983285688
 20
24.33480615160983
 30
0.0
 10
-6.86071972339088
 20
24.14153771241002
 30
0.0
 10
-7.051789745146238
 20
24.01851519430105
 30
0.0
 10
-7.233921808197289
 20
23.91285203345822
 30
0.0
 10
-7.443451931375125
 20
23.87675735439051
 30
0.0
 10
-7.641222718647389
 20
23.88093312949101
 30
0.0
 10
-7.776581895343343
 20
23.89281010788354
 30
0.0
 10
-7.845603808282817
 20
23.89886637823479
 30
0.0
 11
-6.679452083611295
 21
24.89125032803118
 31
0.0
 11
-6.698967886443824
 21
24.69438750983487
 31
0.0
 11
-6.7229873764864
 21
24.53252465544059
 31
0.0
 11
-6.771947617386814
 21
24.34626516442952
 31
0.0
 11
-6.880972027936735
 21
24.14879006322128
 31
0.0
 11
-7.039699899396197
 21
24.02796140183178
 31
0.0
 11
-7.25666078222261
 21
23.91842218515177
 31
0.0
 11
-7.438645676318543
 21
23.88333923622035
 31
0.0
 11
-7.638384704687155
 21
23.88303939885124
 31
0.0
 11
-7.845603808282817
 21
23.89886637823479
 31
0.0
1001
AcDbBlockRepETag
1070
     1
1071
      590
1005
E80
  0
SPLINE
  5
E81
102
{ACAD_REACTORS
330
EB0
102
}
330
E7C
100
AcDbEntity
  8
APL Border
 62
     8
100
AcDbSpline
210
0.0
220
0.0
230
1.0
 70
     8
 71
     3
 72
    11
 73
     7
 74
     5
 42
0.0000000001
 43
0.0000000001
 44
0.0000000001
 40
0.0
 40
0.0
 40
0.0
 40
0.0
 40
0.0680840587483313
 40
0.1752723045973904
 40
0.2784233367375334
 40
0.4826852714337078
 40
0.4826852714337078
 40
0.4826852714337078
 40
0.4826852714337078
 10
-7.465264214605014
 20
24.80065518845331
 30
0.0
 10
-7.468646137215252
 20
24.77808681972154
 30
0.0
 10
-7.47735239504952
 20
24.719987903891
 30
0.0
 10
-7.524447891091254
 20
24.63752792323728
 30
0.0
 10
-7.635129760920157
 20
24.54333837224584
 30
0.0
 10
-7.743266182308203
 20
24.55714977626708
 30
0.0
 10
-7.815117916056323
 20
24.56632682606847
 30
0.0
 11
-7.465264214605014
 21
24.80065518845331
 31
0.0
 11
-7.478569823577657
 21
24.73388393846117
 31
0.0
 11
-7.530473398252325
 21
24.64010046985295
 31
0.0
 11
-7.611072397370236
 21
24.57572705319073
 31
0.0
 11
-7.815117916056323
 21
24.56632682606847
 31
0.0
1001
AcDbBlockRepETag
1070
     1
1071
      593
1005
E81
  0
SPLINE
  5
E82
102
{ACAD_REACTORS
330
EB0
102
}
330
E7C
100
AcDbEntity
  8
APL Border
 62
     8
100
AcDbSpline
210
0.0
220
0.0
230
1.0
 70
     8
 71
     3
 72
    20
 73
    16
 74
     0
 42
0.0000000001
 43
0.0000000001
 40
0.0
 40
0.0
 40
0.0
 40
0.0
 40
0.1774120264923274
 40
0.3258093286713144
 40
0.4834060703451958
 40
0.6311237014699663
 40
0.811161917566129
 40
0.9605198197290178
 40
1.289502400757101
 40
1.459697744220917
 40
1.604754171475458
 40
1.794797311213428
 40
2.030760379210173
 40
2.301729078160567
 40
2.393267743077617
 40
2.393267743077617
 40
2.393267743077617
 40
2.393267743077617
 10
5.780015564168593
 20
26.87985997284487
 30
0.0
 10
5.839056126904296
 20
26.87337384475878
 30
0.0
 10
5.947481505327601
 20
26.86146235781404
 30
0.0
 10
6.098807931884806
 20
26.80185114122353
 30
0.0
 10
6.227972759762906
 20
26.72168911843352
 30
0.0
 10
6.347510602881385
 20
26.61140356622764
 30
0.0
 10
6.442310149474394
 20
26.48207375794227
 30
0.0
 10
6.536759215535255
 20
26.28338234239492
 30
0.0
 10
6.578465181725675
 20
26.06469589684353
 30
0.0
 10
6.553150099427256
 20
25.85079503063701
 30
0.0
 10
6.524121382020268
 20
25.68499989147718
 30
0.0
 10
6.464236525716046
 20
25.50199988960434
 30
0.0
 10
6.327150620479812
 20
25.31187331731421
 30
0.0
 10
6.179477266233362
 20
25.17172660684537
 30
0.0
 10
6.072729148555964
 20
25.11631253421805
 30
0.0
 10
6.045077525535504
 20
25.10350570839811
 30
0.0
1001
AcDbBlockRepETag
1070
     1
1071
      594
1005
E82
  0
SPLINE
  5
E83
102
{ACAD_REACTORS
330
EB0
102
}
330
E7C
100
AcDbEntity
  8
APL Border
 62
     8
100
AcDbSpline
210
0.0
220
0.0
230
1.0
 70
     8
 71
     3
 72
    17
 73
    13
 74
    11
 42
0.0000000001
 43
0.0000000001
 44
0.0000000001
 40
0.0
 40
0.0
 40
0.0
 40
0.0
 40
0.0975027714782739
 40
0.2117924486065133
 40
0.317678689712162
 40
0.4843960423119905
 40
0.5983164751676271
 40
0.7475672999664091
 40
0.8854036234346642
 40
1.040732215041493
 40
1.197661337444246
 40
1.243973057737614
 40
1.243973057737614
 40
1.243973057737614
 40
1.243973057737614
 10
5.580769717272147
 20
26.18861664944085
 30
0.0
 10
5.613502616848285
 20
26.1875961553427
 30
0.0
 10
5.684603990133519
 20
26.18537947021098
 30
0.0
 10
5.781919321100519
 20
26.1258482190374
 30
0.0
 10
5.832561030472812
 20
26.0011917111029
 30
0.0
 10
5.820388894698232
 20
25.86817511516085
 30
0.0
 10
5.765298612935113
 20
25.7349784962169
 30
0.0
 10
5.67725421213275
 20
25.62965962372396
 30
0.0
 10
5.546675458142082
 20
25.55725132865025
 30
0.0
 10
5.401760839408257
 20
25.51345804330555
 30
0.0
 10
5.281860155064943
 20
25.50729075876586
 30
0.0
 10
5.21427201805345
 20
25.50302975767877
 30
0.0
 10
5.198870965514487
 20
25.50205881951548
 30
0.0
 11
5.580769717272147
 21
26.18861664944085
 31
0.0
 11
5.67764963039707
 21
26.17761333726443
 31
0.0
 11
5.774085473546278
 21
26.11627608549865
 31
0.0
 11
5.81791994770495
 21
26.01988918322082
 31
0.0
 11
5.809153052873227
 21
25.85340249542595
 31
0.0
 11
5.765318578714499
 21
25.74825305939683
 31
0.0
 11
5.668882735565347
 21
25.63434108961652
 31
0.0
 11
5.55010046754208
 21
25.56441523695462
 31
0.0
 11
5.401316428353624
 21
25.51980267086244
 31
0.0
 11
5.245093480229996
 21
25.50493189624708
 31
0.0
 11
5.198870965514487
 21
25.50205881951548
 31
0.0
1001
AcDbBlockRepETag
1070
     1
1071
      595
1005
E83
  0
SPLINE
  5
E84
102
{ACAD_REACTORS
330
EBA
330
EBB
102
}
330
E7C
100
AcDbEntity
  8
APL Border
 62
     8
100
AcDbSpline
210
0.0
220
0.0
230
1.0
 70
     8
 71
     3
 72
    25
 73
    21
 74
     0
 42
0.0000000001
 43
0.0000000001
 40
0.0289432764998855
 40
0.0289432764998855
 40
0.0289432764998855
 40
0.0289432764998855
 40
0.7134165119202287
 40
1.411731005087882
 40
2.041147618059464
 40
3.036171077105474
 40
3.957911241576911
 40
4.83592253147705
 40
5.676684481733094
 40
6.271141751551381
 40
6.974058201941041
 40
7.825808739104269
 40
8.5265481701528
 40
9.125733480364379
 40
9.891766509798275
 40
10.6767880070383
 40
11.66821110410527
 40
12.42950909475574
 40
13.09855121203093
 40
13.70132750762923
 40
13.70132750762923
 40
13.70132750762923
 40
13.70132750762923
 10
13.141643811855
 20
43.40554077871886
 30
0.0
 10
12.91988216430481
 20
43.459256627421
 30
0.0
 10
12.47168844867874
 20
43.5669624691983
 30
0.0
 10
11.80600758681791
 20
43.66484839798013
 30
0.0
 10
11.02988777388427
 20
43.6649333207477
 30
0.0
 10
10.1361516270939
 20
43.55263717791944
 30
0.0
 10
9.306733533720876
 20
43.19741938393827
 30
0.0
 10
8.599762003673276
 20
42.45478219212527
 30
0.0
 10
8.236440109363229
 20
41.77191325718488
 30
0.0
 10
8.073464067873601
 20
41.07996170309042
 30
0.0
 10
8.007035995439764
 20
40.3638923215899
 30
0.0
 10
7.98103501985804
 20
39.60493317412716
 30
0.0
 10
8.107710769833204
 20
38.92055182387923
 30
0.0
 10
8.442098079777224
 20
38.21445924826959
 30
0.0
 10
9.036296716232907
 20
37.66873436641545
 30
0.0
 10
9.909689132144507
 20
37.42421376773082
 30
0.0
 10
10.75775873959412
 20
37.35554609345542
 30
0.0
 10
11.56487972715851
 20
37.38454149767491
 30
0.0
 10
12.23983007222788
 20
37.44815687239099
 30
0.0
 10
12.66077873273661
 20
37.49837935861893
 30
0.0
 10
12.86026661033734
 20
37.52234731786496
 30
0.0
1001
AcDbBlockRepETag
1070
     1
1071
      596
1005
E84
  0
SPLINE
  5
E85
102
{ACAD_REACTORS
330
EBA
330
EBB
102
}
330
E7C
100
AcDbEntity
  8
APL Border
 62
     8
100
AcDbSpline
210
0.0
220
0.0
230
1.0
 70
     8
 71
     3
 72
    19
 73
    15
 74
     0
 42
0.0000000001
 43
0.0000000001
 40
1.529304964685563
 40
1.529304964685563
 40
1.529304964685563
 40
1.529304965389289
 40
2.032016958536417
 40
2.556791262130423
 40
2.964493033520332
 40
3.465275586793771
 40
4.160836826595903
 40
4.71800698457321
 40
5.304510401169525
 40
5.733359288828643
 40
6.099728421126306
 40
6.422629926283571
 40
6.722447272622213
 40
6.957123473755099
 40
6.957123473755099
 40
6.957123473755099
 40
6.957123473755099
 10
11.64369617822672
 20
42.03297741382947
 30
0.0
 10
11.47589856643677
 20
42.04574754506741
 30
0.0
 10
11.13485165915975
 20
42.01473204050012
 30
0.0
 10
10.65553906793815
 20
41.91613810684326
 30
0.0
 10
10.23036575101369
 20
41.67654609785123
 30
0.0
 10
9.854221329784113
 20
41.27113304911427
 30
0.0
 10
9.717431528044755
 20
40.66388266631498
 30
0.0
 10
9.641062203095145
 20
40.05806431643046
 30
0.0
 10
9.716968816830743
 20
39.48770259248511
 30
0.0
 10
10.00680770225198
 20
39.09661486818469
 30
0.0
 10
10.3797311442331
 20
38.98358798973799
 30
0.0
 10
10.70216182646531
 20
38.92661434152812
 30
0.0
 10
10.99026249243499
 20
38.92783484269152
 30
0.0
 10
11.24302802126629
 20
38.95177692242413
 30
0.0
 10
11.33360452536307
 20
38.96406177273881
 30
0.0
1001
AcDbBlockRepETag
1070
     1
1071
      597
1005
E85
  0
LWPOLYLINE
  5
E86
102
{ACAD_REACTORS
330
EB7
102
}
330
E7C
100
AcDbEntity
  8
APL Border
 62
     8
100
AcDbPolyline
 90
       12
 70
     1
 43
0.0
 10
14.13627631352983
 20
43.61979184908029
 10
18.38986203356285
 20
43.61979184908029
 10
18.21321428445671
 20
41.9726305274507
 10
15.84058876400877
 20
41.9726305274507
 10
15.75340373709809
 20
41.15966911198297
 10
17.71732334684157
 20
41.15966911198297
 10
17.56969663746741
 20
39.57967635988449
 10
15.58395939694927
 20
39.57967635988449
 10
15.5052467299167
 20
38.84571591422678
 10
17.87787225036464
 20
38.84571591422678
 10
17.72077299807506
 20
37.38083558975206
 10
13.46718727804204
 20
37.38083558975206
1001
AcDbBlockRepETag
1070
     1
1071
      599
1005
E86
  0
LWPOLYLINE
  5
E87
102
{ACAD_REACTORS
330
EBA
330
EBB
102
}
330
E7C
100
AcDbEntity
  8
APL Border
 62
     8
100
AcDbPolyline
 90
        2
 70
     0
 43
0.0
 10
13.141643811855
 20
43.40554077871887
 10
13.141643811855
 20
41.76981947766621
1001
AcDbBlockRepETag
1070
     1
1071
      600
1005
E87
  0
LWPOLYLINE
  5
E88
102
{ACAD_REACTORS
330
EBA
330
EBB
102
}
330
E7C
100
AcDbEntity
  8
APL Border
 62
     8
100
AcDbPolyline
 90
        6
 70
     0
 43
0.0
 10
11.33358781659778
 20
38.96390597096916
 10
11.39962533929804
 20
39.57967635988449
 10
10.96889270630695
 20
39.57967635988449
 10
11.12639005748273
 20
41.04826877857415
 10
13.23839963312048
 20
41.04826877857415
 10
12.86026661033734
 20
37.52234731786496
1001
AcDbBlockRepETag
1070
     1
1071
      601
1005
E88
  0
LWPOLYLINE
  5
E89
102
{ACAD_REACTORS
330
EB4
102
}
330
E7C
100
AcDbEntity
  8
APL Border
 62
     8
100
AcDbPolyline
 90
        8
 70
     1
 43
0.0
 10
3.105743226874893
 20
43.61998313276061
 10
2.929095477768755
 20
41.97282181113101
 10
1.466301152475638
 20
41.97282181113101
 10
0.9741138955425029
 20
37.38339558452146
 10
-0.867968570535281
 20
37.38102687343238
 10
-0.3755272841536326
 20
41.97282181113101
 10
-1.891167362926863
 20
41.97282181113101
 10
-1.725754035154749
 20
43.61998313276061
1001
AcDbBlockRepETag
1070
     1
1071
      604
1005
E89
  0
LWPOLYLINE
  5
E8A
102
{ACAD_REACTORS
330
EB3
102
}
330
E7C
100
AcDbEntity
  8
APL Border
 62
     8
100
AcDbPolyline
 90
       10
 70
     1
 43
0.0
 10
-4.228474015381578
 20
40.14164596649268
 10
-3.855464624526035
 20
43.61979184908029
 10
-2.181839912298443
 20
43.61979184908029
 10
-2.850928947786229
 20
37.38083558975206
 10
-5.032306754624556
 20
37.38083558975206
 10
-6.131920885667284
 20
40.6246666384634
 10
-6.479801476178323
 20
37.38083558975206
 10
-8.135186891292875
 20
37.38083558975206
 10
-7.466097855805088
 20
43.61979184908029
 10
-5.40751765387219
 20
43.61979184908029
1001
AcDbBlockRepETag
1070
     1
1071
      605
1005
E8A
  0
LWPOLYLINE
  5
E8B
102
{ACAD_REACTORS
330
EBA
102
}
330
E7C
100
AcDbEntity
  8
APL Border
  6
Continuous
 62
     8
100
AcDbPolyline
 90
        8
 70
     1
 43
0.0
 10
-8.449177928734428
 20
37.38083558975206
 10
-9.847253547555595
 20
43.61979184908029
 10
-12.02298966350147
 20
43.61979184908029
 10
-14.82679588919473
 20
37.38083558975206
 10
-12.95240022532295
 20
37.38083558975206
 10
-12.35252874042399
 20
38.71565392391761
 10
-10.64639685172309
 20
38.71565392391761
 10
-10.34727999772013
 20
37.38083558975206
1001
AcDbBlockRepETag
1070
     1
1071
      606
1005
E8B
  0
LWPOLYLINE
  5
E8C
330
E7C
100
AcDbEntity
  8
APL Border
  6
Continuous
 62
     8
100
AcDbPolyline
 90
        7
 70
     1
 43
0.0
 10
-18.99614352503855
 20
43.61979184908029
 10
-17.7875751270476
 20
37.38083558975206
 10
-15.77022638070494
 20
37.38083558975206
 10
-12.96642015501169
 20
43.61979184908029
 10
-14.7664201550117
 20
43.61979184908029
 10
-16.54136876356097
 20
39.42215966960597
 10
-17.19614352503853
 20
43.61979184908029
1001
AcDbBlockRepETag
1070
     1
1071
      608
1005
E8C
  0
LWPOLYLINE
  5
E8D
102
{ACAD_REACTORS
330
EBD
102
}
330
E7C
100
AcDbEntity
  8
APL Border
  6
Continuous
 62
     8
100
AcDbPolyline
 90
        4
 70
     1
 43
0.0
 10
16.33779773177886
 20
35.29789574745093
 10
-16.33747952551644
 20
35.29789574745093
 10
-12.98884796421711
 20
29.49789574745094
 10
12.98916617047902
 20
29.49789574745094
1001
AcDbBlockRepETag
1070
     1
1071
      609
1005
E8D
  0
LWPOLYLINE
  5
E8E
102
{ACAD_REACTORS
330
EB0
102
}
330
E7C
100
AcDbEntity
  8
APL Border
 62
     8
100
AcDbPolyline
 90
        9
 70
     1
 43
0.0
 10
7.455500104221528
 20
25.00957443408062
 10
6.800478684667126
 20
26.87985997284487
 10
7.607536311785906
 20
26.87985997284487
 10
7.963471882016364
 20
25.86355557445326
 10
8.538893993587493
 20
26.87985997284487
 10
9.414203966725494
 20
26.87985997284487
 10
8.232331174709315
 20
25.00957443408062
 10
8.120338037129926
 20
23.87985997284487
 10
7.343506966642138
 20
23.87985997284487
1001
AcDbBlockRepETag
1070
     1
1071
      611
1005
E8E
  0
LWPOLYLINE
  5
E8F
102
{ACAD_REACTORS
330
EB0
102
}
330
E7C
100
AcDbEntity
  8
APL Border
 62
     8
100
AcDbPolyline
 90
        4
 70
     1
 43
0.0
 10
12.20974330707307
 20
28.14789574745094
 10
8.850698786449385
 20
22.32985997284487
 10
-8.850380580188158
 20
22.32985997284487
 10
-12.20942510081127
 20
28.14789574745094
1001
AcDbBlockRepETag
1070
     1
1071
      613
1005
E8F
  0
LWPOLYLINE
  5
E90
102
{ACAD_REACTORS
330
EB0
102
}
330
E7C
100
AcDbEntity
  8
APL Border
 62
     8
100
AcDbPolyline
 90
        6
 70
     0
 43
0.0
 10
5.580769717272147
 20
26.18861664944085
 10
5.137953374950967
 20
26.18861664944085
 10
4.909077041159065
 20
23.87985997284487
 10
4.132245970671277
 20
23.87985997284487
 10
4.429648034880159
 20
26.87985997284487
 10
5.793677369303878
 20
26.87985997284487
1001
AcDbBlockRepETag
1070
     1
1071
      614
1005
E90
  0
LWPOLYLINE
  5
E91
102
{ACAD_REACTORS
330
EBD
102
}
330
E7C
100
AcDbEntity
  8
APL Border
  6
Continuous
 62
     8
100
AcDbPolyline
 90
        4
 70
     1
 43
0.0
 10
1.119422795136273
 20
34.02289574745092
 10
0.3425917246484857
 20
34.02289574745092
 10
0.0451896604396041
 20
31.02289574745093
 10
0.8220207309273916
 20
31.02289574745093
1001
AcDbBlockRepETag
1070
     1
1071
      620
1005
E91
  0
LWPOLYLINE
  5
E92
102
{ACAD_REACTORS
330
EB0
102
}
330
E7C
100
AcDbEntity
  8
APL Border
 62
     8
100
AcDbPolyline
 90
        4
 70
     0
 43
0.0
 10
6.045077525535504
 20
25.1035057083981
 10
6.339444173005233
 20
23.87985997284487
 10
5.532386545886623
 20
23.87985997284487
 10
5.142141867913778
 20
25.50205881951548
1001
AcDbBlockRepETag
1070
     1
1071
      621
1005
E92
  0
LWPOLYLINE
  5
E93
102
{ACAD_REACTORS
330
EB1
102
}
330
E7C
100
AcDbEntity
  8
APL Border
 62
     8
100
AcDbPolyline
 90
        4
 70
     1
 43
0.0
 10
0.0001591031300165
 20
7.000275566930961
 10
3.563095122801513
 20
13.17146177711931
 10
-0.9450856774407441
 20
20.97985997284487
 10
-8.070957716782203
 20
20.97985997284487
1001
AcDbBlockRepETag
1070
     1
1071
      622
1005
E93
  0
LWPOLYLINE
  5
E94
102
{ACAD_REACTORS
330
EB5
102
}
330
E7C
100
AcDbEntity
  8
APL Border
 62
     8
100
AcDbPolyline
 90
        3
 70
     1
 43
0.0
 10
0.8484489512626112
 20
20.97985997284487
 10
4.459862437153191
 20
14.72470832814346
 10
8.071275923043373
 20
20.97985997284487
1001
AcDbBlockRepETag
1070
     1
1071
      623
1005
E94
  0
LWPOLYLINE
  5
E95
102
{ACAD_REACTORS
330
EB0
102
}
330
E7C
100
AcDbEntity
  8
APL Border
 62
     8
100
AcDbPolyline
 90
        4
 70
     0
 43
0.0
 10
-7.465264214605014
 20
24.80065518845331
 10
-7.259144283007998
 20
26.87985997284487
 10
-6.48231321252021
 20
26.87985997284487
 10
-6.679452083611295
 20
24.89125032803118
1001
AcDbBlockRepETag
1070
     1
1071
      626
1005
E95
  0
LWPOLYLINE
  5
E96
102
{ACAD_REACTORS
330
EB0
102
}
330
E7C
100
AcDbEntity
  8
APL Border
 62
     8
100
AcDbPolyline
 90
        4
 70
     0
 43
0.0
 10
-7.845603808282817
 20
23.89886637823479
 10
-8.399876560405061
 20
23.98304774476413
 10
-8.399876560405061
 20
24.64579492155148
 10
-7.81511791605564
 20
24.56632682606838
1001
AcDbBlockRepETag
1070
     1
1071
      627
1005
E96
  0
LWPOLYLINE
  5
E97
102
{ACAD_REACTORS
330
EBD
102
}
330
E7C
100
AcDbEntity
  8
APL Border
  6
Continuous
 62
     8
100
AcDbPolyline
 90
        6
 70
     1
 43
0.0
 10
-7.549934049473819
 20
34.02289574745092
 10
-8.326765119961606
 20
34.02289574745092
 10
-8.624167184170488
 20
31.02289574745093
 10
-6.770246795158442
 20
31.02289574745093
 10
-6.700109532938455
 20
31.73039516316516
 10
-7.777198851462713
 20
31.73039516316516
1001
AcDbBlockRepETag
1070
     1
1071
      628
1005
E97
  0
LWPOLYLINE
  5
E98
102
{ACAD_REACTORS
330
EBD
102
}
330
E7C
100
AcDbEntity
  8
APL Border
  6
Continuous
 62
     8
100
AcDbPolyline
 90
        3
 70
     1
 43
0.0
 10
-10.14693849009504
 20
33.12550842600547
 10
-10.00044093617224
 20
32.51653621849665
 10
-10.45444607654239
 20
32.51653621849665
1001
AcDbBlockRepETag
1070
     1
1071
      629
1005
E98
  0
LWPOLYLINE
  5
E99
102
{ACAD_REACTORS
330
EBD
102
}
330
E7C
100
AcDbEntity
  8
APL Border
  6
Continuous
 62
     8
100
AcDbPolyline
 90
        8
 70
     1
 43
0.0
 10
-8.834065309397374
 20
31.02289574745093
 10
-9.555761072109191
 20
34.02289574745092
 10
-10.50084997043805
 20
34.02289574745092
 10
-12.01573480092304
 20
31.02289574745093
 10
-11.20867717380426
 20
31.02289574745093
 10
-10.74455961985978
 20
31.94201027933759
 10
-9.862229957552528
 20
31.94201027933759
 10
-9.641122936515984
 20
31.02289574745093
1001
AcDbBlockRepETag
1070
     1
1071
      630
1005
E99
  0
LWPOLYLINE
  5
E9A
102
{ACAD_REACTORS
330
EB6
102
}
330
E7C
100
AcDbEntity
  8
APL Border
 62
     8
100
AcDbPolyline
 90
        3
 70
     1
 43
0.0
 10
0.0000000003145431
 20
4.000000000000009
 10
23.60256143704041
 20
44.88083558975217
 10
-23.60256142783933
 20
44.88083558975206
1001
AcDbBlockRepETag
1070
     1
1071
      631
1005
E9A
  0
LWPOLYLINE
  5
E9B
102
{ACAD_REACTORS
330
EB6
102
}
330
E7C
100
AcDbEntity
  8
APL Border
 62
     8
100
AcDbPolyline
 90
        3
 70
     1
 43
0.0
 10
27.06666305249243
 20
46.88083558975206
 10
-27.06666304266244
 20
46.88083558975206
 10
-0.0000000000000284
 20
0.0000000000000238
1001
AcDbBlockRepETag
1070
     1
1071
      703
1005
E9B
  0
LWPOLYLINE
  5
E9C
102
{ACAD_REACTORS
330
EBA
330
EBC
102
}
330
E7C
100
AcDbEntity
  8
APL Border
  6
Continuous
 62
     8
100
AcDbPolyline
 90
        8
 70
     1
 43
0.0
 10
7.980630193374565
 20
37.38083558975206
 10
6.582554574553398
 20
43.61979184908029
 10
4.406818458607517
 20
43.61979184908029
 10
1.603012232914267
 20
37.38083558975206
 10
3.477407896786047
 20
37.38083558975206
 10
4.077279381685002
 20
38.71565392391761
 10
5.783411270385897
 20
38.71565392391761
 10
6.082528124388858
 20
37.38083558975206
1001
AcDbBlockRepETag
1070
     1
1071
      760
1005
E9C
  0
LWPOLYLINE
  5
E9D
102
{ACAD_REACTORS
330
EBA
330
EBC
102
}
330
E7C
100
AcDbEntity
  8
APL Border
  6
Continuous
 62
     8
100
AcDbPolyline
 90
        3
 70
     1
 43
0.0
 10
5.206046831612667
 20
41.69367581194667
 10
5.552066120962537
 20
40.14955389030274
 10
4.512113667606024
 20
40.14955389030274
1001
AcDbBlockRepETag
1070
     1
1071
      761
1005
E9D
  0
LWPOLYLINE
  5
E9E
102
{ACAD_REACTORS
330
EBD
102
}
330
E7C
100
AcDbEntity
  8
APL Border
  6
Continuous
 62
     8
100
AcDbPolyline
 90
        4
 70
     1
 43
0.0
 10
5.615530392135354
 20
34.02289574745092
 10
4.838699321647567
 20
34.02289574745092
 10
4.541297257438685
 20
31.02289574745093
 10
5.318128327926473
 20
31.02289574745093
1001
AcDbBlockRepETag
1070
     1
1071
      785
1005
E9E
  0
LWPOLYLINE
  5
E9F
102
{ACAD_REACTORS
330
EBD
102
}
330
E7C
100
AcDbEntity
  8
APL Border
 62
     8
100
AcDbPolyline
 90
       13
 70
     0
 43
0.0
 10
-5.535628094882099
 20
32.1870929174454
 10
-5.353790768486447
 20
34.02289574745092
 10
-6.130425112774389
 20
34.0248801943346
 10
-6.333826921263238
 20
31.9730940808461
 42
0.1695250701542156
 10
-6.106840682758871
 20
31.39301551086222
 42
0.0826087127293405
 10
-5.813961912619959
 20
31.13108995311734
 42
0.1017056431856583
 10
-5.510404689928634
 20
31.02488019433462
 10
-4.760057203160528
 20
31.0248801943346
 42
0.1918846087154957
 10
-4.136172756560569
 20
31.41919793838074
 42
0.1021851328841131
 10
-3.889225876952792
 20
31.97309408084612
 10
-3.685824068463887
 20
34.0248801943346
 10
-4.462655138951674
 20
34.0248801943346
 10
-4.65073703420694
 20
32.12763147393075
1001
AcDbBlockRepETag
1070
     1
1071
      866
1005
E9F
  0
SPLINE
  5
EA0
102
{ACAD_REACTORS
330
EBD
102
}
330
E7C
100
AcDbEntity
  8
APL Border
 62
     8
100
AcDbSpline
210
0.0
220
0.0
230
1.0
 70
     8
 71
     3
 72
    24
 73
    20
 74
    18
 42
0.0000000001
 43
0.0000000001
 44
0.0000000001
 40
0.0
 40
0.0
 40
0.0
 40
0.0
 40
0.1612668085855933
 40
0.2532303870616441
 40
0.3214574742553387
 40
0.4101806452459026
 40
0.5031588697521256
 40
0.5664511009171887
 40
0.624871878778038
 40
0.6731644290699905
 40
0.7797386132933425
 40
0.9206747739903356
 40
1.025058962643435
 40
1.116412352300609
 40
1.212929457806147
 40
1.276240530363035
 40
1.339961572016457
 40
1.386280507025952
 40
1.435584820291647
 40
1.435584820291647
 40
1.435584820291647
 40
1.435584820291647
 10
-5.535628094882099
 20
32.1870929174454
 30
0.0
 10
-5.53213414748617
 20
32.13312332644234
 30
0.0
 10
-5.526647751003197
 20
32.04837718097616
 30
0.0
 10
-5.488860432547518
 20
31.94683424540268
 30
0.0
 10
-5.447171648840961
 20
31.8753242559261
 30
0.0
 10
-5.395818187958767
 20
31.80737001333622
 30
0.0
 10
-5.320761662408248
 20
31.77062767698265
 30
0.0
 10
-5.254477128417399
 20
31.74466351916423
 30
0.0
 10
-5.200112096792143
 20
31.72723210184819
 30
0.0
 10
-5.128888988289486
 20
31.72198763189771
 30
0.0
 10
-5.030042811850907
 20
31.72786870372271
 30
0.0
 10
-4.915707066470194
 20
31.75812586881066
 30
0.0
 10
-4.815771266393483
 20
31.81405298527761
 30
0.0
 10
-4.754740567305573
 20
31.89193427605802
 30
0.0
 10
-4.714673995441981
 20
31.96546823314959
 30
0.0
 10
-4.683526695854578
 20
32.03313813212702
 30
0.0
 10
-4.662006183068958
 20
32.08703079743258
 30
0.0
 10
-4.651792807669443
 20
32.13930455656534
 30
0.0
 10
-4.647206914869654
 20
32.17083533130903
 30
0.0
 10
-4.644842382192905
 20
32.1870929174454
 30
0.0
 11
-5.535628094882099
 21
32.1870929174454
 31
0.0
 11
-5.515298846223288
 21
32.02711258990369
 31
0.0
 11
-5.483433995220536
 21
31.94084596230824
 31
0.0
 11
-5.44947766231354
 21
31.88166908437061
 31
0.0
 11
-5.392321718875223
 21
31.8138089399536
 31
0.0
 11
-5.311535231450477
 21
31.76778184269665
 31
0.0
 11
-5.252609732475718
 21
31.74468006578604
 31
0.0
 11
-5.196420818688864
 21
31.72868652792477
 31
0.0
 11
-5.148347479287053
 21
31.72409039341204
 31
0.0
 11
-5.041949649235618
 21
31.73021889267523
 31
0.0
 11
-4.906104524581394
 21
31.76775692005663
 31
0.0
 11
-4.816802280674096
 21
31.82180475140893
 31
0.0
 11
-4.758009512288197
 21
31.89172507883507
 31
0.0
 11
-4.710553499371997
 21
31.97576958188711
 31
0.0
 11
-4.684063009443377
 21
32.03327215445256
 31
0.0
 11
-4.662061522518769
 21
32.09307437617135
 31
0.0
 11
-4.652346246099511
 21
32.13836297456555
 31
0.0
 11
-4.644842382192905
 21
32.1870929174454
 31
0.0
1001
AcDbBlockRepETag
1070
     1
1071
      827
1005
EA0
  0
LWPOLYLINE
  5
EA1
102
{ACAD_REACTORS
330
EBD
102
}
330
E7C
100
AcDbEntity
  8
APL Border
 62
     8
100
AcDbPolyline
 90
       13
 70
     0
 43
0.0
 10
6.787553510813182
 20
32.18510847056172
 10
6.969390837208834
 20
34.02091130056725
 10
6.192756492920892
 20
34.02289574745092
 10
5.989354684432043
 20
31.97110963396243
 42
0.1695250701542156
 10
6.21634092293641
 20
31.39103106397854
 42
0.0826087127293405
 10
6.509219693075323
 20
31.12910550623367
 42
0.1017056431856583
 10
6.812776915766647
 20
31.02289574745094
 10
7.563124402534754
 20
31.02289574745093
 42
0.1918846087154957
 10
8.187008849134713
 20
31.41721349149707
 42
0.1021851328841131
 10
8.433955728742489
 20
31.97110963396244
 10
8.637357537231395
 20
34.02289574745092
 10
7.860526466743607
 20
34.02289574745092
 10
7.672444571488341
 20
32.12564702704707
1001
AcDbBlockRepETag
1070
     1
1071
      837
1005
EA1
  0
LWPOLYLINE
  5
EA2
102
{ACAD_REACTORS
330
EBD
102
}
330
E7C
100
AcDbEntity
  8
APL Border
  6
Continuous
 62
     8
100
AcDbPolyline
 90
       13
 70
     1
 43
0.0
 10
-1.295012624591635
 20
34.02807364104484
 10
-0.1975458970834154
 20
34.0280551402308
 10
-0.4949479612922972
 20
31.0280551402308
 10
-1.115886909891884
 20
31.0280551402308
 10
-0.9222174129992311
 20
32.98166797820307
 10
-1.611942464131544
 20
31.0280551402308
 10
-2.344230471214956
 20
31.0280551402308
 10
-2.63016252924163
 20
32.98166797820306
 10
-2.823832026134283
 20
31.0280551402308
 10
-3.44477097473387
 20
31.0280551402308
 10
-3.147349004861581
 20
34.02825593571061
 10
-2.047349004861558
 20
34.02825593571061
 10
-1.8272453185659
 20
32.52441131541936
1001
AcDbBlockRepETag
1070
     1
1071
      867
1005
EA2
  0
LWPOLYLINE
  5
EA3
102
{ACAD_REACTORS
330
EBD
102
}
330
E7C
100
AcDbEntity
  8
APL Border
  6
Continuous
 62
     8
100
AcDbPolyline
 90
       10
 70
     1
 43
0.0
 10
1.724974710806094
 20
34.02289574745092
 10
1.427552740933805
 20
31.02269495197112
 10
2.048491689533392
 20
31.02269495197112
 10
2.231899581960561
 20
32.87279534971117
 10
3.051434648859952
 20
31.02269495197112
 10
3.902826396438257
 20
31.02269495197112
 10
4.200228460647139
 20
34.02269495197112
 10
3.580266230192904
 20
34.02269495197112
 10
3.395920304875374
 20
32.17298478610545
 10
2.576558098165463
 20
34.02269495197112
1001
AcDbBlockRepETag
1070
     1
1071
      616
1005
EA3
  0
LWPOLYLINE
  5
EA4
102
{ACAD_REACTORS
330
EBD
102
}
330
E7C
100
AcDbEntity
  8
APL Border
  6
Continuous
 62
     8
100
AcDbPolyline
 90
       13
 70
     1
 43
0.0
 10
11.01183437133605
 20
34.02271345278515
 10
12.10930109884427
 20
34.02269495197111
 10
11.81189903463539
 20
31.02269495197111
 10
11.1909600860358
 20
31.02269495197111
 10
11.38462958292845
 20
32.97630778994339
 10
10.69490453179614
 20
31.02269495197111
 10
9.962616524712728
 20
31.02269495197111
 10
9.676684466686054
 20
32.97630778994338
 10
9.483014969793401
 20
31.02269495197111
 10
8.862076021193814
 20
31.02269495197111
 10
9.159497991066103
 20
34.02289574745092
 10
10.25949799106612
 20
34.02289574745092
 10
10.47960167736178
 20
32.51905112715967
1001
AcDbBlockRepETag
1070
     1
1071
      847
1005
EA4
  0
SPLINE
  5
EA5
102
{ACAD_REACTORS
330
EBD
102
}
330
E7C
100
AcDbEntity
  8
APL Border
 62
     8
100
AcDbSpline
210
0.0
220
0.0
230
1.0
 70
     8
 71
     3
 72
    24
 73
    20
 74
    18
 42
0.0000000001
 43
0.0000000001
 44
0.0000000001
 40
0.0
 40
0.0
 40
0.0
 40
0.0
 40
0.1612668085856004
 40
0.2532303870616512
 40
0.3214574742553458
 40
0.4101806452458731
 40
0.5031588697521455
 40
0.5664511009172086
 40
0.6248718787780579
 40
0.6731644290699537
 40
0.7797386132933625
 40
0.9206747739903555
 40
1.025058962643406
 40
1.116412352300617
 40
1.212929457806155
 40
1.276240530363043
 40
1.339961572016455
 40
1.386280507025956
 40
1.435584820291643
 40
1.435584820291643
 40
1.435584820291643
 40
1.435584820291643
 10
6.787553510813182
 20
32.18510847056172
 30
0.0
 10
6.791047458209138
 20
32.13113887955867
 30
0.0
 10
6.796533854692151
 20
32.04639273409249
 30
0.0
 10
6.834321173147815
 20
31.94484979851901
 30
0.0
 10
6.876009956854381
 20
31.87333980904243
 30
0.0
 10
6.927363417736518
 20
31.80538556645249
 30
0.0
 10
7.002419943287081
 20
31.76864323009899
 30
0.0
 10
7.068704477277941
 20
31.74267907228054
 30
0.0
 10
7.123069508903178
 20
31.72524765496453
 30
0.0
 10
7.194292617405833
 20
31.72000318501402
 30
0.0
 10
7.293138793844411
 20
31.72588425683905
 30
0.0
 10
7.407474539225143
 20
31.75614142192696
 30
0.0
 10
7.507410339301799
 20
31.81206853839397
 30
0.0
 10
7.568441038389779
 20
31.88994982917432
 30
0.0
 10
7.608507610253345
 20
31.96348378626594
 30
0.0
 10
7.639654909840773
 20
32.03115368524333
 30
0.0
 10
7.661175422626328
 20
32.08504635054892
 30
0.0
 10
7.671388798025919
 20
32.13732010968165
 30
0.0
 10
7.675974690825655
 20
32.16885088442535
 30
0.0
 10
7.678339223502376
 20
32.18510847056172
 30
0.0
 11
6.787553510813182
 21
32.18510847056172
 31
0.0
 11
6.80788275947205
 21
32.02512814302002
 31
0.0
 11
6.839747610474802
 21
31.93886151542456
 31
0.0
 11
6.873703943381798
 21
31.87968463748693
 31
0.0
 11
6.930859886820059
 21
31.81182449306993
 31
0.0
 11
7.011646374244861
 21
31.76579739581298
 31
0.0
 11
7.07057187321962
 21
31.74269561890237
 31
0.0
 11
7.126760787006475
 21
31.72670208104109
 31
0.0
 11
7.174834126408228
 21
31.72210594652836
 31
0.0
 11
7.28123195645972
 21
31.72823444579155
 31
0.0
 11
7.417077081113944
 21
31.76577247317295
 31
0.0
 11
7.506379325021185
 21
31.81982030452526
 31
0.0
 11
7.565172093407142
 21
31.88974063195139
 31
0.0
 11
7.612628106323342
 21
31.97378513500343
 31
0.0
 11
7.639118596251961
 21
32.03128770756889
 31
0.0
 11
7.661120083176541
 21
32.09108992928768
 31
0.0
 11
7.670835359595827
 21
32.13637852768188
 31
0.0
 11
7.678339223502376
 21
32.18510847056172
 31
0.0
1001
AcDbBlockRepETag
1070
     1
1071
      848
1005
EA5
  0
LWPOLYLINE
  5
EA6
102
{ACAD_REACTORS
330
EB0
102
}
330
E7C
100
AcDbEntity
  8
APL Border
  6
Continuous
 62
     8
100
AcDbPolyline
 90
        4
 70
     1
 43
0.0
 10
-1.87552020613694
 20
26.87985997284487
 10
-2.652351276624727
 20
26.87985997284487
 10
-2.949753340833609
 20
23.87985997284487
 10
-2.172922270345821
 20
23.87985997284487
1001
AcDbBlockRepETag
1070
     1
1071
      851
1005
EA6
  0
LWPOLYLINE
  5
EA7
102
{ACAD_REACTORS
330
EB0
102
}
330
E7C
100
AcDbEntity
  8
APL Border
  6
Continuous
 62
     8
100
AcDbPolyline
 90
       10
 70
     1
 43
0.0
 10
-1.269968290467119
 20
26.87985997284487
 10
-1.567390260339408
 20
23.87965917736506
 10
-0.9464513117398212
 20
23.87965917736506
 10
-0.7630434193126519
 20
25.72975957510511
 10
0.0564916475867392
 20
23.87965917736506
 10
0.9078833951650437
 20
23.87965917736506
 10
1.205285459373925
 20
26.87965917736506
 10
0.5853232289196911
 20
26.87965917736506
 10
0.4009773036021614
 20
25.0299490114994
 10
-0.41838490310775
 20
26.87965917736506
1001
AcDbBlockRepETag
1070
     1
1071
      852
1005
EA7
  0
LWPOLYLINE
  5
EA8
102
{ACAD_REACTORS
330
EB0
102
}
330
E7C
100
AcDbEntity
  8
APL Border
 62
     8
100
AcDbPolyline
 90
       13
 70
     0
 43
0.0
 10
1.882971499788112
 20
26.87985997284487
 10
3.847979515363789
 20
26.87985997284487
 10
3.788499102522024
 20
26.27985997284487
 10
2.600322157434135
 20
26.27985997284487
 10
2.540562294183217
 20
25.67704105755032
 10
3.542578834455781
 20
25.67704105755032
 10
3.476410183919
 20
25.07985997284487
 10
2.474393643646379
 20
25.07985997284487
 10
2.421932428393546
 20
24.48037956726917
 10
3.610109373481435
 20
24.48037956726917
 10
3.550577451154907
 20
23.87985997284487
 10
1.58556943557923
 20
23.87985997284487
 10
1.882971499788112
 20
26.87985997284487
1001
AcDbBlockRepETag
1070
     1
1071
      864
1005
EA8
  0
LINE
  5
EA9
102
{ACAD_REACTORS
330
EB0
102
}
330
E7C
100
AcDbEntity
  8
APL Border
 62
     8
100
AcDbLine
 10
5.198870965514487
 20
25.50205881951548
 30
0.0
 11
5.142141867913778
 21
25.50205881951548
 31
0.0
1001
AcDbBlockRepETag
1070
     1
1071
      865
1005
EA9
  0
SPLINE
  5
EAA
102
{ACAD_REACTORS
330
EB0
102
}
330
E7C
100
AcDbEntity
  8
APL Border
 62
     8
100
AcDbSpline
210
0.0
220
0.0
230
1.0
 70
     8
 71
     3
 72
    25
 73
    21
 74
     0
 42
0.0000000001
 43
0.0000000001
 40
0.0
 40
0.0
 40
0.0
 40
0.0
 40
0.3463130802699203
 40
0.6043703055549736
 40
0.8524756959462802
 40
1.099102870182333
 40
1.318598063912852
 40
1.521064627602771
 40
1.694788988362445
 40
1.912615757663666
 40
2.142780600046976
 40
2.483378398179008
 40
2.873129106540456
 40
3.09179617846886
 40
3.322387155839943
 40
3.509181810940893
 40
3.69147909649244
 40
3.927844502409028
 40
4.143063657146388
 40
4.406491840702669
 40
4.406491840702669
 40
4.406491840702669
 40
4.406491840702669
 10
-5.114032196843737
 20
23.8798599728377
 30
0.0
 10
-5.228982970363915
 20
23.89503832123493
 30
0.0
 10
-5.429589987754155
 20
23.92152690506636
 30
0.0
 10
-5.693675021857103
 20
24.03567408988205
 30
0.0
 10
-5.892941488864977
 20
24.19306688135278
 30
0.0
 10
-6.036314150572081
 20
24.38541826526996
 30
0.0
 10
-6.137502326421099
 20
24.58575647986304
 30
0.0
 10
-6.184089306330008
 20
24.77995730666768
 30
0.0
 10
-6.209030826709039
 20
24.97670983726675
 30
0.0
 10
-6.206060891535827
 20
25.18442176502657
 30
0.0
 10
-6.186178297010457
 20
25.44676950423098
 30
0.0
 10
-6.128537036390639
 20
25.76177491648128
 30
0.0
 10
-6.024273636684796
 20
26.06592307272473
 30
0.0
 10
-5.858617591962229
 20
26.29271170654482
 30
0.0
 10
-5.725334295882049
 20
26.45803039682342
 30
0.0
 10
-5.575727893531166
 20
26.59168695454355
 30
0.0
 10
-5.409633372236157
 20
26.70740493083671
 30
0.0
 10
-5.217340570729675
 20
26.79721770551459
 30
0.0
 10
-4.988026372094168
 20
26.86731869684436
 30
0.0
 10
-4.849424991220388
 20
26.87777876054341
 30
0.0
 10
-4.7645039250757
 20
26.87985997283595
 30
0.0
1001
AcDbBlockRepETag
1070
     1
1071
      875
1005
EAA
  0
ELLIPSE
  5
EAB
102
{ACAD_REACTORS
330
EAF
330
EB0
102
}
330
E7C
100
AcDbEntity
  8
APL Border
 62
     8
100
AcDbEllipse
 10
-4.728528852722632
 20
25.3825150979867
 30
0.0
 11
-0.2732326585474372
 21
-0.8283682112856686
 31
0.0
210
0.0
220
0.0
230
-1.0
 40
0.767138872147242
 41
0.0
 42
6.283185307179586
1001
AcDbBlockRepETag
1070
     1
1071
      876
1005
EAB
  0
SPLINE
  5
EAC
102
{ACAD_REACTORS
330
EB0
102
}
330
E7C
100
AcDbEntity
  8
APL Border
 62
     8
100
AcDbSpline
210
0.0
220
0.0
230
1.0
 70
     8
 71
     3
 72
    26
 73
    22
 74
     0
 42
0.0000000001
 43
0.0000000001
 40
4.60284491300692
 40
4.60284491300692
 40
4.60284491300692
 40
4.60284491300692
 40
4.695921259854779
 40
4.963507654731998
 40
5.182979392648435
 40
5.397234555269768
 40
5.619529682274728
 40
5.869260387557257
 40
6.093250787730498
 40
6.263427758207029
 40
6.582064557968705
 40
6.800458868269094
 40
7.179401531729983
 40
7.575889850719137
 40
7.787844664578662
 40
8.01909420716162
 40
8.205730502580088
 40
8.387453763945252
 40
8.621856230932909
 40
8.833419194479944
 40
8.988019761194074
 40
8.988019761194074
 40
8.988019761194074
 40
8.988019761194074
 10
-4.486699891621668
 20
26.8798599728377
 30
0.0
 10
-4.440001835107608
 20
26.87954742494388
 30
0.0
 10
-4.335540249228728
 20
26.87475925711838
 30
0.0
 10
-4.164200665084621
 20
26.85307202884131
 30
0.0
 10
-3.96932086400659
 20
26.77880589501945
 30
0.0
 10
-3.766465201232762
 20
26.6658847706859
 30
0.0
 10
-3.60114437794968
 20
26.50570040783856
 30
0.0
 10
-3.471205788265336
 20
26.31143584383913
 30
0.0
 10
-3.381388817883674
 20
26.11392472080339
 30
0.0
 10
-3.317144182132551
 20
25.88552622199355
 30
0.0
 10
-3.281793375658168
 20
25.65006475492956
 30
0.0
 10
-3.30137826591374
 20
25.34538614523087
 30
0.0
 10
-3.327064239225308
 20
25.0112478652753
 30
0.0
 10
-3.471288581215731
 20
24.71021445059323
 30
0.0
 10
-3.60460091530777
 20
24.4641890220082
 30
0.0
 10
-3.737092402415015
 20
24.29954990084814
 30
0.0
 10
-3.882945983371143
 20
24.16225529150343
 30
0.0
 10
-4.046861838463826
 20
24.04508050911121
 30
0.0
 10
-4.233796525969012
 20
23.94884265716423
 30
0.0
 10
-4.427631511903911
 20
23.89220734010023
 30
0.0
 10
-4.549580407823555
 20
23.882511578974
 30
0.0
 10
-4.601116794093542
 20
23.87985997285202
 30
0.0
1001
AcDbBlockRepETag
1070
     1
1071
      877
1005
EAC
  0
LWPOLYLINE
  5
EAD
102
{ACAD_REACTORS
330
EB0
102
}
330
E7C
100
AcDbEntity
  8
APL Border
 62
     8
100
AcDbPolyline
 90
        2
 70
     0
 43
0.0
 10
-4.764503925211641
 20
26.8798599728377
 10
-4.486699891621924
 20
26.8798599728377
1001
AcDbBlockRepETag
1070
     1
1071
      878
1005
EAD
  0
LWPOLYLINE
  5
EAE
102
{ACAD_REACTORS
330
EB0
102
}
330
E7C
100
AcDbEntity
  8
APL Border
 62
     8
100
AcDbPolyline
 90
        2
 70
     0
 43
0.0
 10
-5.114032196843737
 20
23.8798599728377
 10
-4.601116794093513
 20
23.87985997285202
1001
AcDbBlockRepETag
1070
     1
1071
      879
1005
EAE
  0
HATCH
  5
EAF
330
E7C
100
AcDbEntity
  8
APL Border
 62
     8
100
AcDbHatch
 10
0.0
 20
0.0
 30
0.0
210
0.0
220
0.0
230
1.0
  2
SOLID
 70
     1
 71
     1
 91
        1
 92
        5
 93
        1
 72
     3
 10
-4.728528852722632
 20
25.3825150979867
 11
-0.2732326585474372
 21
-0.8283682112856686
 40
0.767138872147242
 50
0.0
 51
360.0
 73
     0
 97
        1
330
EAB
 75
     0
 76
     1
 47
0.0172809346375552
 98
        1
 10
-4.520972790815363
 20
25.15086651129009
1001
ACAD
1010
0.0
1020
0.0
1030
0.0
1001
AcDbBlockRepETag
1070
     1
1071
      880
1005
EAF
  0
HATCH
  5
EB0
330
E7C
100
AcDbEntity
  8
APL Border
 62
     8
100
AcDbHatch
 10
0.0
 20
0.0
 30
0.0
210
0.0
220
0.0
230
1.0
  2
SOLID
 70
     1
 71
     1
 91
        9
 92
        7
 72
     0
 73
     1
 93
        4
 10
-12.20942510081127
 20
28.14789574745095
 10
-8.85038058018816
 20
22.32985997284487
 10
8.850698786449385
 20
22.32985997284487
 10
12.20974330707306
 20
28.14789574745094
 97
        1
330
E8F
 92
       20
 93
        4
 72
     4
 94
        3
 73
     0
 74
     0
 95
       25
 96
       21
 40
0.0
 40
0.0
 40
0.0
 40
0.0
 40
0.3463130802699203
 40
0.6043703055549736
 40
0.8524756959462802
 40
1.099102870182333
 40
1.318598063912852
 40
1.521064627602771
 40
1.694788988362445
 40
1.912615757663666
 40
2.142780600046976
 40
2.483378398179008
 40
2.873129106540456
 40
3.09179617846886
 40
3.322387155839943
 40
3.509181810940893
 40
3.69147909649244
 40
3.927844502409028
 40
4.143063657146388
 40
4.406491840702669
 40
4.406491840702669
 40
4.406491840702669
 40
4.406491840702669
 10
-5.114032196843737
 20
23.8798599728377
 10
-5.228982970363915
 20
23.89503832123493
 10
-5.429589987754155
 20
23.92152690506636
 10
-5.693675021857103
 20
24.03567408988205
 10
-5.892941488864977
 20
24.19306688135278
 10
-6.036314150572081
 20
24.38541826526996
 10
-6.137502326421099
 20
24.58575647986304
 10
-6.184089306330008
 20
24.77995730666768
 10
-6.209030826709039
 20
24.97670983726675
 10
-6.206060891535827
 20
25.18442176502657
 10
-6.186178297010457
 20
25.44676950423098
 10
-6.128537036390639
 20
25.76177491648128
 10
-6.024273636684796
 20
26.06592307272473
 10
-5.858617591962229
 20
26.29271170654482
 10
-5.725334295882049
 20
26.45803039682342
 10
-5.575727893531166
 20
26.59168695454355
 10
-5.409633372236157
 20
26.70740493083671
 10
-5.217340570729675
 20
26.79721770551459
 10
-4.988026372094168
 20
26.86731869684436
 10
-4.849424991220388
 20
26.87777876054341
 10
-4.7645039250757
 20
26.87985997283595
 72
     1
 10
-4.764503925020689
 20
26.87985997283771
 11
-4.486699891621347
 21
26.8798599728377
 72
     4
 94
        3
 73
     0
 74
     0
 95
       26
 96
       22
 40
4.60284491300692
 40
4.60284491300692
 40
4.60284491300692
 40
4.60284491300692
 40
4.695921259854779
 40
4.963507654731998
 40
5.182979392648435
 40
5.397234555269768
 40
5.619529682274728
 40
5.869260387557257
 40
6.093250787730498
 40
6.263427758207029
 40
6.582064557968705
 40
6.800458868269094
 40
7.179401531729983
 40
7.575889850719137
 40
7.787844664578662
 40
8.01909420716162
 40
8.205730502580088
 40
8.387453763945252
 40
8.621856230932909
 40
8.833419194479944
 40
8.988019761194074
 40
8.988019761194074
 40
8.988019761194074
 40
8.988019761194074
 10
-4.486699891621668
 20
26.8798599728377
 10
-4.440001835107608
 20
26.87954742494388
 10
-4.335540249228728
 20
26.87475925711838
 10
-4.164200665084621
 20
26.85307202884131
 10
-3.96932086400659
 20
26.77880589501945
 10
-3.766465201232762
 20
26.6658847706859
 10
-3.60114437794968
 20
26.50570040783856
 10
-3.471205788265336
 20
26.31143584383913
 10
-3.381388817883674
 20
26.11392472080339
 10
-3.317144182132551
 20
25.88552622199355
 10
-3.281793375658168
 20
25.65006475492956
 10
-3.30137826591374
 20
25.34538614523087
 10
-3.327064239225308
 20
25.0112478652753
 10
-3.471288581215731
 20
24.71021445059323
 10
-3.60460091530777
 20
24.4641890220082
 10
-3.737092402415015
 20
24.29954990084814
 10
-3.882945983371143
 20
24.16225529150343
 10
-4.046861838463826
 20
24.04508050911121
 10
-4.233796525969012
 20
23.94884265716423
 10
-4.427631511903911
 20
23.89220734010023
 10
-4.549580407823555
 20
23.882511578974
 10
-4.601116794093542
 20
23.87985997285202
 72
     1
 10
-4.601116794093525
 20
23.87985997285202
 11
-5.114032196843729
 21
23.8798599728377
 97
        4
330
EAA
330
EAD
330
EAC
330
EAE
 92
        4
 93
        1
 72
     3
 10
-4.728528852722632
 20
25.3825150979867
 11
-0.2732326585474372
 21
-0.8283682112856686
 40
0.767138872147242
 50
0.0
 51
360.0
 73
     0
 97
        1
330
EAB
 92
       20
 93
        8
 72
     1
 10
-6.482313212520211
 20
26.87985997284487
 11
-6.679452083611267
 21
24.89125032803125
 72
     4
 94
        3
 73
     0
 74
     0
 95
       16
 96
       12
 40
0.0
 40
0.0
 40
0.0
 40
0.0
 40
0.1978277931646383
 40
0.361463118001824
 40
0.5540499897785108
 40
0.7796220130725381
 40
0.979106605438038
 40
1.222151590302332
 40
1.40748727220097
 40
1.607226525619232
 40
1.815049166761618
 40
1.815049166761618
 40
1.815049166761618
 40
1.815049166761618
 10
-6.679452083611295
 20
24.89125032803118
 10
-6.685371732996685
 20
24.82559351525052
 10
-6.696187882184318
 20
24.70562798418881
 10
-6.721757155054632
 20
24.52229576436942
 10
-6.768469983285655
 20
24.33480615160982
 10
-6.860719723390843
 20
24.14153771241002
 10
-7.051789745146265
 20
24.01851519430106
 10
-7.233921808197266
 20
23.91285203345821
 10
-7.443451931375136
 20
23.87675735439051
 10
-7.641222718647384
 20
23.88093312949101
 10
-7.776581895343355
 20
23.89281010788354
 10
-7.845603808282817
 20
23.89886637823479
 72
     1
 10
-7.845603808282787
 20
23.89886637823479
 11
-8.399876560405061
 21
23.98304774476413
 72
     1
 10
-8.399876560405061
 20
23.98304774476413
 11
-8.399876560405061
 21
24.64579492155148
 72
     1
 10
-8.399876560405061
 20
24.64579492155148
 11
-7.815117916056302
 21
24.56632682606845
 72
     4
 94
        3
 73
     0
 74
     0
 95
       11
 96
        7
 40
0.0
 40
0.0
 40
0.0
 40
0.0
 40
0.2042619346961744
 40
0.3074129668363174
 40
0.4146012126853764
 40
0.4826852714337078
 40
0.4826852714337078
 40
0.4826852714337078
 40
0.4826852714337078
 10
-7.815117916056323
 20
24.56632682606847
 10
-7.743266182308218
 20
24.55714977626708
 10
-7.635129760920136
 20
24.54333837224583
 10
-7.524447891091284
 20
24.63752792323729
 10
-7.477352395049535
 20
24.71998790389099
 10
-7.468646137215245
 20
24.77808681972154
 10
-7.465264214605014
 20
24.80065518845331
 72
     1
 10
-7.465264214605014
 20
24.80065518845333
 11
-7.259144283007996
 21
26.87985997284487
 72
     1
 10
-7.259144283007996
 20
26.87985997284487
 11
-6.482313212520211
 21
26.87985997284487
 97
        4
330
E95
330
E80
330
E96
330
E81
 92
       22
 72
     0
 73
     1
 93
        4
 10
-2.652351276624725
 20
26.87985997284486
 10
-1.87552020613694
 20
26.87985997284486
 10
-2.172922270345821
 20
23.87985997284487
 10
-2.949753340833609
 20
23.87985997284487
 97
        1
330
EA6
 92
       22
 72
     0
 73
     1
 93
       10
 10
-1.269968290467114
 20
26.87985997284487
 10
-0.4183849031077484
 20
26.87965917736506
 10
0.4009773036021615
 20
25.0299490114994
 10
0.5853232289196909
 20
26.87965917736506
 10
1.205285459373925
 20
26.87965917736506
 10
0.9078833951650439
 20
23.87965917736506
 10
0.056491647586738
 20
23.87965917736506
 10
-0.7630434193126518
 20
25.72975957510511
 10
-0.946451311739821
 20
23.87965917736506
 10
-1.567390260339408
 20
23.87965917736506
 97
        1
330
EA7
 92
       22
 72
     0
 73
     1
 93
       12
 10
1.882971499788112
 20
26.87985997284486
 10
3.847979515363789
 20
26.87985997284486
 10
3.788499102522024
 20
26.27985997284486
 10
2.600322157434135
 20
26.27985997284487
 10
2.540562294183218
 20
25.67704105755032
 10
3.542578834455781
 20
25.67704105755032
 10
3.476410183919
 20
25.07985997284487
 10
2.47439364364638
 20
25.07985997284487
 10
2.421932428393546
 20
24.48037956726917
 10
3.610109373481436
 20
24.48037956726917
 10
3.550577451154907
 20
23.87985997284487
 10
1.585569435579231
 20
23.87985997284487
 97
        1
330
EA8
 92
       20
 93
       11
 72
     1
 10
4.429648034880159
 20
26.87985997284486
 11
5.780015564168562
 21
26.87985997284487
 72
     4
 94
        3
 73
     0
 74
     0
 95
       20
 96
       16
 40
0.0
 40
0.0
 40
0.0
 40
0.0
 40
0.1774120264923274
 40
0.3258093286713144
 40
0.4834060703451958
 40
0.6311237014699663
 40
0.811161917566129
 40
0.9605198197290178
 40
1.289502400757101
 40
1.459697744220917
 40
1.604754171475458
 40
1.794797311213428
 40
2.030760379210173
 40
2.301729078160567
 40
2.393267743077617
 40
2.393267743077617
 40
2.393267743077617
 40
2.393267743077617
 10
5.780015564168593
 20
26.87985997284487
 10
5.839056126904296
 20
26.87337384475878
 10
5.947481505327601
 20
26.86146235781404
 10
6.098807931884806
 20
26.80185114122353
 10
6.227972759762906
 20
26.72168911843352
 10
6.347510602881385
 20
26.61140356622764
 10
6.442310149474394
 20
26.48207375794227
 10
6.536759215535255
 20
26.28338234239492
 10
6.578465181725675
 20
26.06469589684353
 10
6.553150099427256
 20
25.85079503063701
 10
6.524121382020268
 20
25.68499989147718
 10
6.464236525716046
 20
25.50199988960434
 10
6.327150620479812
 20
25.31187331731421
 10
6.179477266233362
 20
25.17172660684537
 10
6.072729148555964
 20
25.11631253421805
 10
6.045077525535504
 20
25.10350570839811
 72
     1
 10
6.045077525535502
 20
25.1035057083981
 11
6.339444173005232
 21
23.87985997284487
 72
     1
 10
6.339444173005232
 20
23.87985997284487
 11
5.532386545886621
 21
23.87985997284487
 72
     1
 10
5.532386545886621
 20
23.87985997284487
 11
5.142141867913776
 21
25.50205881951548
 72
     1
 10
5.142141867913776
 20
25.50205881951548
 11
5.19887096551445
 21
25.50205881951548
 72
     4
 94
        3
 73
     0
 74
     0
 95
       17
 96
       13
 40
0.0
 40
0.0
 40
0.0
 40
0.0
 40
0.0463117202933683
 40
0.2032408426961212
 40
0.3585694343029505
 40
0.4964057577712057
 40
0.6456565825699876
 40
0.7595770154256244
 40
0.9262943680254526
 40
1.032180609131101
 40
1.14647028625934
 40
1.243973057737614
 40
1.243973057737614
 40
1.243973057737614
 40
1.243973057737614
 10
5.198870965514487
 20
25.50205881951548
 10
5.214272018053407
 20
25.50302975767877
 10
5.28186015506489
 20
25.50729075876586
 10
5.40176083940824
 20
25.51345804330556
 10
5.546675458142118
 20
25.55725132865025
 10
5.67725421213268
 20
25.62965962372397
 10
5.765298612935083
 20
25.7349784962169
 10
5.820388894698254
 20
25.86817511516085
 10
5.832561030472788
 20
26.0011917111029
 10
5.781919321100474
 20
26.1258482190374
 10
5.684603990133524
 20
26.18537947021099
 10
5.613502616848251
 20
26.1875961553427
 10
5.580769717272147
 20
26.18861664944085
 72
     1
 10
5.580769717272125
 20
26.18861664944085
 11
5.137953374950967
 21
26.18861664944085
 72
     1
 10
5.137953374950967
 20
26.18861664944085
 11
4.909077041159065
 21
23.87985997284487
 72
     1
 10
4.909077041159065
 20
23.87985997284487
 11
4.132245970671278
 21
23.87985997284487
 72
     1
 10
4.132245970671278
 20
23.87985997284487
 11
4.429648034880159
 21
26.87985997284486
 97
        5
330
E90
330
E82
330
E92
330
EA9
330
E83
 92
       22
 72
     0
 73
     1
 93
        9
 10
6.800478684667179
 20
26.87985997284487
 10
7.607536311785904
 20
26.87985997284487
 10
7.963471882016363
 20
25.86355557445326
 10
8.538893993587493
 20
26.87985997284487
 10
9.414203966725493
 20
26.87985997284487
 10
8.232331174709315
 20
25.00957443408062
 10
8.120338037129924
 20
23.87985997284486
 10
7.343506966642139
 20
23.87985997284486
 10
7.455500104221528
 20
25.00957443408062
 97
        1
330
E8E
 75
     0
 76
     1
 47
0.0276408434878157
 98
        9
 10
-5.110068937762804
 20
27.30829258594788
 10
-5.110068937762804
 20
27.30829258594788
 10
-5.110068937762804
 20
27.30829258594788
 10
-5.110068937762804
 20
27.30829258594788
 10
-5.110068937762804
 20
27.30829258594788
 10
-5.110068937762804
 20
27.30829258594788
 10
-5.110068937762804
 20
27.30829258594788
 10
-5.110068937762804
 20
27.30829258594788
 10
-5.110068937762804
 20
27.30829258594788
1001
ACAD
1010
0.0
1020
0.0
1030
0.0
1001
AcDbBlockRepETag
1070
     1
1071
      881
1005
EB0
  0
HATCH
  5
EB1
330
E7C
100
AcDbEntity
  8
APL Border
 62
     8
100
AcDbHatch
 10
0.0
 20
0.0
 30
0.0
210
0.0
220
0.0
230
1.0
  2
SOLID
 70
     1
 71
     1
 91
        1
 92
        7
 72
     0
 73
     1
 93
        4
 10
0.0001591031300169
 20
7.000275566930961
 10
3.563095122801513
 20
13.17146177711931
 10
-0.9450856774407473
 20
20.97985997284487
 10
-8.070957716782199
 20
20.97985997284487
 97
        1
330
E93
 75
     0
 76
     1
 47
0.0707162833847576
 98
        3
 10
-2.675438732228172
 20
16.47794635472378
 10
6.312751868664321
 20
42.28939048605213
 10
-9.894301834166896
 20
39.60217176706084
1001
ACAD
1010
0.0
1020
0.0
1030
0.0
1001
AcDbBlockRepETag
1070
     1
1071
      883
1005
EB1
  0
HATCH
  5
EB2
330
E7C
100
AcDbEntity
  8
APL Border
 62
     8
100
AcDbHatch
 10
0.0
 20
0.0
 30
0.0
210
0.0
220
0.0
230
1.0
  2
SOLID
 70
     1
 71
     0
 91
        1
 92
        7
 72
     0
 73
     1
 93
        7
 10
-12.96642015501169
 20
43.61979184908029
 10
-14.7664201550117
 20
43.61979184908029
 10
-16.54136876356097
 20
39.42215966960598
 10
-17.19614352503853
 20
43.61979184908029
 10
-18.99614352503854
 20
43.61979184908029
 10
-17.7875751270476
 20
37.38083558975206
 10
-15.77022638070493
 20
37.38083558975206
 97
        0
 75
     0
 76
     1
 47
0.0707162833847576
 98
        3
 10
6.249678794057444
 20
42.28939048605213
 10
-9.957374908773772
 20
39.60217176706084
 10
-16.39773218462096
 20
38.68285940442952
1001
ACAD
1010
0.0
1020
0.0
1030
0.0
1001
AcDbBlockRepETag
1070
     1
1071
      884
1005
EB2
  0
HATCH
  5
EB3
330
E7C
100
AcDbEntity
  8
APL Border
 62
     8
100
AcDbHatch
 10
0.0
 20
0.0
 30
0.0
210
0.0
220
0.0
230
1.0
  2
SOLID
 70
     1
 71
     1
 91
        1
 92
        7
 72
     0
 73
     1
 93
       10
 10
-2.850928947786229
 20
37.38083558975206
 10
-2.181839912298442
 20
43.6197918490803
 10
-3.855464624526036
 20
43.61979184908029
 10
-4.228474015381578
 20
40.14164596649268
 10
-5.40751765387219
 20
43.61979184908029
 10
-7.466097855805088
 20
43.61979184908029
 10
-8.135186891292875
 20
37.38083558975206
 10
-6.479801476178323
 20
37.38083558975206
 10
-6.131920885667285
 20
40.6246666384634
 10
-5.032306754624555
 20
37.38083558975206
 97
        1
330
E8A
 75
     0
 76
     1
 47
0.0707162833847576
 98
        3
 10
6.312751868664321
 20
42.28939048605213
 10
-5.364819983741796
 20
40.80434854252457
 10
-9.894301834166896
 20
39.60217176706084
1001
ACAD
1010
0.0
1020
0.0
1030
0.0
1001
AcDbBlockRepETag
1070
     1
1071
      886
1005
EB3
  0
HATCH
  5
EB4
330
E7C
100
AcDbEntity
  8
APL Border
 62
     8
100
AcDbHatch
 10
0.0
 20
0.0
 30
0.0
210
0.0
220
0.0
230
1.0
  2
SOLID
 70
     1
 71
     1
 91
        1
 92
        7
 72
     0
 73
     1
 93
        8
 10
2.929095477768755
 20
41.97282181113101
 10
3.105743226874893
 20
43.6199831327606
 10
-1.725754035154748
 20
43.61998313276061
 10
-1.891167362926863
 20
41.97282181113101
 10
-0.3755272841536335
 20
41.97282181113101
 10
-0.8679685705352806
 20
37.38102687343239
 10
0.9741138955425025
 20
37.38339558452146
 10
1.466301152475638
 20
41.97282181113101
 97
        1
330
E89
 75
     0
 76
     1
 47
0.0707162833847576
 98
        3
 10
6.461508006627583
 20
42.28958176973246
 10
0.3042431306128051
 20
42.36029787294049
 10
-9.745545696203633
 20
39.60236305074117
1001
ACAD
1010
0.0
1020
0.0
1030
0.0
1001
AcDbBlockRepETag
1070
     1
1071
      887
1005
EB4
  0
HATCH
  5
EB5
330
E7C
100
AcDbEntity
  8
APL Border
 62
     8
100
AcDbHatch
 10
0.0
 20
0.0
 30
0.0
210
0.0
220
0.0
230
1.0
  2
SOLID
 70
     1
 71
     1
 91
        1
 92
        7
 72
     0
 73
     1
 93
        3
 10
8.071275923043375
 20
20.97985997284487
 10
0.8484489512626126
 20
20.97985997284487
 10
4.459862437153192
 20
14.72470832814346
 97
        1
330
E94
 75
     0
 76
     1
 47
0.0707162833847576
 98
        3
 10
4.897289869501349
 20
18.17513736310713
 10
6.312751868664321
 20
42.28939048605213
 10
-9.894301834166896
 20
39.60217176706084
1001
ACAD
1010
0.0
1020
0.0
1030
0.0
1001
AcDbBlockRepETag
1070
     1
1071
      891
1005
EB5
  0
HATCH
  5
EB6
330
E7C
100
AcDbEntity
  8
APL Border
 62
     8
100
AcDbHatch
 10
0.0
 20
0.0
 30
0.0
210
0.0
220
0.0
230
1.0
  2
SOLID
 70
     1
 71
     1
 91
        2
 92
       16
 93
        3
 72
     1
 10
0.0000000003145431
 20
4.000000000000009
 11
23.60256143704041
 21
44.88083558975217
 72
     1
 10
23.60256143704041
 20
44.88083558975217
 11
-23.60256142783933
 21
44.88083558975206
 72
     1
 10
-23.60256142783933
 20
44.88083558975206
 11
0.0000000003145431
 21
4.000000000000007
 97
        1
330
E9A
 92
        1
 93
        3
 72
     1
 10
27.06666305249243
 20
46.88083558975206
 11
-27.06666304266244
 21
46.88083558975206
 72
     1
 10
-27.06666304266244
 20
46.88083558975206
 11
-0.0000000000000284
 21
0.0000000000000213
 72
     1
 10
-0.0000000000000284
 20
0.0000000000000238
 11
27.06666305249243
 21
46.88083558975206
 97
        1
330
E9B
 75
     0
 76
     1
 98
        1
 10
-236.5641112216887
 20
1.231020082252661
1001
ACAD
1010
0.0
1020
0.0
1030
0.0
1001
AcDbBlockRepETag
1070
     1
1071
      892
1005
EB6
  0
HATCH
  5
EB7
330
E7C
100
AcDbEntity
  8
APL Border
 62
     8
100
AcDbHatch
 10
0.0
 20
0.0
 30
0.0
210
0.0
220
0.0
230
1.0
  2
SOLID
 70
     1
 71
     1
 91
        1
 92
        7
 72
     0
 73
     1
 93
       12
 10
15.84058876400877
 20
41.9726305274507
 10
18.21321428445671
 20
41.9726305274507
 10
18.38986203356285
 20
43.61979184908029
 10
14.13627631352983
 20
43.61979184908029
 10
13.46718727804204
 20
37.38083558975206
 10
17.72077299807506
 20
37.38083558975207
 10
17.87787225036464
 20
38.84571591422678
 10
15.50524672991671
 20
38.84571591422678
 10
15.58395939694927
 20
39.5796763598845
 10
17.56969663746741
 20
39.57967635988449
 10
17.71732334684157
 20
41.15966911198297
 10
15.75340373709809
 20
41.15966911198297
 97
        1
330
E86
 75
     0
 76
     1
 47
0.0265225354961204
 98
        1
 10
15.74642260871314
 20
42.54140343148856
1001
ACAD
1010
0.0
1020
0.0
1030
0.0
1001
AcDbBlockRepETag
1070
     1
1071
      895
1005
EB7
  0
SPLINE
  5
EB8
102
{ACAD_REACTORS
330
EBA
330
EBB
102
}
330
E7C
100
AcDbEntity
  8
APL Border
 62
     8
100
AcDbSpline
210
0.0
220
0.0
230
1.0
 70
     8
 71
     3
 72
    12
 73
     8
 74
     0
 42
0.0000000001
 43
0.0000000001
 40
0.0
 40
0.0
 40
0.0
 40
0.0
 40
0.6153828260925694
 40
0.6153828260925694
 40
1.184895113366773
 40
1.184895113366773
 40
1.406874102447421
 40
1.406874102447421
 40
1.406874102447421
 40
1.406874102447421
 10
13.141643811855
 20
41.76981947766621
 30
0.0
 10
12.65093549588437
 20
41.90084145687704
 30
0.0
 10
12.40139116615246
 20
41.94113120867605
 30
0.0
 10
12.08548087756223
 20
41.99544455363318
 30
0.0
 10
11.92864742837253
 20
42.01465504085827
 30
0.0
 10
11.75444086026641
 20
42.02973960983341
 30
0.0
 10
11.75444086026641
 20
42.02973960983341
 30
0.0
 10
11.64369617822672
 20
42.03297741382947
 30
0.0
1001
AcDbBlockRepETag
1070
     1
1071
      898
1005
EB8
  0
LWPOLYLINE
  5
EB9
102
{ACAD_REACTORS
330
EBA
102
}
330
E7C
100
AcDbEntity
  8
APL Border
  6
Continuous
 62
     8
100
AcDbPolyline
 90
        3
 70
     1
 43
0.0
 10
-11.22376129049633
 20
41.69367581194667
 10
-10.87774200114645
 20
40.14955389030274
 10
-11.91769445450297
 20
40.14955389030274
1001
AcDbBlockRepETag
1070
     1
1071
      902
1005
EB9
  0
HATCH
  5
EBA
330
E7C
100
AcDbEntity
  8
APL Border
 62
     8
100
AcDbHatch
 10
0.0
 20
0.0
 30
0.0
210
0.0
220
0.0
230
1.0
  2
SOLID
 70
     1
 71
     1
 91
        2
 92
        7
 72
     0
 73
     1
 93
        8
 10
-9.847253547555595
 20
43.61979184908029
 10
-12.02298966350147
 20
43.61979184908029
 10
-14.82679588919472
 20
37.38083558975206
 10
-12.95240022532295
 20
37.38083558975206
 10
-12.352528740424
 20
38.71565392391761
 10
-10.64639685172309
 20
38.71565392391761
 10
-10.34727999772013
 20
37.38083558975206
 10
-8.449177928734428
 20
37.38083558975207
 97
        1
330
E8B
 92
       22
 72
     0
 73
     1
 93
        3
 10
-11.22376129049633
 20
41.69367581194668
 10
-10.87774200114645
 20
40.14955389030274
 10
-11.91769445450297
 20
40.14955389030274
 97
        1
330
EB9
 75
     0
 76
     1
 47
0.0464409783890934
 98
        3
 10
-10.7866676671747
 20
42.18285929720354
 10
-10.7866676671747
 20
42.18285929720354
 10
4.318789658947025
 20
41.34692151769582
1001
ACAD
1010
0.0
1020
0.0
1030
0.0
1001
AcDbBlockRepETag
1070
     1
1071
      903
1005
EBA
  0
HATCH
  5
EBB
330
E7C
100
AcDbEntity
  8
APL Border
 62
     8
100
AcDbHatch
 10
0.0
 20
0.0
 30
0.0
210
0.0
220
0.0
230
1.0
  2
SOLID
 70
     1
 71
     1
 91
        1
 92
        5
 93
        9
 72
     4
 94
        3
 73
     0
 74
     0
 95
       25
 96
       21
 40
0.0289432764998855
 40
0.0289432764998855
 40
0.0289432764998855
 40
0.0289432764998855
 40
0.7134165119202287
 40
1.411731005087882
 40
2.041147618059464
 40
3.036171077105474
 40
3.957911241576911
 40
4.83592253147705
 40
5.676684481733094
 40
6.271141751551381
 40
6.974058201941041
 40
7.825808739104269
 40
8.5265481701528
 40
9.125733480364379
 40
9.891766509798275
 40
10.6767880070383
 40
11.66821110410527
 40
12.42950909475574
 40
13.09855121203093
 40
13.70132750762923
 40
13.70132750762923
 40
13.70132750762923
 40
13.70132750762923
 10
13.141643811855
 20
43.40554077871886
 10
12.91988216430481
 20
43.459256627421
 10
12.47168844867874
 20
43.5669624691983
 10
11.80600758681791
 20
43.66484839798013
 10
11.02988777388427
 20
43.6649333207477
 10
10.1361516270939
 20
43.55263717791944
 10
9.306733533720876
 20
43.19741938393827
 10
8.599762003673276
 20
42.45478219212527
 10
8.236440109363229
 20
41.77191325718488
 10
8.073464067873601
 20
41.07996170309042
 10
8.007035995439764
 20
40.3638923215899
 10
7.98103501985804
 20
39.60493317412716
 10
8.107710769833204
 20
38.92055182387923
 10
8.442098079777224
 20
38.21445924826959
 10
9.036296716232907
 20
37.66873436641545
 10
9.909689132144507
 20
37.42421376773082
 10
10.75775873959412
 20
37.35554609345542
 10
11.56487972715851
 20
37.38454149767491
 10
12.23983007222788
 20
37.44815687239099
 10
12.66077873273661
 20
37.49837935861893
 10
12.86026661033734
 20
37.52234731786496
 72
     1
 10
12.86026661033734
 20
37.52234731786496
 11
13.23839963312048
 21
41.04826877857415
 72
     1
 10
13.23839963312048
 20
41.04826877857415
 11
11.12639005748273
 21
41.04826877857415
 72
     1
 10
11.12639005748273
 20
41.04826877857415
 11
10.96889270630695
 21
39.57967635988449
 72
     1
 10
10.96889270630695
 20
39.57967635988449
 11
11.39962533929804
 21
39.57967635988449
 72
     1
 10
11.39962533929804
 20
39.57967635988449
 11
11.33360452536307
 21
38.96406177273883
 72
     4
 94
        3
 73
     0
 74
     0
 95
       19
 96
       15
 40
1.529304964685562
 40
1.529304964685562
 40
1.529304964685562
 40
1.529304964685562
 40
1.763981165818448
 40
2.06379851215709
 40
2.386700017314354
 40
2.753069149612017
 40
3.181918037271135
 40
3.768421453867451
 40
4.325591611844758
 40
5.021152851646889
 40
5.521935404920329
 40
5.929637176310238
 40
6.454411479904243
 40
6.957123473051371
 40
6.957123473755098
 40
6.957123473755098
 40
6.957123473755098
 10
11.33360452536307
 20
38.96406177273881
 10
11.24302802126629
 20
38.95177692242413
 10
10.99026249243499
 20
38.92783484269152
 10
10.70216182646531
 20
38.92661434152812
 10
10.3797311442331
 20
38.98358798973799
 10
10.00680770225198
 20
39.09661486818469
 10
9.716968816830743
 20
39.48770259248511
 10
9.641062203095145
 20
40.05806431643046
 10
9.717431528044755
 20
40.66388266631498
 10
9.854221329784113
 20
41.27113304911427
 10
10.23036575101369
 20
41.67654609785123
 10
10.65553906793815
 20
41.91613810684326
 10
11.13485165915975
 20
42.01473204050012
 10
11.47589856643677
 20
42.04574754506741
 10
11.64369617822672
 20
42.03297741382947
 72
     4
 94
        3
 73
     0
 74
     0
 95
       12
 96
        8
 40
0.0
 40
0.0
 40
0.0
 40
0.0
 40
0.2219789890806476
 40
0.2219789890806476
 40
0.7914912763548521
 40
0.7914912763548521
 40
1.406874102447421
 40
1.406874102447421
 40
1.406874102447421
 40
1.406874102447421
 10
11.64369617822672
 20
42.03297741382947
 10
11.75444086026641
 20
42.02973960983341
 10
11.75444086026641
 20
42.02973960983341
 10
11.92864742837253
 20
42.01465504085827
 10
12.08548087756223
 20
41.99544455363318
 10
12.40139116615246
 20
41.94113120867605
 10
12.65093549588437
 20
41.90084145687704
 10
13.141643811855
 20
41.76981947766621
 72
     1
 10
13.14164381185501
 20
41.76981947766621
 11
13.141643811855
 21
43.40554077871886
 97
        5
330
E84
330
E88
330
E85
330
EB8
330
E87
 75
     0
 76
     1
 47
0.0464409783890934
 98
        3
 10
-10.7866676671747
 20
42.18285929720354
 10
4.318789658947025
 20
41.34692151769582
 10
10.26801654887663
 20
42.50794595375691
1001
ACAD
1010
0.0
1020
0.0
1030
0.0
1001
AcDbBlockRepETag
1070
     1
1071
      904
1005
EBB
  0
HATCH
  5
EBC
330
E7C
100
AcDbEntity
  8
APL Border
 62
     8
100
AcDbHatch
 10
0.0
 20
0.0
 30
0.0
210
0.0
220
0.0
230
1.0
  2
SOLID
 70
     1
 71
     1
 91
        2
 92
        7
 72
     0
 73
     1
 93
        8
 10
6.582554574553399
 20
43.61979184908029
 10
4.406818458607519
 20
43.6197918490803
 10
1.603012232914266
 20
37.38083558975206
 10
3.477407896786048
 20
37.38083558975206
 10
4.077279381684999
 20
38.71565392391761
 10
5.783411270385895
 20
38.71565392391761
 10
6.082528124388858
 20
37.38083558975206
 10
7.980630193374566
 20
37.38083558975207
 97
        1
330
E9C
 92
       22
 72
     0
 73
     1
 93
        3
 10
5.206046831612668
 20
41.69367581194667
 10
5.552066120962536
 20
40.14955389030274
 10
4.512113667606024
 20
40.14955389030274
 97
        1
330
E9D
 75
     0
 76
     1
 47
0.0464409783890934
 98
        3
 10
-10.7866676671747
 20
42.18285929720354
 10
4.318789658947025
 20
41.34692151769582
 10
4.318789658947025
 20
41.34692151769582
1001
ACAD
1010
0.0
1020
0.0
1030
0.0
1001
AcDbBlockRepETag
1070
     1
1071
      905
1005
EBC
  0
HATCH
  5
EBD
330
E7C
100
AcDbEntity
  8
APL Border
 62
     8
100
AcDbHatch
 10
0.0
 20
0.0
 30
0.0
210
0.0
220
0.0
230
1.0
  2
SOLID
 70
     1
 71
     1
 91
       11
 92
        7
 72
     0
 73
     1
 93
        4
 10
-16.33747952551644
 20
35.29789574745092
 10
-12.98884796421712
 20
29.49789574745095
 10
12.98916617047902
 20
29.49789574745094
 10
16.33779773177886
 20
35.29789574745093
 97
        1
330
E8D
 92
       22
 72
     0
 73
     1
 93
        8
 10
-10.50084997043805
 20
34.02289574745092
 10
-9.555761072109191
 20
34.02289574745092
 10
-8.834065309397374
 20
31.02289574745093
 10
-9.641122936515984
 20
31.02289574745093
 10
-9.86222995755253
 20
31.94201027933759
 10
-10.74455961985978
 20
31.94201027933758
 10
-11.20867717380426
 20
31.02289574745093
 10
-12.01573480092304
 20
31.02289574745093
 97
        1
330
E99
 92
        6
 72
     0
 73
     1
 93
        3
 10
-10.14693849009504
 20
33.12550842600547
 10
-10.00044093617224
 20
32.51653621849666
 10
-10.45444607654239
 20
32.51653621849665
 97
        1
330
E98
 92
       22
 72
     0
 73
     1
 93
        6
 10
-8.326765119961606
 20
34.02289574745092
 10
-7.549934049473819
 20
34.02289574745092
 10
-7.777198851462713
 20
31.73039516316516
 10
-6.700109532938454
 20
31.73039516316516
 10
-6.770246795158442
 20
31.02289574745093
 10
-8.624167184170486
 20
31.02289574745092
 97
        1
330
E97
 92
       20
 93
       13
 72
     1
 10
-6.13042511277439
 20
34.02488019433461
 11
-5.353790768486449
 21
34.02289574745093
 72
     1
 10
-5.353790768486449
 20
34.02289574745093
 11
-5.5356280948821
 21
32.18709291744541
 72
     4
 94
        3
 73
     0
 74
     0
 95
       24
 96
       20
 40
0.0
 40
0.0
 40
0.0
 40
0.0
 40
0.1612668085855933
 40
0.2532303870616441
 40
0.3214574742553387
 40
0.4101806452459026
 40
0.5031588697521256
 40
0.5664511009171887
 40
0.624871878778038
 40
0.6731644290699905
 40
0.7797386132933425
 40
0.9206747739903356
 40
1.025058962643435
 40
1.116412352300609
 40
1.212929457806147
 40
1.276240530363035
 40
1.339961572016457
 40
1.386280507025952
 40
1.435584820291647
 40
1.435584820291647
 40
1.435584820291647
 40
1.435584820291647
 10
-5.535628094882099
 20
32.1870929174454
 10
-5.53213414748617
 20
32.13312332644234
 10
-5.526647751003197
 20
32.04837718097616
 10
-5.488860432547518
 20
31.94683424540268
 10
-5.447171648840961
 20
31.8753242559261
 10
-5.395818187958767
 20
31.80737001333622
 10
-5.320761662408248
 20
31.77062767698265
 10
-5.254477128417399
 20
31.74466351916423
 10
-5.200112096792143
 20
31.72723210184819
 10
-5.128888988289486
 20
31.72198763189771
 10
-5.030042811850907
 20
31.72786870372271
 10
-4.915707066470194
 20
31.75812586881066
 10
-4.815771266393483
 20
31.81405298527762
 10
-4.754740567305573
 20
31.89193427605802
 10
-4.71467399544198
 20
31.96546823314959
 10
-4.683526695854578
 20
32.03313813212702
 10
-4.662006183068958
 20
32.08703079743258
 10
-4.651792807669443
 20
32.13930455656534
 10
-4.647206914869654
 20
32.17083533130903
 10
-4.644842382192905
 20
32.1870929174454
 72
     1
 10
-4.644842382192908
 20
32.18709291744538
 11
-4.462655138951674
 21
34.0248801943346
 72
     1
 10
-4.462655138951674
 20
34.0248801943346
 11
-3.685824068463886
 21
34.0248801943346
 72
     1
 10
-3.685824068463886
 20
34.0248801943346
 11
-3.889225876952792
 21
31.97309408084612
 72
     2
 10
-5.35367831607159
 20
32.29400281725688
 40
1.499200908332752
 50
12.35998596222624
 51
34.57361697223234
 73
     0
 72
     2
 10
-4.942942423735221
 20
32.00494866311196
 40
0.9969860617863467
 50
34.29038331790704
 51
79.42991665428312
 73
     0
 72
     1
 10
-4.760057203160528
 20
31.0248801943346
 11
-5.510404689928634
 21
31.02488019433462
 72
     2
 10
-5.403812384664131
 20
31.8164328281441
 40
0.7986973717449786
 50
97.66944495435136
 51
120.898786067779
 73
     0
 72
     2
 10
-5.173141343771899
 20
32.14234761068797
 40
1.197202176515717
 50
122.3618931068037
 51
141.2515245137382
 73
     0
 72
     2
 10
-5.389471681131198
 20
32.00817328375058
 40
0.9450065449727091
 50
139.3862736078239
 51
177.8726579657922
 73
     0
 72
     1
 10
-6.333826921263238
 20
31.9730940808461
 11
-6.13042511277439
 21
34.02488019433461
 97
        2
330
E9F
330
EA0
 92
       22
 72
     0
 73
     1
 93
       13
 10
-3.14734900486158
 20
34.02825593571061
 10
-2.047349004861559
 20
34.02825593571061
 10
-1.827245318565901
 20
32.52441131541936
 10
-1.295012624591634
 20
34.02807364104484
 10
-0.1975458970834157
 20
34.0280551402308
 10
-0.4949479612922965
 20
31.0280551402308
 10
-1.115886909891883
 20
31.02805514023081
 10
-0.9222174129992312
 20
32.98166797820307
 10
-1.611942464131546
 20
31.02805514023081
 10
-2.344230471214956
 20
31.0280551402308
 10
-2.630162529241629
 20
32.98166797820306
 10
-2.823832026134283
 20
31.02805514023081
 10
-3.444770974733871
 20
31.0280551402308
 97
        1
330
EA2
 92
       22
 72
     0
 73
     1
 93
        4
 10
0.342591724648486
 20
34.02289574745092
 10
1.119422795136273
 20
34.02289574745092
 10
0.822020730927392
 20
31.02289574745093
 10
0.045189660439604
 20
31.02289574745093
 97
        1
330
E91
 92
       22
 72
     0
 73
     1
 93
       10
 10
1.724974710806094
 20
34.02289574745093
 10
2.57655809816546
 20
34.02269495197112
 10
3.395920304875375
 20
32.17298478610545
 10
3.580266230192904
 20
34.02269495197112
 10
4.200228460647139
 20
34.02269495197112
 10
3.902826396438257
 20
31.02269495197112
 10
3.051434648859951
 20
31.02269495197112
 10
2.231899581960561
 20
32.87279534971117
 10
2.048491689533392
 20
31.02269495197111
 10
1.427552740933804
 20
31.02269495197111
 97
        1
330
EA3
 92
       22
 72
     0
 73
     1
 93
        4
 10
4.838699321647566
 20
34.02289574745092
 10
5.615530392135354
 20
34.02289574745092
 10
5.318128327926473
 20
31.02289574745093
 10
4.541297257438685
 20
31.02289574745093
 97
        1
330
E9E
 92
       20
 93
       13
 72
     1
 10
6.192756492920892
 20
34.02289574745092
 11
6.969390837208833
 21
34.02091130056725
 72
     1
 10
6.969390837208833
 20
34.02091130056725
 11
6.787553510813181
 21
32.18510847056173
 72
     4
 94
        3
 73
     0
 74
     0
 95
       24
 96
       20
 40
0.0
 40
0.0
 40
0.0
 40
0.0
 40
0.1612668085856004
 40
0.2532303870616512
 40
0.3214574742553458
 40
0.4101806452458731
 40
0.5031588697521455
 40
0.5664511009172086
 40
0.6248718787780579
 40
0.6731644290699537
 40
0.7797386132933625
 40
0.9206747739903555
 40
1.025058962643406
 40
1.116412352300617
 40
1.212929457806155
 40
1.276240530363043
 40
1.339961572016455
 40
1.386280507025956
 40
1.435584820291643
 40
1.435584820291643
 40
1.435584820291643
 40
1.435584820291643
 10
6.787553510813182
 20
32.18510847056172
 10
6.791047458209138
 20
32.13113887955868
 10
6.796533854692151
 20
32.04639273409249
 10
6.834321173147815
 20
31.944849798519
 10
6.876009956854381
 20
31.87333980904244
 10
6.927363417736517
 20
31.80538556645249
 10
7.002419943287081
 20
31.76864323009899
 10
7.068704477277941
 20
31.74267907228055
 10
7.123069508903178
 20
31.72524765496452
 10
7.194292617405833
 20
31.72000318501404
 10
7.293138793844411
 20
31.72588425683904
 10
7.407474539225143
 20
31.75614142192696
 10
7.507410339301799
 20
31.81206853839398
 10
7.568441038389779
 20
31.88994982917431
 10
7.608507610253345
 20
31.96348378626593
 10
7.639654909840775
 20
32.03115368524333
 10
7.661175422626328
 20
32.08504635054892
 10
7.671388798025919
 20
32.13732010968165
 10
7.675974690825655
 20
32.16885088442535
 10
7.678339223502376
 20
32.18510847056172
 72
     1
 10
7.678339223502373
 20
32.1851084705617
 11
7.860526466743608
 21
34.02289574745092
 72
     1
 10
7.860526466743608
 20
34.02289574745092
 11
8.637357537231395
 21
34.02289574745092
 72
     1
 10
8.637357537231395
 20
34.02289574745092
 11
8.433955728742489
 21
31.97110963396244
 72
     2
 10
6.969503289623695
 20
32.29201837037321
 40
1.499200908332751
 50
12.35998596222655
 51
34.57361697220028
 73
     0
 72
     2
 10
7.38023918196006
 20
32.00296421622829
 40
0.9969860617863467
 50
34.2903833178587
 51
79.42991665428322
 73
     0
 72
     1
 10
7.563124402534754
 20
31.02289574745093
 11
6.812776915766647
 21
31.02289574745094
 72
     2
 10
6.919369221031151
 20
31.81444838126043
 40
0.7986973717449786
 50
97.66944495435136
 51
120.898786067779
 73
     0
 72
     2
 10
7.150040261923383
 20
32.14036316380429
 40
1.197202176515717
 50
122.3618931068037
 51
141.2515245137382
 73
     0
 72
     2
 10
6.933709924564084
 20
32.0061888368669
 40
0.9450065449727091
 50
139.3862736078239
 51
177.8726579657922
 73
     0
 72
     1
 10
5.989354684432043
 20
31.97110963396243
 11
6.192756492920892
 21
34.02289574745092
 97
        2
330
EA1
330
EA5
 92
       22
 72
     0
 73
     1
 93
       13
 10
9.159497991066102
 20
34.02289574745092
 10
10.25949799106612
 20
34.02289574745092
 10
10.47960167736178
 20
32.51905112715967
 10
11.01183437133604
 20
34.02271345278515
 10
12.10930109884427
 20
34.02269495197111
 10
11.81189903463539
 20
31.02269495197112
 10
11.1909600860358
 20
31.02269495197111
 10
11.38462958292845
 20
32.97630778994339
 10
10.69490453179614
 20
31.02269495197111
 10
9.962616524712728
 20
31.02269495197112
 10
9.676684466686056
 20
32.97630778994339
 10
9.4830149697934
 20
31.02269495197111
 10
8.862076021193814
 20
31.02269495197111
 97
        1
330
EA4
 75
     0
 76
     1
 47
0.0356978143457059
 98
       11
 10
-12.74387987022192
 20
34.13164800304253
 10
-12.74387987022192
 20
34.13164800304253
 10
-12.74387987022192
 20
34.13164800304253
 10
-12.74387987022192
 20
34.13164800304253
 10
-12.74387987022192
 20
34.13164800304253
 10
-12.74387987022192
 20
34.13164800304253
 10
-12.74387987022192
 20
34.13164800304253
 10
-12.74387987022192
 20
34.13164800304253
 10
-12.74387987022192
 20
34.13164800304253
 10
-12.74387987022192
 20
34.13164800304253
 10
-12.74387987022192
 20
34.13164800304253
1001
ACAD
1010
0.0
1020
0.0
1030
0.0
1001
AcDbBlockRepETag
1070
     1
1071
      906
1005
EBD
  0
ENDBLK
  5
EBE
330
E7C
100
AcDbEntity
  8
0
 62
     9
100
AcDbBlockEnd
  0
ENDSEC
  0
SECTION
  2
ENTITIES
  0
LWPOLYLINE
  5
65
330
1F
100
AcDbEntity
  8
0
 62
   253
100
AcDbPolyline
 90
        4
 70
     1
 43
0.0
 10
0.0
 20
0.0
 10
0.0
 20
483.9999999999998
 10
356.0
 20
483.9999999999998
 10
356.0
 20
0.0
  0
MTEXT
  5
15D
330
1F
100
AcDbEntity
  8
APL Joinery
100
AcDbMText
 10
198.1715983373303
 20
379.8025274680737
 30
0.0
 40
2.5
 41
0.0
 71
     1
 72
     1
  1

  7
Arial-Regular
 73
     1
 44
1.0
1001
ACAD
1000
MTEXTBEGIN
1070
    73
1070
     1
1070
    44
1040
1.0
1070
    74
1070
     0
1000
MTEXTEND
  0
TEXT
  5
164
102
{ACAD_REACTORS
330
687
102
}
330
1F
100
AcDbEntity
  8
APL Notes
100
AcDbText
 10
265.5435352147003
 20
205.9484784837246
 30
0.0
 40
5.0
  1
A
  7
Arial-Bold
100
AcDbText
  0
LINE
  5
182
330
1F
100
AcDbEntity
  8
APL Notes
 62
     2
100
AcDbLine
 10
268.6115994300473
 20
195.7273860662213
 30
0.0
 11
313.6115994300474
 21
195.7273860662217
 31
0.0
  0
LINE
  5
183
330
1F
100
AcDbEntity
  8
APL Notes
 62
     2
100
AcDbLine
 10
268.6115994300473
 20
75.72738606622135
 30
0.0
 11
313.6115994300474
 21
75.72738606622135
 31
0.0
  0
LINE
  5
184
330
1F
100
AcDbEntity
  8
APL Notes
 62
     2
100
AcDbLine
 10
266.1115994300474
 20
198.2273860662213
 30
0.0
 11
316.1115994300474
 21
198.2273860662217
 31
0.0
  0
LINE
  5
185
330
1F
100
AcDbEntity
  8
APL Notes
 62
     2
100
AcDbLine
 10
316.1115994300474
 20
73.22738606622078
 30
0.0
 11
266.1115994300474
 21
73.22738606622227
 31
0.0
  0
LINE
  5
186
330
1F
100
AcDbEntity
  8
APL Notes
 62
     2
100
AcDbLine
 10
268.6115994300473
 20
195.7273860662213
 30
0.0
 11
268.6115994300473
 21
75.72738606622135
 31
0.0
  0
LINE
  5
187
330
1F
100
AcDbEntity
  8
APL Notes
 62
     2
100
AcDbLine
 10
266.1115994300474
 20
198.2273860662211
 30
0.0
 11
266.1115994300474
 21
73.22738606622227
 31
0.0
  0
LINE
  5
188
330
1F
100
AcDbEntity
  8
APL Notes
 62
     2
100
AcDbLine
 10
266.1115994300468
 20
73.2273860662217
 30
0.0
 11
268.6115994300468
 21
75.7273860662217
 31
0.0
  0
LINE
  5
189
330
1F
100
AcDbEntity
  8
APL Notes
 62
     2
100
AcDbLine
 10
266.1115994300474
 20
198.2273860662213
 30
0.0
 11
268.6115994300473
 21
195.7273860662213
 31
0.0
  0
LINE
  5
18A
330
1F
100
AcDbEntity
  8
APL Notes
  6
DASHED
100
AcDbLine
 10
308.6115994300474
 20
190.7273860662213
 30
0.0
 11
273.6115994300474
 21
135.7273860662213
 31
0.0
  0
LINE
  5
18B
330
1F
100
AcDbEntity
  8
APL Notes
 62
     2
100
AcDbLine
 10
313.6115994300474
 20
195.7273860662217
 30
0.0
 11
313.6115994300474
 21
75.72738606622135
 31
0.0
  0
LINE
  5
18C
330
1F
100
AcDbEntity
  8
APL Notes
 62
     2
100
AcDbLine
 10
316.1115994300474
 20
198.2273860662211
 30
0.0
 11
316.1115994300474
 21
73.22738606622078
 31
0.0
  0
LINE
  5
18D
330
1F
100
AcDbEntity
  8
APL Notes
 62
     2
100
AcDbLine
 10
273.6115994300474
 20
195.7273860662213
 30
0.0
 11
273.6115994300474
 21
75.72738606622135
 31
0.0
  0
LINE
  5
18E
330
1F
100
AcDbEntity
  8
APL Notes
 62
     2
100
AcDbLine
 10
308.6115994300474
 20
195.7273860662217
 30
0.0
 11
308.6115994300474
 21
75.72738606622135
 31
0.0
  0
LINE
  5
18F
330
1F
100
AcDbEntity
  8
APL Notes
  6
DASHED
100
AcDbLine
 10
273.6115994300474
 20
135.7273860662213
 30
0.0
 11
308.6115994300474
 21
80.72738606622136
 31
0.0
  0
LINE
  5
191
330
1F
100
AcDbEntity
  8
APL Notes
 62
     2
100
AcDbLine
 10
273.6115994300474
 20
80.72738606622136
 30
0.0
 11
308.6115994300474
 21
80.72738606622136
 31
0.0
  0
LINE
  5
192
330
1F
100
AcDbEntity
  8
APL Notes
 62
     2
100
AcDbLine
 10
313.6115994300468
 20
75.72738606622135
 30
0.0
 11
316.1115994300468
 21
73.22738606622135
 31
0.0
  0
LINE
  5
193
330
1F
100
AcDbEntity
  8
APL Notes
 62
     2
100
AcDbLine
 10
273.6115994300474
 20
190.7273860662213
 30
0.0
 11
308.6115994300474
 21
190.7273860662213
 31
0.0
  0
LINE
  5
194
330
1F
100
AcDbEntity
  8
APL Notes
 62
     2
100
AcDbLine
 10
313.6115994300474
 20
195.7273860662217
 30
0.0
 11
316.1115994300474
 21
198.2273860662217
 31
0.0
  0
TEXT
  5
196
102
{ACAD_REACTORS
330
687
102
}
330
1F
100
AcDbEntity
  8
APL Notes
100
AcDbText
 10
265.5435352147003
 20
60.50629364871878
 30
0.0
 40
5.0
  1
A
  7
Arial-Bold
100
AcDbText
  0
SOLID
  5
683
102
{ACAD_REACTORS
330
687
102
}
330
1F
100
AcDbEntity
  8
APL Notes
100
AcDbTrace
 10
273.6115994300474
 20
207.8107193995549
 30
0.0
 11
271.1115994300474
 21
208.2273860662215
 31
0.0
 12
273.6115994300474
 22
208.6440527328882
 32
0.0
 13
273.6115994300474
 23
208.6440527328882
 33
0.0
1001
ACAD
1000
DSTYLE
1002
{
1070
   147
1040
0.625
1070
    77
1070
     0
1002
}
  0
LWPOLYLINE
  5
684
102
{ACAD_REACTORS
330
687
102
}
330
1F
100
AcDbEntity
  8
APL Notes
100
AcDbPolyline
 90
        3
 70
     0
 43
0.0
 10
273.6115994300474
 20
208.2273860662215
 10
291.1115994300473
 20
208.2273860662215
 10
291.1115994300475
 20
174.4773860662212
1001
ACAD
1000
DSTYLE
1002
{
1070
   147
1040
0.625
1070
    77
1070
     0
1002
}
  0
SOLID
  5
685
102
{ACAD_REACTORS
330
687
102
}
330
1F
100
AcDbEntity
  8
APL Notes
100
AcDbTrace
 10
-273.6115994300474
 20
63.64405273288856
 30
0.0
 11
-271.1115994300474
 21
63.22738606622187
 31
0.0
 12
-273.6115994300474
 22
62.81071939955518
 32
0.0
 13
-273.6115994300474
 23
62.81071939955518
 33
0.0
210
0.0
220
0.0
230
-1.0
1001
ACAD
1000
DSTYLE
1002
{
1070
   147
1040
0.625
1070
    77
1070
     0
1002
}
  0
LWPOLYLINE
  5
686
102
{ACAD_REACTORS
330
687
102
}
330
1F
100
AcDbEntity
  8
APL Notes
100
AcDbPolyline
 90
        3
 70
     0
 43
0.0
 10
-273.6115994300474
 20
63.22738606622187
 10
-291.1115994300473
 20
63.22738606622187
 10
-291.1115994300475
 20
96.97738606622209
210
0.0
220
0.0
230
-1.0
1001
ACAD
1000
DSTYLE
1002
{
1070
   147
1040
0.625
1070
    77
1070
     0
1002
}
  0
INSERT
  5
6B8
330
1F
100
AcDbEntity
  8
APL Joinery
100
AcDbBlockReference
  2
08713
 10
92.43130283981997
 20
81.7639538556337
 30
0.0
  0
INSERT
  5
6B9
330
1F
100
AcDbEntity
  8
APL Joinery
100
AcDbBlockReference
  2
08732
 10
41.93130363777856
 20
48.76350317204674
 30
0.0
 41
-1.0
 50
270.0
  0
INSERT
  5
6BA
330
1F
100
AcDbEntity
  8
APL Joinery
100
AcDbBlockReference
  2
08712
 10
41.93130283981997
 20
48.76350465552281
 30
0.0
  0
INSERT
  5
6BC
330
1F
100
AcDbEntity
  8
APL Joinery
100
AcDbBlockReference
  2
08735
 10
109.6313028398195
 20
93.7639538556337
 30
0.0
  0
INSERT
  5
6BD
330
1F
100
AcDbEntity
  8
APL Joinery
100
AcDbBlockReference
  2
9010317
 10
103.1355711539376
 20
89.48999439264145
 30
0.0
  0
INSERT
  5
6BE
330
1F
100
AcDbEntity
  8
APL Joinery
100
AcDbBlockReference
  2
08713
 10
92.43130283982001
 20
395.3645502725807
 30
0.0
 41
-1.0
 50
180.0
  0
INSERT
  5
6BF
330
1F
100
AcDbEntity
  8
APL Joinery
100
AcDbBlockReference
  2
08732
 10
41.9313036377786
 20
428.3559492332532
 30
0.0
 50
270.0
  0
INSERT
  5
6C0
330
1F
100
AcDbEntity
  8
APL Joinery
100
AcDbBlockReference
  2
08712
 10
41.93130283982
 20
428.3559477497771
 30
0.0
 41
-1.0
 50
180.0
  0
INSERT
  5
6C1
330
1F
100
AcDbEntity
  8
APL Joinery
100
AcDbBlockReference
  2
08735
 10
109.6313028398195
 20
383.3630239125469
 30
0.0
 41
-1.0
 50
180.0
  0
INSERT
  5
6C2
330
1F
100
AcDbEntity
  8
APL Joinery
100
AcDbBlockReference
  2
9010317
 10
103.1355711539376
 20
387.6543171756546
 30
0.0
 41
-1.0
 50
180.0
  0
TEXT
  5
6C3
330
1F
100
AcDbEntity
  8
APL Notes
100
AcDbText
 10
18.40121639396371
 20
280.110155889004
 30
0.0
 40
5.0
  1
08638
  7
Arial-Bold
 72
     2
 11
37.82481803107149
 21
282.610155889004
 31
0.0
100
AcDbText
 73
     2
  0
TEXT
  5
6C5
330
1F
100
AcDbEntity
  8
APL Notes
100
AcDbText
 10
94.43130283981975
 20
140.263504601953
 30
0.0
 40
5.0
  1
08713
  7
Arial-Bold
 11
94.43130283981975
 21
142.763504601953
 31
0.0
100
AcDbText
 73
     2
  0
TEXT
  5
6C6
330
1F
100
AcDbEntity
  8
APL Notes
100
AcDbText
 10
94.43130283981975
 20
331.8642395004592
 30
0.0
 40
5.0
  1
08713
  7
Arial-Bold
 11
94.43130283981975
 21
334.3642395004593
 31
0.0
100
AcDbText
 73
     2
  0
TEXT
  5
6C7
330
1F
100
AcDbEntity
  8
APL Notes
100
AcDbText
 10
112.344502021267
 20
39.76350460195187
 30
0.0
 40
5.0
  1
08732
  7
Arial-Bold
 72
     1
 11
122.0563028398209
 21
44.76350460195186
 31
0.0
100
AcDbText
 73
     3
  0
TEXT
  5
6C8
330
1F
100
AcDbEntity
  8
APL Notes
100
AcDbText
 10
112.344502021267
 20
432.3627131404244
 30
0.0
 40
5.0
  1
08732
  7
Arial-Bold
 72
     1
 11
122.0563028398209
 21
432.3627131404244
 31
0.0
100
AcDbText
  0
TEXT
  5
6C9
330
1F
100
AcDbEntity
  8
APL Notes
100
AcDbText
 10
116.9195020212641
 20
95.76381537407399
 30
0.0
 40
5.0
  1
08735
  7
Arial-Bold
 72
     1
 11
126.631302839818
 21
95.76381537407399
 31
0.0
100
AcDbText
  0
TEXT
  5
6CA
330
1F
100
AcDbEntity
  8
APL Notes
100
AcDbText
 10
116.9195020212641
 20
376.363023912547
 30
0.0
 40
5.0
  1
08735
  7
Arial-Bold
 72
     1
 11
126.631302839818
 21
381.3630239125469
 31
0.0
100
AcDbText
 73
     3
  0
TEXT
  5
6CB
330
1F
100
AcDbEntity
  8
APL Notes
100
AcDbText
 10
161.694502021266
 20
95.76381537407399
 30
0.0
 40
5.0
  1
08712
  7
Arial-Bold
 72
     1
 11
171.4063028398199
 21
95.76381537407399
 31
0.0
100
AcDbText
  0
TEXT
  5
6CC
330
1F
100
AcDbEntity
  8
APL Notes
100
AcDbText
 10
161.694502021266
 20
376.363023912547
 30
0.0
 40
5.0
  1
08712
  7
Arial-Bold
 72
     1
 11
171.4063028398199
 21
381.3630239125469
 31
0.0
100
AcDbText
 73
     3
  0
LWPOLYLINE
  5
6CE
330
1F
100
AcDbEntity
  8
APL Notes
100
AcDbPolyline
 90
        4
 70
     1
 43
0.3
 10
175.3993671825177
 20
222.6200749349509
 10
175.3993671825177
 20
233.6200749349509
 10
124.3993671825176
 20
233.6200749349509
 10
124.3993671825176
 20
222.6200749349509
  0
TEXT
  5
6CF
330
1F
100
AcDbEntity
  8
APL Notes
100
AcDbText
 10
127.1981393516854
 20
225.6200749349509
 30
0.0
 40
5.0
  1
SECTION A-A
  7
Arial-Bold
 72
     1
 11
149.8993671825176
 21
225.6200749349509
 31
0.0
100
AcDbText
  0
TEXT
  5
6D2
330
1F
100
AcDbEntity
  8
APL Notes
100
AcDbText
 10
94.43130283981975
 20
133.263504601953
 30
0.0
 40
5.0
  1
Rail
  7
Arial-Regular
 11
94.43130283981975
 21
135.763504601953
 31
0.0
100
AcDbText
 73
     2
  0
INSERT
  5
6FB
330
1F
100
AcDbEntity
  8
APL Joinery
100
AcDbBlockReference
  2
01009
 10
41.93130283982007
 20
403.3559477497778
 30
0.0
  0
INSERT
  5
711
330
1F
100
AcDbEntity
  8
APL Joinery
100
AcDbBlockReference
  2
9010357
 10
45.98658360343321
 20
402.1064931695309
 30
0.0
  0
TEXT
  5
730
330
1F
100
AcDbEntity
  8
APL Notes
100
AcDbText
 10
18.36273411955949
 20
398.0624629475086
 30
0.0
 40
5.0
  1
01009
  7
Arial-Bold
 72
     2
 11
37.78633575666727
 21
400.5624629475086
 31
0.0
100
AcDbText
 73
     2
  0
TEXT
  5
731
330
1F
100
AcDbEntity
  8
APL Notes
100
AcDbText
 10
9.640331269403418
 20
93.23002363234872
 30
0.0
 40
5.0
  1
01010
  7
Arial-Bold
 11
9.640331269403418
 21
95.73002363234872
 31
0.0
100
AcDbText
 73
     2
  0
INSERT
  5
732
330
1F
100
AcDbEntity
  8
APL Joinery
100
AcDbBlockReference
  2
01010
 10
42.43228162496791
 20
86.41283398759663
 30
0.0
  0
INSERT
  5
733
330
1F
100
AcDbEntity
  8
APL Joinery
100
AcDbBlockReference
  2
9010340
 10
35.49339130114845
 20
81.90402857462766
 30
0.0
 50
90.0
  0
TEXT
  5
827
330
1F
100
AcDbEntity
  8
APL Notes
100
AcDbText
 10
18.40121639396371
 20
192.0865610632214
 30
0.0
 40
5.0
  1
08638
  7
Arial-Bold
 72
     2
 11
37.82481803107149
 21
194.5865610632214
 31
0.0
100
AcDbText
 73
     2
  0
INSERT
  5
ACB
330
1F
100
AcDbEntity
  8
APL Joinery
100
AcDbBlockReference
  2
08712
 10
182.2948900807524
 20
319.6298680735589
 30
0.0
 41
-1.0
 50
180.0
  0
INSERT
  5
ACC
330
1F
100
AcDbEntity
  8
APL Joinery
100
AcDbBlockReference
  2
08735
 10
249.994890080752
 20
274.6369442363288
 30
0.0
 41
-1.0
 50
180.0
  0
TEXT
  5
ACE
330
1F
100
AcDbEntity
  8
APL Notes
100
AcDbText
 10
257.2830892621965
 20
267.6369442363287
 30
0.0
 40
5.0
  1
08735
  7
Arial-Bold
 72
     1
 11
266.9948900807504
 21
272.6369442363288
 31
0.0
100
AcDbText
 73
     3
  0
TEXT
  5
ACF
330
1F
100
AcDbEntity
  8
APL Notes
100
AcDbText
 10
302.0580892621985
 20
267.6369442363287
 30
0.0
 40
5.0
  1
08712
  7
Arial-Bold
 72
     1
 11
311.7698900807524
 21
272.6369442363288
 31
0.0
100
AcDbText
 73
     3
  0
TEXT
  5
AE4
330
1F
100
AcDbEntity
  8
APL Notes
100
AcDbText
 10
220.9271667027856
 20
250.321199709755
 30
0.0
 40
5.0
  1
DRAINED FACING OPTION
  7
Arial-Bold
100
AcDbText
  0
INSERT
  5
AF2
330
1F
100
AcDbEntity
  8
APL Joinery
100
AcDbBlockReference
  2
08932
 10
182.2948900807932
 20
319.6298680735142
 30
0.0
  0
TEXT
  5
AF3
330
1F
100
AcDbEntity
  8
APL Notes
100
AcDbText
 10
235.7236519709115
 20
326.2779877669812
 30
0.0
 40
5.0
  1
158mm Drained Facing
  7
Arial-Regular
 72
     1
 11
272.0231062683195
 21
326.2779877669812
 31
0.0
100
AcDbText
  0
TEXT
  5
AF4
330
1F
100
AcDbEntity
  8
APL Notes
100
AcDbText
 10
257.008089262241
 20
333.2779877669813
 30
0.0
 40
5.0
  1
08932
  7
Arial-Bold
 72
     1
 11
266.7198900807949
 21
333.2779877669813
 31
0.0
100
AcDbText
  0
INSERT
  5
D97
330
1F
100
AcDbEntity
  8
APL Joinery
100
AcDbBlockReference
  2
08638 bead
 10
64.43130283982127
 20
289.3645502725811
 30
0.0
 50
270.0
  0
INSERT
  5
D98
330
1F
100
AcDbEntity
  8
APL Joinery
100
AcDbBlockReference
  2
08638 bead
 10
64.43130283982127
 20
187.7639538556333
 30
0.0
 41
-1.0
 50
270.0
  0
VIEWPORT
  5
32
102
{ACAD_XDICTIONARY
360
E10
102
}
330
1B
100
AcDbEntity
 67
     1
  8
0
100
AcDbViewport
 10
96.91724491119385
 20
143.1184201240539
 30
0.0
 40
441.2599642813129
 41
299.3707178162971
 68
     1
 69
     1
 12
96.91724491119385
 22
143.1184201240539
 13
0.0
 23
0.0
 14
10.0
 24
10.0
 15
10.0
 25
10.0
 16
0.0
 26
0.0
 36
1.0
 17
0.0
 27
0.0
 37
0.0
 42
50.0
 43
0.0
 44
0.0
 45
299.3707178162971
 50
0.0
 51
0.0
 72
 20000
 90
    32800
  1

281
     0
 71
     1
 74
     0
110
0.0
120
0.0
130
0.0
111
1.0
121
0.0
131
0.0
112
0.0
122
1.0
132
0.0
 79
     0
146
0.0
  0
VIEWPORT
  5
34
102
{ACAD_XDICTIONARY
360
E12
102
}
330
1B
100
AcDbEntity
 67
     1
  8
0
100
AcDbViewport
 10
100.595
 20
131.1899999999999
 30
0.0
 40
178.0
 41
241.9999999999999
 68
     2
 69
     2
 12
177.9985605612619
 22
242.0061960299548
 13
0.0
 23
0.0
 14
10.0
 24
10.0
 15
10.0
 25
10.0
 16
0.0
 26
0.0
 36
1.0
 17
0.0
 27
0.0
 37
0.0
 42
50.0
 43
0.0
 44
0.0
 45
483.9999999999998
 50
0.0
 51
0.0
 72
   100
 90
    32864
  1

281
     0
 71
     1
 74
     0
110
0.0
120
0.0
130
0.0
111
1.0
121
0.0
131
0.0
112
0.0
122
1.0
132
0.0
 79
     0
146
0.0
  0
INSERT
  5
4B
330
1B
100
AcDbEntity
 67
     1
  8
APL Border
100
AcDbBlockReference
  2
vantage a4 SM border
 10
0.0
 20
0.0
 30
0.0
  0
INSERT
  5
572
330
1B
100
AcDbEntity
 67
     1
  8
APL Border
100
AcDbBlockReference
 66
     1
  2
vantage a4 SM attributes (4)
 10
0.0
 20
0.0
 30
0.0
  0
ATTRIB
  5
573
330
572
100
AcDbEntity
 67
     1
  8
APL Border
100
AcDbText
 10
41.78979785863008
 20
275.28125
 30
0.0
 40
3.5
  1
APL ARCHITECTURAL SERIES
  7
Arial-Bold
100
AcDbAttribute
  2
DRAWINGTITLE_1
 70
     0
  0
ATTRIB
  5
574
330
572
100
AcDbEntity
 67
     1
  8
APL Border
100
AcDbText
 10
41.78979785863008
 20
269.28125
 30
0.0
 40
3.5
  1
HINGED DOOR
  7
Arial-Bold
100
AcDbAttribute
  2
DRAWINGTITLE_2
 70
     0
  0
ATTRIB
  5
575
330
572
100
AcDbEntity
 67
     1
  8
APL Border
100
AcDbText
 10
41.78979785863008
 20
263.28125
 30
0.0
 40
3.5
  1
158MM FRAMES
  7
Arial-Bold
100
AcDbAttribute
  2
DRAWINGTITLE_3
 70
     0
  0
ATTRIB
  5
576
330
572
100
AcDbEntity
 67
     1
  8
APL Border
100
AcDbText
 10
41.78979785863008
 20
257.28125
 30
0.0
 40
3.0
  1
CROSS SECTION
  7
Arial-Regular
100
AcDbAttribute
  2
DRAWINGTITLE_4
 70
     0
  0
ATTRIB
  5
577
330
572
100
AcDbEntity
 67
     1
  8
APL Border
100
AcDbText
 10
165.845
 20
273.69
 30
0.0
 40
2.5
  1
VAHD05-0
  7
Arial-Regular
100
AcDbAttribute
  2
AW123-456
 70
     0
  0
ATTRIB
  5
578
330
572
100
AcDbEntity
 67
     1
  8
APL Border
100
AcDbText
 10
147.5475920873124
 20
257.1899999999999
 30
0.0
 40
2.5
  1
01.06.11
  7
Arial-Regular
 72
     1
 11
154.345
 21
257.1899999999999
 31
0.0
100
AcDbAttribute
  2
24.05.02
 70
     0
  0
ATTRIB
  5
579
330
572
100
AcDbEntity
 67
     1
  8
APL Border
100
AcDbText
 10
175.4174761255116
 20
257.1899999999999
 30
0.0
 40
2.5
  1
1:2
  7
Arial-Regular
 72
     1
 11
177.845
 21
257.1899999999999
 31
0.0
100
AcDbAttribute
  2
1:2
 70
     0
  0
ATTRIB
  5
57A
330
572
100
AcDbEntity
 67
     1
  8
APL Border
100
AcDbText
 10
11.59500000000001
 20
1.189999999999997
 30
0.0
 40
3.75
  1

  7
Arial-Bold
100
AcDbAttribute
  2
1.2.34
 70
     0
  0
ATTRIB
  5
57B
330
572
100
AcDbEntity
 67
     1
  8
APL Border
100
AcDbText
 10
189.595
 20
1.189999999999997
 30
0.0
 40
3.75
  1

  7
Arial-Bold
 72
     2
 11
189.595
 21
1.189999999999997
 31
0.0
100
AcDbAttribute
  2
1.2.34
 70
     0
  0
SEQEND
  5
57C
330
572
100
AcDbEntity
 67
     1
  8
APL Border
  0
ENDSEC
  0
SECTION
  2
OBJECTS
  0
DICTIONARY
  5
C
330
0
100
AcDbDictionary
281
     1
  3
ACAD_COLOR
350
784
  3
ACAD_GROUP
350
D
  3
ACAD_LAYOUT
350
1A
  3
ACAD_MATERIAL
350
75A
  3
ACAD_MLEADERSTYLE
350
7A9
  3
ACAD_MLINESTYLE
350
17
  3
ACAD_PLOTSETTINGS
350
19
  3
ACAD_PLOTSTYLENAME
350
E
  3
ACAD_SCALELIST
350
787
  3
ACAD_TABLESTYLE
350
785
  3
ACAD_VISUALSTYLE
350
773
  3
ACDB_RECOMPOSE_DATA
350
90B
  3
ACDBHEADERROUNDTRIPXREC
350
12A0
  3
AcDbVariableDictionary
350
6D
  3
DWGPROPS
350
129F
  0
DICTIONARY
  5
90D
330
8
100
AcDbDictionary
280
     1
281
     1
  3
ACAD_XREC_ROUNDTRIP
360
E09
  0
DICTIONARY
  5
7CB
330
2
100
AcDbDictionary
280
     1
281
     1
  3
ACAD_LAYERFILTERS
360
BC0
  3
ACAD_LAYERSTATES
360
7CC
  3
ACLYDICTIONARY
360
BBF
  0
DICTIONARY
  5
844
330
10
100
AcDbDictionary
280
     1
281
     1
  3
ACAD_XREC_ROUNDTRIP
360
E0A
  3
ADSK_XREC_LAYER_RECONCILED
360
845
  0
DICTIONARY
  5
846
330
41
100
AcDbDictionary
280
     1
281
     1
  3
ACAD_XREC_ROUNDTRIP
360
E1C
  3
ADSK_XREC_LAYER_RECONCILED
360
847
  0
DICTIONARY
  5
848
330
42
100
AcDbDictionary
280
     1
281
     1
  3
ACAD_XREC_ROUNDTRIP
360
E1D
  3
ADSK_XREC_LAYER_RECONCILED
360
849
  0
DICTIONARY
  5
84E
330
11C
100
AcDbDictionary
280
     1
281
     1
  3
ACAD_XREC_ROUNDTRIP
360
E1E
  3
ADSK_XREC_LAYER_RECONCILED
360
84F
  0
DICTIONARY
  5
854
330
7B6
100
AcDbDictionary
280
     1
281
     1
  3
ACAD_XREC_ROUNDTRIP
360
E25
  3
ADSK_XREC_LAYER_RECONCILED
360
855
  0
DICTIONARY
  5
357
330
1F
100
AcDbDictionary
280
     1
281
     1
  3
ACAD_SORTENTS
360
358
  0
DICTIONARY
  5
1257
330
1A1
100
AcDbDictionary
280
     1
281
     1
  0
DICTIONARY
  5
125C
330
277
100
AcDbDictionary
280
     1
281
     1
  0
DICTIONARY
  5
1263
330
42D
100
AcDbDictionary
280
     1
281
     1
  3
ACAD_SORTENTS
360
1264
  0
DICTIONARY
  5
1268
330
435
100
AcDbDictionary
280
     1
281
     1
  0
DICTIONARY
  5
1270
330
712
100
AcDbDictionary
280
     1
281
     1
  3
ACAD_SORTENTS
360
1271
  0
DICTIONARY
  5
127B
330
AED
100
AcDbDictionary
280
     1
281
     1
  3
ACAD_SORTENTS
360
127C
  0
DICTIONARY
  5
D85
330
D84
100
AcDbDictionary
280
     1
281
     1
  3
ACAD_SORTENTS
360
D86
  3
AcDbBlockTableRecordData
360
E39
  0
DICTIONARY
  5
E7D
330
E7C
100
AcDbDictionary
280
     1
281
     1
  3
ACAD_SORTENTS
360
E7E
  0
DICTIONARY
  5
E7B
330
E7A
100
AcDbDictionary
280
     1
281
     1
  0
DICTIONARY
  5
E10
330
32
100
AcDbDictionary
280
     1
281
     1
  3
ACAD_XREC_ROUNDTRIP
360
E11
  0
DICTIONARY
  5
E12
330
34
100
AcDbDictionary
280
     1
281
     1
  3
ACAD_XREC_ROUNDTRIP
360
E13
  0
DICTIONARY
  5
784
102
{ACAD_REACTORS
330
C
102
}
330
C
100
AcDbDictionary
281
     1
  0
DICTIONARY
  5
D
102
{ACAD_REACTORS
330
C
102
}
330
C
100
AcDbDictionary
281
     1
  3
*A1
350
C3
  3
*A2
350
687
  0
DICTIONARY
  5
1A
102
{ACAD_REACTORS
330
C
102
}
330
C
100
AcDbDictionary
281
     1
  3
Model
350
22
  3
Vantage A4
350
1E
  0
DICTIONARY
  5
75A
102
{ACAD_REACTORS
330
C
102
}
330
C
100
AcDbDictionary
281
     1
  3
ByBlock
350
763
  3
ByLayer
350
75B
  3
Global
350
76B
  0
DICTIONARY
  5
7A9
102
{ACAD_REACTORS
330
C
102
}
330
C
100
AcDbDictionary
281
     1
  3
Standard
350
7AA
  0
DICTIONARY
  5
17
102
{ACAD_REACTORS
330
C
102
}
330
C
100
AcDbDictionary
281
     1
  3
Standard
350
18
  0
DICTIONARY
  5
19
102
{ACAD_REACTORS
330
C
102
}
330
C
100
AcDbDictionary
281
     1
  0
ACDBDICTIONARYWDFLT
  5
E
102
{ACAD_REACTORS
330
C
102
}
330
C
100
AcDbDictionary
281
     1
  3
Normal
350
F
100
AcDbDictionaryWithDefault
340
F
  0
DICTIONARY
  5
787
102
{ACAD_REACTORS
330
C
102
}
330
C
100
AcDbDictionary
281
     1
  3
A0
350
788
  3
A1
350
789
  3
A2
350
78A
  3
A3
350
78B
  3
A4
350
78C
  3
A5
350
78D
  3
A6
350
78E
  3
A7
350
78F
  3
A8
350
790
  3
A9
350
791
  3
B0
350
792
  3
B1
350
793
  3
B2
350
794
  3
B3
350
795
  3
B4
350
796
  3
B5
350
797
  3
B6
350
798
  3
B7
350
799
  3
B8
350
79A
  3
B9
350
79B
  3
C0
350
79C
  3
C1
350
79D
  3
C2
350
79E
  3
C3
350
79F
  3
C4
350
7A0
  3
C5
350
7A1
  3
C6
350
7A2
  3
C7
350
7A3
  3
C8
350
7A4
  3
C9
350
7A5
  3
D0
350
7A6
  3
D1
350
7A7
  3
D2
350
7A8
  0
DICTIONARY
  5
785
102
{ACAD_REACTORS
330
C
102
}
330
C
100
AcDbDictionary
281
     1
  3
Standard
350
786
  0
DICTIONARY
  5
773
102
{ACAD_REACTORS
330
C
102
}
330
C
100
AcDbDictionary
281
     1
  3
2dWireframe
350
779
  3
3D Hidden
350
77B
  3
3dWireframe
350
77A
  3
Basic
350
778
  3
Brighten
350
77F
  3
ColorChange
350
783
  3
Conceptual
350
77C
  3
Dim
350
77E
  3
Facepattern
350
782
  3
Flat
350
774
  3
FlatWithEdges
350
775
  3
Gouraud
350
776
  3
GouraudWithEdges
350
777
  3
Linepattern
350
781
  3
Realistic
350
77D
  3
Thicken
350
780
  0
XRECORD
  5
90B
102
{ACAD_REACTORS
330
C
102
}
330
C
100
AcDbXrecord
280
     1
 90
        1
330
786
  0
DICTIONARY
  5
12A0
102
{ACAD_REACTORS
330
C
102
}
330
C
100
AcDbDictionary
281
     1
  0
DICTIONARY
  5
6D
102
{ACAD_REACTORS
330
C
102
}
330
C
100
AcDbDictionary
281
     1
  3
CANNOSCALE
350
944
  3
CMLEADERSTYLE
350
943
  3
CTABLESTYLE
350
942
  3
DIMASSOC
350
6F
  3
HIDETEXT
350
6E
  3
INDEXCTL
350
945
  3
PROJECTNAME
350
AB3
  3
SORTENTS
350
35A
  0
XRECORD
  5
129F
102
{ACAD_REACTORS
330
C
102
}
330
C
100
AcDbXrecord
280
     1
  1
DWGPROPS COOKIE
  2

  3

  4

  6

  7

  8
homer
  9

300
=
301
=
302
=
303
=
304
=
305
=
306
=
307
=
308
=
309
=
 40
0.6867905902777779
 41
2452682.337302118
 42
2455659.590580671
  1

 90
        0
  0
XRECORD
  5
E09
102
{ACAD_REACTORS
330
90D
102
}
330
90D
100
AcDbXrecord
280
     1
102
VTR_0.000_0.000_1.000_1.000_VISUALSTYLE
340
779
102
VTR_0.000_0.000_1.000_1.000_GRIDDISPLAY
 70
     3
102
VTR_0.000_0.000_1.000_1.000_GRIDMAJOR
 70
     5
102
VTR_0.000_0.000_1.000_1.000_DEFAULTLIGHTING
280
     1
102
VTR_0.000_0.000_1.000_1.000_DEFAULTLIGHTINGTYPE
 70
     1
102
VTR_0.000_0.000_1.000_1.000_BRIGHTNESS
141
0.0
102
VTR_0.000_0.000_1.000_1.000_CONTRAST
142
0.0
  0
DICTIONARY
  5
BC0
102
{ACAD_REACTORS
330
7CB
102
}
330
7CB
100
AcDbDictionary
281
     1
  0
DICTIONARY
  5
7CC
102
{ACAD_REACTORS
330
7CB
102
}
330
7CB
100
AcDbDictionary
281
     1
  0
DICTIONARY
  5
BBF
102
{ACAD_REACTORS
330
7CB
102
}
330
7CB
100
AcDbDictionary
281
     1
1001
ACAD
1000
<All
  0
XRECORD
  5
E0A
102
{ACAD_REACTORS
330
844
102
}
330
844
100
AcDbXrecord
280
     1
102
MATERIAL
340
76B
  0
XRECORD
  5
845
102
{ACAD_REACTORS
330
844
102
}
330
844
100
AcDbXrecord
280
     1
290
     1
  0
XRECORD
  5
E1C
102
{ACAD_REACTORS
330
846
102
}
330
846
100
AcDbXrecord
280
     1
102
MATERIAL
340
76B
  0
XRECORD
  5
847
102
{ACAD_REACTORS
330
846
102
}
330
846
100
AcDbXrecord
280
     1
290
     1
  0
XRECORD
  5
E1D
102
{ACAD_REACTORS
330
848
102
}
330
848
100
AcDbXrecord
280
     1
102
MATERIAL
340
76B
  0
XRECORD
  5
849
102
{ACAD_REACTORS
330
848
102
}
330
848
100
AcDbXrecord
280
     1
290
     1
  0
XRECORD
  5
E1E
102
{ACAD_REACTORS
330
84E
102
}
330
84E
100
AcDbXrecord
280
     1
102
MATERIAL
340
76B
  0
XRECORD
  5
84F
102
{ACAD_REACTORS
330
84E
102
}
330
84E
100
AcDbXrecord
280
     1
290
     1
  0
XRECORD
  5
E25
102
{ACAD_REACTORS
330
854
102
}
330
854
100
AcDbXrecord
280
     1
102
MATERIAL
340
76B
  0
XRECORD
  5
855
102
{ACAD_REACTORS
330
854
102
}
330
854
100
AcDbXrecord
280
     1
290
     1
  0
SORTENTSTABLE
  5
358
102
{ACAD_REACTORS
330
357
102
}
330
357
100
AcDbSortentsTable
330
1F
331
188
  5
18A
331
184
  5
186
331
193
  5
195
331
18D
  5
18F
331
192
  5
194
331
183
  5
185
331
65
  5
7F
331
18C
  5
18E
331
191
  5
193
331
182
  5
184
331
18B
  5
18D
331
196
  5
198
331
187
  5
189
331
164
  5
182
331
18A
  5
18C
331
186
  5
188
331
18F
  5
192
331
15D
  5
163
331
194
  5
196
331
185
  5
187
331
189
  5
18B
331
18E
  5
191
  0
SORTENTSTABLE
  5
1264
102
{ACAD_REACTORS
330
1263
102
}
330
1263
100
AcDbSortentsTable
330
42D
  0
SORTENTSTABLE
  5
1271
102
{ACAD_REACTORS
330
1270
102
}
330
1270
100
AcDbSortentsTable
330
712
  0
SORTENTSTABLE
  5
127C
102
{ACAD_REACTORS
330
127B
102
}
330
127B
100
AcDbSortentsTable
330
AED
  0
SORTENTSTABLE
  5
D86
102
{ACAD_REACTORS
330
D85
102
}
330
D85
100
AcDbSortentsTable
330
D84
331
D8D
  5
8C
331
D8B
  5
8A
331
D89
  5
7C
331
D8E
  5
8D
331
D8C
  5
8B
331
D8A
  5
86
331
D88
  5
91
  0
DICTIONARY
  5
E39
102
{ACAD_REACTORS
330
D85
102
}
330
D85
100
AcDbDictionary
280
     1
281
     1
  3
Edit
360
E3A
  0
SORTENTSTABLE
  5
E7E
102
{ACAD_REACTORS
330
E7D
102
}
330
E7D
100
AcDbSortentsTable
330
E7C
  0
XRECORD
  5
E11
102
{ACAD_REACTORS
330
E10
102
}
330
E10
100
AcDbXrecord
280
     1
102
VISUALSTYLE
340
779
102
GRIDDISPLAY
 70
     0
102
GRIDMAJOR
 70
     5
102
DEFAULTLIGHTING
280
     1
102
DEFAULTLIGHTINGTYPE
 70
     1
102
BRIGHTNESS
141
0.0
102
CONTRAST
142
0.0
102
SHADEPLOT
 70
     0
  0
XRECORD
  5
E13
102
{ACAD_REACTORS
330
E12
102
}
330
E12
100
AcDbXrecord
280
     1
102
VISUALSTYLE
340
779
102
GRIDDISPLAY
 70
     0
102
GRIDMAJOR
 70
     5
102
DEFAULTLIGHTING
280
     1
102
DEFAULTLIGHTINGTYPE
 70
     1
102
BRIGHTNESS
141
0.0
102
CONTRAST
142
0.0
102
SHADEPLOT
 70
     0
  0
GROUP
  5
C3
102
{ACAD_REACTORS
330
D
102
}
330
D
100
AcDbGroup
300

 70
     1
 71
     1
  0
GROUP
  5
687
102
{ACAD_REACTORS
330
D
102
}
330
D
100
AcDbGroup
300

 70
     1
 71
     1
340
686
340
685
340
196
340
684
340
683
340
164
  0
LAYOUT
  5
22
102
{ACAD_XDICTIONARY
360
12A2
102
}
102
{ACAD_REACTORS
330
1A
102
}
330
1A
100
AcDbPlotSettings
  1

  2
\\apl01\HP LaserJet 4MV
  4

  6

 40
0.0
 41
0.0
 42
0.0
 43
0.0
 44
0.0
 45
0.0
 46
0.0
 47
0.0
 48
0.0
 49
0.0
140
0.0
141
0.0
142
1.0
143
1.0
 70
  1712
 72
     0
 73
     0
 74
     0
  7
A4 Specifier Manual.ctb
 75
     0
147
1.0
148
0.0
149
0.0
100
AcDbLayout
  1
Model
 70
     1
 71
     0
 10
0.0
 20
0.0
 11
12.0
 21
9.0
 12
0.0
 22
0.0
 32
0.0
 14
0.0
 24
0.0
 34
0.0
 15
0.0
 25
0.0
 35
0.0
146
0.0
 13
0.0
 23
0.0
 33
0.0
 16
1.0
 26
0.0
 36
0.0
 17
0.0
 27
1.0
 37
0.0
 76
     0
330
1F
  0
LAYOUT
  5
1E
102
{ACAD_XDICTIONARY
360
7DE
102
}
102
{ACAD_REACTORS
330
1A
102
}
330
1A
100
AcDbPlotSettings
  1

  2
\\Aplfp01\APL Technical HP5100 PSLaser
  4
A4
  6

 40
5.027083396911621
 41
5.408084392547607
 42
5.70440673828125
 43
5.365753173828125
 44
209.8886566162109
 45
297.0530090332031
 46
3.0
 47
0.0
 48
0.0
 49
0.0
140
0.0
141
0.0
142
1.0
143
1.0
 70
   176
 72
     1
 73
     0
 74
     5
  7
A4 Specifier Manual.ctb
 75
    16
147
1.0
148
0.0
149
0.0
100
AcDbLayout
  1
Vantage A4
 70
     1
 71
     1
 10
-8.027083396911621
 20
-5.408084392547607
 11
201.8615732192993
 21
291.6449246406555
 12
0.0
 22
0.0
 32
0.0
 14
11.45461722120995
 24
3.285575844812797
 34
-0.0015258207003583
 15
189.6018419809611
 25
282.2033753668244
 35
0.0000000349246037
146
0.0
 13
0.0
 23
0.0
 33
0.0
 16
1.0
 26
0.0
 36
0.0
 17
0.0
 27
1.0
 37
0.0
 76
     0
330
1B
331
32
1001
ACAD_PSEXT
1000
\\Aplfp01\APL Technical HP5100 PSLaser
1000
HP LaserJet 5100 PS
1000
APL Technical Office
1000

1070
     0
  0
MATERIAL
  5
763
102
{ACAD_XDICTIONARY
360
764
102
}
102
{ACAD_REACTORS
330
75A
102
}
330
75A
100
AcDbMaterial
  1
ByBlock
 72
     0
 73
     2
 43
0.0008202099737533
 43
0.0
 43
0.0
 43
0.0
 43
0.0
 43
0.0008202099737533
 43
0.0
 43
0.0
 43
0.0
 43
0.0
 43
1.0
 43
0.0
 43
0.0
 43
0.0
 43
0.0
 43
1.0
 77
     0
 78
     2
 47
0.0008202099737533
 47
0.0
 47
0.0
 47
0.0
 47
0.0
 47
0.0008202099737533
 47
0.0
 47
0.0
 47
0.0
 47
0.0
 47
1.0
 47
0.0
 47
0.0
 47
0.0
 47
0.0
 47
1.0
171
     0
172
     2
 49
0.0008202099737533
 49
0.0
 49
0.0
 49
0.0
 49
0.0
 49
0.0008202099737533
 49
0.0
 49
0.0
 49
0.0
 49
0.0
 49
1.0
 49
0.0
 49
0.0
 49
0.0
 49
0.0
 49
1.0
175
     0
176
     2
142
0.0008202099737533
142
0.0
142
0.0
142
0.0
142
0.0
142
0.0008202099737533
142
0.0
142
0.0
142
0.0
142
0.0
142
1.0
142
0.0
142
0.0
142
0.0
142
0.0
142
1.0
179
     0
270
     2
144
0.0008202099737533
144
0.0
144
0.0
144
0.0
144
0.0
144
0.0008202099737533
144
0.0
144
0.0
144
0.0
144
0.0
144
1.0
144
0.0
144
0.0
144
0.0
144
0.0
144
1.0
274
     2
147
0.0008202099737533
147
0.0
147
0.0
147
0.0
147
0.0
147
0.0008202099737533
147
0.0
147
0.0
147
0.0
147
0.0
147
1.0
147
0.0
147
0.0
147
0.0
147
0.0
147
1.0
  0
MATERIAL
  5
75B
102
{ACAD_XDICTIONARY
360
75C
102
}
102
{ACAD_REACTORS
330
75A
102
}
330
75A
100
AcDbMaterial
  1
ByLayer
 72
     0
 73
     2
 43
0.0008202099737533
 43
0.0
 43
0.0
 43
0.0
 43
0.0
 43
0.0008202099737533
 43
0.0
 43
0.0
 43
0.0
 43
0.0
 43
1.0
 43
0.0
 43
0.0
 43
0.0
 43
0.0
 43
1.0
 77
     0
 78
     2
 47
0.0008202099737533
 47
0.0
 47
0.0
 47
0.0
 47
0.0
 47
0.0008202099737533
 47
0.0
 47
0.0
 47
0.0
 47
0.0
 47
1.0
 47
0.0
 47
0.0
 47
0.0
 47
0.0
 47
1.0
171
     0
172
     2
 49
0.0008202099737533
 49
0.0
 49
0.0
 49
0.0
 49
0.0
 49
0.0008202099737533
 49
0.0
 49
0.0
 49
0.0
 49
0.0
 49
1.0
 49
0.0
 49
0.0
 49
0.0
 49
0.0
 49
1.0
175
     0
176
     2
142
0.0008202099737533
142
0.0
142
0.0
142
0.0
142
0.0
142
0.0008202099737533
142
0.0
142
0.0
142
0.0
142
0.0
142
1.0
142
0.0
142
0.0
142
0.0
142
0.0
142
1.0
179
     0
270
     2
144
0.0008202099737533
144
0.0
144
0.0
144
0.0
144
0.0
144
0.0008202099737533
144
0.0
144
0.0
144
0.0
144
0.0
144
1.0
144
0.0
144
0.0
144
0.0
144
0.0
144
1.0
274
     2
147
0.0008202099737533
147
0.0
147
0.0
147
0.0
147
0.0
147
0.0008202099737533
147
0.0
147
0.0
147
0.0
147
0.0
147
1.0
147
0.0
147
0.0
147
0.0
147
0.0
147
1.0
  0
MATERIAL
  5
76B
102
{ACAD_XDICTIONARY
360
76C
102
}
102
{ACAD_REACTORS
330
75A
102
}
330
75A
100
AcDbMaterial
  1
Global
 72
     0
 73
     2
 43
0.0008202099737533
 43
0.0
 43
0.0
 43
0.0
 43
0.0
 43
0.0008202099737533
 43
0.0
 43
0.0
 43
0.0
 43
0.0
 43
1.0
 43
0.0
 43
0.0
 43
0.0
 43
0.0
 43
1.0
 77
     0
 78
     2
 47
0.0008202099737533
 47
0.0
 47
0.0
 47
0.0
 47
0.0
 47
0.0008202099737533
 47
0.0
 47
0.0
 47
0.0
 47
0.0
 47
1.0
 47
0.0
 47
0.0
 47
0.0
 47
0.0
 47
1.0
171
     0
172
     2
 49
0.0008202099737533
 49
0.0
 49
0.0
 49
0.0
 49
0.0
 49
0.0008202099737533
 49
0.0
 49
0.0
 49
0.0
 49
0.0
 49
1.0
 49
0.0
 49
0.0
 49
0.0
 49
0.0
 49
1.0
175
     0
176
     2
142
0.0008202099737533
142
0.0
142
0.0
142
0.0
142
0.0
142
0.0008202099737533
142
0.0
142
0.0
142
0.0
142
0.0
142
1.0
142
0.0
142
0.0
142
0.0
142
0.0
142
1.0
179
     0
270
     2
144
0.0008202099737533
144
0.0
144
0.0
144
0.0
144
0.0
144
0.0008202099737533
144
0.0
144
0.0
144
0.0
144
0.0
144
1.0
144
0.0
144
0.0
144
0.0
144
0.0
144
1.0
274
     2
147
0.0008202099737533
147
0.0
147
0.0
147
0.0
147
0.0
147
0.0008202099737533
147
0.0
147
0.0
147
0.0
147
0.0
147
1.0
147
0.0
147
0.0
147
0.0
147
0.0
147
1.0
  0
ACAD_PROXY_OBJECT
  5
7AA
102
{ACAD_REACTORS
330
7A9
102
}
330
7A9
100
AcDbProxyObject
 90
      499
 91
      509
 95
   983063
 70
     0
 93
      618
310
40901902A4063FBFFFFFE000000000000002040AD7A3703D0AD73F4254DD185B99185C99000000000000000104090141901A00000000000004100000000000000041025764000000000000300FC0
340
14
340
0
340
11
340
0
 94
        0
1001
ACAD_MLEADERVER
1070
     2
1001
ACAD
1000
AcRTDxfName
1000
MLEADERSTYLE
1000
AcRTDxfName
1000
MLEADERSTYLE
1000
AcRTDxfName
1000
MLEADERSTYLE
1000
AcRTDxfName
1000
MLEADERSTYLE
1000
AcRTDxfName
1000
MLEADERSTYLE
  0
MLINESTYLE
  5
18
102
{ACAD_REACTORS
330
17
102
}
330
17
100
AcDbMlineStyle
  2
STANDARD
 70
     0
  3

 62
   256
 51
90.0
 52
90.0
 71
     2
 49
0.5
 62
   256
  6
BYLAYER
 49
-0.5
 62
   256
  6
BYLAYER
  0
ACDBPLACEHOLDER
  5
F
102
{ACAD_REACTORS
330
E
102
}
330
E
  0
ACAD_PROXY_OBJECT
  5
788
102
{ACAD_REACTORS
330
787
102
}
330
787
100
AcDbProxyObject
 90
      499
 91
      508
 95
   983063
 70
     0
 93
       49
310
904313A3100580
 94
        0
1001
ACAD
1000
AcRTDxfName
1000
SCALE
1000
AcRTDxfName
1000
SCALE
1000
AcRTDxfName
1000
SCALE
1000
AcRTDxfName
1000
SCALE
1000
AcRTDxfName
1000
SCALE
  0
ACAD_PROXY_OBJECT
  5
789
102
{ACAD_REACTORS
330
787
102
}
330
787
100
AcDbProxyObject
 90
      499
 91
      508
 95
   983063
 70
     0
 93
      113
310
904313A32004000000000000004040
 94
        0
1001
ACAD
1000
AcRTDxfName
1000
SCALE
1000
AcRTDxfName
1000
SCALE
1000
AcRTDxfName
1000
SCALE
1000
AcRTDxfName
1000
SCALE
1000
AcRTDxfName
1000
SCALE
  0
ACAD_PROXY_OBJECT
  5
78A
102
{ACAD_REACTORS
330
787
102
}
330
787
100
AcDbProxyObject
 90
      499
 91
      508
 95
   983063
 70
     0
 93
      113
310
904313A34004000000000000104040
 94
        0
1001
ACAD
1000
AcRTDxfName
1000
SCALE
1000
AcRTDxfName
1000
SCALE
1000
AcRTDxfName
1000
SCALE
1000
AcRTDxfName
1000
SCALE
1000
AcRTDxfName
1000
SCALE
  0
ACAD_PROXY_OBJECT
  5
78B
102
{ACAD_REACTORS
330
787
102
}
330
787
100
AcDbProxyObject
 90
      499
 91
      508
 95
   983063
 70
     0
 93
      113
310
904313A35004000000000000144040
 94
        0
1001
ACAD
1000
AcRTDxfName
1000
SCALE
1000
AcRTDxfName
1000
SCALE
1000
AcRTDxfName
1000
SCALE
1000
AcRTDxfName
1000
SCALE
1000
AcRTDxfName
1000
SCALE
  0
ACAD_PROXY_OBJECT
  5
78C
102
{ACAD_REACTORS
330
787
102
}
330
787
100
AcDbProxyObject
 90
      499
 91
      508
 95
   983063
 70
     0
 93
      113
310
904313A38004000000000000204040
 94
        0
1001
ACAD
1000
AcRTDxfName
1000
SCALE
1000
AcRTDxfName
1000
SCALE
1000
AcRTDxfName
1000
SCALE
1000
AcRTDxfName
1000
SCALE
1000
AcRTDxfName
1000
SCALE
  0
ACAD_PROXY_OBJECT
  5
78D
102
{ACAD_REACTORS
330
787
102
}
330
787
100
AcDbProxyObject
 90
      499
 91
      508
 95
   983063
 70
     0
 93
      121
310
905313A3130004000000000000244040
 94
        0
1001
ACAD
1000
AcRTDxfName
1000
SCALE
1000
AcRTDxfName
1000
SCALE
1000
AcRTDxfName
1000
SCALE
1000
AcRTDxfName
1000
SCALE
1000
AcRTDxfName
1000
SCALE
  0
ACAD_PROXY_OBJECT
  5
78E
102
{ACAD_REACTORS
330
787
102
}
330
787
100
AcDbProxyObject
 90
      499
 91
      508
 95
   983063
 70
     0
 93
      121
310
905313A3136004000000000000304001
 94
        0
1001
ACAD
1000
AcRTDxfName
1000
SCALE
1000
AcRTDxfName
1000
SCALE
1000
AcRTDxfName
1000
SCALE
1000
AcRTDxfName
1000
SCALE
1000
AcRTDxfName
1000
SCALE
  0
ACAD_PROXY_OBJECT
  5
78F
102
{ACAD_REACTORS
330
787
102
}
330
787
100
AcDbProxyObject
 90
      499
 91
      508
 95
   983063
 70
     0
 93
      121
310
905313A3230004000000000000344040
 94
        0
1001
ACAD
1000
AcRTDxfName
1000
SCALE
1000
AcRTDxfName
1000
SCALE
1000
AcRTDxfName
1000
SCALE
1000
AcRTDxfName
1000
SCALE
1000
AcRTDxfName
1000
SCALE
  0
ACAD_PROXY_OBJECT
  5
790
102
{ACAD_REACTORS
330
787
102
}
330
787
100
AcDbProxyObject
 90
      499
 91
      508
 95
   983063
 70
     0
 93
      121
310
905313A33300040000000000003E4001
 94
        0
1001
ACAD
1000
AcRTDxfName
1000
SCALE
1000
AcRTDxfName
1000
SCALE
1000
AcRTDxfName
1000
SCALE
1000
AcRTDxfName
1000
SCALE
1000
AcRTDxfName
1000
SCALE
  0
ACAD_PROXY_OBJECT
  5
791
102
{ACAD_REACTORS
330
787
102
}
330
787
100
AcDbProxyObject
 90
      499
 91
      508
 95
   983063
 70
     0
 93
      121
310
905313A3430004000000000000444040
 94
        0
1001
ACAD
1000
AcRTDxfName
1000
SCALE
1000
AcRTDxfName
1000
SCALE
1000
AcRTDxfName
1000
SCALE
1000
AcRTDxfName
1000
SCALE
1000
AcRTDxfName
1000
SCALE
  0
ACAD_PROXY_OBJECT
  5
792
102
{ACAD_REACTORS
330
787
102
}
330
787
100
AcDbProxyObject
 90
      499
 91
      508
 95
   983063
 70
     0
 93
      121
310
905313A3530004000000000000494001
 94
        0
1001
ACAD
1000
AcRTDxfName
1000
SCALE
1000
AcRTDxfName
1000
SCALE
1000
AcRTDxfName
1000
SCALE
1000
AcRTDxfName
1000
SCALE
1000
AcRTDxfName
1000
SCALE
  0
ACAD_PROXY_OBJECT
  5
793
102
{ACAD_REACTORS
330
787
102
}
330
787
100
AcDbProxyObject
 90
      499
 91
      508
 95
   983063
 70
     0
 93
      129
310
906313A313030004000000000000594000
 94
        0
1001
ACAD
1000
AcRTDxfName
1000
SCALE
1000
AcRTDxfName
1000
SCALE
1000
AcRTDxfName
1000
SCALE
1000
AcRTDxfName
1000
SCALE
1000
AcRTDxfName
1000
SCALE
  0
ACAD_PROXY_OBJECT
  5
794
102
{ACAD_REACTORS
330
787
102
}
330
787
100
AcDbProxyObject
 90
      499
 91
      508
 95
   983063
 70
     0
 93
      113
310
904323A31000000000000000010165
 94
        0
1001
ACAD
1000
AcRTDxfName
1000
SCALE
1000
AcRTDxfName
1000
SCALE
1000
AcRTDxfName
1000
SCALE
1000
AcRTDxfName
1000
SCALE
1000
AcRTDxfName
1000
SCALE
  0
ACAD_PROXY_OBJECT
  5
795
102
{ACAD_REACTORS
330
787
102
}
330
787
100
AcDbProxyObject
 90
      499
 91
      508
 95
   983063
 70
     0
 93
      113
310
904343A31000000000000000410101
 94
        0
1001
ACAD
1000
AcRTDxfName
1000
SCALE
1000
AcRTDxfName
1000
SCALE
1000
AcRTDxfName
1000
SCALE
1000
AcRTDxfName
1000
SCALE
1000
AcRTDxfName
1000
SCALE
  0
ACAD_PROXY_OBJECT
  5
796
102
{ACAD_REACTORS
330
787
102
}
330
787
100
AcDbProxyObject
 90
      499
 91
      508
 95
   983063
 70
     0
 93
      113
310
904383A31000000000000000810165
 94
        0
1001
ACAD
1000
AcRTDxfName
1000
SCALE
1000
AcRTDxfName
1000
SCALE
1000
AcRTDxfName
1000
SCALE
1000
AcRTDxfName
1000
SCALE
1000
AcRTDxfName
1000
SCALE
  0
ACAD_PROXY_OBJECT
  5
797
102
{ACAD_REACTORS
330
787
102
}
330
787
100
AcDbProxyObject
 90
      499
 91
      508
 95
   983063
 70
     0
 93
      121
310
90531303A31000000000000000910120
 94
        0
1001
ACAD
1000
AcRTDxfName
1000
SCALE
1000
AcRTDxfName
1000
SCALE
1000
AcRTDxfName
1000
SCALE
1000
AcRTDxfName
1000
SCALE
1000
AcRTDxfName
1000
SCALE
  0
ACAD_PROXY_OBJECT
  5
798
102
{ACAD_REACTORS
330
787
102
}
330
787
100
AcDbProxyObject
 90
      499
 91
      508
 95
   983063
 70
     0
 93
      129
310
9063130303A31000000000000001650100
 94
        0
1001
ACAD
1000
AcRTDxfName
1000
SCALE
1000
AcRTDxfName
1000
SCALE
1000
AcRTDxfName
1000
SCALE
1000
AcRTDxfName
1000
SCALE
1000
AcRTDxfName
1000
SCALE
  0
ACAD_PROXY_OBJECT
  5
799
102
{ACAD_REACTORS
330
787
102
}
330
787
100
AcDbProxyObject
 90
      499
 91
      508
 95
   983063
 70
     0
 93
      265
310
90F312F31323822203D2031272D302200000000000000200FC00000000000028404E
 94
        0
1001
ACAD
1000
AcRTDxfName
1000
SCALE
1000
AcRTDxfName
1000
SCALE
1000
AcRTDxfName
1000
SCALE
1000
AcRTDxfName
1000
SCALE
1000
AcRTDxfName
1000
SCALE
  0
ACAD_PROXY_OBJECT
  5
79A
102
{ACAD_REACTORS
330
787
102
}
330
787
100
AcDbProxyObject
 90
      499
 91
      508
 95
   983063
 70
     0
 93
      257
310
90E312F363422203D2031272D302200000000000000240FC000000000000284040
 94
        0
1001
ACAD
1000
AcRTDxfName
1000
SCALE
1000
AcRTDxfName
1000
SCALE
1000
AcRTDxfName
1000
SCALE
1000
AcRTDxfName
1000
SCALE
1000
AcRTDxfName
1000
SCALE
  0
ACAD_PROXY_OBJECT
  5
79B
102
{ACAD_REACTORS
330
787
102
}
330
787
100
AcDbProxyObject
 90
      499
 91
      508
 95
   983063
 70
     0
 93
      257
310
90E312F333222203D2031272D302200000000000000280FC000000000000284066
 94
        0
1001
ACAD
1000
AcRTDxfName
1000
SCALE
1000
AcRTDxfName
1000
SCALE
1000
AcRTDxfName
1000
SCALE
1000
AcRTDxfName
1000
SCALE
1000
AcRTDxfName
1000
SCALE
  0
ACAD_PROXY_OBJECT
  5
79C
102
{ACAD_REACTORS
330
787
102
}
330
787
100
AcDbProxyObject
 90
      499
 91
      508
 95
   983063
 70
     0
 93
      257
310
90E312F313622203D2031272D3022000000000000002C0FC000000000000284040
 94
        0
1001
ACAD
1000
AcRTDxfName
1000
SCALE
1000
AcRTDxfName
1000
SCALE
1000
AcRTDxfName
1000
SCALE
1000
AcRTDxfName
1000
SCALE
1000
AcRTDxfName
1000
SCALE
  0
ACAD_PROXY_OBJECT
  5
79D
102
{ACAD_REACTORS
330
787
102
}
330
787
100
AcDbProxyObject
 90
      499
 91
      508
 95
   983063
 70
     0
 93
      257
310
90E332F333222203D2031272D3022000000000000002E0FC000000000000284066
 94
        0
1001
ACAD
1000
AcRTDxfName
1000
SCALE
1000
AcRTDxfName
1000
SCALE
1000
AcRTDxfName
1000
SCALE
1000
AcRTDxfName
1000
SCALE
1000
AcRTDxfName
1000
SCALE
  0
ACAD_PROXY_OBJECT
  5
79E
102
{ACAD_REACTORS
330
787
102
}
330
787
100
AcDbProxyObject
 90
      499
 91
      508
 95
   983063
 70
     0
 93
      249
310
90D312F3822203D2031272D302200000000000000300FC000000000000284028
 94
        0
1001
ACAD
1000
AcRTDxfName
1000
SCALE
1000
AcRTDxfName
1000
SCALE
1000
AcRTDxfName
1000
SCALE
1000
AcRTDxfName
1000
SCALE
1000
AcRTDxfName
1000
SCALE
  0
ACAD_PROXY_OBJECT
  5
79F
102
{ACAD_REACTORS
330
787
102
}
330
787
100
AcDbProxyObject
 90
      499
 91
      508
 95
   983063
 70
     0
 93
      257
310
90E332F313622203D2031272D302200000000000000320FC000000000000284066
 94
        0
1001
ACAD
1000
AcRTDxfName
1000
SCALE
1000
AcRTDxfName
1000
SCALE
1000
AcRTDxfName
1000
SCALE
1000
AcRTDxfName
1000
SCALE
1000
AcRTDxfName
1000
SCALE
  0
ACAD_PROXY_OBJECT
  5
7A0
102
{ACAD_REACTORS
330
787
102
}
330
787
100
AcDbProxyObject
 90
      499
 91
      508
 95
   983063
 70
     0
 93
      249
310
90D312F3422203D2031272D302200000000000000340FC000000000000284040
 94
        0
1001
ACAD
1000
AcRTDxfName
1000
SCALE
1000
AcRTDxfName
1000
SCALE
1000
AcRTDxfName
1000
SCALE
1000
AcRTDxfName
1000
SCALE
1000
AcRTDxfName
1000
SCALE
  0
ACAD_PROXY_OBJECT
  5
7A1
102
{ACAD_REACTORS
330
787
102
}
330
787
100
AcDbProxyObject
 90
      499
 91
      508
 95
   983063
 70
     0
 93
      249
310
90D332F3822203D2031272D302200000000000000360FC000000000000284028
 94
        0
1001
ACAD
1000
AcRTDxfName
1000
SCALE
1000
AcRTDxfName
1000
SCALE
1000
AcRTDxfName
1000
SCALE
1000
AcRTDxfName
1000
SCALE
1000
AcRTDxfName
1000
SCALE
  0
ACAD_PROXY_OBJECT
  5
7A2
102
{ACAD_REACTORS
330
787
102
}
330
787
100
AcDbProxyObject
 90
      499
 91
      508
 95
   983063
 70
     0
 93
      249
310
90D312F3222203D2031272D302200000000000000380FC000000000000284040
 94
        0
1001
ACAD
1000
AcRTDxfName
1000
SCALE
1000
AcRTDxfName
1000
SCALE
1000
AcRTDxfName
1000
SCALE
1000
AcRTDxfName
1000
SCALE
1000
AcRTDxfName
1000
SCALE
  0
ACAD_PROXY_OBJECT
  5
7A3
102
{ACAD_REACTORS
330
787
102
}
330
787
100
AcDbProxyObject
 90
      499
 91
      508
 95
   983063
 70
     0
 93
      249
310
90D332F3422203D2031272D3022000000000000003A0FC000000000000284028
 94
        0
1001
ACAD
1000
AcRTDxfName
1000
SCALE
1000
AcRTDxfName
1000
SCALE
1000
AcRTDxfName
1000
SCALE
1000
AcRTDxfName
1000
SCALE
1000
AcRTDxfName
1000
SCALE
  0
ACAD_PROXY_OBJECT
  5
7A4
102
{ACAD_REACTORS
330
787
102
}
330
787
100
AcDbProxyObject
 90
      499
 91
      508
 95
   983063
 70
     0
 93
      169
310
90B3122203D2031272D3022004000000000000284000
 94
        0
1001
ACAD
1000
AcRTDxfName
1000
SCALE
1000
AcRTDxfName
1000
SCALE
1000
AcRTDxfName
1000
SCALE
1000
AcRTDxfName
1000
SCALE
1000
AcRTDxfName
1000
SCALE
  0
ACAD_PROXY_OBJECT
  5
7A5
102
{ACAD_REACTORS
330
787
102
}
330
787
100
AcDbProxyObject
 90
      499
 91
      508
 95
   983063
 70
     0
 93
      265
310
90F312D312F3222203D2031272D3022000000000000003E0FC000000000000284040
 94
        0
1001
ACAD
1000
AcRTDxfName
1000
SCALE
1000
AcRTDxfName
1000
SCALE
1000
AcRTDxfName
1000
SCALE
1000
AcRTDxfName
1000
SCALE
1000
AcRTDxfName
1000
SCALE
  0
ACAD_PROXY_OBJECT
  5
7A6
102
{ACAD_REACTORS
330
787
102
}
330
787
100
AcDbProxyObject
 90
      499
 91
      508
 95
   983063
 70
     0
 93
      233
310
90B3322203D2031272D30220000000000000002100000000000000284000
 94
        0
1001
ACAD
1000
AcRTDxfName
1000
SCALE
1000
AcRTDxfName
1000
SCALE
1000
AcRTDxfName
1000
SCALE
1000
AcRTDxfName
1000
SCALE
1000
AcRTDxfName
1000
SCALE
  0
ACAD_PROXY_OBJECT
  5
7A7
102
{ACAD_REACTORS
330
787
102
}
330
787
100
AcDbProxyObject
 90
      499
 91
      508
 95
   983063
 70
     0
 93
      233
310
90B3622203D2031272D3022000000000000000610000000000000028405B
 94
        0
1001
ACAD
1000
AcRTDxfName
1000
SCALE
1000
AcRTDxfName
1000
SCALE
1000
AcRTDxfName
1000
SCALE
1000
AcRTDxfName
1000
SCALE
1000
AcRTDxfName
1000
SCALE
  0
ACAD_PROXY_OBJECT
  5
7A8
102
{ACAD_REACTORS
330
787
102
}
330
787
100
AcDbProxyObject
 90
      499
 91
      508
 95
   983063
 70
     0
 93
      257
310
90E31272D3022203D2031272D3022000000000000000A100000000000000284019
 94
        0
1001
ACAD
1000
AcRTDxfName
1000
SCALE
1000
AcRTDxfName
1000
SCALE
1000
AcRTDxfName
1000
SCALE
1000
AcRTDxfName
1000
SCALE
1000
AcRTDxfName
1000
SCALE
  0
TABLESTYLE
  5
786
102
{ACAD_XDICTIONARY
360
909
102
}
102
{ACAD_REACTORS
330
785
102
}
330
785
100
AcDbTableStyle
  3
Standard
 70
     0
 71
     0
 40
1.5
 41
1.5
280
     0
281
     0
  7
Standard
140
4.5
170
     2
 62
     0
 63
     7
283
     0
274
    -2
284
     1
 64
     0
275
    -2
285
     1
 65
     0
276
    -2
286
     1
 66
     0
277
    -2
287
     1
 67
     0
278
    -2
288
     1
 68
     0
279
    -2
289
     1
 69
     0
  7
Standard
140
6.0
170
     5
 62
     0
 63
     7
283
     0
274
    -2
284
     1
 64
     0
275
    -2
285
     1
 65
     0
276
    -2
286
     1
 66
     0
277
    -2
287
     1
 67
     0
278
    -2
288
     1
 68
     0
279
    -2
289
     1
 69
     0
  7
Standard
140
4.5
170
     5
 62
     0
 63
     7
283
     0
274
    -2
284
     1
 64
     0
275
    -2
285
     1
 65
     0
276
    -2
286
     1
 66
     0
277
    -2
287
     1
 67
     0
278
    -2
288
     1
 68
     0
279
    -2
289
     1
 69
     0
  0
ACAD_PROXY_OBJECT
  5
779
102
{ACAD_REACTORS
330
773
102
}
330
773
100
AcDbProxyObject
 90
      499
 91
      506
 95
   983063
 70
     0
 93
      444
310
430C9915DA5C99599C985B59401049028333333333333E3BF0000000000000FB0107901411070040501600405405064090741402480A0340
 94
        0
1001
ACAD
1000
AcRTDxfName
1000
VISUALSTYLE
1000
AcRTDxfName
1000
VISUALSTYLE
1000
AcDbSavedByObjectVersion
1070
     0
1000
AcRTDxfName
1000
VISUALSTYLE
1000
AcRTDxfName
1000
VISUALSTYLE
1000
AcRTDxfName
1000
VISUALSTYLE
  0
ACAD_PROXY_OBJECT
  5
77B
102
{ACAD_REACTORS
330
773
102
}
330
773
100
AcDbProxyObject
 90
      499
 91
      506
 95
   983063
 70
     0
 93
      508
310
428CD108121A5919195B8010640502408333333333333E3BF0000000000000FB01079024090700405020000000000001110200405405064090740C02480A0340
 94
        0
1001
ACAD
1000
AcRTDxfName
1000
VISUALSTYLE
1000
AcRTDxfName
1000
VISUALSTYLE
1000
AcDbSavedByObjectVersion
1070
     0
1000
AcRTDxfName
1000
VISUALSTYLE
1000
AcRTDxfName
1000
VISUALSTYLE
1000
AcRTDxfName
1000
VISUALSTYLE
  0
ACAD_PROXY_OBJECT
  5
77A
102
{ACAD_REACTORS
330
773
102
}
330
773
100
AcDbProxyObject
 90
      499
 91
      506
 95
   983063
 70
     0
 93
      444
310
430CD915DA5C99599C985B59401059028333333333333E3BF0000000000000FB0107901411070040501600405405064090741402480A0340
 94
        0
1001
ACAD
1000
AcRTDxfName
1000
VISUALSTYLE
1000
AcRTDxfName
1000
VISUALSTYLE
1000
AcDbSavedByObjectVersion
1070
     0
1000
AcRTDxfName
1000
VISUALSTYLE
1000
AcRTDxfName
1000
VISUALSTYLE
1000
AcRTDxfName
1000
VISUALSTYLE
  0
ACAD_PROXY_OBJECT
  5
778
102
{ACAD_REACTORS
330
773
102
}
330
773
100
AcDbProxyObject
 90
      499
 91
      506
 95
   983063
 70
     0
 93
      396
310
4190985CDA58C0107406404333333333333E3BF0000000000000FB0107A41107004050150841D405064090741402480A0354
 94
        0
1001
ACAD
1000
AcRTDxfName
1000
VISUALSTYLE
1000
AcRTDxfName
1000
VISUALSTYLE
1000
AcDbSavedByObjectVersion
1070
     0
1000
AcRTDxfName
1000
VISUALSTYLE
1000
AcRTDxfName
1000
VISUALSTYLE
1000
AcRTDxfName
1000
VISUALSTYLE
  0
ACAD_PROXY_OBJECT
  5
77F
102
{ACAD_REACTORS
330
773
102
}
330
773
100
AcDbProxyObject
 90
      499
 91
      506
 95
   983063
 70
     0
 93
      436
310
42509C9A59DA1D195B8010C409028333333333333E3BF0000000000000FB010790141107004050150841D405064090741402480A02995A
 94
        0
1001
ACAD
1000
AcRTDxfName
1000
VISUALSTYLE
1000
AcRTDxfName
1000
VISUALSTYLE
1000
AcDbSavedByObjectVersion
1070
     0
1000
AcRTDxfName
1000
VISUALSTYLE
1000
AcRTDxfName
1000
VISUALSTYLE
1000
AcRTDxfName
1000
VISUALSTYLE
  0
ACAD_PROXY_OBJECT
  5
783
102
{ACAD_REACTORS
330
773
102
}
330
773
100
AcDbProxyObject
 90
      499
 91
      506
 95
   983063
 70
     0
 93
      460
310
4310DBDB1BDC90DA185B99D9401104090240C333333333333E3BF0000000000000FB0108901411070040501508421405064090741402480A0350
 94
        0
1001
ACAD
1000
AcRTDxfName
1000
VISUALSTYLE
1000
AcRTDxfName
1000
VISUALSTYLE
1000
AcDbSavedByObjectVersion
1070
     0
1000
AcRTDxfName
1000
VISUALSTYLE
1000
AcRTDxfName
1000
VISUALSTYLE
1000
AcRTDxfName
1000
VISUALSTYLE
  0
ACAD_PROXY_OBJECT
  5
77C
102
{ACAD_REACTORS
330
773
102
}
330
773
100
AcDbProxyObject
 90
      499
 91
      506
 95
   983063
 70
     0
 93
      508
310
42D0DBDB98D95C1D1D585B0010940D028333333333333E3BF0000000000000FB0107902409070040501000000000000111010841D405064090740C02480A0340
 94
        0
1001
ACAD
1000
AcRTDxfName
1000
VISUALSTYLE
1000
AcRTDxfName
1000
VISUALSTYLE
1000
AcDbSavedByObjectVersion
1070
     0
1000
AcRTDxfName
1000
VISUALSTYLE
1000
AcRTDxfName
1000
VISUALSTYLE
1000
AcRTDxfName
1000
VISUALSTYLE
  0
ACAD_PROXY_OBJECT
  5
77E
102
{ACAD_REACTORS
330
773
102
}
330
773
100
AcDbProxyObject
 90
      499
 91
      506
 95
   983063
 70
     0
 93
      420
310
41111A5B4010B409028333333333333E3BF0000000000000FB010790141107004050150841D405064090741402480A02677FFFFFD2
 94
        0
1001
ACAD
1000
AcRTDxfName
1000
VISUALSTYLE
1000
AcRTDxfName
1000
VISUALSTYLE
1000
AcDbSavedByObjectVersion
1070
     0
1000
AcRTDxfName
1000
VISUALSTYLE
1000
AcRTDxfName
1000
VISUALSTYLE
1000
AcRTDxfName
1000
VISUALSTYLE
  0
ACAD_PROXY_OBJECT
  5
782
102
{ACAD_REACTORS
330
773
102
}
330
773
100
AcDbProxyObject
 90
      499
 91
      506
 95
   983063
 70
     0
 93
      452
310
43119858D95C185D1D195C9B8010F409028333333333333E3BF0000000000000FB010790141107004050150841D405064090741402480A0356
 94
        0
1001
ACAD
1000
AcRTDxfName
1000
VISUALSTYLE
1000
AcRTDxfName
1000
VISUALSTYLE
1000
AcDbSavedByObjectVersion
1070
     0
1000
AcRTDxfName
1000
VISUALSTYLE
1000
AcRTDxfName
1000
VISUALSTYLE
1000
AcRTDxfName
1000
VISUALSTYLE
  0
ACAD_PROXY_OBJECT
  5
774
102
{ACAD_REACTORS
330
773
102
}
330
773
100
AcDbProxyObject
 90
      499
 91
      506
 95
   983063
 70
     0
 93
      396
310
41519B185D00240901404333333333333E3BF0000000000000F9010740A41107004050150841D405064090741402480A1B58
 94
        0
1001
ACAD
1000
AcRTDxfName
1000
VISUALSTYLE
1000
AcRTDxfName
1000
VISUALSTYLE
1000
AcDbSavedByObjectVersion
1070
     0
1000
AcRTDxfName
1000
VISUALSTYLE
1000
AcRTDxfName
1000
VISUALSTYLE
1000
AcRTDxfName
1000
VISUALSTYLE
  0
ACAD_PROXY_OBJECT
  5
775
102
{ACAD_REACTORS
330
773
102
}
330
773
100
AcDbProxyObject
 90
      499
 91
      506
 95
   983063
 70
     0
 93
      484
310
43919B185D15DA5D1A115919D95CC010140901404333333333333E3BF0000000000000F9010740901411070040501600405405064090741402480A1B58
 94
        0
1001
ACAD
1000
AcRTDxfName
1000
VISUALSTYLE
1000
AcRTDxfName
1000
VISUALSTYLE
1000
AcDbSavedByObjectVersion
1070
     0
1000
AcRTDxfName
1000
VISUALSTYLE
1000
AcRTDxfName
1000
VISUALSTYLE
1000
AcRTDxfName
1000
VISUALSTYLE
  0
ACAD_PROXY_OBJECT
  5
776
102
{ACAD_REACTORS
330
773
102
}
330
773
100
AcDbProxyObject
 90
      499
 91
      506
 95
   983063
 70
     0
 93
      420
310
4211DBDD5C985D590010240902404333333333333E3BF0000000000000F9010740A411070040501641D405064090741402480A1B58
 94
        0
1001
ACAD
1000
AcRTDxfName
1000
VISUALSTYLE
1000
AcRTDxfName
1000
VISUALSTYLE
1000
AcDbSavedByObjectVersion
1070
     0
1000
AcRTDxfName
1000
VISUALSTYLE
1000
AcRTDxfName
1000
VISUALSTYLE
1000
AcRTDxfName
1000
VISUALSTYLE
  0
ACAD_PROXY_OBJECT
  5
777
102
{ACAD_REACTORS
330
773
102
}
330
773
100
AcDbProxyObject
 90
      499
 91
      506
 95
   983063
 70
     0
 93
      508
310
4451DBDD5C985D5915DA5D1A115919D95CC010340902404333333333333E3BF0000000000000F9010740901411070040501600405405064090741402480A1B50
 94
        0
1001
ACAD
1000
AcRTDxfName
1000
VISUALSTYLE
1000
AcRTDxfName
1000
VISUALSTYLE
1000
AcDbSavedByObjectVersion
1070
     0
1000
AcRTDxfName
1000
VISUALSTYLE
1000
AcRTDxfName
1000
VISUALSTYLE
1000
AcRTDxfName
1000
VISUALSTYLE
  0
ACAD_PROXY_OBJECT
  5
781
102
{ACAD_REACTORS
330
773
102
}
330
773
100
AcDbProxyObject
 90
      499
 91
      506
 95
   983063
 70
     0
 93
      452
310
43131A5B995C185D1D195C9B8010E409028333333333333E3BF0000000000000FB010790141107004050750841D405064090741402483A0353
 94
        0
1001
ACAD
1000
AcRTDxfName
1000
VISUALSTYLE
1000
AcRTDxfName
1000
VISUALSTYLE
1000
AcDbSavedByObjectVersion
1070
     0
1000
AcRTDxfName
1000
VISUALSTYLE
1000
AcRTDxfName
1000
VISUALSTYLE
1000
AcRTDxfName
1000
VISUALSTYLE
  0
ACAD_PROXY_OBJECT
  5
77D
102
{ACAD_REACTORS
330
773
102
}
330
773
100
AcDbProxyObject
 90
      499
 91
      506
 95
   983063
 70
     0
 93
      428
310
429499585B1A5CDD1A58C0108409028333333333333E3BF0000000000000FB01079019070040501508421405064090741402480A1B49
 94
        0
1001
ACAD
1000
AcRTDxfName
1000
VISUALSTYLE
1000
AcRTDxfName
1000
VISUALSTYLE
1000
AcDbSavedByObjectVersion
1070
     0
1000
AcRTDxfName
1000
VISUALSTYLE
1000
AcRTDxfName
1000
VISUALSTYLE
1000
AcRTDxfName
1000
VISUALSTYLE
  0
ACAD_PROXY_OBJECT
  5
780
102
{ACAD_REACTORS
330
773
102
}
330
773
100
AcDbProxyObject
 90
      499
 91
      506
 95
   983063
 70
     0
 93
      420
310
42151A1A58DAD95B8010D409028333333333333E3BF0000000000000FB010790141107004050150C41D405064090741402480A0352
 94
        0
1001
ACAD
1000
AcRTDxfName
1000
VISUALSTYLE
1000
AcRTDxfName
1000
VISUALSTYLE
1000
AcDbSavedByObjectVersion
1070
     0
1000
AcRTDxfName
1000
VISUALSTYLE
1000
AcRTDxfName
1000
VISUALSTYLE
1000
AcRTDxfName
1000
VISUALSTYLE
  0
DICTIONARYVAR
  5
944
102
{ACAD_REACTORS
330
6D
102
}
330
6D
100
DictionaryVariables
280
     0
  1
1:1
  0
DICTIONARYVAR
  5
943
102
{ACAD_REACTORS
330
6D
102
}
330
6D
100
DictionaryVariables
280
     0
  1
STANDARD
  0
DICTIONARYVAR
  5
942
102
{ACAD_REACTORS
330
6D
102
}
330
6D
100
DictionaryVariables
280
     0
  1
STANDARD
  0
DICTIONARYVAR
  5
6F
102
{ACAD_REACTORS
330
6D
102
}
330
6D
100
DictionaryVariables
280
     0
  1
2
  0
DICTIONARYVAR
  5
6E
102
{ACAD_REACTORS
330
6D
102
}
330
6D
100
DictionaryVariables
280
     0
  1
1
  0
DICTIONARYVAR
  5
945
102
{ACAD_REACTORS
330
6D
102
}
330
6D
100
DictionaryVariables
280
     0
  1
0
  0
DICTIONARYVAR
  5
AB3
102
{ACAD_REACTORS
330
6D
102
}
330
6D
100
DictionaryVariables
280
     0
  1

  0
DICTIONARYVAR
  5
35A
102
{ACAD_REACTORS
330
6D
102
}
330
6D
100
DictionaryVariables
280
     0
  1
127
  0
XRECORD
  5
E3A
102
{ACAD_REACTORS
330
E39
102
}
330
E39
100
AcDbXrecord
280
     1
1070
     0
1070
     1
1070
     1
  0
DICTIONARY
  5
12A2
330
22
100
AcDbDictionary
280
     1
281
     1
  3
ACAD_XREC_ROUNDTRIP
360
12A3
  0
DICTIONARY
  5
7DE
330
1E
100
AcDbDictionary
280
     1
281
     1
  3
ACAD_XREC_ROUNDTRIP
360
12A1
  3
ADSK_XREC_LAYOUTTHUMBNAIL
360
7DF
  0
DICTIONARY
  5
764
330
763
100
AcDbDictionary
280
     1
281
     1
  3
ACAD_XREC_ROUNDTRIP
360
E20
  3
BUMPTILE
360
766
  3
DIFFUSETILE
360
765
  3
OPACITYTILE
360
769
  3
REFLECTIONTILE
360
768
  3
REFRACTIONTILE
360
76A
  3
SPECULARTILE
360
767
  0
DICTIONARY
  5
75C
330
75B
100
AcDbDictionary
280
     1
281
     1
  3
ACAD_XREC_ROUNDTRIP
360
E1F
  3
BUMPTILE
360
75E
  3
DIFFUSETILE
360
75D
  3
OPACITYTILE
360
761
  3
REFLECTIONTILE
360
760
  3
REFRACTIONTILE
360
762
  3
SPECULARTILE
360
75F
  0
DICTIONARY
  5
76C
330
76B
100
AcDbDictionary
280
     1
281
     1
  3
ACAD_XREC_ROUNDTRIP
360
E21
  3
BUMPTILE
360
76E
  3
DIFFUSETILE
360
76D
  3
OPACITYTILE
360
771
  3
REFLECTIONTILE
360
770
  3
REFRACTIONTILE
360
772
  3
SPECULARTILE
360
76F
  0
DICTIONARY
  5
909
330
786
100
AcDbDictionary
280
     1
281
     1
  3
ACAD_ROUNDTRIP_2008_TABLESTYLE_CELLSTYLEMAP
360
E07
  3
ACAD_XREC_ROUNDTRIP
360
E22
  0
XRECORD
  5
12A3
102
{ACAD_REACTORS
330
12A2
102
}
330
12A2
100
AcDbXrecord
280
     1
102
SHADEPLOT
 70
     0
102
SHADEPLOTRESLEVEL
 70
     2
102
SHADEPLOTCUSTOMDPI
 70
   300
  0
XRECORD
  5
12A1
102
{ACAD_REACTORS
330
7DE
102
}
330
7DE
100
AcDbXrecord
280
     1
102
SHADEPLOT
 70
     0
102
SHADEPLOTRESLEVEL
 70
     2
102
SHADEPLOTCUSTOMDPI
 70
   300
  0
XRECORD
  5
7DF
102
{ACAD_REACTORS
330
7DE
102
}
330
7DE
100
AcDbXrecord
280
     1
310
28000000630000008C0000000100080000000000B0360000000000000000000000010000000000000000000000000000FFFFFF000000000000000000000000000000000000000000000000000000000000000000330000006600000099000000CC000000FF00000000330000333300006633000099330000CC330000FF3300
310
0000660000336600006666000099660000CC660000FF66000000990000339900006699000099990000CC990000FF99000000CC000033CC000066CC000099CC0000CCCC0000FFCC000000FF000033FF000066FF000099FF0000CCFF0000FFFF000000003300330033006600330099003300CC003300FF003300003333003333
310
33006633330099333300CC333300FF33330000663300336633006666330099663300CC663300FF66330000993300339933006699330099993300CC993300FF99330000CC330033CC330066CC330099CC3300CCCC3300FFCC330000FF330033FF330066FF330099FF3300CCFF3300FFFF330000006600330066006600660099
310
006600CC006600FF00660000336600333366006633660099336600CC336600FF33660000666600336666006666660099666600CC666600FF66660000996600339966006699660099996600CC996600FF99660000CC660033CC660066CC660099CC6600CCCC6600FFCC660000FF660033FF660066FF660099FF6600CCFF6600
310
FFFF660000009900330099006600990099009900CC009900FF00990000339900333399006633990099339900CC339900FF33990000669900336699006666990099669900CC669900FF66990000999900339999006699990099999900CC999900FF99990000CC990033CC990066CC990099CC9900CCCC9900FFCC990000FF99
310
0033FF990066FF990099FF9900CCFF9900FFFF99000000CC003300CC006600CC009900CC00CC00CC00FF00CC000033CC003333CC006633CC009933CC00CC33CC00FF33CC000066CC003366CC006666CC009966CC00CC66CC00FF66CC000099CC003399CC006699CC009999CC00CC99CC00FF99CC0000CCCC0033CCCC0066CC
310
CC0099CCCC00CCCCCC00FFCCCC0000FFCC0033FFCC0066FFCC0099FFCC00CCFFCC00FFFFCC000000FF003300FF006600FF009900FF00CC00FF00FF00FF000033FF003333FF006633FF009933FF00CC33FF00FF33FF000066FF003366FF006666FF009966FF00CC66FF00FF66FF000099FF003399FF006699FF009999FF00CC
310
99FF00FF99FF0000CCFF0033CCFF0066CCFF0099CCFF00CCCCFF00FFCCFF0000FFFF0033FFFF0066FFFF0099FFFF00CCFFFF00FFFFFF00000000000D0D0D001A1A1A00282828003535350043434300505050005D5D5D006B6B6B00787878008686860093939300A1A1A100AEAEAE00BBBBBB00C9C9C900D6D6D600E4E4E400
310
F1F1F100FFFFFF0000000000000000000000000000000000000000000000000000000000000000000000000000000000F5F5F5F5F5F5F5F5F5F5F5F5F5F5F5F5F5F5F5F5F5F5F5F5F5F5F5F5F5F5F5F5F5F5F5F5F5F5F5F5F5F5F5F5F5F5F5F5F5F5F5F5F5F5F5F5F5F5F5F5F5F5F5F5F5F5F5F5F5F5F5F5F5F5F5F5F5F5F5
310
F5F5F5F5F5F5F5F5F5F5F5F5F5F5F5F5F5F5F5EF00E2E2E2E2E2E2E2E2E2E2E2E2E2E2E2E2E2E2E2E2E2E2E2E2E2E2E2E2E2E2E2E2E2E2E2E2E2E2E2E2E2E2E2E2E2E2E2E2E2E2E2E2E2E2E2E2E2E2E2E2E2E2E2E2E2E2E2E2E2E2E2E2E2E2E2E2E2E2E2E2E2E2E2E2E2E2E2E2E2E2E2E2E2E2E2E2E2F5EF00E2E2E2E2E2E2
310
E2E2E2E2E2E2E2E2E2E2E2E2E2E2E2E2E2E2E2E2E2E2E2E2E2E2E2E2E2E2E2E2E2E2E2E2E2E2E2E2E2E2E2E2E2E2E2E2E2E2E2E2E2E2E2E2E2E2E2E2E2E2E2E2E2E2E2E2E2E2E2E2E2E2E2E2E2E2E2E2E2E2E2E2E2E2E2E2E2E2E2F5EF00E2F5F5F5F5F5F5F5F5E2E2E2E2E2E2E2E2F5F5F5F5F5F5F5F5F5F5F5F5F5F5F5E2
310
E2E2E2E2E2E2E2E2F5F5F5F5F5F5F5F5F5F5F5F5F5F5E2E2E2E2E2E2E2E2E2F5F5F5F5F5F5F5F5F5F5F5F5F5F5F5E2E2E2E2E2E2E2E2F5F5F5F5F5F5F5F5E2E2F5EF00E2F5E2E2E2E2E2E2E2E2E2E2E2E2E2E2E2E2E2E2E2E2E2E2E2E2E2E2E2F5F5E2E2E2E2E2E2E2E2E2E2E2E2E2E2E2E2E2E2E2E2E2E2E2E2E2E2E2E2E2
310
E2E2E2E2E2E2E2E2E2E2E2E2E2E2E2E2E2E2E2E2E2E2E2E2E2E2E2E2E2E2E2E2E2E2F5E2E2F5EF00E2F5E2E2E2E2E2E2F5F5F5F5F5F5F5F5F5F5F5F5F5F5F5F5F5F5F5F5F5F5F5F5F5F5F5F5F5F5F5F5F5F5F5F5F5F5F5F5F5F5F5F5F5F5F5F5F5F5F5F5F5F5F5F5F5F5F5F5F5F5F5F5F5F5F5F5F5F5F5F5F5F5F5F5F5F5F5
310
F5F5F5F5E2E2E2F5E2E2F5EF00E2F5E2E2E2E2E2E2F5F5F5F5F5F5F5F5F5F5F5F5F5F5F5F5F5F5F5F5F5F5F5F5F5F5F5F5F5F5F5F5F5F5F5F5F5F5F5F5F5F5F5F5F5F5F5F5F5F5F5F5F5F5F5F5F5F5F5F5F5F5F5F5F5F5F5F5F5F5F5F5F5F5F5F5F5F5F5F5F5F5F5F5E2E2F5E2E2F5EF00E2F5E2E2E2E2E2E2E2E2E2E2E2E2
310
E2E2E2E2E2E2E2E2E2E2E2E2E2E2E2E2E2E2E2E2E2E2E2E2E2E2E2E2E2E2E2E2E2E2E2E2E2E2E2E2E2E2E2E2E2E2E2E2E2E2E2E2E2E2E2E2E2E2E2E2E2E2E2E2E2E2E2E2E2E2E2E2E2E2E2E2E2E2E2E2F5E2E2F5EF4FE2F5E2E2E2E2E2E2E7E7E7E7E7E7E7E7E7E7E7E7E7E7E7E7E7E7E7E7E7E7E7E7E7E7E7E7E7E7E7E7E7
310
E7E7E7E7E7E7E7E7E7E7E7E7E7E7E7E7E7E7E7E7E7E7E7E7E7E7E7E7E7E7E7E7E7E7E7E7E7E7E7E7E7E7E7E7E7E7E7E7E7E7E7E2E2F5E2E2F5EF00E2F5E2E2E2E2E2E2E7E2E2E2E2E2E2E2E2E2E2E2E2E2E2E2E2E2E2E2E2E2E2E2E2E2E2E2E2E2E2E2E2E2E2E2E2E2E2E2E2E2E2E2E2E2E2E2E2E2E2E2E2E2E2E2E2E2E2E2
310
E2E2E2E2E2E2E2E2E2E2E2E2E2E2E2E2E2E2E2E2E2E2E2E7E2E2F5E2E2F5EF00E2F5E2E2E2E2E2E2E7E2E2E2E2E2E2E2E2E2E2E2E2E2E2E2E2E2E2E2E2E2E2E2E2E2E2E2E2E2E2E2E2E2E2E2E2E2E2E2E2E2E2E2E2E2E2E2E2E2E2E2E2E2E2E2E2E2E2E2E2E2E2E2E2E2E2E2E2E2E2E2E2E2E2E2E2E2E2E2E2E2E2E7E2E2F5
310
E2E2F5EF00E2F5E2E2E2E2E2E2E7E2E2E2E2E2E2E2E2E2E2E2E2E2E2E2E2E2E2E2E2E2E2E2E2E2E2E2E2E2E2E2E2E2E2E2E2E2E2E2E2E2E2E2E2E2E2E2E2E2E2E2E2E2E2E2E2E2E2E2E2E2E2E2E2E2E2E2E2E2E2E2E2E2E2E2E2E2E2E2E2E2E2E7E2E2F5E2E2F5EF00E2E2E2E2E2E2E2E2E7E2E2E2E2E2E2E2E2E2E2E2E2E2
310
E2E2E2E2E2E2E2E2E2E2E2E2E2E2E2E2E2E2E2E2E2E2E2E2E2E2E2E2E2E2E2E2E2E2E2E2E2E2E2E2E2E2E2E2E2E2E2E2E2E2E2E2E2E2E2E2E2E2E2E2E2E2E2E2E2E2E2E2E2E7E2E2E2E2E2F5EF00E2E2E2E2E2E2E2E2E7E2E2E2E2E2E2E2E2E2EFEFE2E2E2E2E2E2E2E2E2E2E2E2E2E2E2E2E2E2E2E2E2E2E2E2E2E2E2E2E2
310
E2E2E2E2E2E2E2E2E2E2E2E2E2E2E2E2E2E2E2E2E2E2E2E2E2E2E2E2E2E2E2E2E2E2E2E2E2E2E2E2E2E2E7E2E2E2E2E2F5EF00E2E2E2E2E2E2E2E2E7E2E2E2E2E2E2E2E2E2EFEFE2E2E2E2E2E2E2E2E2E2E2E2E2E2E2E2E2E2E2E2E2E2E2E2E2E2E2E2E2E2E2E2E2E2E2E2E2E2E2E2E2E2E2E2E2E2E2E2E2E2E2E2E2E2E2E2
310
E2E2E2E2E2E2E2E2E2E2E2E2E2E2E2E7E2E2E2E2E2F5EF00E2E2E2E2E2E2E2E2E7E2E2E2E2E2E2E2E2E2EFE2E2E2E2E2E2E2E2E2E2E2E2E2E2E2E2E2E2E2E2E2E2E2E2E2E2E2E2E2E2E2E2E2E2E2E2E2E2E2E2E2E2E2E2E2E2E2E2E2E2E2E2E2E2E2E2E2E2E2E2E2E2E2E2E2E2E2E2E2E2E2E2E7E2E2E2E2E2F5EF00E2E2E2
310
E2E2E2E2E2E7E2E2E2E2E2E2E2E2E2EFEFE2E2E2E2E2E2E2E2E2E2E2E2E2E2E2E2E2E2E2E2E2E2E2E2E2E2E2E2E2E2E2E2E2E2E2E2E2E2E2E2E2E2E2E2E2E2E2E2E2E2E2E2E2E2E2E2E2E2E2E2E2E2E2E2E2E2E2E2E2E2E2E7E2E2E2E2E2F5EF00E2E2E2E2E2E2E2E2E7E2E2E2E2E2E2E2E2E2EFE2E2E2E2E2E2E2E2E2E2E2
310
E2E2E2E2F5F5F5F5F5E2E2E2E2E2E2E2E2E2E2E2E2E2E2E2E2E2E2E2E2E2E2E2E2E2E2E2E2E2E2E2E2E2E2E2E2E2E2E2E2E2E2E2E2E2E2E2E2E2E2E2E2E7E2E2E2E2E2F5EF00E2E2E2E2E2E2E2E2E7E2E2E2E2E2E2E2E2E2EFE2E2E2E2E2E2E2E2E2E2E2E2E2E2E2E2E2E2E2E2E2E2E2E2E2E2E2E2E2E2E2E2E2E2E2E2E2E2
310
E2E2E2E2E2E2E2E2E2E2E2E2E2E2E2E2E2E2E2E2E2E2E2E2E2E2E2E2E2E2E2E2E2E2E7E2E2E2E2E2F5EF00E2E2E2E2E2E2E2E2E7E2E2E2E2E2E2E2E2E2EFEFEFEFEFEFEFEFEFEFEFEFEFEFEFEFEFEFEFEFEFEFEFEFEFEFEFEFEFEFEFEFEFEFEFEFEFEFE2E2E2E2E2E2E2E2E2E2E2E2E2E2E2E2E2E2E2E2E2E2E2E2E2E2E2E2
310
E2E2E2E2E2E2E2E7E2E2E2E2E2F5EF3FE2E2E2E2E2E2E2E2E7E2E2E2E2E2E2E2E2E2EFEFE2E2E2EFEFEFE2E2E2EFE2E2E2E2E2EFEFEFE2E2E2E2EFE2E2E2E2EFEFEFE2E2E2EFEFEFE2E2E2E2E2E2E2E2E2E2E2E2E2E2E2E2E2E2E2E2E2E2E2E2E2E2E2E2E2E2E2E2E2E2E2E7E2E2E2E2E2F5EF5CE2E2E2E2E2E2E2E2E7E2E2
310
E2E2E2E2E2E2E2EFEFEFEFEFEFEFEFEFEFEFEFEFEFEFEFEFEFEFEFEFEFEFEFEFEFEFEFEFEFEFEFEFEFEFEFEFEFE2E2E2E2E2E2E2E2E2E2E2E2E2E2F5F5E2E2E2E2E2E2E2E2E2E2E2E2E2E2E2E2E2E2E2E7E2E2E2E2E2F5EF00E2F5E2E2E2E2E2E2E7E2E2E2E2E2E2E2E2E2EFEFEFEFEFEFEFEFEFEFEFEFEFEFEFEFEFEFEFEF
310
EFEFEFEFEFEFEFEFEFEFEFEFEFEFEFEFEFEFE2E2E2E2E2E2E2E2E2E2E2E2E2E2F5F5F5F5F5F5F5E2E2E2E2E2E2E2E2E2E2E2E2E2E2E7E2E2F5E2E2F5EF00E2F5E2E2E2E2E2E2E7E2E2E2E2E2E2E2E2E2EFE2E2E2E2E2E2E2E2E2E2E2E2E2EFE2E2E2E2E2E2E2E2E2EFE2E2E2E2E2E2E2E2E2E2E2EFEFE2E2E2E2E2E2E2E2E2
310
E2E2E2E2E2E2E2F5E2E2E2F5E2E2E2E2E2E2E2E2E2E2E2E2E2E2E7E2E2F5E2E2F5EFFFE2F5E2E2E2E2E2E2E7E2E2E2E2E2E2E2E2E2EFE2EFEFE2EFEFEFE2E2E2E2E2E2EFEFEFEFEFEFEFEFEFEFEFE2E2E2E2E2E2E2E2E2E2E2EFEFE2E2E2E2E2E2E2E2E2E2E2E2E2E2E2E2E2E2E2E2F5E2E2E2E2E2E2E2E2E2E2E2E2E2E2E7
310
E2E2F5E2E2F5EF7EE2F5E2E2E2E2E2E2E7E2E2E2E2E2E2E2ECECEFEFEFEFEFEFEFEFEFEFEFEFEFEFEFEFEFEFEFEFEFEFEFEFEFE2E2E2E2E2E2E2E2E2E2E2EFEFE2E2E2E2E2E2E2E2E2E2E2E2E2E2DCDCDCDCDCDCF5DCDCDCDCDCDCE2E2E2E2E2E2E2E2E7E2E2F5E2E2F5EF65E2F5E2E2E2E2E2E2E7E2E2E2E2E2E2E2ECECE2
310
E2E2E2E2E2E2E2E2E2E2E2E2E2EFE2EFE2E2E2E2E2E2EFEFE2E2E2E2E2E2E2E2E2E2EFEFEFE2E2E2E2E2E2E2E2E2E2E2E2E2E2DCDCDCE2E2E2F5E2E2E2DCDCDCE2E2E2E2E2E2E2E2E7E2E2F5E2E2F5EF63E2F5E2E2E2E2E2E2E7E2E2E2E2E2E2EFECEFEFE2E2E2E2E2E2E2E2E2E2EFE2EFEFEFEFE2E2E2E2E2E2EFEFE2E2E2
310
E2E2E2E2E2E2E2EFEFEFE2E2E2E2E2E2E2E2E2E2E2E2E2E2DCDCDCDCDCDCF5DCDCDCDCDCDCE2E2E2E2E2E2E2E2E7E2E2F5E2E2F5EF00E2F5E2E2E2E2E2E2E7E2E2E2E2E2E2EFECEFEFE2E2E2E2E2E2E2E2E2E2ECECECECE2EFE2E2E2E2E2E2EFEFE2E2E2E2E2E2E2E2E2E2E2EFEFE2E2E2E2E2E2E2E2E2E2E2E2E2E2DCDCDC
310
E2E2E2F5E2E2F5DCDCDCE2E2E2E2E2E2E2E2E7E2E2F5E2E2F5EF00E2F5E2E2E2E2E2E2E7E2F5F5F5F5F5EFEFEFEFE2E2E2E2E2E2E2E2E2E2ECECECECEFEFEFEFEFEFEFEFEFEFEFEFEFEFEFEFEFEFEFEFEFEFEFE2E2E2E2E2E2E2E2E2E2E2E2E2E2DCDCDCE2E2E2F5E2E2F5DCDCDCE2E2E2E2E2E2E2E2E7E2E2F5E2E2F5EF3F
310
E2F5E2E2E2E2E2E2E7E2F5F5F5F5F5EFEFEFEFEFEFEFEFEFEFEFEFEFEFECECECEFEFEFF5F5F5F5F5EFEFEFEFEFEFF5F5F5F5EFEFEFEFEFEFE2E2E2E2E2E2E2E2E2E2E2E2E2E2DCDCDCE2E2E2F5E2F5E2DCDCDCE2E2E2E2E2E2E2E2E7E2E2F5E2E2F5EF5CE2F5E2E2E2E2E2E2E7E2E2E2E2E2E2EFEFEFEFEFEFEFEFEFEFEFEF
310
EFEFEFE2E2E2E2E2F5F5F5F5F5E2E2E2E2E2E2F5F5F5F5E2E2E2E2E2E2E2E2E2E2E2E2E2E2E2E2E2E2E2E2DCDCDCE2E2E2E2E2F5E2DCDCDCE2E2E2E2E2E2E2E2E7E2E2F5E2E2F5EF00E2F5E2E2E2E2E2E2E7E2E2E2E2E2E2EFEFEFEFE2E2E2E2EFEFEFE2E2E2EFE2E2E2E2E2E2E2E2E2E2E2E2E2E2E2E2E2E2E2E2E2E2E2E2
310
E2E2E2E2E2E2E2E2E2E2E2E2E2E2E2E2DCDCDCE2E2E2F5F5E2E2DCDCDCE2E2E2E2E2E2E2E2E7E2E2F5E2E2F5EF00E2F5E2E2E2E2E2E2E7E2E2E2E2E2E2E2E2EFEFE2E2E2E2E2E2E2E2E2E2EFE2E2E2E2E2E2E2E2E2E2E2E2E2E2E2E2E2E2E2E2E2E2E2E2E2E2E2E2E2E2E2E2E2E2E2E2E2E2E2E2DCDCDCE2E2E2F5E2E2E2DC
310
DCDCE2E2E2E2E2E2E2E2E7E2E2F5E2E2F5EF00E2F5E2E2E2E2E2E2E7E2E2E2E2E2E2E2E2E2EFE2E2E2E2E2E2E2E2E2E2EFE2E2E2E2E2E2E2E2E2E2E2E2E2E2E2E2E2E2E2E2E2E2E2E2E2E2E2E2E2E2E2E2E2E2E2E2E2E2E2E2DCDCDCE2E2F5F5E2E2E2DCDCDCE2E2E2E2E2E2E2E2E7E2E2F5E2E2F5EF00E2F5E2E2E2E2E2E2
310
E7E2E2E2E2E2E2E2E2E2EFE2E2E2E2E2E2E2E2E2E2EFE2E2E2E2E2E2E2E2E2E2E2E2E2E2E2E2E2E2E2E2E2E2E2E2E2E2E2E2E2E2E2E2E2E2E2E2E2E2E2E2DCDCDCE2F5E2E2E2E2E2DCDCDCE2E2E2E2E2E2E2E2E7E2E2F5E2E2F5EF00E2F5E2E2E2E2E2E2E7E2E2E2E2E2E2E2E2E2EFE2E2E2E2E2E2E2E2E2E2EFE2E2E2E2E2
310
E2E2E2E2E2E2E2E2E2E2E2E2E2E2E2E2E2E2E2E2E2E2E2E2E2E2E2E2E2E2E2E2E2E2E2DCDCDCE2F5E2E2E2E2E2DCDCDCE2E2E2E2E2E2E2E2E7E2E2F5E2E2F5EF00E2F5E2E2E2E2E2E2E7E2E2E2E2E2E2E2E2E2EFE2E2E2E2E2E2E2E2E2E2EFE2E2E2E2E2E2E2E2E2E2E2E2E2E2E2E2E2E2E2E2E2E2E2E2E2E2E2E2E2E2E2E2
310
E2E2E2E2E2E2E2E2DCDCDCF5E2E2E2E2E2E2DCDCDCE2E2E2E2E2E2E2E2E7E2E2F5E2E2F5EF00E2F5E2E2E2E2E2E2E7E2E2E2E2E2E2E2E2E2EFE2E2E2E2E2E2E2E2E2E2EFF5F5F5E2E2E2E2E2E2E2E2E2E2E2E2E2E2E2E2E2E2E2E2E2E2E2E2E2E2E2E2E2E2E2E2E2E2E2E2E2DCDCDCF5E2E2E2E2E2E2DCDCDCE2E2E2E2E2E2
310
E2E2E7E2E2F5E2E2F5EF00E2E2E2E2E2E2E2E2E7E2E2E2E2E2E2E2E2E2EFE2E2E2E2E2E2E2E2E2E2EFF5F5F5E2E2E2E2E2E2E2E2E2E2E2E2E2E2E2E2E2E2E2E2E2E2E2E2E2E2E2E2E2E2E2E2E2E2E2E2E2DCDCF5E2E2E2E2E2E2E2DCDCDCE2E2E2E2E2E2E2E2E7E2E2E2E2E2F5EF00E2E2E2E2E2E2E2E2E7E2E2E2E2E2E2E2
310
E2E2EFE2E2E2E2E2E2E2E2E2E2EFF5F5F5F5E2E2E2E2E2E2E2E2E2E2E2E2E2E2E2E2E2E2E2E2E2E2E2E2E2E2E2E2E2E2E2E2E2E2E2E2DCDCDCF5E2E2E2E2E2E2DCDCDCE2E2E2E2E2E2E2E2E7E2E2E2E2E2F5EF00E2E2E2E2E2E2E2E2E7E2E2E2E2E2E2E2E2E2EFE2E2E2E2E2E2E2E2E2E2EFF5F5F5F5E2E2E2E2E2E2E2E2E2
310
E2E2E2E2E2E2E2E2E2E2E2E2E2E2E2E2E2E2E2E2E2E2E2E2E2E2E2DCDCDCF5E2E2E2E2E2E2DCDCDCE2E2E2E2E2E2E2E2E7E2E2E2E2E2F5EF00E2E2E2E2E2E2E2E2E7E2E2E2E2E2E2E2E2E2EFE2E2E2E2E2E2E2E2E2E2EFE2E2E2E2E2E2E2E2E2E2E2E2E2E2E2E2E2E2E2E2E2E2E2E2E2E2E2E2E2E2E2E2E2E2E2E2E2E2E2E2
310
DCDCDCE2F5E2E2E2E2E2DCDCDCE2E2E2E2E2E2E2E2E7E2E2E2E2E2F5EF00E2E2E2E2E2E2E2E2E7E2E2E2E2E2E2E2E2E2EFE2E2E2E2E2E2E2E2E2E2EFE2E2E2E2E2E2E2E2E2E2E2E2E2E2E2E2E2E2E2E2E2E2E2E2E2E2E2E2E2E2E2E2E2E2E2E2E2E2E2E2DCDCDCE2F5E2E2E2E2E2DCDCDCE2E2E2E2E2E2E2E2E7E2E2E2E2E2
310
F5EF00E2E2E2E2E2E2E2E2E7E2E2E2E2E2E2E2E2E2EFE2E2E2E2E2E2E2E2E2E2EFE2E2E2E2E2E2E2E2E2E2E2E2E2E2E2E2E2E2E2E2E2E2E2E2E2E2E2E2E2E2E2E2E2E2E2E2E2E2E2E2DCDCDCE2E2F5E2E2E2E2DCDCDCE2E2E2E2E2E2E2E2E7E2E2E2E2E2F5EF00E2E2E2E2E2E2E2E2E7E2E2E2E2E2E2E2E2E2EFE2E2E2E2E2
310
E2E2E2E2E2EFE2E2E2E2E2E2E2E2E2E2E2E2E2E2E2E2E2E2E2E2E2E2E2E2E2E2E2E2E2E2E2E2E2E2E2E2E2E2E2E2DCDCDCE2E2E2F5E2E2E2DCDCDCE2E2E2E2E2E2E2E2E7E2E2E2E2E2F5EF00E2E2E2E2E2E2E2E2E7E2E2E2E2E2E2E2E2E2EFE2E2E2E2E2E2E2E2E2E2EFE2E2E2E2E2E2E2E2E2E2E2E2E2E2E2E2E2E2E2E2E2
310
E2E2E2E2E2E2E2E2E2E2E2E2E2E2E2E2E2E2E2DCDCDCE2E2E2F5E2E2E2DCDCDCE2E2E2E2E2E2E2E2E7E2E2E2E2E2F5EF00E2E2E2E2E2E2E2E2E7E2E2E2E2E2E2E2E2E2EFE2E2E2E2E2E2E2E2E2E2EFE2E2E2E2E2E2E2E2E2E2E2E2E2E2E2E2E2E2E2E2E2E2E2E2E2E2E2E2E2E2E2E2E2E2E2E2E2E2E2E2DCDCDCE2E2E2E2F5
310
E2E2DCDCDCE2E2E2E2E2E2E2E2E7E2E2E2E2E2F5EF00E2F5E2E2E2E2E2E2E7E2E2E2E2E2E2E2E2E2EFEFEFEFE2EFEFE2E2E2E2EFE2E2E2E2E2E2E2E2E2E2E2E2E2E2E2E2E2E2E2E2E2E2E2E2E2E2E2E2E2E2E2E2E2E2E2E2E2E2E2E2DCDCDCE2E2E2F5E2F5E2DCDCDCE2E2E2E2E2E2E2E2E7E2E2F5E2E2F5EF00E2F5E2E2E2
310
E2E2E2E7E2E2E2E2E2E2E2E2E2EFEFE2EFEFEFEFE2E2E2E2EFE2E2E2E2E2E2E2E2E2E2E2E2E2E2E2E2E2E2E2E2E2E2E2E2E2E2E2E2E2E2E2E2E2E2E2E2E2E2E2E2DCDCDCE2E2E2F5E2F5E2DCDCDCE2E2E2E2E2E2E2E2E7E2E2F5E2E2F5EF00E2F5E2E2E2E2E2E2E7E2E2E2E2E2E2E2E2E2EFEFEFEFEFEFEFEFEFEFEFEFE2E2
310
E2E2E2E2E2E2E2E2E2E2E2E2E2E2E2E2E2E2E2E2E2E2E2E2E2E2E2E2E2E2E2E2E2E2E2E2E2E2DCDCDCE2E2E2F5E2E2F5DCDCDCE2E2E2E2E2E2E2E2E7E2E2F5E2E2F5EF5CE2F5E2E2E2E2E2E2E7E2E2E2E2E2E2E2E2E2EFE2F5F5F5F5F5ECF5E2E2EFE2E2E2E2E2E2E2E2E2E2E2E2E2E2E2E2E2E2E2E2E2E2E2E2E2E2E2E2E2
310
E2E2E2E2E2E2E2E2E2E2E2DCDCDCE2E2E2F5E2E2F5DCDCDCE2E2E2E2E2E2E2E2E7E2E2F5E2E2F5EF00E2F5E2E2E2E2E2E2E7E2E2E2F5F5F5F5F5E2EFE2F5ECE2E2F5ECF5E2E2EFE2E2E2E2E2E2E2E2E2E2E2E2E2E2E2E2E2E2E2E2E2E2E2E2E2E2E2E2E2E2E2E2E2E2E2E2E2E2E2E2DCDCDCDCDCDCF5DCDCDCDCDCDCE2E2E2
310
E2E2E2E2E2E7E2E2F5E2E2F5EF00E2F5E2E2E2E2E2E2E7E2E2E2F5F5F5F5F5E2EFECECF5F5F5F5ECF5ECE2EFE2E2E2E2E2E2E2E2E2E2E2E2E2E2E2E2E2E2E2E2E2E2E2E2E2E2E2E2E2E2E2E2E2E2E2E2E2E2E2E2DCDCDCDCDCDCF5DCDCDCDCDCDCE2E2E2E2E2E2E2E2E7E2E2F5E2E2F5EFFFE2F5E2E2E2E2E2E2E7E2E2E2E2
310
E2E2E2E2E2EFECECECE2E2F5ECF5ECE2EFE2E2E2E2E2E2E2E2E2E2E2E2E2E2E2E2E2E2E2E2E2E2E2E2E2E2E2E2E2E2E2E2E2E2E2E2E2E2E2E2DCDCDCDCDCDCF5DCDCDCDCDCDCE2E2E2E2E2E2E2E2E7E2E2F5E2E2F5EF00E2F5E2E2E2E2E2E2E7E2E2E2E2E2E2E2E2E2EFECECECE2E2F5ECF5ECEFEFE2E2E2E2E2E2E2E2E2E2
310
E2E2E2E2E2E2E2E2E2E2E2E2E2E2E2E2E2E2E2E2E2E2E2E2E2E2E2E2E2E2F5F5E2E2E2E2F5E2E2E2E2E2E2E2E2E2E2E2E2E2E2E7E2E2F5E2E2F5EF00E2F5E2E2E2E2E2E2E7E2E2E2E2E2E2E2E2E2E2E2F5ECE2E2F5ECF5E2E2E2E2E2E2E2E2E2E2E2E2E2E2E2E2E2E2E2E2E2E2E2E2E2E2E2E2E2E2E2E2E2E2E2E2E2E2E2E2
310
E2E2E2F5F5F5F5F5F5F5E2E2E2E2E2E2E2E2E2E2E2E2E2E2E7E2E2F5E2E2F5EFFFE2F5E2E2E2E2E2E2E7E2E2E2E2E2E2E2E2E2E2E2E2E2E2E2E2E2E2E2E2E2E2E2E2E2E2E2E2E2E2E2E2E2E2E2E2E2E2E2E2E2E2E2E2E2E2E2E2E2E2E2E2E2E2E2E2E2E2E2E2E2E2E2E2E2E2E2E2E2E2E2E2E2E2E2E2E2E2E2E2E2E2E7E2E2
310
F5E2E2F5EF00E2F5E2E2E2E2E2E2E7E2E2E2E2E2E2E2E2E2E2E2E2E2E2E2E2E2E2E2E2E2E2E2E2E2E2E2E2E2E2E2E2E2E2E2E2E2E2E2E2E2E2E2E2E2E2E2E2E2E2E2E2E2E2E2E2E2E2E2E2E2E2E2E2E2E2E2E2E2E2E2E2E2E2E2E2E2E2E2E2E2E2E7E2E2F5E2E2F5EF00E2F5E2E2E2E2E2E2E7E2E2E2E2E2E2E2E2E2E2E2E2
310
E2E2E2E2E2E2E2E2E2E2E2E2E2E2E2E2F5F5F5F5F5F5F5F5F5F5F5F5F5E2E2E2E2E2E2E2E2E2E2E2E2E2E2E2E2E2E2E2E2E2E2E2E2E2E2E2E2E2E2E2E2E2E2E2E2E2E2E2E2E2E7E2E2F5E2E2F5EF00E2F5E2E2E2E2E2E2E7E2E2E2E2E2E2E2E2E2E2E2E2E2E2E2E2E2E2E2E2E2E2E2E2E2E2E2E2F5F5F5F5F5F5F5F5F5F5F5
310
F5F5E2E2E2E2E2E2E2E2E2E2E2E2E2E2E2E2E2E2E2E2E2E2E2E2E2E2E2E2E2E2E2E2E2E2E2E2E2E2E2E2E2E7E2E2F5E2E2F5EF5CE2F5E2E2E2E2E2E2E7E2E2E2E2E2E2E2E2E2E2E2E2E2E2E2E2E2E2E2E2E2E2E2E2E2E2E2E2F5F5F5F5F5F5F5F5F5F5F5E2F5E2E2E2E2E2E2E2E2E2E2E2E2E2E2E2E2E2E2E2E2E2E2E2E2E2
310
E2E2E2E2E2E2E2E2E2E2E2E2E2E2E2E2E7E2E2F5E2E2F5EF00E2F5E2E2E2E2E2E2E7E2E2E2E2E2E2E2E2E2E2E2E2E2E2E2E2E2E2E2E2E2E2E2E2E2E2E2E2F5F5F5F5F5F5F5F5F5F5F5F5F5E2E2E2E2E2E2E2E2E2E2E2E2E2E2E2E2E2E2E2E2E2E2E2E2E2E2E2E2E2E2E2E2E2E2E2E2E2E2E2E2E2E7E2E2F5E2E2F5EF00E2F5
310
E2E2E2E2E2E2E7E2E2E2E2E2E2E2E2E2E2E2E2E2E2E2E2E2E2E2E2E2E2E2E2E2E2E2E2E2E2E2E2E2E2E2E2E2E2E2E2E2E2E2E2E2E2E2E2E2E2E2E2E2E2E2E2E2E2E2E2E2E2E2E2E2E2E2E2E2E2E2E2E2E2E2E2E2E2E2E2E2E2E7E2E2F5E2E2F5EFFFE2F5E2E2E2E2E2E2E7E2E2E2E2E2E2E2E2E2E2E2E2E2E2E2E2E2E2E2E2
310
E2E2E2E2E2E2E2E2E2E2E2E2E2E2E2E2E2E2E2E2E2E2E2E2E2E2E2E2E2E2E2E2E2E2E2E2E2E2E2E2E2E2E2E2E2E2E2E2E2E2E2E2E2E2E2E2E2E2E2E2E2E2E7E2E2F5E2E2F5EF00E2E2E2E2E2E2E2E2E7E2E2E2E2E2E2E2E2E2E2E2E2E2E2E2E2E2E2E2E2E2E2E2E2E2E2E2E2E2E2E2E2E2E2E2E2E2E2E2E2E2E2E2E2E2E2E2
310
E2E2E2E2E2E2E2E2E2E2E2E2E2E2E2E2E2E2E2E2E2E2E2E2E2E2E2E2E2E2E2E2E2E2E2E7E2E2E2E2E2F5EF00E2E2E2E2E2E2E2E2E7E2E2E2E2E2E2E2E2E2E2E2E2E2E2E2E2E2E2E2E2E2E2E2E2E2E2E2E2E2E2E2E2E2E2E2E2E2E2E2E2E2E2E2E2E2E2E2E2E2E2E2F5F5F5F5F5F5F5F5F5F5F5F5F5F5F5F5F5F5F5F5E2E2E2
310
E2E2E2E2E2E2E2E2E7E2E2E2E2E2F5EFFFE2E2E2E2E2E2E2E2E7E2E2E2E2E2E2E2E2E2E2E2E2E2E2E2E2E2E2E2E2E2E2E2E2E2E2E2E2E2E2E2E2E2E2E2E2E2E2E2E2E2E2E2E2E2E2E2E2E2E2E2E2E2E2E2E2E2E2E2E2E2E2E2E2E2E2E2E2E2E2E2E2E2E2E2E2E2E2E2E2E2E2E7E2E2E2E2E2F5EF00E2E2E2E2E2E2E2E2E7E2
310
E2E2E2E2E2E2E2E2E2E2E2E2E2E2E2E2E2E2E2E2E2E2E2E2E2E2E2E2E2E2E2E2E2E2E2E2E2E2E2E2E2E2E2E2E2E2E2E2E2E2E2E2E2E2E2E2E2E2E2E2E2E2E2E2E2E2E2E2E2E2E2E2E2E2E2E2E2E2E2E2E2E7E2E2E2E2E2F5EF00E2E2E2E2E2E2E2E2E7E2E2E2E2E2E2E2E2E2E2E2E2E2E2E2E2E2E2E2E2E2E2E2E2E2E2E2E2
310
E2E2E2E2E2E2E2E2E2E2E2E2E2E2E2E2E2E2E2E2E2E2E2E2E2E2E2E2E2E2E2E2E2E2E2E2E2E2E2E2E2E2E2E2E2E2E2E2E2E2E2E2E2E2E7E2E2E2E2E2F5EF00E2E2E2E2E2E2E2E2E7E2E2E2E2E2E2E2E2E2E2E2F5ECE2E2F5ECF5E2E2E2E2E2E2E2E2E2E2E2E2E2E2E2E2E2E2E2E2E2E2E2E2E2E2E2E2E2E2E2E2E2E2E2E2E2
310
E2E2E2E2F5F5F5F5F5E2E2E2E2E2E2F5F5F5F5E2E2E2E2E2E2E2E2E7E2E2E2E2E2F5EF00E2E2E2E2E2E2E2E2E7E2E2E2E2E2E2E2E2E2EFECECECE2E2F5ECF5ECEFEFE2E2E2E2E2E2E2E2E2E2E2E2E2E2E2E2E2E2E2E2E2E2E2E2E2E2E2E2E2E2E2E2E2E2E2E2E2E2E2E2E2E2E2E2E2E2E2E2E2E2E2E2E2E2E2E2E2E2E2E2E2
310
E7E2E2E2E2E2F5EF00E2E2E2E2E2E2E2E2E7E2E2E2E2E2E2E2E2E2EFECECECE2E2F5ECF5ECEFEFE2E2E2E2E2E2E2E2E2E2E2E2E2E2E2E2E2E2E2E2E2E2E2E2E2E2E2E2E2E2E2E2E2E2EFEFEFEFEFEFEFEFEFEFEFEFEFEFEFEFEFEFEFEFEFEFEFEFEFE2E2E7E2E2E2E2E2F5EF3FE2E2E2E2E2E2E2E2E7E2E2E2F5F5F5F5F5E2
310
EFECECECE2E2F5ECF5ECE2EFE2E2E2E2E2E2E2E2E2E2E2E2E2E2E2E2E2E2E2E2E2E2E2E2E2E2E2E2E2E2E2E2E2E2EFEFE2EFE2E2E2E2E2E2EFEFE2E2E2E2E2E2E2E2E2E2E2EFEFE2E2E7E2E2E2E2E2F5EF00E2E2E2E2E2E2E2E2E7E2E2E2E2E2E2E2E2E2EFECECF5F5F5F5ECF5EFE2EFE2E2E2E2E2E2E2E2E2E2E2E2E2E2E2
310
E2E2E2E2E2E2E2E2E2E2E2E2E2E2E2E2E2E2E2EFEFEFEFE2E2E2E2E2E2EFEFE2E2E2E2E2E2E2E2E2E2EFEFEFE2E2E7E2E2E2E2E2F5EF00E2F5E2E2E2E2E2E2E7E2E2E2E2E2E2E2E2E2EFE2F5F5F5F5F5ECF5E2E2EFE2E2E2E2E2E2E2E2E2E2E2E2E2E2E2E2E2E2E2E2E2E2E2E2E2E2E2E2E2E2E2E2E2E2E2EFEFEFE2E2E2E2
310
E2E2EFEFE2E2E2E2E2E2E2E2E2E2EFEFEFE2E2E7E2E2F5E2E2F5EF00E2F5E2E2E2E2E2E2E7E2E2E2E2E2E2E2E2E2EFEFEFEFEFEFEFEFEFEFEFEFE2E2E2E2E2E2E2E2E2E2E2E2E2E2E2E2E2E2E2E2E2EFEFEFEFEFEFEFEFEFEFEFEFEFEFEFEFEFEFEFEFEFEFEFEFEFE2E2E2E2E2E2E2E2E2E2E2EFEFE2E2E7E2E2F5E2E2F5EF
310
00E2F5E2E2E2E2E2E2E7E2E2E2E2E2E2E2E2E2EFEFEFEFEFEFEFEFEFEFEFEFE2E2E2E2E2E2E2E2E2E2E2E2E2E2E2E2E2E2E2E2E2EFEFEFEFEFEFEFEFEFEFEFEFEFEFEFEFEFEFEFEFEFEFEFEFEFE2E2E2E2E2E2E2E2E2E2E2EFEFE2E2E7E2E2F5E2E2F5EF00E2F5E2E2E2E2E2E2E7E2E2E2E2E2E2E2E2E2EFEFEFEFEFEFEFE2
310
E2E2E2EFE2E2E2E2E2E2E2E2E2E2E2E2E2E2E2E2E2E2E2E2E2EFE2E2E2E2E2E2E2E2E2E2E2E2E2EFE2E2E2E2E2E2E2E2E2EFE2E2E2E2E2E2E2E2E2E2E2EFEFE2E2E7E2E2F5E2E2F5EF00E2F5E2E2E2E2E2E2E7E2E2E2E2E2E2E2E2E2EFEFEFEFE2E2E2E2E2E2E2EFE2E2E2E2E2E2E2E2E2E2E2E2E2E2E2E2E2E2E2E2E2EFEF
310
EFEFEFEFEFEFEFEFEFEFEFEFEFEFEFEFEFEFEFEFEFEFEFEFEFEFEFEFEFEFEFEFEFEFEFEFE2E2E7E2E2F5E2E2F5EF00E2F5E2E2E2E2E2E2E7E2E2E2E2E2E2E2E2E2EFE2E2E2E2E2E2E2E2E2E2EFE2E2E2E2E2E2E2E2E2E2E2E2E2E2E2E2E2E2E2E2E2EFEFEFEFEFEFEFEFEFEFEFEFEFEFEFEFEFEFEFEFEFEFEFEFEFEFEFEFEF
310
EFEFEFEFEFEFEFEFEFE2E2E7E2E2F5E2E2F5EF00E2F5E2E2E2E2E2E2E7E2E2E2E2E2E2E2E2E2EFE2E2E2E2E2E2E2E2E2E2EFE2E2E2E2E2E2E2E2E2E2E2E2E2E2E2E2E2E2E2E2E2EFEFE2E2E2EFEFEFE2E2E2EFEFEFEFEFE2EFEFEFE2E2E2E2EFE2E2E2E2EFEFEFE2E2E2EFEFEFE2E2E7E2E2F5E2E2F5EF00E2F5E2E2E2E2E2
310
E2E7E2E2E2E2E2E2E2E2E2EFE2E2E2E2E2E2E2E2E2E2EFE2E2E2E2E2E2E2E2E2E2E2E2E2E2E2E2E2E2E2E2E2EFEFEFEFEFEFEFEFEFEFEFEFEFE2E2EFEFEFEFEFEFEFEFEFEFEFEFEFEFEFEFEFEFEFEFEFEFEFE2E2E7E2E2F5E2E2F5EF3FE2F5E2E2E2E2E2E2E7E2E2E2E2E2E2E2E2E2EFE2E2E2E2E2E2E2E2E2E2EFE2E2E2E2
310
E2E2E2E2E2E2E2E2E2E2E2E2E2E2E2E2E2EFE2E2E2E2E2E2E2E2E2E2E2F5F5F5F5F5F5F5F5F5F5F5F5F5F5F5F5F5E2E2E2E2E2E2E2E2E2E2E2E7E2E2F5E2E2F5EF00E2F5E2E2E2E2E2E2E7E2E2E2E2E2E2E2E2E2EFE2E2E2E2E2E2E2E2E2E2EFE2E2E2E2E2E2E2E2E2E2E2E2E2E2E2E2E2E2E2E2E2EFE2E2E2E2E2E2E2E2E2
310
E2E2F5F5F5F5F5F5F5F5F5F5F5F5F5F5F5F5F5E2E2E2E2E2E2E2E2E2E2E2E7E2E2F5E2E2F5EF00E2F5E2E2E2E2E2E2E7E2E2E2E2E2E2E2E2E2EFE2E2E2E2E2E2E2E2E2E2EFF5F5F5F5E2E2E2E2E2E2E2E2E2E2E2E2E2E2E2E2E2EFEFE2E2E2E2E2E2E2E2E2E2E2E2E2E2E2F5F5F5F5F5E2E2E2E2E2E2E2E2E2E2E2E2E2E2E2
310
E2E2E2E7E2E2F5E2E2F5EF00E2F5E2E2E2E2E2E2E7E2E2E2E2E2E2E2E2E2EFE2E2E2E2E2E2E2E2E2E2EFE2E2E2E2E2E2E2E2E2E2E2E2E2E2E2E2E2E2E2E2E2EFE2E2E2E2E2E2E2E2E2E2E2E2E2E2E2E2F5F5F5F5F5E2E2E2E2E2E2E2E2E2E2E2E2E2E2E2E2E2E2E7E2E2F5E2E2F5EFFFE2F5E2E2E2E2E2E2E7E2E2E2E2E2E2
310
E2E2E2EFE2E2E2E2E2E2E2E2E2E2EFE2E2E2E2E2E2E2E2E2E2E2E2E2E2E2E2E2E2E2E2E2EFEFE2E2E2E2E2E2E2E2E2E2E2E2E2E2E2E2E2E2E2E2E2E2E2E2E2E2E2E2E2E2E2E2E2E2E2E2E2E2E7E2E2F5E2E2F5EF00E2F5E2E2E2E2E2E2E7E2E2E2E2E2E2E2E2E2EFE2E2E2E2E2E2E2E2E2E2EFE2E2E2E2E2E2E2E2E2E2E2E2
310
E2E2E2E2E2E2E2E2E2EFEFE2E2E2E2E2E2E2E2E2E2E2E2E2E2E2E2E2E2E2E2E2E2E2E2E2E2E2E2E2E2E2E2E2E2E2E2E2E2E7E2E2F5E2E2F5EF3FE2F5E2E2E2E2E2E2E7E2E2E2E2E2E2E2E2E2EFE2E2E2E2E2E2E2E2E2E2EFE2E2E2E2E2E2E2E2E2E2E2E2E2E2E2E2E2E2E2E2E2E2E2E2E2E2E2E2E2E2E2E2E2E2E2E2E2E2E2
310
E2E2E2E2E2E2E2E2E2E2E2E2E2E2E2E2E2E2E2E2E2E2E7E2E2F5E2E2F5EF02E2F5E2E2E2E2E2E2E7E2E2E2E2E2E2E2E2E2EFE2E2E2E2E2E2E2E2E2E2EFE2E2E2E2E2E2E2E2E2E2E2E2E2E2E2E2E2E2E2E2E2E2E2E2E2E2E2E2E2E2E2E2E2E2E2E2E2E2E2E2E2E2E2E2E2E2E2E2E2E2E2E2E2E2E2E2E2E2E2E2E2E7E2E2F5E2
310
E2F5EF00E2F5E2E2E2E2E2E2E7E2E2E2E2E2E2E2E2E2EFE2E2E2E2E2E2E2E2E2E2EFE2E2E2E2E2E2E2E2E2E2E2E2E2E2E2E2E2E2E2E2E2E2E2E2E2E2E2E2E2E2E2E2E2E2E2E2E2E2E2E2E2E2E2E2E2E2E2E2E2E2E2E2E2E2E2E2E2E2E2E2E2E7E2E2F5E2E2F5EF00E2E2E2E2E2E2E2E2E7E2E2E2E2E2E2E2E2E2EFE2E2E2E2
310
E2E2E2E2E2E2EFE2E2E2E2E2E2E2E2E2E2E2E2E2E2E2E2E2E2E2E2E2E2E2E2E2E2E2E2E2E2E2E2E2E2E2E2E2E2E2E2E2E2E2E2E2E2E2E2E2E2E2E2E2E2E2E2E2E2E2E2E2E7E2E2E2E2E2F5EFFFE2E2E2E2E2E2E2E2E7E2E2E2E2E2E2E2E2E2EFE2E2E2E2E2E2E2E2E2E2EFE2E2E2E2E2E2E2E2E2E2E2E2E2E2E2E2E2E2E2E2
310
E2E2E2E2E2E2E2E2E2E2E2E2E2E2E2E2E2E2E2E2E2E2E2E2E2E2E2E2E2E2E2E2E2E2E2E2E2E2E2E2E2E7E2E2E2E2E2F5EFBFE2E2E2E2E2E2E2E2E7E2E2E2E2E2E2E2E2E2EFE2E2E2E2EFEFE2E2E2E2EFE2E2E2E2E2E2E2E2E2E2E2E2E2E2E2E2E2E2E2E2E2E2E2E2E2E2E2E2E2E2E2E2E2E2E2E2E2E2E2E2E2E2E2E2E2E2E2
310
E2E2E2E2E2E2E2E2E2E2E2E2E2E2E7E2E2E2E2E2F5EFFFE2E2E2E2E2E2E2E2E7E2E2E2E2E2E2E2E2E2EFE2E2E2E2EFEFEFE2E2E2EFE2E2E2E2E2F5F5F5F5F5E2E2E2E2E2E2F5F5F5F5E2E2E2E2E2E2E2E2E2E2E2E2E2E2E2E2E2E2E2E2E2E2E2E2E2E2E2E2E2E2E2E2E2E2E2E2E2E2E2E2E2E7E2E2E2E2E2F5EF00E2E2E2E2
310
E2E2E2E2E7E2E2E2E2E2E2E2E2E2EFEFEFEFEFEFEFEFEFEFEFEFE2E2E2E2E2F5F5F5F5F5E2E2E2E2E2E2F5F5F5F5E2E2E2E2E2E2E2E2E2E2E2E2E2E2E2E2E2E2E2E2E2E2E2E2E2E2E2E2E2E2E2E2E2E2E2E2E2E2E2E2E2E7E2E2E2E2E2F5EF05E2E2E2E2E2E2E2E2E7E2E2E2E2E2E2E2E2E2EFE2E2E2E2E2E2E2E2E2E2ECEC
310
ECEFEFEFEFEFEFEFEFEFEFEFEFEFEFEFEFEFEFEFEFEFEFEFEFE2E2E2E2E2E2E2E2E2E2E2E2E2E2E2E2E2E2E2E2E2E2E2E2E2E2E2E2E2E2E2E2E2E2E2E7E2E2E2E2E2F5EF00E2E2E2E2E2E2E2E2E7E2E2E2E2E2E2E2E2E2EFE2E2E2E2E2E2E2E2E2E2ECECECECEFEFE2E2E2E2E2E2EFEFE2E2E2E2E2E2E2E2E2E2EFEFEFE2E2
310
E2E2E2E2E2E2E2E2E2E2E2E2E2E2E2E2E2E2E2E2E2E2E2E2E2E2E2E2E2E2E2E2E2E7E2E2E2E2E2F5EF00E2E2E2E2E2E2E2E2E7E2E2E2E2E2E2E2E2E2EFECE2E2E2E2E2E2E2E2E2EFE2EFEFEFEFE2E2E2E2E2E2EFEFE2E2E2E2E2E2E2E2E2E2E2EFEFE2E2E2E2E2E2E2E2E2E2E2E2E2E2E2E2E2E2E2E2E2E2E2E2E2E2E2E2E2
310
E2E2E2E2E2E2E7E2E2E2E2E2F5EF00E2E2E2E2E2E2E2E2E7E2E2E2F5F5F5F5F5E2ECECE2E2E2E2E2E2E2E2E2EFE2E2EFEFEFE2E2E2E2E2E2EFEFE2E2E2E2E2E2E2E2E2E2EFEFEFE2E2E2E2E2E2E2E2E2E2E2E2E2E2E2E2E2E2E2E2E2E2E2E2E2E2E2E2E2E2E2E2E2E2E2E7E2E2E2E2E2F5EF00E2F5E2E2E2E2E2E2E7E2E2E2
310
F5F5F5F5F5E2ECECEFEFEFEFEFEFEFEFEFEFEFEFEFEFEFEFEFEFEFEFEFEFEFE2E2E2E2E2E2E2E2E2E2E2EFEFE2E2E2E2E2E2E2E2E2E2E2E2E2E2E2E2E2E2E2E2E2E2E2E2E2E2E2E2E2E2E2E2E2E2E2E7E2E2F5E2E2F5EF00E2F5E2E2E2E2E2E2E7E2E2E2E2E2E2E2E2E2EFEFEFEFEFEFEFEFEFEFEFEFEFEFEFEFEFEFEFEFEF
310
EFEFEFEFE2E2E2E2E2E2E2E2E2E2E2EFEFE2E2E2E2E2E2E2E2E2E2E2E2E2E2E2E2E2E2E2E2E2E2E2E2E2E2E2E2E2E2E2E2E2E2E2E7E2E2F5E2E2F5EF00E2F5E2E2E2E2E2E2E7E2E2E2E2E2E2E2E2E2EFE2E2E2E2E2E2E2E2E2E2E2E2E2EFE2E2E2E2E2E2E2E2E2EFE2E2E2E2E2E2E2E2E2E2E2EFEFE2E2E2E2E2E2E2E2E2E2
310
E2E2E2E2E2E2E2E2E2E2E2E2E2E2E2E2E2E2E2E2E2E2E2E2E2E7E2E2F5E2E2F5EF01E2F5E2E2E2E2E2E2E7E2E2E2E2E2E2E2E2E2EFE2E2E2E2E2E2E2E2E2E2E2E2E2EFE2E2E2E2E2E2E2E2E2EFE2E2E2E2E2E2E2E2E2E2E2EFEFE2E2E2E2E2E2E2E2E2E2E2E2E2E2E2E2E2E2E2E2E2E2E2E2E2E2E2E2E2E2E2E2E2E2E2E7E2
310
E2F5E2E2F5EF00E2F5E2E2E2E2E2E2E7E2E2E2E2E2E2E2E2E2EFEFEFEFEFEFEFEFEFEFEFEFEFEFEFEFEFEFEFEFEFEFEFEFEFEFEFEFEFEFEFEFEFEFEFEFEFEFE2E2E2E2E2E2E2E2E2E2E2E2E2E2E2E2E2E2E2E2E2E2E2E2E2E2E2E2E2E2E2E2E2E2E2E7E2E2F5E2E2F5EF00E2F5E2E2E2E2E2E2E7E2E2E2E2E2E2E2E2E2EFEF
310
E2E2E2EFEFEFE2E2E2EFE2E2E2E2E2EFEFEFE2E2E2E2EFE2E2E2E2EFEFEFE2E2E2EFEFEFE2E2E2E2E2E2E2E2E2E2E2E2E2E2E2E2E2E2E2E2E2E2E2E2E2E2E2E2E2E2E2E2E2E2E2E7E2E2F5E2E2F5EF00E2F5E2E2E2E2E2E2E7E2E2E2E2E2E2E2E2E2EFEFEFEFEFEFEFEFEFEFEFEFEFEFEFEFEFEFEFEFEFEFEFEFEFEFEFEFEF
310
EFEFEFEFEFEFEFEFEFE2E2E2E2E2E2E2E2E2E2E2E2E2E2E2E2E2E2E2E2E2E2E2E2E2E2E2E2E2E2E2E2E2E2E2E7E2E2F5E2E2F5EF69E2F5E2E2E2E2E2E2E7E2E2E2E2E2E2E2E2E2EFEFEFEFEFEFEFEFEFEFEFEFEFEFEFEFF5F5F5F5F5EFEFEFEFEFEFEFEFEFEFEFEFEFEFEFEFEFE2E2E2E2E2E2E2E2E2E2E2E2E2E2E2E2E2E2
310
E2E2E2E2E2E2E2E2E2E2E2E2E2E2E2E2E2E7E2E2F5E2E2F5EF00E2F5E2E2E2E2E2E2E7E2E2E2E2E2E2E2E2E2EFE2E2E2E2E2E2E2E2E2E2E2E2E2E2E2F5F5F5F5F5E2E2E2E2E2E2E2E2E2E2E2E2E2E2E2E2E2E2E2E2E2E2E2E2E2E2E2E2E2E2E2E2E2E2E2E2E2E2E2E2E2E2E2E2E2E2E2E2E2E2E2E2E7E2E2F5E2E2F5EF00E2
310
F5E2E2E2E2E2E2E7E2E2E2E2E2E2E2E2E2EFEFE2E2E2E2E2E2E2E2E2E2E2E2E2E2E2E2E2E2E2E2E2E2E2E2E2E2E2E2E2E2E2E2E2E2E2E2E2E2E2E2E2E2E2E2E2E2E2E2E2E2E2E2E2E2E2E2E2E2E2E2E2E2E2E2E2E2E2E2E2E2E2E7E2E2F5E2E2F5EF00E2F5E2E2E2E2E2E2E7E2E2E2E2E2E2E2E2E2EFEFE2E2E2E2E2E2E2E2
310
E2E2E2E2E2E2E2E2E2E2E2E2E2E2E2E2E2E2E2E2E2E2E2E2E2E2E2E2E2E2E2E2E2E2E2E2E2E2E2E2E2E2E2E2E2E2E2E2E2E2E2E2E2E2E2E2E2E2E2E2E2E2E2E7E2E2F5E2E2F5EF00E2F5E2E2E2E2E2E2E7E2E2E2E2E2E2E2E2E2EFEFE2E2E2E2E2E2E2E2E2E2E2E2E2E2E2E2E2E2E2E2E2E2E2E2E2E2E2E2E2E2E2E2E2E2E2
310
E2E2E2E2E2E2E2E2E2E2E2E2E2E2E2E2E2E2E2E2E2E2E2E2E2E2E2E2E2E2E2E2E2E2E2E2E7E2E2F5E2E2F5EF00E2F5E2E2E2E2E2E2E7E2E2E2E2E2E2E2E2E2EFEFE2E2E2E2E2E2E2E2E2E2E2E2E2E2E2E2E2E2E2E2E2E2E2E2E2E2E2E2E2E2E2E2E2E2E2E2E2E2E2E2E2E2E2E2E2E2E2E2E2E2E2E2E2E2E2E2E2E2E2E2E2E2
310
E2E2E2E2E2E2E2E2E2E7E2E2F5E2E2F5EF00E2F5E2E2E2E2E2E2E7E2E2E2E2E2E2E2E2E2EFEFE2E2E2E2E2E2E2E2E2E2E2E2E2E2E2E2E2E2E2E2E2E2E2E2E2E2E2E2E2E2E2E2E2E2E2E2E2E2E2E2E2E2E2E2E2E2E2E2E2E2E2E2E2E2E2E2E2E2E2E2E2E2E2E2E2E2E2E2E2E2E2E7E2E2F5E2E2F5EF00E2F5E2E2E2E2E2E2E7
310
E2E2E2E2E2E2E2E2E2E2E2E2E2E2E2E2E2E2E2E2E2E2E2E2E2E2E2E2E2E2E2E2E2E2E2E2E2E2E2E2E2E2E2E2E2E2E2E2E2E2E2E2E2E2E2E2E2E2E2E2E2E2E2E2E2E2E2E2E2E2E2E2E2E2E2E2E2E2E2E2E2E2E7E2E2F5E2E2F5EF00E2F5E2E2E2E2E2E2E7E2E2E2E2E2E2E2E2E2E2E2E2E2E2E2E2E2E2E2E2E2E2E2E2E2E2E2
310
E2E2E2E2E2E2E2E2E2E2E2E2E2E2E2E2E2E2E2E2E2E2E2E2E2E2E2E2E2E2E2E2E2E2E2E2E2E2E2E2E2E2E2E2E2E2E2E2E2E2E2E2E2E2E2E7E2E2F5E2E2F5EF00E2F5E2E2E2E2E2E2E7E2E2E2E2E2E2E2E2E2E2E2E2E2E2E2E2E2E2E2E2E2E2E2E2E2E2E2E2E2E2E2E2E2E2E2E2E2E2E2E2E2E2E2E2E2E2E2E2E2E2E2E2E2E2
310
E2E2E2E2E2E2E2E2E2E2E2E2E2E2E2E2E2E2E2E2E2E2E2E2E2E2E2E2E7E2E2F5E2E2F5EF00E2E2E2E2E2E2E2E2E7E2E2E2E2E2E2E2E2E2E2E2E2E2E2E2E2E2E2E2E2E2E2E2E2E2E2E2E2E2E2E2E2E2E2E2E2E2E2E2E2E2E2E2E2E2E2E2E2E2E2E2E2E2E2E2E2E2E2E2E2E2E2E2E2E2E2E2E2E2E2E2E2E2E2E2E2E2E2E2E2E2
310
E2E7E2E2E2E2E2F5EF00E2E2E2E2E2E2E2E2E7E2E2E2E2E2E2E2E2E2E2E2E2E2E2E2E2E2E2E2E2E2E2E2E2E2E2E2E2E2E2E2E2E2E2E2E2E2E2E2E2E2E2E2E2E2E2E2E2E2E2E2E2E2E2E2E2E2E2E2E2E2E2E2E2E2E2E2E2E2E2E2E2E2E2E2E2E2E2E2E2E2E2E7E2E2E2E2E2F5EF00E2E2E2E2E2E2E2E2E7E7E7E7E7E7E7E7E7
310
E7E7E7E7E7E7E7E7E7E7E7E7E7E7E7E7E7E7E7E7E7E7E7E7E7E7E7E7E7E7E7E7E7E7E7E7E7E7E7E7E7E7E7E7E7E7E7E7E7E7E7E7E7E7E7E7E7E7E7E7E7E7E7E7E7E7E7E7E7E7E7E7E7E7E7E2E2E2E2E2F5EF00E2E2E2E2E2E2E2E2E2E2E2E2E2E2F5F5F5F5F5F5F5F5F5F5F5F5F5F5F5F5F5F5F5F5F5F5F5F5F5F5F5F5F5F5
310
F5F5F5F5F5F5F5F5F5F5F5F5F5F5F5F5F5F5F5F5F5F5F5F5F5F5F5F5F5F5F5F5F5F5F5F5F5F5F5F5F5F5F5F5F5F5F5F5E2E2E2E2E2F5EF00E2E2E2E2E2E2E2E2E2E2E2E2E2E2F5E2E2E2E2E2E2E2F5F5F5F5F5F5F5F5F5F5F5F5F5F5F5F5E2E2E2E2E2E2E2E2E2E2E2E2E2E2E2E2E2E2E2E2E2E2E2E2E2E2E2E2E2E2E2F5E2
310
E2F5F5F5F5F5F5E2E2F5E2E2E2E2F5F5E2E2E2E2F5E2E2E2E2E2F5EF00E2E2E2E2E2E2E2E2E2E2E2E2E2ECECECE2E2E2E2E2E2F5F5F5F5F5F5F5F5F5F5F5F5F5F5F5F5E2E2E2E2E2E2E2E2E2E2E2E2E2E2E2E2E2E2E2E2E2E2E2E2E2E2E2E2E2E2E2F5E2E2F5F5F5F5F5F5E2E2F5E2E2E2E2F5F5E2E2E2E2F5E2E2E2E2E2F5
310
EF00E2E2E2E2E2E2E2E2E2E2E2E2E2ECECECECE2E2E2E2E2E2E2E2E2E2E2E2E2E2E2E2E2E2E2E2E2E2E2E2E2E2E2E2E2E2E2E2E2E2E2E2E2E2E2E2E2E2E2E2E2E2E2E2E2E2E2E2F5E2E2E2E2E2E2E2E2E2E2F5E2E2E2E2E2E2E2E2E2E2F5E2E2E2E2E2F5EF00E2E2E2E2E2E2E2E2E2E2E2E2ECECECECECE2E2E2E2E2F5F5F5
310
F5F5F5F5F5F5F5F5F5F5F5F5F5F5F5E2E2E2E2E2E2E2E2E2E2E2E2E2E2E2E2E2E2E2E2E2E2E2E2E2E2E2E2E2F5E2E2E2F5F5F5F5E2E2E2F5E2E2F5F5F5F5F5E2E2E2F5E2E2E2E2E2F5EF74E2E2E2E2E2E2E2E2E2E2E2E2ECECECECECECE2E2E2E2F5F5F5F5F5F5F5F5F5F5F5F5F5F5F5F5F5F5E2E2E2E2E2E2E2E2E2E2E2E2
310
E2E2E2E2E2E2E2E2E2E2E2E2E2E2E2E2E2F5E2E2E2E2E2E2E2E2E2E2F5E2E2E2E2E2E2E2E2E2E2F5E2E2E2E2E2F5EF53E2E2E2E2E2E2E2E2E2E2E2ECECECECECECECECE2E2E2E2E2E2E2E2E2E2E2E2E2E2E2E2E2E2E2E2E2E2E2E2E2E2E2E2E2E2E2E2E2E2E2E2E2E2E2E2E2E2E2E2E2E2E2E2E2E2F5E2E2E2E2E2E2E2E2E2
310
E2F5E2E2E2E2E2E2E2E2E2E2F5E2E2E2E2E2F5EF00E2F5E2E2E2E2E2E2E2E2E2ECECECECECECECECE2E2E2F5F5F5F5F5F5F5F5F5F5F5F5F5F5F5F5F5F5F5F5F5F5F5F5F5F5E2E2E2E2E2E2E2E2E2E2E2E2E2E2E2E2E2E2E2E2E2F5F5F5F5F5F5F5F5F5F5F5F5F5F5F5F5F5F5F5F5F5F5F5E2E2F5E2E2F5EF00E2F5E2E2E2E2
310
E2E2E2E2ECECECECECECECECECECE2E2F5F5F5F5F5F5F5F5F5F5F5F5F5F5F5F5F5F5F5F5F5F5F5F5F5F5E2E2E2E2E2E2E2E2E2E2E2E2E2E2E2E2E2E2E2E2E2F5E2E2E2E2E2E2E2E2E2E2E2E2E2E2E2E2E2E2E2E2E2F5E2E2F5E2E2F5EF00E2F5E2E2E2E2E2E2E2ECECECECECECECECECECECECE2F5F5F5F5F5F5F5F5F5F5F5
310
F5F5F5F5F5F5F5F5F5F5F5F5F5F5F5F5F5F5F5F5F5F5F5E2E2E2E2E2E2E2E2E2E2E2E2E2F5E2E2F5F5F5F5F5F5F5E2F5F5F5F5F5F5F5F5E2E2E2F5E2E2F5E2E2F5EF00E2F5E2E2E2E2E2E2E2ECECECECECECECECECECECECE2F5F5F5F5F5F5F5F5F5F5F5F5F5F5F5F5F5F5F5F5F5F5F5F5F5F5F5F5F5F5F5F5F5F5E2E2E2E2
310
E2E2E2E2E2E2E2E2E2F5E2E2F5F5F5F5F5F5F5E2F5F5F5F5F5F5F5F5E2E2E2F5E2E2F5E2E2F5EF00E2F5E2E2E2E2E2E2ECECECECECECECECECECECECECECF5F5F5F5F5F5F5F5F5F5F5F5F5F5F5F5F5F5F5F5F5F5F5F5F5F5F5F5F5F5F5F5F5F5E2E2E2E2E2E2E2E2E2E2E2E2E2F5E2E2E2E2E2E2E2E2E2E2E2E2E2E2E2E2E2
310
E2E2E2E2F5E2E2F5E2E2F5EFCDE2F5E2E2E2E2E2E2ECECECECECECF5ECECECECECECECE2E2E2E2E2E2E2E2E2E2E2E2E2E2E2E2E2E2E2E2E2E2E2E2E2E2E2E2E2E2E2E2E2E2E2E2E2E2E2E2E2E2E2E2E2E2E2F5E2E2E2E2E2E2E2E2E2E2E2E2E2E2E2E2E2E2E2E2E2F5E2E2F5E2E2F5EF40E2F5E2E2E2E2E2E2E2E2E2E2E2E2
310
F5F5F5F5F5F5F5F5F5F5F5F5F5F5F5F5F5F5F5F5F5F5F5F5F5F5F5F5F5F5F5F5F5F5F5F5F5F5F5F5F5F5F5F5F5F5F5F5F5F5F5F5F5F5F5F5F5F5F5F5F5F5F5F5F5F5F5F5F5F5F5F5F5F5F5F5F5F5E2E2F5E2E2F5EFDEE2F5E2E2E2E2E2E2E2E2E2E2E2E2E2E2E2E2E2E2E2E2E2E2E2E2E2E2E2E2E2E2E2E2E2E2E2E2E2E2E2
310
E2E2E2E2E2E2E2E2E2E2E2E2E2E2E2E2E2E2E2E2E2E2E2E2E2E2E2E2E2E2E2E2E2E2E2E2E2E2E2E2E2E2E2E2E2E2E2E2E2E2E2E2E2F5E2E2F5EF00E2F5F5F5F5F5F5F5F5E2E2E2E2E2E2E2E2F5F5F5F5F5F5F5F5F5F5F5F5F5F5F5E2E2E2E2E2E2E2E2E2F5F5F5F5F5F5F5F5F5F5F5F5F5F5E2E2E2E2E2E2E2E2E2F5F5F5F5
310
F5F5F5F5F5F5F5F5F5F5F5E2E2E2E2E2E2E2E2F5F5F5F5F5F5F5F5E2E2F5EF00E2E2E2E2E2E2E2E2E2E2E2E2E2E2E2E2E2E2E2E2E2E2E2E2E2E2E2E2E2E2E2E2E2E2E2E2E2E2E2E2E2E2E2E2E2E2E2E2E2E2E2E2E2E2E2E2E2E2E2E2E2E2E2E2E2E2E2E2E2E2E2E2E2E2E2E2E2E2E2E2E2E2E2E2E2E2E2E2E2E2E2E2E2E2E2
310
E2E2F5EF01E2E2E2E2E2E2E2E2E2E2E2E2E2E2E2E2E2E2E2E2E2E2E2E2E2E2E2E2E2E2E2E2E2E2E2E2E2E2E2E2E2E2E2E2E2E2E2E2E2E2E2E2E2E2E2E2E2E2E2E2E2E2E2E2E2E2E2E2E2E2E2E2E2E2E2E2E2E2E2E2E2E2E2E2E2E2E2E2E2E2E2E2E2E2E2E2E2F5EF00F5F5F5F5F5F5F5F5F5F5F5F5F5F5F5F5F5F5F5F5F5F5
310
F5F5F5F5F5F5F5F5F5F5F5F5F5F5F5F5F5F5F5F5F5F5F5F5F5F5F5F5F5F5F5F5F5F5F5F5F5F5F5F5F5F5F5F5F5F5F5F5F5F5F5F5F5F5F5F5F5F5F5F5F5F5F5F5F5F5F5F5F5F5F5F5F5F5F5F5EF00
  0
XRECORD
  5
E20
102
{ACAD_REACTORS
330
764
102
}
330
764
100
AcDbXrecord
280
     1
102
MATERIAL
148
0.0
149
0.0
149
0.0
 93
        0
 94
      127
282
     0
 72
     0
 77
     0
171
     0
175
     0
179
     0
273
     0
  0
XRECORD
  5
766
102
{ACAD_REACTORS
330
764
102
}
330
764
100
AcDbXrecord
280
     1
270
     1
271
     1
  0
XRECORD
  5
765
102
{ACAD_REACTORS
330
764
102
}
330
764
100
AcDbXrecord
280
     1
270
     1
271
     1
  0
XRECORD
  5
769
102
{ACAD_REACTORS
330
764
102
}
330
764
100
AcDbXrecord
280
     1
270
     1
271
     1
  0
XRECORD
  5
768
102
{ACAD_REACTORS
330
764
102
}
330
764
100
AcDbXrecord
280
     1
270
     1
271
     1
  0
XRECORD
  5
76A
102
{ACAD_REACTORS
330
764
102
}
330
764
100
AcDbXrecord
280
     1
270
     1
271
     1
  0
XRECORD
  5
767
102
{ACAD_REACTORS
330
764
102
}
330
764
100
AcDbXrecord
280
     1
270
     1
271
     1
  0
XRECORD
  5
E1F
102
{ACAD_REACTORS
330
75C
102
}
330
75C
100
AcDbXrecord
280
     1
102
MATERIAL
148
0.0
149
0.0
149
0.0
 93
        0
 94
      127
282
     0
 72
     0
 77
     0
171
     0
175
     0
179
     0
273
     0
  0
XRECORD
  5
75E
102
{ACAD_REACTORS
330
75C
102
}
330
75C
100
AcDbXrecord
280
     1
270
     1
271
     1
  0
XRECORD
  5
75D
102
{ACAD_REACTORS
330
75C
102
}
330
75C
100
AcDbXrecord
280
     1
270
     1
271
     1
  0
XRECORD
  5
761
102
{ACAD_REACTORS
330
75C
102
}
330
75C
100
AcDbXrecord
280
     1
270
     1
271
     1
  0
XRECORD
  5
760
102
{ACAD_REACTORS
330
75C
102
}
330
75C
100
AcDbXrecord
280
     1
270
     1
271
     1
  0
XRECORD
  5
762
102
{ACAD_REACTORS
330
75C
102
}
330
75C
100
AcDbXrecord
280
     1
270
     1
271
     1
  0
XRECORD
  5
75F
102
{ACAD_REACTORS
330
75C
102
}
330
75C
100
AcDbXrecord
280
     1
270
     1
271
     1
  0
XRECORD
  5
E21
102
{ACAD_REACTORS
330
76C
102
}
330
76C
100
AcDbXrecord
280
     1
102
MATERIAL
148
0.0
149
0.0
149
0.0
 93
        0
 94
      127
282
     0
 72
     0
 77
     0
171
     0
175
     0
179
     0
273
     0
  0
XRECORD
  5
76E
102
{ACAD_REACTORS
330
76C
102
}
330
76C
100
AcDbXrecord
280
     1
270
     1
271
     1
  0
XRECORD
  5
76D
102
{ACAD_REACTORS
330
76C
102
}
330
76C
100
AcDbXrecord
280
     1
270
     1
271
     1
  0
XRECORD
  5
771
102
{ACAD_REACTORS
330
76C
102
}
330
76C
100
AcDbXrecord
280
     1
270
     1
271
     1
  0
XRECORD
  5
770
102
{ACAD_REACTORS
330
76C
102
}
330
76C
100
AcDbXrecord
280
     1
270
     1
271
     1
  0
XRECORD
  5
772
102
{ACAD_REACTORS
330
76C
102
}
330
76C
100
AcDbXrecord
280
     1
270
     1
271
     1
  0
XRECORD
  5
76F
102
{ACAD_REACTORS
330
76C
102
}
330
76C
100
AcDbXrecord
280
     1
270
     1
271
     1
  0
ACAD_PROXY_OBJECT
  5
E07
102
{ACAD_REACTORS
330
909
102
}
330
909
100
AcDbProxyObject
 90
      499
 91
      513
 95
   983063
 70
     0
 93
     5304
310
40D054060020000020000003200101A000080002A5058000000C10000000000000006101010000000000003E0FC000000000000F83F0000000000003E0FC000000000000F83F02B5E8DC0F42B1CFC0AD7A3703D0AC73F419019018000000C1003FBFFFFFE0000000000003C8FD029018000000C1003FBFFFFFE00000000000
310
03C8FD049018000000C1003FBFFFFFE0000000000003C8FD089018000000C1003FBFFFFFE0000000000003C8FD109018000000C1003FBFFFFFE0000000000003C8FD209018000000C1003FBFFFFFE0000000000003C8FD01405075F5449544C450041501A8000000C800406800020000A94160000003040000000000000012
310
40404000000000000F83F0000000000003E0FC000000000000F83F0000000000003E0FC0AD7A3703D0AC73F02B5E8DC0F42B1CFD0640640600000030400FEFFFFFF8000000000000F23F40A40600000030400FEFFFFFF8000000000000F23F41240600000030400FEFFFFFF8000000000000F23F42240600000030400FEFFF
310
FFF8000000000000F23F44240600000030400FEFFFFFF8000000000000F23F48240600000030400FEFFFFFF8000000000000F23F409014217D2115051115480105406A0000003200101A000080002A5028000000C10000000000000004901010000000000003E0FC000000000000F83F0000000000003E0FC000000000000F
310
83F02B5E8DC0F42B1CFC0AD7A3703D0AC73F419019018000000C1003FBFFFFFE0000000000003C8FD029018000000C1003FBFFFFFE0000000000003C8FD049018000000C1003FBFFFFFE0000000000003C8FD089018000000C1003FBFFFFFE0000000000003C8FD109018000000C1003FBFFFFFE0000000000003C8FD20901
310
8000000C1003FBFFFFFE0000000000003C8FD03409065F444154410065
340
11
340
0
340
0
340
0
340
0
340
0
340
0
340
11
340
0
340
0
340
0
340
0
340
0
340
0
340
11
340
0
340
0
340
0
340
0
340
0
340
0
 94
        0
1001
ACAD
1000
AcRTDxfName
1000
CELLSTYLEMAP
1000
AcRTDxfName
1000
CELLSTYLEMAP
1000
AcRTDxfName
1000
CELLSTYLEMAP
  0
XRECORD
  5
E22
102
{ACAD_REACTORS
330
909
102
}
330
909
100
AcDbXrecord
280
     1
102
ACAD_ROUNDTRIP_PRE2007_TABLESTYLE
 90
      512
 91
        0
  1

 92
      512
 93
        0
  2

 94
      512
 95
        0
  3

  0
ENDSEC
  0
EOF
