  0
SECTION
  2
HEADER
  9
$ACADVER
  1
AC1015
  9
$ACADMAINTVER
 70
    20
  9
$DWGCODEPAGE
  3
ANSI_1252
  9
$INSBASE
 10
0.0
 20
0.0
 30
0.0
  9
$EXTMIN
 10
-0.0000008078504834
 20
0.0000001108869583
 30
0.0
  9
$EXTMAX
 10
353.9999991921495
 20
482.0000001108869
 30
0.0
  9
$LIMMIN
 10
-0.0000008078504834
 20
0.0000001108869583
  9
$LIMMAX
 10
353.9999991921495
 20
482.0000001108869
  9
$ORTHOMODE
 70
     0
  9
$REGENMODE
 70
     1
  9
$FILLMODE
 70
     1
  9
$QTEXTMODE
 70
     0
  9
$MIRRTEXT
 70
     0
  9
$LTSCALE
 40
1.0
  9
$ATTMODE
 70
     1
  9
$TEXTSIZE
 40
2.5
  9
$TRACEWID
 40
1.0
  9
$TEXTSTYLE
  7
Standard
  9
$CLAYER
  8
APL Border
  9
$CELTYPE
  6
ByLayer
  9
$CECOLOR
 62
   256
  9
$CELTSCALE
 40
1.0
  9
$DISPSILH
 70
     0
  9
$DIMSCALE
 40
1.0
  9
$DIMASZ
 40
2.5
  9
$DIMEXO
 40
0.625
  9
$DIMDLI
 40
3.75
  9
$DIMRND
 40
0.0
  9
$DIMDLE
 40
0.0
  9
$DIMEXE
 40
1.25
  9
$DIMTP
 40
0.0
  9
$DIMTM
 40
0.0
  9
$DIMTXT
 40
2.5
  9
$DIMCEN
 40
2.5
  9
$DIMTSZ
 40
0.0
  9
$DIMTOL
 70
     0
  9
$DIMLIM
 70
     0
  9
$DIMTIH
 70
     0
  9
$DIMTOH
 70
     0
  9
$DIMSE1
 70
     0
  9
$DIMSE2
 70
     0
  9
$DIMTAD
 70
     1
  9
$DIMZIN
 70
     8
  9
$DIMBLK
  1

  9
$DIMASO
 70
     1
  9
$DIMSHO
 70
     1
  9
$DIMPOST
  1

  9
$DIMAPOST
  1

  9
$DIMALT
 70
     0
  9
$DIMALTD
 70
     3
  9
$DIMALTF
 40
0.03937007874016
  9
$DIMLFAC
 40
1.0
  9
$DIMTOFL
 70
     1
  9
$DIMTVP
 40
0.0
  9
$DIMTIX
 70
     0
  9
$DIMSOXD
 70
     0
  9
$DIMSAH
 70
     0
  9
$DIMBLK1
  1

  9
$DIMBLK2
  1

  9
$DIMSTYLE
  2
ISO-25
  9
$DIMCLRD
 70
     0
  9
$DIMCLRE
 70
     0
  9
$DIMCLRT
 70
     0
  9
$DIMTFAC
 40
1.0
  9
$DIMGAP
 40
0.625
  9
$DIMJUST
 70
     0
  9
$DIMSD1
 70
     0
  9
$DIMSD2
 70
     0
  9
$DIMTOLJ
 70
     0
  9
$DIMTZIN
 70
     8
  9
$DIMALTZ
 70
     0
  9
$DIMALTTZ
 70
     0
  9
$DIMUPT
 70
     0
  9
$DIMDEC
 70
     2
  9
$DIMTDEC
 70
     2
  9
$DIMALTU
 70
     2
  9
$DIMALTTD
 70
     3
  9
$DIMTXSTY
  7
Standard
  9
$DIMAUNIT
 70
     0
  9
$DIMADEC
 70
     0
  9
$DIMALTRND
 40
0.0
  9
$DIMAZIN
 70
     0
  9
$DIMDSEP
 70
    44
  9
$DIMATFIT
 70
     3
  9
$DIMFRAC
 70
     0
  9
$DIMLDRBLK
  1

  9
$DIMLUNIT
 70
     2
  9
$DIMLWD
 70
    -2
  9
$DIMLWE
 70
    -2
  9
$DIMTMOVE
 70
     0
  9
$LUNITS
 70
     2
  9
$LUPREC
 70
     4
  9
$SKETCHINC
 40
1.0
  9
$FILLETRAD
 40
0.0
  9
$AUNITS
 70
     0
  9
$AUPREC
 70
     0
  9
$MENU
  1
.
  9
$ELEVATION
 40
0.0
  9
$PELEVATION
 40
0.0
  9
$THICKNESS
 40
0.0
  9
$LIMCHECK
 70
     0
  9
$CHAMFERA
 40
10.0
  9
$CHAMFERB
 40
10.0
  9
$CHAMFERC
 40
20.0
  9
$CHAMFERD
 40
0.0
  9
$SKPOLY
 70
     0
  9
$TDCREATE
 40
2452829.350170197
  9
$TDUCREATE
 40
2452828.850170197
  9
$TDUPDATE
 40
2455659.526556678
  9
$TDUUPDATE
 40
2455659.026556678
  9
$TDINDWG
 40
0.4417845833
  9
$TDUSRTIMER
 40
0.4417840394
  9
$USRTIMER
 70
     1
  9
$ANGBASE
 50
0.0
  9
$ANGDIR
 70
     0
  9
$PDMODE
 70
     3
  9
$PDSIZE
 40
2.0
  9
$PLINEWID
 40
0.0
  9
$SPLFRAME
 70
     0
  9
$SPLINETYPE
 70
     6
  9
$SPLINESEGS
 70
     8
  9
$HANDSEED
  5
1364
  9
$SURFTAB1
 70
     6
  9
$SURFTAB2
 70
     6
  9
$SURFTYPE
 70
     6
  9
$SURFU
 70
     6
  9
$SURFV
 70
     6
  9
$UCSBASE
  2

  9
$UCSNAME
  2

  9
$UCSORG
 10
0.0
 20
0.0
 30
0.0
  9
$UCSXDIR
 10
1.0
 20
0.0
 30
0.0
  9
$UCSYDIR
 10
0.0
 20
1.0
 30
0.0
  9
$UCSORTHOREF
  2

  9
$UCSORTHOVIEW
 70
     0
  9
$UCSORGTOP
 10
0.0
 20
0.0
 30
0.0
  9
$UCSORGBOTTOM
 10
0.0
 20
0.0
 30
0.0
  9
$UCSORGLEFT
 10
0.0
 20
0.0
 30
0.0
  9
$UCSORGRIGHT
 10
0.0
 20
0.0
 30
0.0
  9
$UCSORGFRONT
 10
0.0
 20
0.0
 30
0.0
  9
$UCSORGBACK
 10
0.0
 20
0.0
 30
0.0
  9
$PUCSBASE
  2

  9
$PUCSNAME
  2

  9
$PUCSORG
 10
0.0
 20
0.0
 30
0.0
  9
$PUCSXDIR
 10
1.0
 20
0.0
 30
0.0
  9
$PUCSYDIR
 10
0.0
 20
1.0
 30
0.0
  9
$PUCSORTHOREF
  2

  9
$PUCSORTHOVIEW
 70
     0
  9
$PUCSORGTOP
 10
0.0
 20
0.0
 30
0.0
  9
$PUCSORGBOTTOM
 10
0.0
 20
0.0
 30
0.0
  9
$PUCSORGLEFT
 10
0.0
 20
0.0
 30
0.0
  9
$PUCSORGRIGHT
 10
0.0
 20
0.0
 30
0.0
  9
$PUCSORGFRONT
 10
0.0
 20
0.0
 30
0.0
  9
$PUCSORGBACK
 10
0.0
 20
0.0
 30
0.0
  9
$USERI1
 70
     0
  9
$USERI2
 70
     0
  9
$USERI3
 70
     0
  9
$USERI4
 70
     0
  9
$USERI5
 70
     0
  9
$USERR1
 40
0.0
  9
$USERR2
 40
0.0
  9
$USERR3
 40
0.0
  9
$USERR4
 40
0.0
  9
$USERR5
 40
0.0
  9
$WORLDVIEW
 70
     1
  9
$SHADEDGE
 70
     3
  9
$SHADEDIF
 70
    70
  9
$TILEMODE
 70
     0
  9
$MAXACTVP
 70
    64
  9
$PINSBASE
 10
0.0
 20
0.0
 30
0.0
  9
$PLIMCHECK
 70
     0
  9
$PEXTMIN
 10
11.46014251777035
 20
3.285575844812797
 30
-0.0015258207003583
  9
$PEXTMAX
 10
189.6073672775216
 20
282.2033753668244
 30
0.0000000349246037
  9
$PLIMMIN
 10
-5.027083396911621
 20
-5.408084392547607
  9
$PLIMMAX
 10
204.8615732192993
 20
291.6449246406555
  9
$UNITMODE
 70
     0
  9
$VISRETAIN
 70
     1
  9
$PLINEGEN
 70
     0
  9
$PSLTSCALE
 70
     1
  9
$TREEDEPTH
 70
  3020
  9
$CMLSTYLE
  2
Standard
  9
$CMLJUST
 70
     0
  9
$CMLSCALE
 40
20.0
  9
$PROXYGRAPHICS
 70
     1
  9
$MEASUREMENT
 70
     1
  9
$CELWEIGHT
370
    -1
  9
$ENDCAPS
280
     0
  9
$JOINSTYLE
280
     0
  9
$LWDISPLAY
290
     0
  9
$INSUNITS
 70
     4
  9
$HYPERLINKBASE
  1

  9
$STYLESHEET
  1
A4 Specifier Manual.ctb
  9
$XEDIT
290
     1
  9
$CEPSNTYPE
380
     0
  9
$PSTYLEMODE
290
     1
  9
$FINGERPRINTGUID
  2
{4DC393B8-3BBB-487C-ABFB-7DA68C6B1DE3}
  9
$VERSIONGUID
  2
{00540979-AC86-4033-AAF2-B453D2F56582}
  9
$EXTNAMES
290
     1
  9
$PSVPSCALE
 40
0.0
  9
$OLESTARTUP
290
     0
  0
ENDSEC
  0
SECTION
  2
CLASSES
  0
CLASS
  1
ACDBDICTIONARYWDFLT
  2
AcDbDictionaryWithDefault
  3
ObjectDBX Classes
 90
        0
280
     0
281
     0
  0
CLASS
  1
ACDBPLACEHOLDER
  2
AcDbPlaceHolder
  3
ObjectDBX Classes
 90
        0
280
     0
281
     0
  0
CLASS
  1
LAYOUT
  2
AcDbLayout
  3
ObjectDBX Classes
 90
        0
280
     0
281
     0
  0
CLASS
  1
DICTIONARYVAR
  2
AcDbDictionaryVar
  3
ObjectDBX Classes
 90
        0
280
     0
281
     0
  0
CLASS
  1
MATERIAL
  2
AcDbMaterial
  3
ObjectDBX Classes
 90
        0
280
     0
281
     0
  0
CLASS
  1
VISUALSTYLE
  2
AcDbVisualStyle
  3
ObjectDBX Classes
 90
     4095
280
     0
281
     0
  0
CLASS
  1
TABLESTYLE
  2
AcDbTableStyle
  3
ObjectDBX Classes
 90
     2047
280
     0
281
     0
  0
CLASS
  1
SCALE
  2
AcDbScale
  3
ObjectDBX Classes
 90
     1153
280
     0
281
     0
  0
CLASS
  1
MLEADERSTYLE
  2
AcDbMLeaderStyle
  3
ACDB_MLEADERSTYLE_CLASS
 90
     4095
280
     0
281
     0
  0
CLASS
  1
EXACTERMXREFMAP
  2
ExAcTermXrefMap
  3
EXAC_SERVICE
 90
    33793
280
     0
281
     0
  0
CLASS
  1
NPOCOLLECTION
  2
AcDbImpNonPersistentObjectsCollection
  3
ObjectDBX Classes
 90
    33921
280
     0
281
     0
  0
CLASS
  1
EXACXREFPANELOBJECT
  2
ExAcXREFPanelObject
  3
EXAC_ESW
 90
    33793
280
     0
281
     0
  0
CLASS
  1
CELLSTYLEMAP
  2
AcDbCellStyleMap
  3
ObjectDBX Classes
 90
     1152
280
     0
281
     0
  0
CLASS
  1
SORTENTSTABLE
  2
AcDbSortentsTable
  3
ObjectDBX Classes
 90
        0
280
     0
281
     0
  0
ENDSEC
  0
SECTION
  2
TABLES
  0
TABLE
  2
VPORT
  5
8
102
{ACAD_XDICTIONARY
360
900
102
}
330
0
100
AcDbSymbolTable
 70
     1
  0
VPORT
  5
CA3
330
8
100
AcDbSymbolTableRecord
100
AcDbViewportTableRecord
  2
*Active
 70
     0
 10
0.0
 20
0.0
 11
1.0
 21
1.0
 12
177.00000001637
 22
241.0000012331306
 13
0.0
 23
0.0
 14
10.0
 24
10.0
 15
10.0
 25
10.0
 16
0.0
 26
0.0
 36
1.0
 17
0.0
 27
0.0
 37
0.0
 40
486.0631379323371
 41
2.208100558659217
 42
50.0
 43
0.0
 44
0.0
 50
0.0
 51
0.0
 71
     0
 72
 20000
 73
     1
 74
     3
 75
     0
 76
     0
 77
     0
 78
     0
281
     0
 65
     1
110
0.0
120
0.0
130
0.0
111
1.0
121
0.0
131
0.0
112
0.0
122
1.0
132
0.0
 79
     0
146
0.0
  0
ENDTAB
  0
TABLE
  2
LTYPE
  5
5
330
0
100
AcDbSymbolTable
 70
     2
  0
LTYPE
  5
14
330
5
100
AcDbSymbolTableRecord
100
AcDbLinetypeTableRecord
  2
ByBlock
 70
     0
  3

 72
    65
 73
     0
 40
0.0
  0
LTYPE
  5
15
330
5
100
AcDbSymbolTableRecord
100
AcDbLinetypeTableRecord
  2
ByLayer
 70
     0
  3

 72
    65
 73
     0
 40
0.0
  0
LTYPE
  5
16
330
5
100
AcDbSymbolTableRecord
100
AcDbLinetypeTableRecord
  2
Continuous
 70
     0
  3
Solid line
 72
    65
 73
     0
 40
0.0
  0
LTYPE
  5
6B3
330
5
100
AcDbSymbolTableRecord
100
AcDbLinetypeTableRecord
  2
DASHED
 70
     0
  3
_ _ _ _ _ _ _ _ _ _ _ _ _ _ _ _
 72
    65
 73
     2
 40
0.2
 49
0.1
 74
     0
 49
-0.1
 74
     0
  0
ENDTAB
  0
TABLE
  2
LAYER
  5
2
102
{ACAD_XDICTIONARY
360
890
102
}
330
0
100
AcDbSymbolTable
 70
     6
  0
LAYER
  5
10
102
{ACAD_XDICTIONARY
360
8D0
102
}
330
2
100
AcDbSymbolTableRecord
100
AcDbLayerTableRecord
  2
0
 70
     4
 62
     7
  6
Continuous
290
     0
370
    -3
390
F
  0
LAYER
  5
2B
102
{ACAD_XDICTIONARY
360
8D2
102
}
330
2
100
AcDbSymbolTableRecord
100
AcDbLayerTableRecord
  2
APL Border
 70
     0
 62
     7
  6
Continuous
370
    -3
390
F
  0
LAYER
  5
2E
102
{ACAD_XDICTIONARY
360
8D4
102
}
330
2
100
AcDbSymbolTableRecord
100
AcDbLayerTableRecord
  2
APL Joinery
 70
     0
 62
     2
  6
Continuous
370
    -3
390
F
  0
LAYER
  5
6B4
102
{ACAD_XDICTIONARY
360
8D8
102
}
330
2
100
AcDbSymbolTableRecord
100
AcDbLayerTableRecord
  2
APL Notes
 70
     0
 62
     7
  6
Continuous
370
    -3
390
F
  0
LAYER
  5
9E3
102
{ACAD_XDICTIONARY
360
F0E
102
}
330
2
100
AcDbSymbolTableRecord
100
AcDbLayerTableRecord
  2
APL Hatch
 70
     0
 62
   253
  6
Continuous
370
    -3
390
F
  0
ENDTAB
  0
TABLE
  2
STYLE
  5
3
330
0
100
AcDbSymbolTable
 70
     4
  0
STYLE
  5
11
330
3
100
AcDbSymbolTableRecord
100
AcDbTextStyleTableRecord
  2
Standard
 70
     0
 40
0.0
 41
1.0
 50
0.0
 71
     0
 42
2.5
  3
txt
  4

  0
STYLE
  5
7D
330
3
100
AcDbSymbolTableRecord
100
AcDbTextStyleTableRecord
  2
Arial-Regular
 70
     0
 40
0.0
 41
1.0
 50
0.0
 71
     0
 42
2.5
  3
ARIAL.TTF
  4

1001
ACAD
1000
Arial
1071
       34
  0
STYLE
  5
7E
330
3
100
AcDbSymbolTableRecord
100
AcDbTextStyleTableRecord
  2
Arial-Bold
 70
     0
 40
0.0
 41
1.0
 50
0.0
 71
     0
 42
5.0
  3
ARIALBD.TTF
  4

1001
ACAD
1000
Arial
1071
 33554466
  0
ENDTAB
  0
TABLE
  2
VIEW
  5
6
330
0
100
AcDbSymbolTable
 70
     0
  0
ENDTAB
  0
TABLE
  2
UCS
  5
7
330
0
100
AcDbSymbolTable
 70
     0
  0
ENDTAB
  0
TABLE
  2
APPID
  5
9
330
0
100
AcDbSymbolTable
 70
    10
  0
APPID
  5
12
330
9
100
AcDbSymbolTableRecord
100
AcDbRegAppTableRecord
  2
ACAD
 70
     0
  0
APPID
  5
423
330
9
100
AcDbSymbolTableRecord
100
AcDbRegAppTableRecord
  2
DCO15
 70
     0
  0
APPID
  5
87E
330
9
100
AcDbSymbolTableRecord
100
AcDbRegAppTableRecord
  2
ACAD_MLEADERVER
 70
     0
  0
APPID
  5
B55
330
9
100
AcDbSymbolTableRecord
100
AcDbRegAppTableRecord
  2
ACAD_PSEXT
 70
     0
  0
APPID
  5
E3D
330
9
100
AcDbSymbolTableRecord
100
AcDbRegAppTableRecord
  2
ACAUTHENVIRON
 70
     0
  0
APPID
  5
E3E
330
9
100
AcDbSymbolTableRecord
100
AcDbRegAppTableRecord
  2
AcDbDynamicBlockTrueName
 70
     0
  0
APPID
  5
E3F
330
9
100
AcDbSymbolTableRecord
100
AcDbRegAppTableRecord
  2
AcDbDynamicBlockGUID
 70
     0
  0
APPID
  5
E40
330
9
100
AcDbSymbolTableRecord
100
AcDbRegAppTableRecord
  2
AcDbBlockRepETag
 70
     0
  0
APPID
  5
E41
330
9
100
AcDbSymbolTableRecord
100
AcDbRegAppTableRecord
  2
AcDbBlockRepBTag
 70
     0
  0
APPID
  5
E42
330
9
100
AcDbSymbolTableRecord
100
AcDbRegAppTableRecord
  2
ACAD_EXEMPT_FROM_CAD_STANDARDS
 70
     0
  0
ENDTAB
  0
TABLE
  2
DIMSTYLE
  5
A
330
0
100
AcDbSymbolTable
 70
     1
100
AcDbDimStyleTable
 71
     1
340
27
  0
DIMSTYLE
105
27
330
A
100
AcDbSymbolTableRecord
100
AcDbDimStyleTableRecord
  2
ISO-25
 70
     0
 41
2.5
 42
0.625
 43
3.75
 44
1.25
 73
     0
 74
     0
 77
     1
 78
     8
140
2.5
141
2.5
143
0.03937007874016
147
0.625
171
     3
172
     1
271
     2
272
     2
274
     3
278
    44
283
     0
284
     8
340
11
  0
ENDTAB
  0
TABLE
  2
BLOCK_RECORD
  5
1
330
0
100
AcDbSymbolTable
 70
    21
  0
BLOCK_RECORD
  5
1F
102
{ACAD_XDICTIONARY
360
C8C
102
}
330
1
100
AcDbSymbolTableRecord
100
AcDbBlockTableRecord
  2
*Model_Space
340
22
  0
BLOCK_RECORD
  5
7A8
330
1
100
AcDbSymbolTableRecord
100
AcDbBlockTableRecord
  2
*Paper_Space
340
7B8
  0
BLOCK_RECORD
  5
2F
330
1
100
AcDbSymbolTableRecord
100
AcDbBlockTableRecord
  2
02046
340
0
102
{BLKREFS
331
6EC
331
6EE
331
6F2
331
6F7
102
}
1001
ACAD
1000
DesignCenter Data
1002
{
1070
     1
1070
     4
1002
}
  0
BLOCK_RECORD
  5
416
102
{ACAD_XDICTIONARY
360
11FE
102
}
330
1
100
AcDbSymbolTableRecord
100
AcDbBlockTableRecord
  2
08730
340
0
102
{BLKREFS
331
6E7
331
6E8
102
}
1001
ACAD
1000
DesignCenter Data
1002
{
1070
     1
1070
     4
1002
}
  0
BLOCK_RECORD
  5
41E
102
{ACAD_XDICTIONARY
360
1201
102
}
330
1
100
AcDbSymbolTableRecord
100
AcDbBlockTableRecord
  2
08700
340
0
102
{BLKREFS
331
6E6
331
6E9
102
}
1001
ACAD
1000
DesignCenter Data
1002
{
1070
     1
1070
     4
1002
}
  0
BLOCK_RECORD
  5
558
330
1
100
AcDbSymbolTableRecord
100
AcDbBlockTableRecord
  2
02052
340
0
102
{BLKREFS
331
702
102
}
1001
ACAD
1000
DesignCenter Data
1002
{
1070
     1
1070
     4
1002
}
  0
BLOCK_RECORD
  5
55E
102
{ACAD_XDICTIONARY
360
1207
102
}
330
1
100
AcDbSymbolTableRecord
100
AcDbBlockTableRecord
  2
08705
340
0
102
{BLKREFS
331
6F1
102
}
1001
ACAD
1000
DesignCenter Data
1002
{
1070
     1
1070
     4
1002
}
  0
BLOCK_RECORD
  5
564
102
{ACAD_XDICTIONARY
360
120B
102
}
330
1
100
AcDbSymbolTableRecord
100
AcDbBlockTableRecord
  2
08706
340
0
102
{BLKREFS
331
6F0
102
}
1001
ACAD
1000
DesignCenter Data
1002
{
1070
     1
1070
     4
1002
}
  0
BLOCK_RECORD
  5
66D
102
{ACAD_XDICTIONARY
360
120F
102
}
330
1
100
AcDbSymbolTableRecord
100
AcDbBlockTableRecord
  2
08735
340
0
102
{BLKREFS
331
6FC
331
6FE
102
}
1001
ACAD
1000
DesignCenter Data
1002
{
1070
     1
1070
     4
1002
}
  0
BLOCK_RECORD
  5
7BD
330
1
100
AcDbSymbolTableRecord
100
AcDbBlockTableRecord
  2
vantage a4 SM border
340
0
102
{BLKREFS
331
7C1
102
}
1001
ACAD
1000
DesignCenter Data
1002
{
1070
     1
1070
     4
1002
}
  0
BLOCK_RECORD
  5
7C2
330
1
100
AcDbSymbolTableRecord
100
AcDbBlockTableRecord
  2
vantage a4 SM attributes (4)
340
0
102
{BLKREFS
331
7CE
102
}
1001
ACAD
1000
DesignCenter Data
1002
{
1070
     1
1070
     4
1002
}
  0
BLOCK_RECORD
  5
A57
330
1
100
AcDbSymbolTableRecord
100
AcDbBlockTableRecord
  2
altair louvre channel
340
0
102
{BLKREFS
331
A5C
331
A5D
331
A5E
331
A5F
331
A60
331
A61
102
}
1001
ACAD
1000
DesignCenter Data
1002
{
1070
     1
1070
     4
1002
}
  0
BLOCK_RECORD
  5
C8E
330
1
100
AcDbSymbolTableRecord
100
AcDbBlockTableRecord
  2
Louvre Blade
340
0
310
2800000020000000200000000100080000000000000400000000000000000000000000000000000000000000000080000080000000808000800000008000800080800000C0C0C000C0DCC000F0CAA6000020400000206000002080000020A0000020C0000020E00000400000004020000040400000406000004080000040A0
310
000040C0000040E00000600000006020000060400000606000006080000060A0000060C0000060E00000800000008020000080400000806000008080000080A0000080C0000080E00000A0000000A0200000A0400000A0600000A0800000A0A00000A0C00000A0E00000C0000000C0200000C0400000C0600000C0800000C0
310
A00000C0C00000C0E00000E0000000E0200000E0400000E0600000E0800000E0A00000E0C00000E0E00040000000400020004000400040006000400080004000A0004000C0004000E00040200000402020004020400040206000402080004020A0004020C0004020E000404000004040200040404000404060004040800040
310
40A0004040C0004040E00040600000406020004060400040606000406080004060A0004060C0004060E00040800000408020004080400040806000408080004080A0004080C0004080E00040A0000040A0200040A0400040A0600040A0800040A0A00040A0C00040A0E00040C0000040C0200040C0400040C0600040C08000
310
40C0A00040C0C00040C0E00040E0000040E0200040E0400040E0600040E0800040E0A00040E0C00040E0E00080000000800020008000400080006000800080008000A0008000C0008000E00080200000802020008020400080206000802080008020A0008020C0008020E00080400000804020008040400080406000804080
310
008040A0008040C0008040E00080600000806020008060400080606000806080008060A0008060C0008060E00080800000808020008080400080806000808080008080A0008080C0008080E00080A0000080A0200080A0400080A0600080A0800080A0A00080A0C00080A0E00080C0000080C0200080C0400080C0600080C0
310
800080C0A00080C0C00080C0E00080E0000080E0200080E0400080E0600080E0800080E0A00080E0C00080E0E000C0000000C0002000C0004000C0006000C0008000C000A000C000C000C000E000C0200000C0202000C0204000C0206000C0208000C020A000C020C000C020E000C0400000C0402000C0404000C0406000C0
310
408000C040A000C040C000C040E000C0600000C0602000C0604000C0606000C0608000C060A000C060C000C060E000C0800000C0802000C0804000C0806000C0808000C080A000C080C000C080E000C0A00000C0A02000C0A04000C0A06000C0A08000C0A0A000C0A0C000C0A0E000C0C00000C0C02000C0C04000C0C06000
310
C0C08000C0C0A000F0FBFF00A4A0A000808080000000FF0000FF000000FFFF00FF000000FF00FF00FFFF0000FFFFFF00000000000000000000000000000000000000000000000000000000000000000000000000000000FBFBFB0000000000000000000000000000000000000000000000000000000000FB00F7FBF7000000
310
000000000000000000000000000000000000000000000000FB000000FBFB0000000000000000000000000000000000000000000000000000FBFBFBFBFBF7FBFB00000000000000000000000000000000000000000000000000000000F7FBFBF7FBFB00000000000000000000000000000000000000000000000000000000F7
310
FBFBF7FBFB000000000000000000000000000000000000000000000000000000F7F7FBFBF7FBF7F7000000000000000000000000000000000000000000000000000000F7FBF7FBF7F700000000000000000000000000000000000000000000000000000000FBFBFBF7F7000000000000000000000000000000000000000000
310
0000000000000000FBFBF700000000000000000000000000000000FBFBFBFBFBFBFBFBFBFBFBFBFBFBFBFBF70000000000000000000000000000F7FB000000000000000000000000000000FB0000000000000000000000000000FB00FBFBFBFBFBFBFBFBFBFBFBFBFBFBFBFB0000000000000000000000000000FB00FB0000
310
000000000000000000000000FB0000000000000000000000000000FB00FBFBFB000000000000000000000000FB0000000000000000000000000000FB00FBFBFB000000000000000000000000FB0000000000000000000000000000FB00FB0000000000000000000000000000FB0000000000000000000000000000FB00FBFB
310
FBFBFBFBFBFBFBFBFBFBFBFBFBFB0000000000000000000000000000F7FB000000000000000000000000000000FB000000000000000000000000000000FBFBFBFBFBFBFBFBFBFBFBFBFBFBFBFBF700000000000000000000000000000000000000000000000000000000FBFBF7000000000000000000000000000000000000
310
000000000000000000FBFBFBF7F700000000000000000000000000000000000000000000000000F7FBF7FBF7F70000000000000000000000000000000000000000000000F7F7FBFBF7FBF7F70000000000000000000000000000000000000000000000F7FBFBF7FBFB00000000000000000000000000000000000000000000
310
0000F7FBFBF7FBFB00000000000000000000000000000000000000000000FBFBFBFBFBF7FBFB000000000000000000000000000000000000000000000000FB000000FBFB0000000000000000000000000000000000000000000000000000FB00F7FBF7000000000000000000000000000000000000000000000000000000FB
310
FBFB000000000000000000000000000000000000000000000000000000000000000000000000000000000000000000000000000000000000
102
{BLKREFS
331
C98
331
C9A
331
C9B
331
C9C
331
C9D
331
CA0
102
}
1001
ACAD
1000
DesignCenter Data
1002
{
1070
     1
1070
     4
1002
}
  0
BLOCK_RECORD
  5
121E
102
{ACAD_XDICTIONARY
360
121F
102
}
330
1
100
AcDbSymbolTableRecord
100
AcDbBlockTableRecord
  2
vantage black & white logo
340
0
310
2800000020000000200000000100080000000000000400000000000000000000000000000000000000000000000080000080000000808000800000008000800080800000C0C0C000C0DCC000F0CAA6000020400000206000002080000020A0000020C0000020E00000400000004020000040400000406000004080000040A0
310
000040C0000040E00000600000006020000060400000606000006080000060A0000060C0000060E00000800000008020000080400000806000008080000080A0000080C0000080E00000A0000000A0200000A0400000A0600000A0800000A0A00000A0C00000A0E00000C0000000C0200000C0400000C0600000C0800000C0
310
A00000C0C00000C0E00000E0000000E0200000E0400000E0600000E0800000E0A00000E0C00000E0E00040000000400020004000400040006000400080004000A0004000C0004000E00040200000402020004020400040206000402080004020A0004020C0004020E000404000004040200040404000404060004040800040
310
40A0004040C0004040E00040600000406020004060400040606000406080004060A0004060C0004060E00040800000408020004080400040806000408080004080A0004080C0004080E00040A0000040A0200040A0400040A0600040A0800040A0A00040A0C00040A0E00040C0000040C0200040C0400040C0600040C08000
310
40C0A00040C0C00040C0E00040E0000040E0200040E0400040E0600040E0800040E0A00040E0C00040E0E00080000000800020008000400080006000800080008000A0008000C0008000E00080200000802020008020400080206000802080008020A0008020C0008020E00080400000804020008040400080406000804080
310
008040A0008040C0008040E00080600000806020008060400080606000806080008060A0008060C0008060E00080800000808020008080400080806000808080008080A0008080C0008080E00080A0000080A0200080A0400080A0600080A0800080A0A00080A0C00080A0E00080C0000080C0200080C0400080C0600080C0
310
800080C0A00080C0C00080C0E00080E0000080E0200080E0400080E0600080E0800080E0A00080E0C00080E0E000C0000000C0002000C0004000C0006000C0008000C000A000C000C000C000E000C0200000C0202000C0204000C0206000C0208000C020A000C020C000C020E000C0400000C0402000C0404000C0406000C0
310
408000C040A000C040C000C040E000C0600000C0602000C0604000C0606000C0608000C060A000C060C000C060E000C0800000C0802000C0804000C0806000C0808000C080A000C080C000C080E000C0A00000C0A02000C0A04000C0A06000C0A08000C0A0A000C0A0C000C0A0E000C0C00000C0C02000C0C04000C0C06000
310
C0C08000C0C0A000F0FBFF00A4A0A000808080000000FF0000FF000000FFFF00FF000000FF00FF00FFFF0000FFFFFF0000000000000000000000000000000000000000000000000000000000000000000000000000000000000000000000000000000000000000000000000000000000000000000000000000000000000000
310
0000000000000000000000000000000000000000000000000000000000000000A4A40000000000000000000000000000000000000000000000000000000000A400000700000000000000000000000000000000000000000000000000000000A4000707000000000000000000000000000000000000000000000000000000A4
310
00A4A407070000000000000000000000000000000000000000000000000000A400A400A40700000000000000000000000000000000000000000000000000A400A4A400A407070000000000000000000000000000000000000000000000A40700A4000000A4070000000000000000000000000000000000000000000000A400
310
A4A4000000A40707000000000000000000000000000000000000000000A400A4A4000000A4A4A400070000000000000000000000000000000000000000A400A400000000A400A4070700000000000000000000000000000000000000A400A4A4000000A4A40000A40007000000000000000000000000000000000000A400A4
310
A4A4A4A4A4A4A4A4A407070000000000000000000000000000000000A400A4A4A4A4A4A4A4A4A4A4A4A40007000000000000000000000000000000A40000A4A4A4A4A4A4A4A4A4A4A4A40700070000000000000000000000000000A400A4A400A4A4A4A4A4A4A4A4A4A4A4070700000000000000000000000000A400A4A4A4
310
A4A4A4A4A4A4A4A4A4A4A4A4070007000000000000000000000000A400A4A4A4A4A4A4A4A4A4A4A4A4A4A4A4A407070000000000000000000000A400A4A400A4A4A4A4A4A4A4A4A4A4A4A4A4A4070007000000000000000000A40700A4A400A4A4A4A4A4A4A4A4A4A4A4A4A400A40707000000000000000000A400A4A4A4A4
310
A4A4A4A4A4A4A4A4A4A4A4A4A4A4A407000700000000000000A400A4A4A4A4A4A4A4A4A4A4A4A4A4A4A4A4A4A4A4A4A4070007000000000000A400A4A4A4A4A4A4A4A4A4A4A4A4A4A4A4A4A4A4A4A4A40700070000000000A400A4A400A4A4A4A4A4A4A4A4A4A4A4A4A4A4A4A4A4A4A40007000700000000A400A4A4A400A4
310
A4A4A4A4A4A4A4A4A4A4A4A4A4A4A4A4A4000700070000000700A4A4A4A4A4A4A4A4A4A4A4A4A4A4A4A4A4A4A4A4A4A4A4A4A40700070000A407A4A4A4A4A4A4A4A4A4A4A4A4A4A4A4A4A4A4A4A4A4A4A4A4A4A407A40000000000000000000000000000000000000000000000000000000000000000000000000000000000
310
0000000000000000000000000000000000000000000000000000000000000000000000000000000000000000000000000000000000000000
102
{BLKREFS
331
121C
102
}
1001
AcDbDynamicBlockGUID
1000
{7D04BC3F-8AE2-40EA-A482-CE6E620AF154}
1001
AcDbBlockRepETag
1070
     1
1071
      907
1001
ACAD
1000
DesignCenter Data
1002
{
1070
     1
1070
     4
1002
}
  0
ENDTAB
  0
ENDSEC
  0
SECTION
  2
BLOCKS
  0
BLOCK
  5
20
330
1F
100
AcDbEntity
  8
0
100
AcDbBlockBegin
  2
*Model_Space
 70
     0
 10
0.0
 20
0.0
 30
0.0
  3
*Model_Space
  1

  0
ENDBLK
  5
21
330
1F
100
AcDbEntity
  8
0
100
AcDbBlockEnd
  0
BLOCK
  5
7B6
330
7A8
100
AcDbEntity
 67
     1
  8
0
100
AcDbBlockBegin
  2
*Paper_Space
 70
     0
 10
0.0
 20
0.0
 30
0.0
  3
*Paper_Space
  1

  0
ENDBLK
  5
7B7
330
7A8
100
AcDbEntity
 67
     1
  8
0
100
AcDbBlockEnd
  0
BLOCK
  5
30
330
2F
100
AcDbEntity
  8
0
100
AcDbBlockBegin
  2
02046
 70
     0
 10
0.0
 20
0.0
 30
0.0
  3
02046
  1
02046.dwg
  0
LWPOLYLINE
  5
F41
102
{ACAD_REACTORS
330
F42
102
}
330
2F
100
AcDbEntity
  8
APL Joinery
100
AcDbPolyline
 90
       55
 70
     1
 43
0.0
 10
-41.17238029054601
 20
2.463865636858743
 42
0.2312715658493858
 10
-39.199998172807
 20
1.499999999999911
 10
-24.89999999999964
 20
1.499999999999911
 10
-24.89999999999986
 20
4.997164713878103
 42
-0.4142135623730617
 10
-24.39999999999987
 20
5.497164713878046
 10
-22.28018120816046
 20
5.497164713878103
 42
0.5012017564214173
 10
-21.80072288076167
 20
6.139008685509648
 42
-0.2550439714953979
 10
-21.19159158655339
 20
8.971812277479864
 42
-0.999999999999788
 10
-20.05526517999783
 20
7.99264819635513
 42
2.181735869925177
 10
-17.74473482000189
 20
7.992648196355132
 42
-1.000000000000242
 10
-16.60840841344657
 20
8.971812277479923
 42
-0.2550439714953749
 10
-15.99927711923828
 20
6.139008685509249
 42
0.5012017564213536
 10
-15.51981879183972
 20
5.497164713878103
 10
-9.380181208160365
 20
5.497164713878103
 42
0.5012017564213815
 10
-8.900722880762032
 20
6.139008685509648
 42
-0.2550439714953589
 10
-8.291591586553295
 20
8.971812277479923
 42
-1.000000000000243
 10
-7.155265179998195
 20
7.992648196355073
 42
2.181735869925159
 10
-4.844734820002029
 20
7.992648196354904
 42
-0.6416881448538322
 10
-4.276571616724368
 20
9.232230236917441
 10
-4.000000000000228
 20
9.232230236917441
 42
0.4142135623730753
 10
-1.5
 20
11.73223023691738
 10
-1.500000000000227
 20
18.99716471387804
 42
0.4142135623730818
 10
-4.0
 20
21.49716471387816
 10
-7.50499817280729
 20
21.49716471387804
 42
-0.4142135623730118
 10
-7.704998172807279
 20
21.69716471387809
 10
-7.704998172807506
 20
24.39716471387814
 10
-7.704998172807506
 20
24.39716471387814
 42
-0.4142135623730951
 10
-6.504998172807461
 20
25.59716471387818
 42
-1.000000000000174
 10
-6.504998172807233
 20
24.29716471387789
 10
-6.504998172807233
 20
22.99716471387805
 10
-0.5
 20
22.99716471387805
 42
-0.4142135623730284
 10
-0.0000000000002274
 20
22.49716471387805
 10
0.0
 20
0.7471647138775915
 42
-1.000000000000037
 10
-1.500000000000227
 20
0.7471647138776485
 10
-1.5
 20
3.997164713878046
 10
-11.85000000000013
 20
3.997164713878046
 10
-11.85000000000013
 20
0.5971647138779553
 42
-1.000000000000047
 10
-13.04999999999995
 20
0.5971647138780121
 10
-13.04999999999995
 20
3.997164713878046
 10
-23.39999999999986
 20
3.997164713878046
 10
-23.39999999999986
 20
0.4971647138780459
 42
-0.3833405205462736
 10
-23.84682813455947
 20
-0.0000000000000889
 10
-39.199998172807
 20
-0.0000000000001439
 42
-0.2312715658493864
 10
-42.35580956118951
 20
1.542185018974029
 42
-0.1744966590847991
 10
-47.199998172807
 20
16.34924231981071
 10
-47.199998172807
 20
22.49716471387805
 42
-0.4142135623730951
 10
-46.69999817280699
 20
22.99716471387805
 10
-40.70499817280693
 20
22.99716471387805
 10
-40.70499817280693
 20
24.29716471387778
 42
-1.000000000000874
 10
-40.70499817280716
 20
25.59716471387784
 42
-0.4142135623730673
 10
-39.50499817280712
 20
24.39716471387814
 10
-39.50499817280689
 20
21.69716471387806
 42
-0.4142135623730118
 10
-39.70499817280688
 20
21.49716471387804
 10
-40.68937896380254
 20
21.49716471387804
 42
0.3996807517938433
 10
-45.68316226253393
 20
16.74642033630454
 42
0.1797918351101781
  0
HATCH
  5
F42
330
2F
100
AcDbEntity
  8
APL Hatch
100
AcDbHatch
 10
0.0
 20
0.0
 30
0.0
210
0.0
220
0.0
230
1.0
  2
SOLID
 70
     1
 71
     1
 91
        1
 92
        1
 93
       54
 72
     2
 10
-39.19999817280697
 20
3.999999999999847
 40
2.499999999999936
 50
217.9122391636733
 51
269.9999999999994
 73
     1
 72
     1
 10
-39.199998172807
 20
1.499999999999911
 11
-24.89999999999964
 21
1.499999999999911
 72
     1
 10
-24.89999999999964
 20
1.499999999999911
 11
-24.89999999999986
 21
4.997164713878103
 72
     2
 10
-24.39999999999987
 20
4.997164713878046
 40
0.5
 50
180.0000000000065
 51
270.0
 73
     0
 72
     1
 10
-24.39999999999987
 20
5.497164713878046
 11
-22.28018120816046
 21
5.497164713878103
 72
     2
 10
-22.28018120816044
 20
5.997164713878291
 40
0.5000000000001883
 50
269.9999999999984
 51
376.4804366014927
 73
     1
 72
     2
 10
-18.90000000000009
 20
6.997164713878342
 40
3.02499999999988
 50
163.5195633985204
 51
220.7512329275106
 73
     0
 72
     2
 10
-20.62342838327571
 20
8.482230236917377
 40
0.7500000000000508
 50
220.751232927518
 51
400.7512329274938
 73
     0
 72
     2
 10
-18.89999999999986
 20
6.997164713878103
 40
1.525000000000107
 50
139.2487670724836
 51
400.7512329275163
 73
     1
 72
     2
 10
-17.17657161672435
 20
8.482230236917665
 40
0.7499999999999815
 50
139.2487670724727
 51
319.2487670725005
 73
     0
 72
     2
 10
-18.90000000000055
 20
6.997164713878115
 40
3.025000000000586
 50
319.2487670724938
 51
376.480436601479
 73
     0
 72
     2
 10
-15.51981879183972
 20
5.997164713878044
 40
0.4999999999999415
 50
163.5195633985172
 51
269.9999999999998
 73
     1
 72
     1
 10
-15.51981879183972
 20
5.497164713878103
 11
-9.380181208160365
 21
5.497164713878103
 72
     2
 10
-9.380181208160607
 20
5.997164713878142
 40
0.5000000000000382
 50
270.0000000000277
 51
376.4804366015155
 73
     1
 72
     2
 10
-5.99999999999972
 20
6.997164713877857
 40
3.025000000000447
 50
163.5195633985332
 51
220.7512329275149
 73
     0
 72
     2
 10
-7.723428383275626
 20
8.482230236917637
 40
0.7499999999999158
 50
220.7512329275067
 51
400.7512329275345
 73
     0
 72
     2
 10
-6.000000000000185
 20
6.997164713877875
 40
1.52500000000025
 50
139.2487670724797
 51
400.7512329275118
 73
     1
 72
     2
 10
-4.276571616724086
 20
8.482230236917267
 40
0.7500000000001736
 50
139.2487670725025
 51
269.9999999999785
 73
     0
 72
     1
 10
-4.276571616724368
 20
9.232230236917441
 11
-4.000000000000228
 21
9.232230236917441
 72
     2
 10
-4.00000000000017
 20
11.73223023691761
 40
2.50000000000017
 50
269.9999999999987
 51
359.9999999999948
 73
     1
 72
     1
 10
-1.5
 20
11.73223023691738
 11
-1.500000000000227
 21
18.99716471387804
 72
     2
 10
-4.000000000000227
 20
18.99716471387816
 40
2.5
 50
359.9999999999974
 51
449.9999999999948
 73
     1
 72
     1
 10
-4.0
 20
21.49716471387816
 11
-7.50499817280729
 21
21.49716471387804
 72
     2
 10
-7.504998172807233
 20
21.69716471387809
 40
0.2000000000000455
 50
90.00000000001628
 51
180.0
 73
     0
 72
     1
 10
-7.704998172807279
 20
21.69716471387809
 11
-7.704998172807506
 21
24.39716471387814
 72
     2
 10
-6.504998172807461
 20
24.39716471387814
 40
1.200000000000045
 50
180.0
 51
270.0
 73
     0
 72
     2
 10
-6.504998172807233
 20
24.94716471387804
 40
0.6500000000001478
 50
269.9999999999799
 51
450.0
 73
     0
 72
     1
 10
-6.504998172807233
 20
24.29716471387789
 11
-6.504998172807233
 21
22.99716471387805
 72
     1
 10
-6.504998172807233
 20
22.99716471387805
 11
-0.5
 21
22.99716471387805
 72
     2
 10
-0.5000000000001706
 20
22.4971647138781
 40
0.4999999999999432
 50
270.0000000000196
 51
360.0000000000065
 73
     0
 72
     1
 10
-0.0000000000002274
 20
22.49716471387805
 11
0.0
 21
0.7471647138775915
 72
     2
 10
-0.7500000000001137
 20
0.7471647138775915
 40
0.7500000000001137
 50
360.0
 51
540.0000000000042
 73
     0
 72
     1
 10
-1.500000000000227
 20
0.7471647138776485
 11
-1.5
 21
3.997164713878046
 72
     1
 10
-1.5
 20
3.997164713878046
 11
-11.85000000000013
 21
3.997164713878046
 72
     1
 10
-11.85000000000013
 20
3.997164713878046
 11
-11.85000000000013
 21
0.5971647138779553
 72
     2
 10
-12.45000000000004
 20
0.5971647138779553
 40
0.5999999999999091
 50
360.0
 51
540.0000000000053
 73
     0
 72
     1
 10
-13.04999999999995
 20
0.5971647138780121
 11
-13.04999999999995
 21
3.997164713878046
 72
     1
 10
-13.04999999999995
 20
3.997164713878046
 11
-23.39999999999986
 21
3.997164713878046
 72
     1
 10
-23.39999999999986
 20
3.997164713878046
 11
-23.39999999999986
 21
0.4971647138780458
 72
     2
 10
-23.89999999999986
 20
0.4971647138781047
 40
0.4999999999999965
 50
0.0000000000067173
 51
83.89540983498578
 73
     0
 72
     1
 10
-23.84682813455947
 20
-0.0000000000000889
 11
-39.199998172807
 21
-0.0000000000001439
 72
     2
 10
-39.19999817280697
 20
3.999999999999858
 40
4.000000000000001
 50
90.00000000000051
 51
142.0877608363267
 73
     0
 72
     2
 10
-24.20989407799152
 20
15.67462115987081
 40
22.99999999999761
 50
142.0877608363275
 51
181.6808039022831
 73
     0
 72
     1
 10
-47.199998172807
 20
16.34924231981071
 11
-47.199998172807
 21
22.49716471387805
 72
     2
 10
-46.69999817280699
 20
22.49716471387805
 40
0.5
 50
180.0
 51
270.0
 73
     0
 72
     1
 10
-46.69999817280699
 20
22.99716471387805
 11
-40.70499817280693
 21
22.99716471387805
 72
     1
 10
-40.70499817280693
 20
22.99716471387805
 11
-40.70499817280693
 21
24.29716471387778
 72
     2
 10
-40.70499817280762
 20
24.94716471387781
 40
0.6500000000000341
 50
89.99999999993985
 51
270.0000000000401
 73
     0
 72
     2
 10
-40.70499817280705
 20
24.39716471387791
 40
1.199999999999931
 50
269.9999999999946
 51
359.9999999999891
 73
     0
 72
     1
 10
-39.50499817280712
 20
24.39716471387814
 11
-39.50499817280689
 21
21.69716471387806
 72
     2
 10
-39.70499817280693
 20
21.69716471387808
 40
0.2000000000000313
 50
0.0000000000040711
 51
89.99999999998779
 73
     0
 72
     1
 10
-39.70499817280688
 20
21.49716471387804
 11
-40.68937896380254
 21
21.49716471387804
 72
     2
 10
-40.68937896380253
 20
16.49716471387806
 40
4.999999999999978
 50
90.00000000000007
 51
177.1425566066886
 73
     1
 72
     2
 10
-24.20989407799145
 20
15.67462115987048
 40
21.49999999999742
 50
177.1425566066877
 51
217.9122391636716
 73
     1
 97
        1
330
F41
 75
     0
 76
     1
 98
        1
 10
0.0
 20
0.0
  0
ENDBLK
  5
31
330
2F
100
AcDbEntity
  8
0
100
AcDbBlockEnd
  0
BLOCK
  5
417
330
416
100
AcDbEntity
  8
0
100
AcDbBlockBegin
  2
08730
 70
     0
 10
0.0
 20
0.0
 30
0.0
  3
08730
  1
08730.dwg
  0
LWPOLYLINE
  5
11FC
102
{ACAD_REACTORS
330
11FD
102
}
330
416
100
AcDbEntity
  8
APL Joinery
  6
Continuous
100
AcDbPolyline
 90
       64
 70
     1
 43
0.0
 10
5.5
 20
0.25
 42
-0.4142135623730951
 10
5.25
 20
0.0
 10
0.25
 20
0.0
 42
0.4142135623730951
 10
0.0
 20
-0.25
 10
0.0
 20
-26.75
 42
0.4142135623730951
 10
0.25
 20
-27.0
 10
7.75
 20
-27.0
 42
0.4142135623730951
 10
8.0
 20
-26.75
 10
8.0
 20
-25.75
 42
0.4142135623730951
 10
7.75
 20
-25.5
 10
7.289756829953375
 20
-25.5
 42
-0.5849231395621138
 10
6.862515683210524
 20
-24.74025974026035
 42
0.3589993750619788
 10
6.254807577006789
 20
-20.52243208156442
 42
0.9999999999958543
 10
5.245192244045946
 20
-21.63179085098258
 42
-0.4390496178058308
 10
5.258850579850575
 20
-24.35565305942581
 42
0.1432248589152382
 10
5.000000068218947
 20
-24.78955297868039
 42
-0.263820418017367
 10
2.977485234958017
 20
-24.77678461135595
 42
0.1432248589117884
 10
2.724133656937219
 20
-24.33965110180001
 42
-0.4039324889489646
 10
2.616242012303901
 20
-21.77211000843244
 42
0.5246917004122232
 10
2.322103617723769
 20
-20.57339311107308
 42
-0.311264103520188
 10
1.999999999999999
 20
-20.10611067274158
 10
2.0
 20
-19.93955301678306
 42
-0.4142135623730951
 10
2.25
 20
-19.68955301678306
 10
3.0
 20
-19.68955301678343
 42
0.9999999999999998
 10
3.0
 20
-18.88955301678334
 10
2.25
 20
-18.88955301678334
 42
-0.4142135623730951
 10
2.0
 20
-18.63955301678334
 10
2.0
 20
-14.78955301678343
 10
2.799999999999999
 20
-14.78955301678343
 42
0.4142135623730951
 10
2.999999999999999
 20
-14.58955301678343
 10
3.0
 20
-13.78955301678343
 10
5.0
 20
-13.78955301678343
 10
5.0
 20
-14.53955301678343
 42
0.4142135623730951
 10
5.25
 20
-14.78955301678343
 10
5.75
 20
-14.78955301678343
 42
0.4142135623730951
 10
6.0
 20
-14.53955301678343
 10
6.0
 20
-13.03955301678343
 42
0.4142135623730951
 10
5.75
 20
-12.78955301678343
 10
2.5
 20
-12.78955301678343
 42
-0.4142135623730951
 10
2.0
 20
-12.28955301678343
 10
2.0
 20
-2.5
 42
-0.4142135623730951
 10
2.5
 20
-2.0
 10
105.7499999999997
 20
-2.0
 42
0.4142135623730951
 10
105.9999999999998
 20
-1.75
 10
105.9999999999998
 20
-0.25
 42
0.4142135623730951
 10
105.7499999999997
 20
0.0
 10
100.7499999999998
 20
0.0
 42
-0.4142135623730951
 10
100.4999999999997
 20
0.25
 10
100.4999999999997
 20
3.0
 10
100.9999999999992
 20
2.999999999999993
 42
0.533801728024635
 10
101.231180534412
 20
3.345160708848937
 10
100.4999999999998
 20
5.12146848064132
 10
100.4999999999997
 20
7.9955478446862
 42
0.9999999999999998
 10
99.49999999999977
 20
7.9955478446862
 10
99.49999999999979
 20
0.25
 42
-0.4142135623730951
 10
99.24999999999979
 20
0.0
 10
6.75
 20
0.0
 42
-0.4142135623730951
 10
6.5
 20
0.25
 10
6.5
 20
7.9955478446862
 42
0.9999999999999998
 10
5.5
 20
7.9955478446862
 10
5.5
 20
5.121468480641341
 10
4.768819465587796
 20
3.345160708848936
 42
0.5338017280246295
 10
5.000000000000569
 20
2.999999999999993
 10
5.5
 20
3.0
  0
HATCH
  5
11FD
330
416
100
AcDbEntity
  8
APL Hatch
100
AcDbHatch
 10
0.0
 20
0.0
 30
0.0
210
0.0
220
0.0
230
1.0
  2
SOLID
 70
     1
 71
     1
 91
        1
 92
        1
 93
       64
 72
     2
 10
5.25
 20
0.25
 40
0.25
 50
360.0
 51
450.0
 73
     0
 72
     1
 10
5.25
 20
0.0
 11
0.25
 21
0.0
 72
     2
 10
0.25
 20
-0.25
 40
0.25
 50
90.0
 51
180.0
 73
     1
 72
     1
 10
0.0
 20
-0.25
 11
0.0
 21
-26.75
 72
     2
 10
0.25
 20
-26.75
 40
0.25
 50
180.0
 51
270.0
 73
     1
 72
     1
 10
0.25
 20
-27.0
 11
7.75
 21
-27.0
 72
     2
 10
7.75
 20
-26.75
 40
0.25
 50
270.0
 51
360.0
 73
     1
 72
     1
 10
8.0
 20
-26.75
 11
8.0
 21
-25.75
 72
     2
 10
7.75
 20
-25.75
 40
0.25
 50
0.0
 51
90.0
 73
     1
 72
     1
 10
7.75
 20
-25.5
 11
7.289756829953375
 21
-25.5
 72
     2
 10
7.289756829953356
 20
-25.00000000000016
 40
0.4999999999998366
 50
89.99999999999776
 51
211.2974122202416
 73
     0
 72
     2
 10
4.000000000027807
 20
-23.00000000004445
 40
3.349999999982583
 50
328.702587780407
 51
407.6950129596166
 73
     1
 72
     2
 10
5.749999910528667
 20
-21.07711146627559
 40
0.7499999999724364
 50
47.69501295897433
 51
227.6950129584993
 73
     1
 72
     2
 10
4.000000000029955
 20
-22.99999999996929
 40
1.84999999998068
 50
312.3049870411875
 51
407.1204182266343
 73
     0
 72
     2
 10
5.871264375464335
 20
-25.01515995324373
 40
0.90000000002856
 50
132.8795817733241
 51
165.4825757613963
 73
     1
 72
     2
 10
4.000000000015473
 20
-22.99999999996046
 40
2.050000000012761
 50
60.80359340690945
 51
119.9198265928943
 73
     0
 72
     2
 10
2.103441922482063
 20
-24.99137325942925
 40
0.8999999999810356
 50
13.79400424017761
 51
46.39699822747508
 73
     1
 72
     2
 10
4.000000000001479
 20
-23.00000000000185
 40
1.849999999976534
 50
133.6030017728178
 51
221.5845329588694
 73
     0
 72
     2
 10
2.055259044304594
 20
-21.27431676858499
 40
0.7500000000154243
 50
318.4154670405723
 51
429.157961094247
 73
     1
 72
     2
 10
2.500000000000042
 20
-20.10611067274155
 40
0.5000000000000427
 50
110.84203890581
 51
179.9999999999967
 73
     0
 72
     1
 10
1.999999999999999
 20
-20.10611067274158
 11
2.0
 21
-19.93955301678306
 72
     2
 10
2.25
 20
-19.93955301678306
 40
0.25
 50
180.0
 51
270.0
 73
     0
 72
     1
 10
2.25
 20
-19.68955301678306
 11
3.0
 21
-19.68955301678343
 72
     2
 10
3.0
 20
-19.28955301678338
 40
0.4000000000000448
 50
270.0
 51
450.0
 73
     1
 72
     1
 10
3.0
 20
-18.88955301678334
 11
2.25
 21
-18.88955301678334
 72
     2
 10
2.25
 20
-18.63955301678334
 40
0.25
 50
90.0
 51
180.0
 73
     0
 72
     1
 10
2.0
 20
-18.63955301678334
 11
2.0
 21
-14.78955301678343
 72
     1
 10
2.0
 20
-14.78955301678343
 11
2.799999999999999
 21
-14.78955301678343
 72
     2
 10
2.799999999999999
 20
-14.58955301678343
 40
0.1999999999999993
 50
270.0
 51
360.0
 73
     1
 72
     1
 10
2.999999999999999
 20
-14.58955301678343
 11
3.0
 21
-13.78955301678343
 72
     1
 10
3.0
 20
-13.78955301678343
 11
5.0
 21
-13.78955301678343
 72
     1
 10
5.0
 20
-13.78955301678343
 11
5.0
 21
-14.53955301678343
 72
     2
 10
5.25
 20
-14.53955301678343
 40
0.25
 50
180.0
 51
270.0
 73
     1
 72
     1
 10
5.25
 20
-14.78955301678343
 11
5.75
 21
-14.78955301678343
 72
     2
 10
5.75
 20
-14.53955301678343
 40
0.25
 50
270.0
 51
360.0
 73
     1
 72
     1
 10
6.0
 20
-14.53955301678343
 11
6.0
 21
-13.03955301678343
 72
     2
 10
5.75
 20
-13.03955301678343
 40
0.25
 50
0.0
 51
90.0
 73
     1
 72
     1
 10
5.75
 20
-12.78955301678343
 11
2.5
 21
-12.78955301678343
 72
     2
 10
2.5
 20
-12.28955301678343
 40
0.5
 50
90.0
 51
180.0
 73
     0
 72
     1
 10
2.0
 20
-12.28955301678343
 11
2.0
 21
-2.5
 72
     2
 10
2.5
 20
-2.5
 40
0.5
 50
180.0
 51
270.0
 73
     0
 72
     1
 10
2.5
 20
-2.0
 11
105.7499999999997
 21
-2.0
 72
     2
 10
105.7499999999997
 20
-1.75
 40
0.25
 50
270.0
 51
360.0
 73
     1
 72
     1
 10
105.9999999999998
 20
-1.75
 11
105.9999999999998
 21
-0.25
 72
     2
 10
105.7499999999997
 20
-0.25
 40
0.25
 50
0.0
 51
90.0
 73
     1
 72
     1
 10
105.7499999999997
 20
0.0
 11
100.7499999999998
 21
0.0
 72
     2
 10
100.7499999999998
 20
0.25
 40
0.25
 50
90.0
 51
180.0
 73
     0
 72
     1
 10
100.4999999999997
 20
0.25
 11
100.4999999999997
 21
3.0
 72
     1
 10
100.4999999999997
 20
3.0
 11
100.9999999999992
 21
2.999999999999993
 72
     2
 10
100.9999999999992
 20
3.250000000000006
 40
0.2500000000000124
 50
270.0
 51
382.3735070421803
 73
     1
 72
     1
 10
101.231180534412
 20
3.345160708848937
 11
100.4999999999998
 21
5.12146848064132
 72
     1
 10
100.4999999999998
 20
5.12146848064132
 11
100.4999999999997
 21
7.9955478446862
 72
     2
 10
99.99999999999978
 20
7.9955478446862
 40
0.5
 50
0.0
 51
180.0
 73
     1
 72
     1
 10
99.49999999999977
 20
7.9955478446862
 11
99.49999999999979
 21
0.25
 72
     2
 10
99.24999999999979
 20
0.25
 40
0.25
 50
360.0
 51
450.0
 73
     0
 72
     1
 10
99.24999999999979
 20
0.0
 11
6.75
 21
0.0
 72
     2
 10
6.75
 20
0.25
 40
0.25
 50
90.0
 51
180.0
 73
     0
 72
     1
 10
6.5
 20
0.25
 11
6.5
 21
7.9955478446862
 72
     2
 10
6.0
 20
7.9955478446862
 40
0.5
 50
0.0
 51
180.0
 73
     1
 72
     1
 10
5.5
 20
7.9955478446862
 11
5.5
 21
5.121468480641341
 72
     1
 10
5.5
 20
5.121468480641341
 11
4.768819465587796
 21
3.345160708848936
 72
     2
 10
5.000000000000571
 20
3.250000000000007
 40
0.2500000000000137
 50
157.6264929578202
 51
269.9999999999996
 73
     1
 72
     1
 10
5.000000000000569
 20
2.999999999999993
 11
5.5
 21
3.0
 72
     1
 10
5.5
 20
3.0
 11
5.5
 21
0.25
 97
        1
330
11FC
 75
     0
 76
     1
 98
        1
 10
0.0
 20
0.0
  0
ENDBLK
  5
418
330
416
100
AcDbEntity
  8
0
100
AcDbBlockEnd
  0
BLOCK
  5
41F
330
41E
100
AcDbEntity
  8
0
100
AcDbBlockBegin
  2
08700
 70
     0
 10
0.0
 20
0.0
 30
0.0
  3
08700
  1
08700.dwg
  0
LWPOLYLINE
  5
11FF
102
{ACAD_REACTORS
330
1200
102
}
330
41E
100
AcDbEntity
  8
APL Joinery
  6
Continuous
100
AcDbPolyline
 90
      224
 70
     1
 43
0.0
 10
95.2697448822956
 20
18.00454545454548
 42
-0.1432248589116985
 10
95.71976037319748
 20
18.23423826074757
 42
0.2959768337492663
 10
95.7197603731975
 20
20.46576173925249
 42
-0.1432248589116683
 10
95.26974488229548
 20
20.69545454545462
 42
0.3973597071194884
 10
92.73025511770439
 20
20.69545454545454
 42
-0.496827247543929
 10
91.31542445611904
 20
20.93214285714303
 42
0.2789039971400443
 10
90.87258171441773
 20
21.20000000000004
 10
81.0
 20
21.20000000000004
 10
81.0
 20
20.95000000000005
 42
-0.4142135623730951
 10
80.75000000000001
 20
20.70000000000005
 10
76.25
 20
20.70000000000005
 42
-0.4142135623730951
 10
76.0
 20
20.95000000000005
 10
76.0
 20
21.20000000000004
 10
69.34999999999945
 20
21.20000000000004
 42
0.4142135623730951
 10
68.34999999999945
 20
20.20000000000004
 10
68.34999999999945
 20
0.25
 42
-0.4142135623730951
 10
68.09999999999945
 20
0.0
 10
67.09999999999945
 20
0.0
 42
-0.4142135623730951
 10
66.84999999999945
 20
0.25
 10
66.84999999999945
 20
41.20000000000003
 10
66.14999999999963
 20
41.20000000000004
 42
-0.4142135623730951
 10
65.89999999999964
 20
41.45000000000004
 10
65.89999999999964
 20
42.0
 10
57.77593640974192
 20
42.0
 42
-0.4142135623730951
 10
57.52593640974192
 20
42.25
 10
57.52593640974192
 20
43.0
 10
56.52741828558146
 20
43.00000000000011
 42
0.2789039971400466
 10
56.08457554387988
 20
42.73214285714317
 42
-0.4968272475439317
 10
54.66974488229511
 20
42.49545454545469
 42
0.3973597071194888
 10
52.13025511770402
 20
42.49545454545462
 42
-0.1432248589116676
 10
51.68023962680216
 20
42.26576173925254
 42
0.2959768337492666
 10
51.68023962680202
 20
40.03423826074764
 42
-0.1432248589116971
 10
52.13025511770416
 20
39.80454545454549
 42
0.3973597071194886
 10
54.66974488229524
 20
39.80454545454556
 42
-0.6577630104416947
 10
56.18745860881699
 20
39.15000000000009
 10
56.18745860881699
 20
38.90000000000009
 42
0.4142135623730951
 10
56.437458608817
 20
38.65000000000009
 10
57.14999999999964
 20
38.65000000000009
 42
-0.4142135623730951
 10
57.39999999999963
 20
38.40000000000009
 10
57.39999999999963
 20
37.40000000000009
 42
-0.4142135623730951
 10
57.14999999999964
 20
37.15000000000009
 10
49.64999999999964
 20
37.15000000000009
 42
-0.4142135623730951
 10
49.39999999999963
 20
37.40000000000009
 10
49.39999999999963
 20
38.40000000000009
 42
-0.4142135623730951
 10
49.64999999999964
 20
38.65000000000009
 10
49.73564466788457
 20
38.65000000000009
 42
0.5864085658433594
 10
49.94868858254243
 20
39.03081395348849
 42
-0.2162560767305986
 10
49.53237266027573
 20
42.35164835164828
 42
0.5054633634252787
 10
49.0548878035197
 20
43.0
 10
41.30000015912104
 20
42.99999978242988
 42
0.414213546696837
 10
40.30000018717691
 20
41.9999998078961
 10
40.30000000000018
 20
34.64999999999986
 42
-0.4142135623730951
 10
40.05000000000018
 20
34.39999999999986
 10
40.0
 20
34.39999999999987
 10
40.0
 20
23.1999997824297
 42
-0.4142135623730951
 10
38.0
 20
21.1999997824297
 10
35.0
 20
21.19999999999982
 10
35.0
 20
21.04999999999973
 42
-0.4142135623730951
 10
34.75
 20
20.79999999999973
 10
27.25
 20
20.79999999999973
 42
-0.4142135623730951
 10
27.0
 20
21.04999999999973
 10
27.0
 20
21.19999999999982
 10
23.80000000000018
 20
21.20000000000004
 42
0.4142135623730951
 10
22.80000000000018
 20
20.20000000000004
 10
22.8
 20
19.69999999999982
 42
-0.372829096638037
 10
20.82853622619905
 20
17.42358528644819
 42
-0.6084114927575714
 10
19.31974488229566
 20
16.89545454545444
 42
0.3973597071194885
 10
16.78025511770457
 20
16.89545454545438
 42
-0.1432248589116676
 10
16.3302396268027
 20
16.66576173925229
 42
0.2959768337492679
 10
16.33023962680257
 20
14.43423826074739
 42
-0.1432248589116974
 10
16.7802551177047
 20
14.20454545454524
 42
0.3973597071194885
 10
19.31974488229579
 20
14.20454545454531
 42
-0.6577630104416969
 10
20.83745860881754
 20
13.54999999999984
 10
20.83745860881754
 20
13.04999999999984
 10
21.80000000000018
 20
13.04999999999984
 42
-0.4142135623730951
 10
22.05000000000018
 20
12.79999999999984
 10
22.05000000000018
 20
11.79999999999984
 42
-0.4142135623730951
 10
21.80000000000018
 20
11.54999999999984
 10
14.30000000000018
 20
11.54999999999984
 42
-0.4142135623730951
 10
14.05000000000018
 20
11.79999999999984
 10
14.05000000000018
 20
13.0
 10
2.800000000000181
 20
13.0
 42
0.4142135623730951
 10
1.800000000000181
 20
12.0
 10
1.800000000000181
 20
1.5
 10
4.0
 20
1.5
 10
4.0
 20
2.25
 42
-0.4142135623730951
 10
4.25
 20
2.5
 10
5.25
 20
2.5
 42
-0.4931454260313024
 10
5.491481456571818
 20
2.185295238724393
 10
5.005232781287288
 20
0.3705904774487295
 42
-0.3394542588633702
 10
4.522269868142757
 20
0.0
 10
0.1999999999998181
 20
0.0000000000000455
 42
-0.4142135623730951
 10
0.0
 20
0.2000000000000455
 10
0.0
 20
22.75
 42
-0.4142135623730951
 10
0.25
 20
23.0
 10
1.025255128608477
 20
23.0
 42
-0.3563939586925959
 10
2.494948974278317
 20
21.80000000000001
 42
-0.4744978678080856
 10
2.25
 20
21.5
 10
1.5
 20
21.5
 10
1.5
 20
18.5
 10
1.550000000000168
 20
18.5
 42
-0.4142135623731115
 10
1.800000000000168
 20
18.24999999999998
 10
1.8
 20
15.00000000000003
 42
0.4142135623731372
 10
2.0
 20
14.79999999999995
 10
13.95000000000073
 20
14.79999999999995
 42
0.4142135623730951
 10
14.20000000000072
 20
15.04999999999995
 10
14.2
 20
16.89999999999986
 42
-0.4142135623730951
 10
16.5
 20
19.19999999999982
 10
20.5
 20
19.19999999999982
 42
0.4142135623730951
 10
21.0
 20
19.69999999999982
 10
21.0
 20
21.49999999999977
 42
0.4142135623730951
 10
20.5
 20
21.99999999999977
 10
18.0
 20
21.99999999999977
 42
-0.9999999999999998
 10
18.0
 20
23.0
 10
30.60000000000036
 20
23.0
 10
31.0
 20
22.59999999999991
 10
31.39999999999964
 20
23.0
 10
36.0
 20
23.0
 10
35.99999999999982
 20
24.29999999999993
 42
-0.4142135623731368
 10
36.19999999999982
 20
24.5
 10
38.19999999999982
 20
24.5
 10
38.19999999999982
 20
28.5
 10
36.49999999999909
 20
28.5
 42
-0.9999999999999998
 10
36.49999999999909
 20
29.5
 10
38.19999999999982
 20
29.5
 10
38.19999999999982
 20
34.89999999999986
 10
36.5
 20
34.89999999999986
 42
-0.4142135623730951
 10
36.0
 20
35.39999999999987
 10
36.0
 20
36.94999999999982
 42
-0.9999999999999998
 10
37.0
 20
36.94999999999982
 10
37.0
 20
36.19999999999982
 10
38.5
 20
36.19999999999982
 10
38.5
 20
41.69999999999982
 10
37.0
 20
41.69999999999982
 10
37.0
 20
40.94999999999981
 42
-0.9999999999999998
 10
36.0
 20
40.94999999999981
 10
36.0
 20
42.5
 42
-0.4142135623730951
 10
36.5
 20
43.0
 10
37.69999999999982
 20
43.0
 10
37.69999999999964
 20
44.79999999999992
 42
-0.4142135623731368
 10
37.89999999999964
 20
45.0
 10
67.44999999999982
 20
45.0
 42
-0.4142135623730951
 10
67.69999999999981
 20
44.75
 10
67.69999999999981
 20
43.0
 10
68.40000018717637
 20
43.0
 42
-0.4142135623730951
 10
68.65000018717637
 20
42.75
 10
68.65000018717637
 20
42.61602518621444
 10
69.36650653812242
 20
41.37499978242986
 42
-0.5773502691895664
 10
69.15000018717631
 20
40.99999978242987
 10
68.65000018717637
 20
40.99999978242988
 10
68.65000018717637
 20
31.61602518621436
 10
69.36650641250823
 20
30.37499999999999
 42
-0.5773502691896397
 10
69.15000006156211
 20
30.0
 10
68.64999999999963
 20
30.0
 10
68.64999999999963
 20
24.0
 42
0.4142135623730951
 10
69.64999999999964
 20
23.0
 10
77.5
 20
23.0
 10
78.0
 20
22.5
 10
78.5
 20
23.0
 10
93.49999999999999
 20
23.0
 10
94.0
 20
22.5
 10
94.50000000000001
 20
23.0
 10
103.0
 20
23.0
 42
0.4142135623730951
 10
104.0
 20
24.0
 10
104.0
 20
30.0
 10
100.25
 20
30.0
 42
-0.4142135623730951
 10
100.0
 20
30.25
 10
100.0
 20
31.75
 42
-0.4142135623730951
 10
100.25
 20
32.0
 10
100.75
 20
32.0
 42
-0.4142135623730951
 10
101.0
 20
31.75
 10
101.0
 20
31.0
 10
103.0
 20
31.0
 10
103.0
 20
31.75
 42
-0.4142135623730951
 10
103.25
 20
32.0
 10
104.0
 20
32.0
 10
104.0
 20
36.10000000000002
 10
103.0
 20
36.1
 42
-0.9999999999999998
 10
103.0
 20
36.90000000000008
 10
104.0
 20
36.90000000000009
 10
104.0
 20
41.0
 10
103.25
 20
41.0
 42
-0.4142135623730951
 10
103.0
 20
41.25
 10
103.0
 20
42.0
 10
101.0
 20
42.0
 10
101.0
 20
41.25
 42
-0.4142135623730951
 10
100.75
 20
41.0
 10
100.25
 20
41.0
 42
-0.4142135623730951
 10
100.0
 20
41.25
 10
100.0
 20
42.75
 42
-0.4142135623730951
 10
100.25
 20
43.0
 10
101.6999999999998
 20
43.0
 10
101.6999999999998
 20
44.75
 42
-0.4142135623730951
 10
101.9499999999998
 20
45.0
 10
105.0
 20
45.0
 42
-0.4142135623730951
 10
106.0
 20
44.0
 10
106.0000000000002
 20
0.1999999999998179
 42
-0.4142135623730847
 10
105.8000000000002
 20
-0.0000000000000072
 10
101.4777301318572
 20
0.0
 42
-0.3394542588633706
 10
100.9947672187127
 20
0.3705904774487862
 10
100.5085185434277
 20
2.185295238724371
 42
-0.4931454260312968
 10
100.75
 20
2.500000000000003
 10
101.75
 20
2.5
 42
-0.4142135623730951
 10
102.0
 20
2.25
 10
102.0
 20
1.5
 10
104.0
 20
1.5
 10
104.0
 20
20.70000000000005
 42
0.4142135623730951
 10
103.5
 20
21.20000000000004
 10
98.34511219647993
 20
21.20000000000004
 42
0.505463363425272
 10
97.86762733972407
 20
20.55164835164825
 42
-0.2162560767305987
 10
97.4513114174568
 20
17.23081395348848
 42
0.5864085658434474
 10
97.66435533211552
 20
16.85000000000003
 10
97.75
 20
16.85000000000002
 42
-0.4142135623730951
 10
98.0
 20
16.60000000000002
 10
98.0
 20
15.60000000000002
 42
-0.4142135623730951
 10
97.75
 20
15.35000000000002
 10
90.25
 20
15.35000000000002
 42
-0.4142135623730951
 10
90.0
 20
15.60000000000002
 10
90.0
 20
16.60000000000002
 42
-0.4142135623730951
 10
90.25
 20
16.85000000000002
 10
90.96254139118263
 20
16.85000000000002
 42
0.4142135623730951
 10
91.21254139118263
 20
17.10000000000002
 10
91.21254139118228
 20
17.35000000000002
 42
-0.6577630104416964
 10
92.73025511770452
 20
18.00454545454542
 42
0.3973597071194877
  0
HATCH
  5
1200
330
41E
100
AcDbEntity
  8
APL Hatch
100
AcDbHatch
 10
0.0
 20
0.0
 30
0.0
210
0.0
220
0.0
230
1.0
  2
SOLID
 70
     1
 71
     1
 91
        1
 92
        1
 93
      224
 72
     2
 10
95.88745860881763
 20
17.35000000000023
 40
0.8999999999997703
 50
226.6582417727748
 51
259.2612357600521
 73
     0
 72
     2
 10
93.99999999999998
 20
19.35000000000004
 40
2.050000000000026
 50
327.0249334069668
 51
392.9750665930326
 73
     1
 72
     2
 10
95.88745860881777
 20
21.35000000000026
 40
0.9000000000002257
 50
100.7387642399498
 51
133.3417582272202
 73
     0
 72
     2
 10
93.99999999999998
 20
19.34999999999991
 40
1.850000000000092
 50
46.65824177278188
 51
133.3417582272217
 73
     1
 72
     2
 10
92.11254139118189
 20
21.35000000000025
 40
0.9000000000004327
 50
46.65824177277229
 51
152.3359955038191
 73
     0
 72
     2
 10
90.87258171441758
 20
20.69999999999973
 40
0.500000000000315
 50
27.66400449622748
 51
89.99999999998534
 73
     1
 72
     1
 10
90.87258171441773
 20
21.20000000000004
 11
81.0
 21
21.20000000000004
 72
     1
 10
81.0
 20
21.20000000000004
 11
81.0
 21
20.95000000000005
 72
     2
 10
80.75000000000001
 20
20.95000000000005
 40
0.25
 50
360.0
 51
450.0
 73
     0
 72
     1
 10
80.75000000000001
 20
20.70000000000005
 11
76.25
 21
20.70000000000005
 72
     2
 10
76.25
 20
20.95000000000005
 40
0.25
 50
90.0
 51
180.0
 73
     0
 72
     1
 10
76.0
 20
20.95000000000005
 11
76.0
 21
21.20000000000004
 72
     1
 10
76.0
 20
21.20000000000004
 11
69.34999999999945
 21
21.20000000000004
 72
     2
 10
69.34999999999945
 20
20.20000000000004
 40
1.0
 50
90.0
 51
180.0
 73
     1
 72
     1
 10
68.34999999999945
 20
20.20000000000004
 11
68.34999999999945
 21
0.25
 72
     2
 10
68.09999999999945
 20
0.25
 40
0.25
 50
360.0
 51
450.0
 73
     0
 72
     1
 10
68.09999999999945
 20
0.0
 11
67.09999999999945
 21
0.0
 72
     2
 10
67.09999999999945
 20
0.25
 40
0.25
 50
90.0
 51
180.0
 73
     0
 72
     1
 10
66.84999999999945
 20
0.25
 11
66.84999999999945
 21
41.20000000000003
 72
     1
 10
66.84999999999945
 20
41.20000000000003
 11
66.14999999999963
 21
41.20000000000004
 72
     2
 10
66.14999999999963
 20
41.45000000000004
 40
0.25
 50
90.0
 51
180.0
 73
     0
 72
     1
 10
65.89999999999964
 20
41.45000000000004
 11
65.89999999999964
 21
42.0
 72
     1
 10
65.89999999999964
 20
42.0
 11
57.77593640974192
 21
42.0
 72
     2
 10
57.77593640974192
 20
42.25
 40
0.25
 50
90.0
 51
180.0
 73
     0
 72
     1
 10
57.52593640974192
 20
42.25
 11
57.52593640974192
 21
43.0
 72
     1
 10
57.52593640974192
 20
43.0
 11
56.52741828558146
 21
43.00000000000011
 72
     2
 10
56.5274182855814
 20
42.49999999999963
 40
0.5000000000004832
 50
89.99999999999266
 51
152.335995503751
 73
     1
 72
     2
 10
55.28745860881733
 20
43.15000000000018
 40
0.9000000000000703
 50
27.66400449617688
 51
133.3417582272241
 73
     0
 72
     2
 10
53.3999999999996
 20
41.14999999999999
 40
1.850000000000096
 50
46.65824177278142
 51
133.3417582272214
 73
     1
 72
     2
 10
51.5125413911819
 20
43.15000000000003
 40
0.8999999999999522
 50
46.65824177277701
 51
79.26123576004735
 73
     0
 72
     2
 10
53.39999999999958
 20
41.14999999999999
 40
2.050000000000003
 50
147.0249334069637
 51
212.9750665930296
 73
     1
 72
     2
 10
51.51254139118186
 20
39.14999999999981
 40
0.9000000000002534
 50
280.7387642399421
 51
313.3417582272191
 73
     0
 72
     2
 10
53.39999999999966
 20
41.15000000000018
 40
1.850000000000092
 50
226.6582417727815
 51
313.3417582272215
 73
     1
 72
     2
 10
55.28745860881719
 20
39.15000000000016
 40
0.8999999999998198
 50
226.6582417727846
 51
360.0000000000045
 73
     0
 72
     1
 10
56.18745860881699
 20
39.15000000000009
 11
56.18745860881699
 21
38.90000000000009
 72
     2
 10
56.437458608817
 20
38.90000000000009
 40
0.25
 50
180.0
 51
270.0
 73
     1
 72
     1
 10
56.437458608817
 20
38.65000000000009
 11
57.14999999999964
 21
38.65000000000009
 72
     2
 10
57.14999999999964
 20
38.40000000000009
 40
0.25
 50
270.0
 51
360.0
 73
     0
 72
     1
 10
57.39999999999963
 20
38.40000000000009
 11
57.39999999999963
 21
37.40000000000009
 72
     2
 10
57.14999999999964
 20
37.40000000000009
 40
0.25
 50
360.0
 51
450.0
 73
     0
 72
     1
 10
57.14999999999964
 20
37.15000000000009
 11
49.64999999999964
 21
37.15000000000009
 72
     2
 10
49.64999999999964
 20
37.40000000000009
 40
0.25
 50
90.0
 51
180.0
 73
     0
 72
     1
 10
49.39999999999963
 20
37.40000000000009
 11
49.39999999999963
 21
38.40000000000009
 72
     2
 10
49.64999999999964
 20
38.40000000000009
 40
0.25
 50
180.0
 51
270.0
 73
     0
 72
     1
 10
49.64999999999964
 20
38.65000000000009
 11
49.73564466788457
 21
38.65000000000009
 72
     2
 10
49.73564466788483
 20
38.89999999999995
 40
0.2499999999998579
 50
269.9999999999397
 51
391.550899554035
 73
     1
 72
     2
 10
53.39999999999967
 20
41.14999999999988
 40
4.049999999999924
 50
148.4491004460311
 51
197.2597026414718
 73
     0
 72
     2
 10
49.0548878035197
 20
42.5
 40
0.4999999999999976
 50
342.7402973585205
 51
450.0
 73
     1
 72
     1
 10
49.0548878035197
 20
43.0
 11
41.30000015912104
 21
42.99999978242988
 72
     2
 10
41.30000018717691
 20
41.99999978242987
 40
1.0
 50
90.00000160748307
 51
179.999998540893
 73
     1
 72
     1
 10
40.30000018717691
 20
41.9999998078961
 11
40.30000000000018
 21
34.64999999999986
 72
     2
 10
40.05000000000018
 20
34.64999999999986
 40
0.25
 50
360.0
 51
450.0
 73
     0
 72
     1
 10
40.05000000000018
 20
34.39999999999986
 11
40.0
 21
34.39999999999987
 72
     1
 10
40.0
 20
34.39999999999987
 11
40.0
 21
23.1999997824297
 72
     2
 10
38.0
 20
23.1999997824297
 40
2.0
 50
360.0
 51
450.0
 73
     0
 72
     1
 10
38.0
 20
21.1999997824297
 11
35.0
 21
21.19999999999982
 72
     1
 10
35.0
 20
21.19999999999982
 11
35.0
 21
21.04999999999973
 72
     2
 10
34.75
 20
21.04999999999973
 40
0.25
 50
360.0
 51
450.0
 73
     0
 72
     1
 10
34.75
 20
20.79999999999973
 11
27.25
 21
20.79999999999973
 72
     2
 10
27.25
 20
21.04999999999973
 40
0.25
 50
90.0
 51
180.0
 73
     0
 72
     1
 10
27.0
 20
21.04999999999973
 11
27.0
 21
21.19999999999982
 72
     1
 10
27.0
 20
21.19999999999982
 11
23.80000000000018
 21
21.20000000000004
 72
     2
 10
23.80000000000018
 20
20.20000000000004
 40
1.0
 50
90.0
 51
180.0
 73
     1
 72
     1
 10
22.80000000000018
 20
20.20000000000004
 11
22.8
 21
19.69999999999982
 72
     2
 10
20.4999999999998
 20
19.70000000000011
 40
2.300000000000199
 50
0.0000000000072771
 51
81.78767531854409
 73
     0
 72
     2
 10
19.93745860881787
 20
17.54999999999991
 40
0.9000000000000492
 50
8.074511211433257
 51
133.3417582272244
 73
     0
 72
     2
 10
18.05000000000014
 20
15.54999999999974
 40
1.850000000000099
 50
46.6582417727815
 51
133.3417582272214
 73
     1
 72
     2
 10
16.16254139118245
 20
17.54999999999978
 40
0.899999999999942
 50
46.65824177277706
 51
79.26123576004741
 73
     0
 72
     2
 10
18.05000000000012
 20
15.54999999999974
 40
2.050000000000002
 50
147.0249334069636
 51
212.9750665930298
 73
     1
 72
     2
 10
16.16254139118242
 20
13.54999999999958
 40
0.9000000000002382
 50
280.7387642399419
 51
313.3417582272189
 73
     0
 72
     2
 10
18.05000000000021
 20
15.54999999999995
 40
1.850000000000095
 50
226.6582417727817
 51
313.3417582272216
 73
     1
 72
     2
 10
19.93745860881773
 20
13.54999999999992
 40
0.8999999999998113
 50
226.6582417727847
 51
360.000000000005
 73
     0
 72
     1
 10
20.83745860881754
 20
13.54999999999984
 11
20.83745860881754
 21
13.04999999999984
 72
     1
 10
20.83745860881754
 20
13.04999999999984
 11
21.80000000000018
 21
13.04999999999984
 72
     2
 10
21.80000000000018
 20
12.79999999999984
 40
0.25
 50
270.0
 51
360.0
 73
     0
 72
     1
 10
22.05000000000018
 20
12.79999999999984
 11
22.05000000000018
 21
11.79999999999984
 72
     2
 10
21.80000000000018
 20
11.79999999999984
 40
0.25
 50
360.0
 51
450.0
 73
     0
 72
     1
 10
21.80000000000018
 20
11.54999999999984
 11
14.30000000000018
 21
11.54999999999984
 72
     2
 10
14.30000000000018
 20
11.79999999999984
 40
0.25
 50
90.0
 51
180.0
 73
     0
 72
     1
 10
14.05000000000018
 20
11.79999999999984
 11
14.05000000000018
 21
13.0
 72
     1
 10
14.05000000000018
 20
13.0
 11
2.800000000000181
 21
13.0
 72
     2
 10
2.800000000000181
 20
12.0
 40
1.0
 50
90.0
 51
180.0
 73
     1
 72
     1
 10
1.800000000000181
 20
12.0
 11
1.800000000000181
 21
1.5
 72
     1
 10
1.800000000000181
 20
1.5
 11
4.0
 21
1.5
 72
     1
 10
4.0
 20
1.5
 11
4.0
 21
2.25
 72
     2
 10
4.25
 20
2.25
 40
0.25
 50
180.0
 51
270.0
 73
     0
 72
     1
 10
4.25
 20
2.5
 11
5.25
 21
2.5
 72
     2
 10
5.249999999999784
 20
2.250000000000182
 40
0.249999999999817
 50
270.0000000000494
 51
375.0000000000491
 73
     0
 72
     1
 10
5.491481456571818
 20
2.185295238724393
 11
5.005232781287288
 21
0.3705904774487294
 72
     2
 10
4.522269868142757
 20
0.4999999999999997
 40
0.4999999999999997
 50
15.00000000000115
 51
90.0
 73
     0
 72
     1
 10
4.522269868142757
 20
0.0
 11
0.1999999999998181
 21
0.0000000000000455
 72
     2
 10
0.199999999999909
 20
0.1999999999999545
 40
0.199999999999909
 50
90.00000000002605
 51
180.000000000026
 73
     0
 72
     1
 10
0.0
 20
0.2000000000000455
 11
0.0
 21
22.75
 72
     2
 10
0.25
 20
22.75
 40
0.25
 50
180.0
 51
270.0
 73
     0
 72
     1
 10
0.25
 20
23.0
 11
1.025255128608477
 21
23.0
 72
     2
 10
1.025255128608433
 20
21.50000000000003
 40
1.499999999999971
 50
270.0000000000017
 51
348.4630409671853
 73
     0
 72
     2
 10
2.25
 20
21.75
 40
0.2499999999999997
 50
348.4630409671835
 51
450.0
 73
     0
 72
     1
 10
2.25
 20
21.5
 11
1.5
 21
21.5
 72
     1
 10
1.5
 20
21.5
 11
1.5
 21
18.5
 72
     1
 10
1.5
 20
18.5
 11
1.550000000000168
 21
18.5
 72
     2
 10
1.550000000000168
 20
18.25
 40
0.25
 50
270.0000000000001
 51
360.0000000000032
 73
     0
 72
     1
 10
1.800000000000168
 20
18.24999999999998
 11
1.8
 21
15.00000000000003
 72
     2
 10
2.000000000000022
 20
14.99999999999998
 40
0.2000000000000226
 50
179.9999999999852
 51
269.9999999999935
 73
     1
 72
     1
 10
2.0
 20
14.79999999999995
 11
13.95000000000073
 21
14.79999999999995
 72
     2
 10
13.95000000000073
 20
15.04999999999995
 40
0.25
 50
270.0
 51
360.0
 73
     1
 72
     1
 10
14.20000000000072
 20
15.04999999999995
 11
14.2
 21
16.89999999999986
 72
     2
 10
16.49999999999998
 20
16.89999999999984
 40
2.299999999999979
 50
180.0000000000005
 51
270.0000000000005
 73
     0
 72
     1
 10
16.5
 20
19.19999999999982
 11
20.5
 21
19.19999999999982
 72
     2
 10
20.5
 20
19.69999999999982
 40
0.5
 50
270.0
 51
360.0
 73
     1
 72
     1
 10
21.0
 20
19.69999999999982
 11
21.0
 21
21.49999999999977
 72
     2
 10
20.5
 20
21.49999999999977
 40
0.5
 50
0.0
 51
90.0
 73
     1
 72
     1
 10
20.5
 20
21.99999999999977
 11
18.0
 21
21.99999999999977
 72
     2
 10
18.0
 20
22.49999999999989
 40
0.5000000000001137
 50
90.0
 51
270.0
 73
     0
 72
     1
 10
18.0
 20
23.0
 11
30.60000000000036
 21
23.0
 72
     1
 10
30.60000000000036
 20
23.0
 11
31.0
 21
22.59999999999991
 72
     1
 10
31.0
 20
22.59999999999991
 11
31.39999999999964
 21
23.0
 72
     1
 10
31.39999999999964
 20
23.0
 11
36.0
 21
23.0
 72
     1
 10
36.0
 20
23.0
 11
35.99999999999982
 21
24.29999999999993
 72
     2
 10
36.19999999999984
 20
24.29999999999998
 40
0.2000000000000242
 50
179.9999999999857
 51
269.9999999999939
 73
     0
 72
     1
 10
36.19999999999982
 20
24.5
 11
38.19999999999982
 21
24.5
 72
     1
 10
38.19999999999982
 20
24.5
 11
38.19999999999982
 21
28.5
 72
     1
 10
38.19999999999982
 20
28.5
 11
36.49999999999909
 21
28.5
 72
     2
 10
36.49999999999909
 20
29.0
 40
0.5
 50
90.0
 51
270.0
 73
     0
 72
     1
 10
36.49999999999909
 20
29.5
 11
38.19999999999982
 21
29.5
 72
     1
 10
38.19999999999982
 20
29.5
 11
38.19999999999982
 21
34.89999999999986
 72
     1
 10
38.19999999999982
 20
34.89999999999986
 11
36.5
 21
34.89999999999986
 72
     2
 10
36.5
 20
35.39999999999987
 40
0.5
 50
90.0
 51
180.0
 73
     0
 72
     1
 10
36.0
 20
35.39999999999987
 11
36.0
 21
36.94999999999982
 72
     2
 10
36.5
 20
36.94999999999982
 40
0.5
 50
180.0
 51
360.0
 73
     0
 72
     1
 10
37.0
 20
36.94999999999982
 11
37.0
 21
36.19999999999982
 72
     1
 10
37.0
 20
36.19999999999982
 11
38.5
 21
36.19999999999982
 72
     1
 10
38.5
 20
36.19999999999982
 11
38.5
 21
41.69999999999982
 72
     1
 10
38.5
 20
41.69999999999982
 11
37.0
 21
41.69999999999982
 72
     1
 10
37.0
 20
41.69999999999982
 11
37.0
 21
40.94999999999981
 72
     2
 10
36.5
 20
40.94999999999981
 40
0.5
 50
360.0
 51
540.0
 73
     0
 72
     1
 10
36.0
 20
40.94999999999981
 11
36.0
 21
42.5
 72
     2
 10
36.5
 20
42.5
 40
0.5
 50
180.0
 51
270.0
 73
     0
 72
     1
 10
36.5
 20
43.0
 11
37.69999999999982
 21
43.0
 72
     1
 10
37.69999999999982
 20
43.0
 11
37.69999999999964
 21
44.79999999999992
 72
     2
 10
37.89999999999966
 20
44.79999999999997
 40
0.2000000000000242
 50
179.9999999999857
 51
269.9999999999939
 73
     0
 72
     1
 10
37.89999999999964
 20
45.0
 11
67.44999999999982
 21
45.0
 72
     2
 10
67.44999999999982
 20
44.75
 40
0.25
 50
270.0
 51
360.0
 73
     0
 72
     1
 10
67.69999999999981
 20
44.75
 11
67.69999999999981
 21
43.0
 72
     1
 10
67.69999999999981
 20
43.0
 11
68.40000018717637
 21
43.0
 72
     2
 10
68.40000018717637
 20
42.75
 40
0.25
 50
270.0
 51
360.0
 73
     0
 72
     1
 10
68.65000018717637
 20
42.75
 11
68.65000018717637
 21
42.61602518621444
 72
     1
 10
68.65000018717637
 20
42.61602518621444
 11
69.36650653812242
 21
41.37499978242986
 72
     2
 10
69.15000018717629
 20
41.24999978242988
 40
0.2500000000000098
 50
330.0000000000069
 51
449.9999999999968
 73
     0
 72
     1
 10
69.15000018717631
 20
40.99999978242987
 11
68.65000018717637
 21
40.99999978242988
 72
     1
 10
68.65000018717637
 20
40.99999978242988
 11
68.65000018717637
 21
31.61602518621436
 72
     1
 10
68.65000018717637
 20
31.61602518621436
 11
69.36650641250823
 21
30.37499999999999
 72
     2
 10
69.15000006156212
 20
30.24999999999999
 40
0.2499999999999924
 50
330.0000000000009
 51
450.0000000000032
 73
     0
 72
     1
 10
69.15000006156211
 20
30.0
 11
68.64999999999963
 21
30.0
 72
     1
 10
68.64999999999963
 20
30.0
 11
68.64999999999963
 21
24.0
 72
     2
 10
69.64999999999964
 20
24.0
 40
1.0
 50
180.0
 51
270.0
 73
     1
 72
     1
 10
69.64999999999964
 20
23.0
 11
77.5
 21
23.0
 72
     1
 10
77.5
 20
23.0
 11
78.0
 21
22.5
 72
     1
 10
78.0
 20
22.5
 11
78.5
 21
23.0
 72
     1
 10
78.5
 20
23.0
 11
93.49999999999999
 21
23.0
 72
     1
 10
93.49999999999999
 20
23.0
 11
94.0
 21
22.5
 72
     1
 10
94.0
 20
22.5
 11
94.50000000000001
 21
23.0
 72
     1
 10
94.50000000000001
 20
23.0
 11
103.0
 21
23.0
 72
     2
 10
103.0
 20
24.0
 40
1.0
 50
270.0
 51
360.0
 73
     1
 72
     1
 10
104.0
 20
24.0
 11
104.0
 21
30.0
 72
     1
 10
104.0
 20
30.0
 11
100.25
 21
30.0
 72
     2
 10
100.25
 20
30.25
 40
0.25
 50
90.0
 51
180.0
 73
     0
 72
     1
 10
100.0
 20
30.25
 11
100.0
 21
31.75
 72
     2
 10
100.25
 20
31.75
 40
0.25
 50
180.0
 51
270.0
 73
     0
 72
     1
 10
100.25
 20
32.0
 11
100.75
 21
32.0
 72
     2
 10
100.75
 20
31.75
 40
0.25
 50
270.0
 51
360.0
 73
     0
 72
     1
 10
101.0
 20
31.75
 11
101.0
 21
31.0
 72
     1
 10
101.0
 20
31.0
 11
103.0
 21
31.0
 72
     1
 10
103.0
 20
31.0
 11
103.0
 21
31.75
 72
     2
 10
103.25
 20
31.75
 40
0.25
 50
180.0
 51
270.0
 73
     0
 72
     1
 10
103.25
 20
32.0
 11
104.0
 21
32.0
 72
     1
 10
104.0
 20
32.0
 11
104.0
 21
36.10000000000002
 72
     1
 10
104.0
 20
36.10000000000002
 11
103.0
 21
36.1
 72
     2
 10
103.0
 20
36.50000000000004
 40
0.4000000000000413
 50
90.0
 51
270.0
 73
     0
 72
     1
 10
103.0
 20
36.90000000000008
 11
104.0
 21
36.90000000000009
 72
     1
 10
104.0
 20
36.90000000000009
 11
104.0
 21
41.0
 72
     1
 10
104.0
 20
41.0
 11
103.25
 21
41.0
 72
     2
 10
103.25
 20
41.25
 40
0.25
 50
90.0
 51
180.0
 73
     0
 72
     1
 10
103.0
 20
41.25
 11
103.0
 21
42.0
 72
     1
 10
103.0
 20
42.0
 11
101.0
 21
42.0
 72
     1
 10
101.0
 20
42.0
 11
101.0
 21
41.25
 72
     2
 10
100.75
 20
41.25
 40
0.25
 50
360.0
 51
450.0
 73
     0
 72
     1
 10
100.75
 20
41.0
 11
100.25
 21
41.0
 72
     2
 10
100.25
 20
41.25
 40
0.25
 50
90.0
 51
180.0
 73
     0
 72
     1
 10
100.0
 20
41.25
 11
100.0
 21
42.75
 72
     2
 10
100.25
 20
42.75
 40
0.25
 50
180.0
 51
270.0
 73
     0
 72
     1
 10
100.25
 20
43.0
 11
101.6999999999998
 21
43.0
 72
     1
 10
101.6999999999998
 20
43.0
 11
101.6999999999998
 21
44.75
 72
     2
 10
101.9499999999998
 20
44.75
 40
0.25
 50
180.0
 51
270.0
 73
     0
 72
     1
 10
101.9499999999998
 20
45.0
 11
105.0
 21
45.0
 72
     2
 10
105.0
 20
44.0
 40
1.0
 50
270.0
 51
360.0
 73
     0
 72
     1
 10
106.0
 20
44.0
 11
106.0000000000002
 21
0.1999999999998181
 72
     2
 10
105.8000000000002
 20
0.1999999999999104
 40
0.1999999999999176
 50
0.0000000000264622
 51
90.00000000002442
 73
     0
 72
     1
 10
105.8000000000002
 20
-0.0000000000000072
 11
101.4777301318572
 21
0.0
 72
     2
 10
101.4777301318573
 20
0.5000000000000381
 40
0.5000000000000381
 50
90.00000000000325
 51
165.0000000000022
 73
     0
 72
     1
 10
100.9947672187127
 20
0.3705904774487862
 11
100.5085185434277
 21
2.185295238724371
 72
     2
 10
100.75
 20
2.249999999999997
 40
0.2500000000000052
 50
165.0000000000013
 51
270.0
 73
     0
 72
     1
 10
100.75
 20
2.500000000000003
 11
101.75
 21
2.5
 72
     2
 10
101.75
 20
2.25
 40
0.25
 50
270.0
 51
360.0
 73
     0
 72
     1
 10
102.0
 20
2.25
 11
102.0
 21
1.5
 72
     1
 10
102.0
 20
1.5
 11
104.0
 21
1.5
 72
     1
 10
104.0
 20
1.5
 11
104.0
 21
20.70000000000005
 72
     2
 10
103.5
 20
20.70000000000005
 40
0.5
 50
0.0
 51
90.0
 73
     1
 72
     1
 10
103.5
 20
21.20000000000004
 11
98.34511219647993
 21
21.20000000000004
 72
     2
 10
98.34511219648005
 20
20.70000000000007
 40
0.4999999999999787
 50
90.00000000001303
 51
197.2597026414913
 73
     1
 72
     2
 10
93.99999999999987
 20
19.3500000000005
 40
4.049999999999977
 50
342.7402973585379
 51
391.5508995539786
 73
     0
 72
     2
 10
97.66435533211481
 20
17.10000000000014
 40
0.2500000000001103
 50
148.4491004460525
 51
270.0000000001629
 73
     1
 72
     1
 10
97.66435533211552
 20
16.85000000000003
 11
97.75
 21
16.85000000000002
 72
     2
 10
97.75
 20
16.60000000000002
 40
0.25
 50
270.0
 51
360.0
 73
     0
 72
     1
 10
98.0
 20
16.60000000000002
 11
98.0
 21
15.60000000000002
 72
     2
 10
97.75
 20
15.60000000000002
 40
0.25
 50
360.0
 51
450.0
 73
     0
 72
     1
 10
97.75
 20
15.35000000000002
 11
90.25
 21
15.35000000000002
 72
     2
 10
90.25
 20
15.60000000000002
 40
0.25
 50
90.0
 51
180.0
 73
     0
 72
     1
 10
90.0
 20
15.60000000000002
 11
90.0
 21
16.60000000000002
 72
     2
 10
90.25
 20
16.60000000000002
 40
0.25
 50
180.0
 51
270.0
 73
     0
 72
     1
 10
90.25
 20
16.85000000000002
 11
90.96254139118263
 21
16.85000000000002
 72
     2
 10
90.96254139118263
 20
17.10000000000002
 40
0.25
 50
270.0
 51
360.0
 73
     1
 72
     1
 10
91.21254139118263
 20
17.10000000000002
 11
91.21254139118228
 21
17.35000000000002
 72
     2
 10
92.11254139118231
 20
17.34999999999996
 40
0.9000000000000341
 50
180.000000000004
 51
313.3417582272242
 73
     0
 72
     2
 10
94.00000000000002
 20
19.35000000000013
 40
1.850000000000094
 50
226.6582417727819
 51
313.3417582272217
 73
     1
 97
        1
330
11FF
 75
     0
 76
     1
 98
        1
 10
0.0
 20
0.0
  0
ENDBLK
  5
420
330
41E
100
AcDbEntity
  8
0
100
AcDbBlockEnd
  0
BLOCK
  5
559
330
558
100
AcDbEntity
  8
0
100
AcDbBlockBegin
  2
02052
 70
     0
 10
0.0
 20
0.0
 30
0.0
  3
02052
  1
02052.dwg
  0
LWPOLYLINE
  5
1202
102
{ACAD_REACTORS
330
1204
102
}
330
558
100
AcDbEntity
  8
APL Joinery
100
AcDbPolyline
 90
       46
 70
   129
 43
0.0
 10
12.29999999999998
 20
0.0000000000001066
 42
0.4142135623730925
 10
12.49999999999997
 20
0.2000000000000952
 10
12.5
 20
2.175000000000174
 10
14.04999999999995
 20
2.175000000000288
 10
14.04999999999995
 20
1.575000000000265
 42
0.6690081787467719
 10
14.47718159782289
 20
1.39862913678052
 10
15.19174527825837
 20
2.116477495259395
 42
0.1983164764967777
 10
15.24999999999997
 20
2.257574185835203
 10
15.25000000000003
 20
3.175000000000004
 42
0.4142135623730709
 10
15.05000000000007
 20
3.374999999999992
 10
12.5
 20
3.37500000000022
 10
12.49999999999977
 20
35.12500000000022
 10
15.04999999999975
 20
35.12500000000022
 42
0.4142135623730951
 10
15.24999999999974
 20
35.32500000000021
 10
15.24999999999977
 20
36.24242581416512
 42
0.198316476496747
 10
15.19174527825819
 20
36.38352250474093
 10
14.47718159782278
 20
37.10137086321981
 42
0.6690081787467719
 10
14.04999999999972
 20
36.92500000000006
 10
14.04999999999972
 20
36.32500000000015
 10
12.49999999999977
 20
36.32500000000015
 10
12.49999999999977
 20
38.30000000000012
 42
0.4142135623730977
 10
12.29999999999978
 20
38.50000000000011
 10
0.0
 20
38.5
 10
-12.30000000000004
 20
38.50000000000001
 42
0.4142135623730951
 10
-12.50000000000003
 20
38.30000000000003
 10
-12.5
 20
36.32500000000006
 10
-14.04999999999995
 20
36.32500000000006
 10
-14.05000000000018
 20
36.92499999999997
 42
0.6690081787467719
 10
-14.47718159782323
 20
37.10137086321971
 10
-15.19174527825845
 20
36.38352250474078
 42
0.1983164764967396
 10
-15.25000000000003
 20
36.24242581416498
 10
-15.25000000000003
 20
35.32500000000012
 42
0.4142135623730951
 10
-15.05000000000004
 20
35.12500000000013
 10
-12.5
 20
35.12500000000013
 10
-12.5
 20
3.37500000000012
 10
-15.05000000000001
 20
3.374999999999893
 42
0.4142135623730709
 10
-15.24999999999997
 20
3.174999999999904
 10
-15.25
 20
2.257574185835103
 42
0.1983164764967469
 10
-15.19174527825842
 20
2.116477495259296
 10
-14.47718159782312
 20
1.398629136780421
 42
0.6690081787467719
 10
-14.05000000000018
 20
1.575000000000166
 10
-14.05000000000018
 20
2.175000000000189
 10
-12.5
 20
2.175000000000075
 10
-12.5
 20
0.1999999999999957
 42
0.4142135623730951
 10
-12.30000000000001
 20
0.0000000000000071
 10
0.0
 20
0.0
  0
LWPOLYLINE
  5
1203
102
{ACAD_REACTORS
330
1204
102
}
330
558
100
AcDbEntity
  8
APL Joinery
100
AcDbPolyline
 90
       34
 70
   129
 43
0.0
 10
-8.88505747126436
 20
27.32779668006084
 42
-0.2200901922358159
 10
-6.213207622301808
 20
26.44807692307689
 42
-0.9999999999999861
 10
-7.237144507838678
 20
25.35192307692319
 42
0.3966319664678468
 10
-9.773230126800541
 20
25.34215686274537
 42
-0.1920735504154809
 10
-10.2549928774813
 20
25.14999999999993
 10
-10.25712833908065
 20
25.14999999999993
 42
0.2981492703647424
 10
-10.25712833908062
 20
22.84999999999993
 10
-10.25499287748124
 20
22.84999999999993
 42
-0.192073550415478
 10
-9.773230126799177
 20
22.65784313725585
 42
0.3966319664678694
 10
-7.237144507838507
 20
22.64807692307687
 42
-1.000000000000013
 10
-6.213207622302093
 20
21.55192307692306
 42
-0.2200901922358089
 10
-8.885057471264445
 20
20.67220331993856
 42
0.4483709339447718
 10
-10.0
 20
19.67883117663685
 10
-10.0
 20
3.500000000000007
 10
0.0
 20
3.5
 10
10.0
 20
3.5
 10
9.999999999999829
 20
19.6788311766362
 42
0.4483709339447802
 10
8.885057471264246
 20
20.67220331993791
 42
-0.2200901922358223
 10
6.213207622301638
 20
21.55192307692306
 42
-1.000000000000013
 10
7.237144507838053
 20
22.64807692307687
 42
0.3966319664678694
 10
9.773230126798722
 20
22.65784313725583
 42
-0.192073550415478
 10
10.25499287748079
 20
22.8499999999999
 10
10.25712833908017
 20
22.8499999999999
 42
0.2981492703647424
 10
10.25712833908019
 20
25.14999999999992
 10
10.25499287748084
 20
25.14999999999992
 42
-0.1920735504154809
 10
9.773230126800086
 20
25.34215686274535
 42
0.3966319664678468
 10
7.237144507838223
 20
25.35192307692319
 42
-0.9999999999999861
 10
6.213207622301354
 20
26.44807692307689
 42
-0.2200901922358367
 10
8.885057471264161
 20
27.32779668006076
 42
0.4483709339447973
 10
9.999999999999801
 20
28.32116882336248
 10
9.999999999999772
 20
34.99999999999994
 10
-0.0000000000002274
 20
35.0
 10
-10.0
 20
35.00000000000007
 10
-10.0
 20
28.32116882336313
 42
0.4483709339446335
  0
HATCH
  5
1204
330
558
100
AcDbEntity
  8
APL Hatch
100
AcDbHatch
 10
0.0
 20
0.0
 30
0.0
210
0.0
220
0.0
230
1.0
  2
SOLID
 70
     1
 71
     1
 91
        2
 92
       16
 93
       34
 72
     2
 10
-8.500000000000211
 20
23.99999999999955
 40
3.35000000000049
 50
263.3996897934853
 51
313.0490798002351
 73
     0
 72
     2
 10
-6.725176065070251
 20
25.90000000000004
 40
0.7500000000000817
 50
313.0490798002522
 51
493.0490798002505
 73
     0
 72
     2
 10
-8.500000000001488
 20
23.99999999999995
 40
1.850000000000908
 50
46.95092019974071
 51
133.4903583470479
 73
     1
 72
     2
 10
-10.25499287748124
 20
25.84999999999992
 40
0.699999999999988
 50
46.50964165292684
 51
90.00000000000463
 73
     0
 72
     1
 10
-10.2549928774813
 20
25.14999999999993
 11
-10.25712833908065
 21
25.14999999999993
 72
     2
 10
-8.500000000000142
 20
23.99999999999995
 40
2.09999999999995
 50
146.7961774700293
 51
213.2038225299721
 73
     1
 72
     1
 10
-10.25712833908062
 20
22.84999999999993
 11
-10.25499287748124
 21
22.84999999999993
 72
     2
 10
-10.25499287747883
 20
22.14999999999897
 40
0.700000000000955
 50
269.9999999998023
 51
313.4903583468794
 73
     0
 72
     2
 10
-8.500000000000103
 20
23.99999999999995
 40
1.849999999999963
 50
226.5096416529234
 51
313.0490798002351
 73
     1
 72
     2
 10
-6.725176065070293
 20
22.09999999999997
 40
0.7499999999999674
 50
226.9509201997636
 51
406.9509201997651
 73
     0
 72
     2
 10
-8.500000000001014
 20
24.00000000000001
 40
3.350000000000563
 50
46.95092019975395
 51
96.60031020650228
 73
     0
 72
     2
 10
-9.000000000000008
 20
19.67883117663684
 40
0.9999999999999889
 50
83.39968979348443
 51
179.9999999999996
 73
     1
 72
     1
 10
-10.0
 20
19.67883117663685
 11
-10.0
 21
3.500000000000007
 72
     1
 10
-10.0
 20
3.500000000000007
 11
0.0
 21
3.5
 72
     1
 10
0.0
 20
3.5
 11
10.0
 21
3.5
 72
     1
 10
10.0
 20
3.5
 11
9.999999999999829
 21
19.6788311766362
 72
     2
 10
8.999999999999836
 20
19.67883117663619
 40
0.9999999999999928
 50
0.0000000000004071
 51
96.60031020651707
 73
     1
 72
     2
 10
8.500000000001321
 20
23.99999999999977
 40
3.350000000000907
 50
83.39968979350713
 51
133.0490798002584
 73
     0
 72
     2
 10
6.725176065069837
 20
22.09999999999997
 40
0.7499999999999675
 50
133.0490798002348
 51
313.0490798002365
 73
     0
 72
     2
 10
8.499999999999658
 20
23.99999999999994
 40
1.849999999999964
 50
226.9509201997644
 51
313.4903583470761
 73
     1
 72
     2
 10
10.25499287747837
 20
22.14999999999895
 40
0.7000000000009551
 50
226.5096416531206
 51
270.0000000001978
 73
     0
 72
     1
 10
10.25499287748079
 20
22.8499999999999
 11
10.25712833908017
 21
22.8499999999999
 72
     2
 10
8.499999999999687
 20
23.99999999999993
 40
2.09999999999995
 50
326.796177470028
 51
393.2038225299706
 73
     1
 72
     1
 10
10.25712833908019
 20
25.14999999999992
 11
10.25499287748084
 21
25.14999999999992
 72
     2
 10
10.25499287748079
 20
25.8499999999999
 40
0.6999999999999887
 50
89.99999999999536
 51
133.4903583470731
 73
     0
 72
     2
 10
8.500000000001021
 20
23.99999999999994
 40
1.850000000000908
 50
46.50964165295155
 51
133.0490798002587
 73
     1
 72
     2
 10
6.725176065069796
 20
25.90000000000004
 40
0.7500000000000812
 50
46.95092019974953
 51
226.9509201997479
 73
     0
 72
     2
 10
8.499999999999701
 20
23.99999999999954
 40
3.350000000000462
 50
226.9509201997657
 51
276.6003102065202
 73
     0
 72
     2
 10
8.999999999999806
 20
28.32116882336248
 40
0.9999999999999948
 50
263.3996897934797
 51
359.9999999999998
 73
     1
 72
     1
 10
9.999999999999801
 20
28.32116882336248
 11
9.999999999999772
 21
34.99999999999994
 72
     1
 10
9.999999999999772
 20
34.99999999999994
 11
-0.0000000000002274
 21
35.0
 72
     1
 10
-0.0000000000002274
 20
35.0
 11
-10.0
 21
35.00000000000007
 72
     1
 10
-10.0
 20
35.00000000000007
 11
-10.0
 21
28.32116882336313
 72
     2
 10
-8.999999999999507
 20
28.32116882336312
 40
1.000000000000492
 50
179.9999999999996
 51
276.6003102064883
 73
     1
 97
        1
330
1203
 92
        1
 93
       46
 72
     2
 10
12.29999999999998
 20
0.2000000000000961
 40
0.1999999999999895
 50
270.0000000000005
 51
359.9999999999997
 73
     1
 72
     1
 10
12.49999999999997
 20
0.2000000000000952
 11
12.5
 21
2.175000000000174
 72
     1
 10
12.5
 20
2.175000000000174
 11
14.04999999999995
 21
2.175000000000288
 72
     1
 10
14.04999999999995
 20
2.175000000000288
 11
14.04999999999995
 21
1.575000000000265
 72
     2
 10
14.2999999999999
 20
1.575000000000236
 40
0.2499999999999503
 50
179.9999999999934
 51
315.1313852815962
 73
     1
 72
     1
 10
14.47718159782289
 20
1.39862913678052
 11
15.19174527825837
 21
2.116477495259395
 72
     2
 10
15.05
 20
2.257574185835209
 40
0.1999999999999711
 50
315.1313852815832
 51
359.9999999999982
 73
     1
 72
     1
 10
15.24999999999997
 20
2.257574185835203
 11
15.25000000000003
 21
3.175000000000004
 72
     2
 10
15.05000000000004
 20
3.17500000000001
 40
0.1999999999999833
 50
359.9999999999982
 51
449.9999999999934
 73
     1
 72
     1
 10
15.05000000000007
 20
3.374999999999992
 11
12.5
 21
3.37500000000022
 72
     1
 10
12.5
 20
3.37500000000022
 11
12.49999999999977
 21
35.12500000000022
 72
     1
 10
12.49999999999977
 20
35.12500000000022
 11
15.04999999999975
 21
35.12500000000022
 72
     2
 10
15.04999999999975
 20
35.32500000000021
 40
0.1999999999999886
 50
270.0
 51
360.0
 73
     1
 72
     1
 10
15.24999999999974
 20
35.32500000000021
 11
15.24999999999977
 21
36.24242581416512
 72
     2
 10
15.04999999999979
 20
36.24242581416515
 40
0.1999999999999851
 50
359.9999999999939
 51
404.8686147184025
 73
     1
 72
     1
 10
15.19174527825819
 20
36.38352250474093
 11
14.47718159782278
 21
37.10137086321981
 72
     2
 10
14.29999999999973
 20
36.92500000000007
 40
0.2500000000000044
 50
44.86861471839814
 51
180.0000000000016
 73
     1
 72
     1
 10
14.04999999999972
 20
36.92500000000006
 11
14.04999999999972
 21
36.32500000000015
 72
     1
 10
14.04999999999972
 20
36.32500000000015
 11
12.49999999999977
 21
36.32500000000015
 72
     1
 10
12.49999999999977
 20
36.32500000000015
 11
12.49999999999977
 21
38.30000000000012
 72
     2
 10
12.29999999999978
 20
38.30000000000012
 40
0.1999999999999886
 50
0.0
 51
90.0
 73
     1
 72
     1
 10
12.29999999999978
 20
38.50000000000011
 11
0.0
 21
38.5
 72
     1
 10
0.0
 20
38.5
 11
-12.30000000000004
 21
38.50000000000001
 72
     2
 10
-12.30000000000004
 20
38.30000000000003
 40
0.1999999999999886
 50
90.0
 51
180.0
 73
     1
 72
     1
 10
-12.50000000000003
 20
38.30000000000003
 11
-12.5
 21
36.32500000000006
 72
     1
 10
-12.5
 20
36.32500000000006
 11
-14.04999999999995
 21
36.32500000000006
 72
     1
 10
-14.04999999999995
 20
36.32500000000006
 11
-14.05000000000018
 21
36.92499999999997
 72
     2
 10
-14.30000000000019
 20
36.92499999999998
 40
0.2500000000000071
 50
359.9999999999984
 51
495.1313852816018
 73
     1
 72
     1
 10
-14.47718159782323
 20
37.10137086321971
 11
-15.19174527825845
 21
36.38352250474078
 72
     2
 10
-15.05000000000003
 20
36.24242581416499
 40
0.199999999999992
 50
135.1313852815974
 51
180.000000000004
 73
     1
 72
     1
 10
-15.25000000000003
 20
36.24242581416498
 11
-15.25000000000003
 21
35.32500000000012
 72
     2
 10
-15.05000000000004
 20
35.32500000000012
 40
0.1999999999999886
 50
180.0
 51
270.0
 73
     1
 72
     1
 10
-15.05000000000004
 20
35.12500000000013
 11
-12.5
 21
35.12500000000013
 72
     1
 10
-12.5
 20
35.12500000000013
 11
-12.5
 21
3.37500000000012
 72
     1
 10
-12.5
 20
3.37500000000012
 11
-15.05000000000001
 21
3.374999999999893
 72
     2
 10
-15.04999999999999
 20
3.174999999999911
 40
0.1999999999999824
 50
90.00000000000662
 51
180.0000000000018
 73
     1
 72
     1
 10
-15.24999999999997
 20
3.174999999999904
 11
-15.25
 21
2.257574185835103
 72
     2
 10
-15.05000000000001
 20
2.257574185835086
 40
0.1999999999999851
 50
179.9999999999951
 51
224.8686147184035
 73
     1
 72
     1
 10
-15.19174527825842
 20
2.116477495259296
 11
-14.47718159782312
 21
1.398629136780421
 72
     2
 10
-14.30000000000013
 20
1.575000000000137
 40
0.2499999999999488
 50
224.8686147184038
 51
360.0000000000066
 73
     1
 72
     1
 10
-14.05000000000018
 20
1.575000000000166
 11
-14.05000000000018
 21
2.175000000000189
 72
     1
 10
-14.05000000000018
 20
2.175000000000189
 11
-12.5
 21
2.175000000000075
 72
     1
 10
-12.5
 20
2.175000000000075
 11
-12.5
 21
0.1999999999999957
 72
     2
 10
-12.30000000000001
 20
0.1999999999999957
 40
0.1999999999999886
 50
180.0
 51
270.0
 73
     1
 72
     1
 10
-12.30000000000001
 20
0.0000000000000071
 11
0.0
 21
0.0
 72
     1
 10
0.0
 20
0.0
 11
12.29999999999998
 21
0.0000000000001066
 97
        1
330
1202
 75
     0
 76
     1
 98
        1
 10
0.0
 20
0.0
  0
ENDBLK
  5
55A
330
558
100
AcDbEntity
  8
0
100
AcDbBlockEnd
  0
BLOCK
  5
55F
330
55E
100
AcDbEntity
  8
0
100
AcDbBlockBegin
  2
08705
 70
     0
 10
0.0
 20
0.0
 30
0.0
  3
08705
  1
08705.dwg
  0
LWPOLYLINE
  5
1205
102
{ACAD_REACTORS
330
1206
102
}
330
55E
100
AcDbEntity
  8
APL Joinery
100
AcDbPolyline
 90
      120
 70
     1
 43
0.0
 10
101.2499999999997
 20
7.648175790272517
 10
101.2499999999997
 20
-0.9499999985749809
 42
0.4142135623730951
 10
101.4999999999997
 20
-1.19999999857498
 10
101.7499999999999
 20
-1.19999999857481
 42
-0.4142135623730951
 10
102.0
 20
-1.44999999857481
 10
102.0
 20
-8.150000000000034
 42
-0.4142135623730951
 10
101.5
 20
-8.650000000000034
 10
100.9999999999998
 20
-8.650000000000034
 42
0.4142135623730951
 10
100.4999999999997
 20
-9.150000000000034
 10
100.4999999999997
 20
-19.32499999964361
 10
99.58150968124437
 20
-29.58912931140762
 42
-0.3883086157119425
 10
98.58548961833349
 20
-30.49999999928747
 10
97.84967531155849
 20
-30.49999999928747
 42
-0.5313247726221946
 10
97.38585900896033
 20
-29.81325301150721
 42
0.2927663510323439
 10
96.65454545360098
 20
-25.94482766437224
 42
0.9999999999999994
 10
95.34545454497573
 20
-27.18025511790994
 42
-0.3973597072286146
 10
95.34545454545435
 20
-29.71974488300814
 42
0.1432248589116636
 10
95.11576173925226
 20
-30.16976037391007
 42
-0.2959768337492688
 10
92.88423826074728
 20
-30.16976037391006
 42
0.1432248589116918
 10
92.6545454545452
 20
-29.71974488300811
 42
-0.3973597071195238
 10
92.6545454545452
 20
-27.18025511841702
 42
1.0
 10
91.34545454545442
 20
-25.94482766537267
 42
0.2927663509300552
 10
90.61414099103927
 20
-29.81325301150736
 42
-0.5313247726222192
 10
90.15032468844196
 20
-30.49999999928747
 10
78.73813054909229
 20
-30.49999999928747
 42
0.9999999999999998
 10
77.93813054909228
 20
-30.49999999928747
 10
66.52593640974259
 20
-30.49999999928747
 10
66.52593640974259
 20
-30.19999999928749
 42
0.4142135623730951
 10
66.32593640974261
 20
-29.99999999928747
 10
57.72593640974259
 20
-29.99999999928747
 42
0.4142135623730951
 10
57.5259364097426
 20
-30.19999999928749
 10
57.5259364097426
 20
-30.49999999928747
 10
46.52593640974259
 20
-30.49999999928747
 10
46.52593640974259
 20
-30.19999999786205
 42
0.4142135623730951
 10
46.32593640974261
 20
-29.99999999786206
 10
42.23280819139825
 20
-29.99999999786206
 42
-0.3940010160671779
 10
41.2352223211297
 20
-29.06944372645233
 10
39.99999999999975
 20
-11.32499999893088
 10
39.99999999999977
 20
-0.2499999985750207
 42
0.4142135623730951
 10
39.74999999999977
 20
0.0000000014249792
 10
38.25
 20
0.0000000014249792
 42
0.4142135623730951
 10
38.0
 20
-0.2499999985750207
 10
38.0
 20
-7.999999999287496
 42
-0.4142135623730951
 10
37.0
 20
-8.999999999287496
 10
34.92428337406991
 20
-8.999999999287467
 42
-0.5149445451952422
 10
34.45147814827797
 20
-8.337349396877691
 42
0.2788550286926598
 10
33.65454545454517
 20
-4.64482766394753
 42
1.000000000032343
 10
32.34545454545428
 20
-5.880255118417032
 42
-0.3973597071195289
 10
32.34545454545434
 20
-8.419744883008185
 42
0.1432248589116648
 10
32.11576173925227
 20
-8.869760373910082
 42
-0.2959768337492683
 10
29.88423826074734
 20
-8.869760373910075
 42
0.1432248589116914
 10
29.65454545454524
 20
-8.419744883008135
 42
-0.3973597071195227
 10
29.65454545454523
 20
-5.880255118417068
 42
1.000000000000039
 10
28.34545454545438
 20
-4.64482766537273
 42
0.2788550285948049
 10
27.54852185128999
 20
-8.337349397049536
 42
-0.5149445450803314
 10
27.07571662543938
 20
-8.999999999287467
 10
23.79999999999981
 20
-8.999999999287439
 42
-0.4142135623730951
 10
22.79999999999981
 20
-7.999999999287439
 10
22.79999999999984
 20
-7.699999999287342
 42
0.4142135623731204
 10
20.49999999999986
 20
-5.399999999287189
 10
4.249999999999898
 20
-5.39999999928716
 42
-0.4142135623730946
 10
3.749999999999899
 20
-4.89999999928716
 10
3.749999999999838
 20
5.06622455877536
 42
0.414213562373093
 10
3.499999999999838
 20
5.31622455877536
 10
2.499999999999871
 20
5.31622455877536
 42
0.3394542588634027
 10
2.017037086855324
 20
4.945634081326574
 10
1.508518543427598
 20
3.047817040662948
 42
0.4931454260313166
 10
1.749999999999872
 20
2.733112279387313
 10
2.249999999999872
 20
2.733112279387313
 10
2.249999999999872
 20
0.249999999999744
 42
-0.4142135623731247
 10
1.999999999999847
 20
-0.000000000000199
 10
0.2500000000002842
 20
-0.0000000000000284
 42
0.4142135623731617
 10
0.0
 20
-0.2500000000000284
 10
0.0
 20
-10.74999999928721
 42
0.4142135623730951
 10
0.25
 20
-10.99999999928721
 10
1.02525512860849
 20
-10.99999999928721
 42
0.3563939586925966
 10
2.494948974278315
 20
-9.799999999287223
 42
0.4744978678080938
 10
2.25
 20
-9.499999999287211
 10
1.5
 20
-9.499999999287211
 10
1.5
 20
-7.19999999928703
 10
20.50000000000068
 20
-7.199999999287058
 42
-0.4142135623730951
 10
21.00000000000068
 20
-7.699999999287058
 10
21.00000000000068
 20
-9.499999999287012
 42
-0.4142135623730951
 10
20.50000000000068
 20
-9.999999999287012
 10
18.00000000000068
 20
-9.999999999287012
 42
0.9999999999999998
 10
18.00000000000068
 20
-10.99999999928747
 10
35.99999999999977
 20
-10.99999999928747
 10
35.99999999999977
 20
-12.24999999928747
 42
0.4142135623730951
 10
36.24999999999977
 20
-12.49999999928746
 10
38.19999999999959
 20
-12.49999999928746
 10
38.19999999999959
 20
-16.49999999928769
 10
36.49999999999977
 20
-16.49999999928769
 42
0.9999999999999998
 10
36.49999999999977
 20
-17.49999999928769
 10
38.19999999999959
 20
-17.49999999928769
 10
38.19999999999959
 20
-22.89999999928733
 10
36.49999999999977
 20
-22.89999999928733
 42
0.4142135623730951
 10
35.99999999999977
 20
-23.39999999928733
 10
35.99999999999977
 20
-24.94999999928729
 42
0.9999999999999998
 10
36.99999999999977
 20
-24.94999999928729
 10
36.99999999999977
 20
-24.19999999928729
 10
38.49999999999977
 20
-24.19999999928729
 10
38.49999999999977
 20
-29.69999999928729
 10
36.99999999999977
 20
-29.69999999928729
 10
36.99999999999977
 20
-28.94999999928728
 42
0.9999999999999998
 10
35.99999999999977
 20
-28.94999999928728
 10
35.99999999999977
 20
-30.49999999928724
 42
0.4142135623730951
 10
36.49999999999977
 20
-30.99999999928724
 10
37.69999999999959
 20
-30.99999999928724
 10
37.69999999999942
 20
-32.79999999928743
 42
0.4142135623730951
 10
37.89999999999941
 20
-32.99999999928747
 10
102.9999999999998
 20
-32.99999999928747
 42
0.4142135623730951
 10
103.9999999999998
 20
-31.99999999928747
 10
103.9999999999997
 20
-0.1999999985748104
 42
0.4142135623730118
 10
103.7999999999997
 20
0.0000000014251782
 10
102.4999999999998
 20
0.0000000014250077
 42
-0.4142135623730951
 10
102.2499999999997
 20
0.2500000014250077
 10
102.2499999999997
 20
2.733112280812576
 10
102.7499999999997
 20
2.733112280812576
 42
0.4931454260312756
 10
102.9914814565725
 20
3.047817042088183
 10
101.741481456572
 20
7.712880551548181
 42
0.8769764629926832
  0
HATCH
  5
1206
330
55E
100
AcDbEntity
  8
APL Hatch
100
AcDbHatch
 10
0.0
 20
0.0
 30
0.0
210
0.0
220
0.0
230
1.0
  2
SOLID
 70
     1
 71
     1
 91
        1
 92
        1
 93
      120
 72
     1
 10
101.2499999999997
 20
7.648175790272517
 11
101.2499999999997
 21
-0.9499999985749809
 72
     2
 10
101.4999999999997
 20
-0.9499999985749809
 40
0.25
 50
180.0
 51
270.0
 73
     1
 72
     1
 10
101.4999999999997
 20
-1.19999999857498
 11
101.7499999999999
 21
-1.19999999857481
 72
     2
 10
101.7499999999999
 20
-1.449999998574838
 40
0.2500000000000284
 50
269.9999999999935
 51
359.9999999999935
 73
     0
 72
     1
 10
102.0
 20
-1.44999999857481
 11
102.0
 21
-8.150000000000034
 72
     2
 10
101.5
 20
-8.150000000000034
 40
0.5
 50
360.0
 51
450.0
 73
     0
 72
     1
 10
101.5
 20
-8.650000000000034
 11
100.9999999999998
 21
-8.650000000000034
 72
     2
 10
100.9999999999998
 20
-9.150000000000034
 40
0.5
 50
90.0
 51
180.0
 73
     1
 72
     1
 10
100.4999999999997
 20
-9.150000000000034
 11
100.4999999999997
 21
-19.32499999964361
 72
     1
 10
100.4999999999997
 20
-19.32499999964361
 11
99.58150968124437
 21
-29.58912931140762
 72
     2
 10
98.58548961833349
 20
-29.49999999928747
 40
0.9999999999999944
 50
5.113519045078112
 51
90.0
 73
     0
 72
     1
 10
98.58548961833349
 20
-30.49999999928747
 11
97.84967531155849
 21
-30.49999999928747
 72
     2
 10
97.84967531155814
 20
-29.99999999928711
 40
0.5000000000003624
 50
89.99999999995928
 51
201.931261878338
 73
     0
 72
     2
 10
93.99999999999979
 20
-28.45000000071261
 40
3.649999999999969
 50
338.0687381216223
 51
403.3417582488182
 73
     1
 72
     2
 10
95.99999999928835
 20
-26.56254139114109
 40
0.8999999999999889
 50
43.34175824881761
 51
223.3417582488182
 73
     1
 72
     2
 10
93.99999999999975
 20
-28.45000000071261
 40
1.850000000000037
 50
316.6582417511823
 51
403.341758227221
 73
     0
 72
     2
 10
95.9999999999999
 20
-30.33745860953033
 40
0.9000000000000946
 50
136.6582417727806
 51
169.2612357600495
 73
     1
 72
     2
 10
93.99999999999979
 20
-28.45000000071254
 40
2.050000000000052
 50
57.02493340696745
 51
122.9750665930337
 73
     0
 72
     2
 10
91.99999999999977
 20
-30.33745860953019
 40
0.899999999999936
 50
10.73876423994479
 51
43.34175822722055
 73
     1
 72
     2
 10
93.9999999999997
 20
-28.45000000071257
 40
1.849999999999971
 50
136.6582417727765
 51
223.3417582272235
 73
     0
 72
     2
 10
91.99999999999979
 20
-26.56254139189485
 40
0.899999999999976
 50
316.6582417727741
 51
496.6582417727734
 73
     1
 72
     2
 10
93.99999999999982
 20
-28.45000000071261
 40
3.65000000000004
 50
136.658241772776
 51
201.9312618783799
 73
     1
 72
     2
 10
90.15032468844196
 20
-29.99999999928748
 40
0.4999999999999858
 50
338.0687381216173
 51
450.0
 73
     0
 72
     1
 10
90.15032468844196
 20
-30.49999999928747
 11
78.73813054909229
 21
-30.49999999928747
 72
     2
 10
78.33813054909228
 20
-30.49999999928747
 40
0.4000000000000057
 50
0.0
 51
180.0
 73
     1
 72
     1
 10
77.93813054909228
 20
-30.49999999928747
 11
66.52593640974259
 21
-30.49999999928747
 72
     1
 10
66.52593640974259
 20
-30.49999999928747
 11
66.52593640974259
 21
-30.19999999928749
 72
     2
 10
66.3259364097426
 20
-30.19999999928747
 40
0.2000000000000028
 50
359.9999999999959
 51
449.9999999999959
 73
     1
 72
     1
 10
66.32593640974261
 20
-29.99999999928747
 11
57.72593640974259
 21
-29.99999999928747
 72
     2
 10
57.7259364097426
 20
-30.19999999928747
 40
0.2000000000000028
 50
90.00000000000406
 51
180.000000000004
 73
     1
 72
     1
 10
57.5259364097426
 20
-30.19999999928749
 11
57.5259364097426
 21
-30.49999999928747
 72
     1
 10
57.5259364097426
 20
-30.49999999928747
 11
46.52593640974259
 21
-30.49999999928747
 72
     1
 10
46.52593640974259
 20
-30.49999999928747
 11
46.52593640974259
 21
-30.19999999786205
 72
     2
 10
46.32593640974261
 20
-30.19999999786205
 40
0.1999999999999886
 50
0.0
 51
90.0
 73
     1
 72
     1
 10
46.32593640974261
 20
-29.99999999786206
 11
42.23280819139825
 21
-29.99999999786206
 72
     2
 10
42.23280819139826
 20
-28.99999999786206
 40
1.0
 50
90.0000000000004
 51
176.0179625370984
 73
     0
 72
     1
 10
41.2352223211297
 20
-29.06944372645233
 11
39.99999999999975
 21
-11.32499999893088
 72
     1
 10
39.99999999999975
 20
-11.32499999893088
 11
39.99999999999977
 21
-0.2499999985750207
 72
     2
 10
39.74999999999977
 20
-0.2499999985750207
 40
0.25
 50
0.0
 51
90.0
 73
     1
 72
     1
 10
39.74999999999977
 20
0.0000000014249792
 11
38.25
 21
0.0000000014249792
 72
     2
 10
38.25
 20
-0.2499999985750207
 40
0.25
 50
90.0
 51
180.0
 73
     1
 72
     1
 10
38.0
 20
-0.2499999985750207
 11
38.0
 21
-7.999999999287496
 72
     2
 10
37.0
 20
-7.999999999287496
 40
1.0
 50
360.0
 51
450.0
 73
     0
 72
     1
 10
37.0
 20
-8.999999999287496
 11
34.92428337406991
 21
-8.999999999287467
 72
     2
 10
34.92428337406976
 20
-8.499999999287251
 40
0.5000000000002168
 50
89.99999999998207
 51
198.9838243850221
 73
     0
 72
     2
 10
30.99999999999976
 20
-7.149999999287411
 40
3.649999999999993
 50
341.0161756149611
 51
403.3417582272234
 73
     1
 72
     2
 10
32.99999999997975
 20
-5.262541391161111
 40
0.9000000004890827
 50
43.34175825836275
 51
223.3417582620689
 73
     1
 72
     2
 10
30.9999999999998
 20
-7.150000000712639
 40
1.850000000000006
 50
316.6582417727748
 51
403.3417582272226
 73
     0
 72
     2
 10
32.99999999999983
 20
-9.037458609530309
 40
0.9000000000000078
 50
136.6582417727805
 51
169.2612357600499
 73
     1
 72
     2
 10
30.99999999999981
 20
-7.150000000712577
 40
2.050000000000021
 50
57.02493340696714
 51
122.9750665930333
 73
     0
 72
     2
 10
28.99999999999984
 20
-9.037458609530247
 40
0.8999999999999294
 50
10.73876423994741
 51
43.34175822722309
 73
     1
 72
     2
 10
30.99999999999973
 20
-7.150000000712596
 40
1.849999999999965
 50
136.6582417727764
 51
223.3417582272231
 73
     0
 72
     2
 10
28.99999999999982
 20
-5.262541391894873
 40
0.8999999999999912
 50
316.6582417727734
 51
496.6582417727777
 73
     1
 72
     2
 10
30.99999999999972
 20
-7.150000000712989
 40
3.650000000000208
 50
136.6582417727716
 51
198.9838243642253
 73
     1
 72
     2
 10
27.07571662543935
 20
-8.499999999287441
 40
0.5000000000000268
 50
341.016175635772
 51
449.9999999999963
 73
     0
 72
     1
 10
27.07571662543938
 20
-8.999999999287467
 11
23.79999999999981
 21
-8.999999999287439
 72
     2
 10
23.79999999999981
 20
-7.999999999287439
 40
1.0
 50
90.0
 51
180.0
 73
     0
 72
     1
 10
22.79999999999981
 20
-7.999999999287439
 11
22.79999999999984
 21
-7.699999999287342
 72
     2
 10
20.49999999999987
 20
-7.699999999287157
 40
2.299999999999968
 50
359.9999999999954
 51
450.0000000000003
 73
     1
 72
     1
 10
20.49999999999986
 20
-5.399999999287189
 11
4.2499999999999
 21
-5.39999999928716
 72
     2
 10
4.249999999999899
 20
-4.89999999928716
 40
0.5
 50
90.0000000000001
 51
180.0
 73
     0
 72
     1
 10
3.749999999999899
 20
-4.89999999928716
 11
3.749999999999838
 21
5.06622455877536
 72
     2
 10
3.499999999999837
 20
5.066224558775359
 40
0.2500000000000009
 50
0.0000000000002036
 51
89.9999999999998
 73
     1
 72
     1
 10
3.499999999999838
 20
5.31622455877536
 11
2.499999999999871
 21
5.31622455877536
 72
     2
 10
2.499999999999871
 20
4.81622455877536
 40
0.5
 50
90.0
 51
165.0000000000055
 73
     1
 72
     1
 10
2.017037086855324
 20
4.945634081326574
 11
1.508518543427598
 21
3.047817040662948
 72
     2
 10
1.749999999999866
 20
2.983112279387314
 40
0.2500000000000011
 50
164.999999999999
 51
270.0000000000013
 73
     1
 72
     1
 10
1.749999999999872
 20
2.733112279387313
 11
2.249999999999872
 21
2.733112279387313
 72
     1
 10
2.249999999999872
 20
2.733112279387313
 11
2.249999999999872
 21
0.2499999999997442
 72
     2
 10
1.9999999999999
 20
0.2499999999997724
 40
0.2499999999999714
 50
0.0000000000065138
 51
90.00000000001232
 73
     0
 72
     1
 10
1.999999999999847
 20
-0.000000000000199
 11
0.2500000000002842
 21
-0.0000000000000284
 72
     2
 10
0.2500000000001137
 20
-0.2500000000001421
 40
0.2500000000001137
 50
89.99999999996092
 51
179.9999999999739
 73
     1
 72
     1
 10
0.0
 20
-0.2500000000000284
 11
0.0
 21
-10.74999999928721
 72
     2
 10
0.25
 20
-10.74999999928721
 40
0.25
 50
180.0
 51
270.0
 73
     1
 72
     1
 10
0.25
 20
-10.99999999928721
 11
1.02525512860849
 21
-10.99999999928721
 72
     2
 10
1.025255128608445
 20
-9.499999999287254
 40
1.499999999999957
 50
270.0000000000017
 51
348.4630409671854
 73
     1
 72
     2
 10
2.25
 20
-9.749999999287211
 40
0.2500000000000002
 50
348.4630409671819
 51
450.0
 73
     1
 72
     1
 10
2.25
 20
-9.499999999287211
 11
1.5
 21
-9.499999999287211
 72
     1
 10
1.5
 20
-9.499999999287211
 11
1.5
 21
-7.19999999928703
 72
     1
 10
1.5
 20
-7.19999999928703
 11
20.50000000000068
 21
-7.199999999287058
 72
     2
 10
20.50000000000068
 20
-7.699999999287058
 40
0.5
 50
270.0
 51
360.0
 73
     0
 72
     1
 10
21.00000000000068
 20
-7.699999999287058
 11
21.00000000000068
 21
-9.499999999287012
 72
     2
 10
20.50000000000068
 20
-9.499999999287012
 40
0.5
 50
360.0
 51
450.0
 73
     0
 72
     1
 10
20.50000000000068
 20
-9.999999999287012
 11
18.00000000000068
 21
-9.999999999287012
 72
     2
 10
18.00000000000068
 20
-10.49999999928724
 40
0.5000000000002274
 50
90.0
 51
270.0
 73
     1
 72
     1
 10
18.00000000000068
 20
-10.99999999928747
 11
35.99999999999977
 21
-10.99999999928747
 72
     1
 10
35.99999999999977
 20
-10.99999999928747
 11
35.99999999999977
 21
-12.24999999928747
 72
     2
 10
36.24999999999977
 20
-12.24999999928747
 40
0.25
 50
180.0
 51
270.0
 73
     1
 72
     1
 10
36.24999999999977
 20
-12.49999999928746
 11
38.19999999999959
 21
-12.49999999928746
 72
     1
 10
38.19999999999959
 20
-12.49999999928746
 11
38.19999999999959
 21
-16.49999999928769
 72
     1
 10
38.19999999999959
 20
-16.49999999928769
 11
36.49999999999977
 21
-16.49999999928769
 72
     2
 10
36.49999999999977
 20
-16.99999999928769
 40
0.5
 50
90.0
 51
270.0
 73
     1
 72
     1
 10
36.49999999999977
 20
-17.49999999928769
 11
38.19999999999959
 21
-17.49999999928769
 72
     1
 10
38.19999999999959
 20
-17.49999999928769
 11
38.19999999999959
 21
-22.89999999928733
 72
     1
 10
38.19999999999959
 20
-22.89999999928733
 11
36.49999999999977
 21
-22.89999999928733
 72
     2
 10
36.49999999999977
 20
-23.39999999928733
 40
0.5
 50
90.0
 51
180.0
 73
     1
 72
     1
 10
35.99999999999977
 20
-23.39999999928733
 11
35.99999999999977
 21
-24.94999999928729
 72
     2
 10
36.49999999999977
 20
-24.94999999928729
 40
0.5
 50
180.0
 51
360.0
 73
     1
 72
     1
 10
36.99999999999977
 20
-24.94999999928729
 11
36.99999999999977
 21
-24.19999999928729
 72
     1
 10
36.99999999999977
 20
-24.19999999928729
 11
38.49999999999977
 21
-24.19999999928729
 72
     1
 10
38.49999999999977
 20
-24.19999999928729
 11
38.49999999999977
 21
-29.69999999928729
 72
     1
 10
38.49999999999977
 20
-29.69999999928729
 11
36.99999999999977
 21
-29.69999999928729
 72
     1
 10
36.99999999999977
 20
-29.69999999928729
 11
36.99999999999977
 21
-28.94999999928728
 72
     2
 10
36.49999999999977
 20
-28.94999999928728
 40
0.5
 50
0.0
 51
180.0
 73
     1
 72
     1
 10
35.99999999999977
 20
-28.94999999928728
 11
35.99999999999977
 21
-30.49999999928724
 72
     2
 10
36.49999999999977
 20
-30.49999999928724
 40
0.5
 50
180.0
 51
270.0
 73
     1
 72
     1
 10
36.49999999999977
 20
-30.99999999928724
 11
37.69999999999959
 21
-30.99999999928724
 72
     1
 10
37.69999999999959
 20
-30.99999999928724
 11
37.69999999999942
 21
-32.79999999928743
 72
     2
 10
37.89999999999944
 20
-32.79999999928745
 40
0.200000000000017
 50
179.9999999999918
 51
269.9999999999919
 73
     1
 72
     1
 10
37.89999999999941
 20
-32.99999999928747
 11
102.9999999999998
 21
-32.99999999928747
 72
     2
 10
102.9999999999998
 20
-31.99999999928747
 40
1.0
 50
270.0
 51
360.0
 73
     1
 72
     1
 10
103.9999999999998
 20
-31.99999999928747
 11
103.9999999999997
 21
-0.1999999985748104
 72
     2
 10
103.7999999999997
 20
-0.1999999985748388
 40
0.200000000000017
 50
0.0000000000081422
 51
89.99999999999186
 73
     1
 72
     1
 10
103.7999999999997
 20
0.0000000014251782
 11
102.4999999999998
 21
0.0000000014250077
 72
     2
 10
102.4999999999998
 20
0.2500000014250361
 40
0.2500000000000284
 50
89.99999999999349
 51
179.9999999999935
 73
     0
 72
     1
 10
102.2499999999997
 20
0.2500000014250077
 11
102.2499999999997
 21
2.733112280812576
 72
     1
 10
102.2499999999997
 20
2.733112280812576
 11
102.7499999999997
 21
2.733112280812576
 72
     2
 10
102.75
 20
2.983112280812751
 40
0.2500000000001741
 50
269.9999999999479
 51
374.9999999999424
 73
     1
 72
     1
 10
102.9914814565725
 20
3.047817042088183
 11
101.741481456572
 21
7.712880551548181
 72
     2
 10
101.4999999999997
 20
7.648175790272514
 40
0.2499999999999884
 50
15.00000000000951
 51
179.9999999999992
 73
     1
 97
        1
330
1205
 75
     0
 76
     1
 98
        1
 10
0.0
 20
0.0
  0
ENDBLK
  5
560
330
55E
100
AcDbEntity
  8
0
100
AcDbBlockEnd
  0
BLOCK
  5
565
330
564
100
AcDbEntity
  8
0
100
AcDbBlockBegin
  2
08706
 70
     0
 10
0.0
 20
0.0
 30
0.0
  3
08706
  1
08706.dwg
  0
LWPOLYLINE
  5
1209
102
{ACAD_REACTORS
330
120A
102
}
330
564
100
AcDbEntity
  8
APL Joinery
100
AcDbPolyline
 90
      134
 70
     1
 43
0.0
 10
95.34545454497576
 20
27.18025511505983
 42
0.9999999999999941
 10
96.65454545360098
 20
25.94482766152214
 42
0.2927663511328116
 10
97.38585900845578
 20
29.81325300991031
 42
-0.5313247727408709
 10
97.84967531098459
 20
30.49999999786229
 10
98.59592152754999
 20
30.49999999786235
 42
-0.3850264972237704
 10
99.59085871657215
 20
29.60049870382778
 10
100.4999999999997
 20
20.59999999821874
 10
100.4999999999997
 20
11.69999999857586
 42
0.4142135623730951
 10
100.9999999999998
 20
11.19999999857586
 10
101.5000000000004
 20
11.19999999857529
 42
-0.4142135623728287
 10
102.0
 20
10.69999999857529
 10
102.0
 20
9.49822455877549
 42
-0.4142135623730951
 10
101.75
 20
9.24822455877549
 10
100.7499999999998
 20
9.248224558775476
 42
0.4142135623730951
 10
100.4999999999997
 20
8.998224558775476
 10
100.4999999999997
 20
8.29822455877543
 42
0.4142135623731618
 10
100.7499999999998
 20
8.048224558775459
 10
101.7186135987563
 20
8.048224558775491
 42
-0.3394542588633771
 10
101.9600950553286
 20
7.862929320051136
 10
102.9659258262888
 20
4.109117779013942
 42
-0.0655434628152776
 10
102.9999999999998
 20
3.850298733911287
 10
102.9999999999998
 20
2.583112279387435
 10
102.4999999999997
 20
2.583112279387639
 42
0.4931454260313115
 10
102.2585185434275
 20
2.268407518111956
 10
102.7670370872371
 20
0.3705904760237513
 42
0.3394542588634889
 10
103.2500000003818
 20
-0.0000000014251071
 10
103.7999999999999
 20
-0.0000000014250432
 42
0.4142135623727933
 10
103.9999999999998
 20
0.1999999985749383
 10
103.9999999999998
 20
31.99999999786232
 42
0.4142135623730951
 10
102.9999999999997
 20
32.99999999786232
 10
37.90000000000032
 20
32.99999999786232
 42
0.4142135623730534
 10
37.7000000000003
 20
32.79999999786222
 10
37.7000000000005
 20
30.99999999786229
 10
36.49999999999977
 20
30.99999999786229
 42
0.4142135623730951
 10
35.99999999999977
 20
30.49999999786229
 10
35.99999999999977
 20
28.94999999786211
 42
0.9999999999999998
 10
36.99999999999977
 20
28.94999999786211
 10
36.99999999999977
 20
29.69999999786211
 10
38.49999999999977
 20
29.69999999786211
 10
38.49999999999977
 20
24.19999999786211
 10
36.99999999999977
 20
24.19999999786208
 10
36.99999999999977
 20
24.94999999786211
 42
0.9999999999999998
 10
35.99999999999977
 20
24.94999999786211
 10
35.99999999999977
 20
23.39999999786215
 42
0.4142135623730951
 10
36.49999999999977
 20
22.89999999786215
 10
38.2000000000005
 20
22.89999999786215
 10
38.19999999999962
 20
17.49999999786229
 10
36.49999999999979
 20
17.49999999786229
 42
0.9999999999999998
 10
36.49999999999979
 20
16.49999999786229
 10
38.19999999999959
 20
16.49999999786229
 10
38.19999999999961
 20
12.49999999786229
 10
36.20000000000052
 20
12.49999999786232
 42
0.4142135623730536
 10
36.00000000000051
 20
12.29999999786221
 10
35.9999999999998
 20
10.99999999786229
 10
18.00000000000068
 20
10.99999999786227
 42
0.9999999999999998
 10
18.00000000000068
 20
9.999999997862033
 10
20.50000000000068
 20
9.999999997862047
 42
-0.4142135623730951
 10
21.00000000000068
 20
9.499999997862047
 10
21.00000000000068
 20
7.699999997862079
 42
-0.4142135623730951
 10
20.50000000000068
 20
7.199999997862093
 10
1.5
 20
7.199999997862079
 10
1.5
 20
9.499999997862261
 10
2.249999999999985
 20
9.499999997862246
 42
0.4744978678080584
 10
2.494948974278372
 20
9.799999997862201
 42
0.3563939586926113
 10
1.025255128608478
 20
10.99999999786226
 10
0.25
 20
10.99999999786224
 42
0.4142135623730951
 10
0.0
 20
10.74999999786224
 10
0.0
 20
0.25
 42
0.4142135623730784
 10
0.25
 20
0.0
 10
1.250000000000014
 20
-0.0000000000000001
 42
0.3394542588633977
 10
1.732962913144518
 20
0.3705904774487578
 10
2.24148145657179
 20
2.268407518111885
 42
0.4931454260314025
 10
2.0
 20
2.583112279387492
 10
1.5
 20
2.583112279387378
 10
1.499999999999573
 20
4.999999997861991
 42
-0.4142135623731449
 10
1.999999999999573
 20
5.499999997862076
 10
3.749999999999943
 20
5.499999997862062
 42
0.2679491924311563
 10
3.923205080756844
 20
5.399999997862067
 10
5.150324689015803
 20
5.399999997862025
 42
-0.5313247727408726
 10
5.614140991543835
 20
4.713253009910233
 42
0.2927663510305586
 10
6.345454545454429
 20
0.8448276625222348
 42
1.00000000000001
 10
7.654545454545242
 20
2.080255115566544
 42
-0.3973597071195234
 10
7.654545454545242
 20
4.619744880157625
 42
0.1432248589116971
 10
7.884238260747338
 20
5.069760371059601
 42
-0.29597683374927
 10
10.11576173925226
 20
5.069760371059601
 42
0.143224858911663
 10
10.34545454545439
 20
4.619744880157639
 42
-0.3973597070618997
 10
10.34545454570706
 20
2.080255115834432
 42
0.9999999998115697
 10
11.65454545409969
 20
0.8448276634753423
 42
0.292766351078799
 10
12.38585900845561
 20
4.713253011335481
 42
-0.5313247727408781
 10
12.8496753109838
 20
5.399999999287302
 10
20.5
 20
5.399999999287302
 42
0.4142135623730951
 10
22.79999999999995
 20
7.6999999992873
 10
22.79999999999995
 20
7.999999997862275
 42
-0.4142135623730951
 10
23.79999999999995
 20
8.999999997862246
 10
27.07571662593057
 20
8.999999997862261
 42
-0.5149445451952875
 10
27.54852185172173
 20
8.337349395452761
 42
0.2788550286926846
 10
28.3454545454544
 20
4.644827662522359
 42
1.000000000000098
 10
29.65454545454522
 20
5.880255115566711
 42
-0.3973597071195016
 10
29.65454545454523
 20
8.41974488015775
 42
0.1432248589116944
 10
29.88423826074735
 20
8.86976037105974
 42
-0.2959768337492666
 10
32.11576173925227
 20
8.86976037105974
 42
0.1432248589116613
 10
32.34545454545436
 20
8.419744880157765
 42
-0.3973597071195338
 10
32.34545454545429
 20
5.880255115566694
 42
1.000000000032359
 10
33.65454545454516
 20
4.644827661097181
 42
0.2788550287905322
 10
34.45147814784629
 20
8.337349395280867
 42
-0.5149445453100962
 10
34.92428337357873
 20
8.999999997862218
 10
37.00000000000001
 20
8.999999997862246
 42
-0.4142135623730951
 10
38.00000000000003
 20
7.999999997862261
 10
38.0
 20
0.2500000000000285
 42
0.4142135623730951
 10
38.25
 20
0.0000000000000284
 10
39.74999999999977
 20
0.0000000000000284
 42
0.4142135623730951
 10
39.99999999999977
 20
0.2500000000000284
 10
39.9999999999998
 20
11.3249999989318
 10
41.2352223211297
 20
29.06944372645256
 42
-0.394001016067178
 10
42.23280819139825
 20
29.99999999786229
 10
46.32593640974258
 20
29.99999999786229
 42
0.4142135623731367
 10
46.52593640974259
 20
30.19999999786228
 10
46.52593640974259
 20
30.49999999786229
 10
57.5259364097426
 20
30.49999999786229
 10
57.5259364097426
 20
30.19999999786228
 42
0.4142135623731367
 10
57.72593640974261
 20
29.99999999786229
 10
66.32593640974258
 20
29.99999999786229
 42
0.4142135623731367
 10
66.52593640974259
 20
30.19999999786231
 10
66.52593640974259
 20
30.49999999786229
 10
77.93813054937922
 20
30.49999999786229
 42
0.9999999999999998
 10
78.73813054937923
 20
30.49999999786229
 10
90.15032468901585
 20
30.49999999786229
 42
-0.5313247727408751
 10
90.6141409915441
 20
29.81325300991077
 42
0.2927663510305472
 10
91.3454545454544
 20
25.94482766252258
 42
1.000000000000005
 10
92.65454545454522
 20
27.18025511556692
 42
-0.3973597071194993
 10
92.65454545454522
 20
29.71974488015798
 42
0.1432248589116826
 10
92.88423826074733
 20
30.16976037105991
 42
-0.2959768337492681
 10
95.11576173925226
 20
30.16976037105997
 42
0.1432248589116733
 10
95.34545454545435
 20
29.71974488015809
 42
-0.3973597072286208
  0
HATCH
  5
120A
330
564
100
AcDbEntity
  8
APL Hatch
100
AcDbHatch
 10
0.0
 20
0.0
 30
0.0
210
0.0
220
0.0
230
1.0
  2
SOLID
 70
     1
 71
     1
 91
        1
 92
        1
 93
      134
 72
     2
 10
95.99999999928838
 20
26.56254138829099
 40
0.8999999999999737
 50
136.6582417511821
 51
316.6582417511809
 73
     1
 72
     2
 10
93.99999999999986
 20
28.44999999786253
 40
3.649999999999932
 50
316.6582417511808
 51
381.9312618995846
 73
     1
 72
     2
 10
97.84967531098436
 20
29.99999999786199
 40
0.5000000000002992
 50
158.0687381004387
 51
270.0000000000277
 73
     0
 72
     1
 10
97.84967531098459
 20
30.49999999786229
 11
98.59592152754999
 21
30.49999999786235
 72
     2
 10
98.59592152755
 20
29.49999999786235
 40
1.0
 50
269.9999999999992
 51
354.2321111018805
 73
     0
 72
     1
 10
99.59085871657215
 20
29.60049870382778
 11
100.4999999999997
 21
20.59999999821874
 72
     1
 10
100.4999999999997
 20
20.59999999821874
 11
100.4999999999997
 21
11.69999999857586
 72
     2
 10
100.9999999999998
 20
11.69999999857586
 40
0.5
 50
180.0
 51
270.0
 73
     1
 72
     1
 10
100.9999999999998
 20
11.19999999857586
 11
101.5000000000004
 21
11.19999999857529
 72
     2
 10
101.5
 20
10.69999999857529
 40
0.5
 50
270.0000000000521
 51
360.0
 73
     0
 72
     1
 10
102.0
 20
10.69999999857529
 11
102.0
 21
9.49822455877549
 72
     2
 10
101.75
 20
9.49822455877549
 40
0.25
 50
360.0
 51
450.0
 73
     0
 72
     1
 10
101.75
 20
9.24822455877549
 11
100.7499999999998
 21
9.248224558775476
 72
     2
 10
100.7499999999998
 20
8.998224558775476
 40
0.25
 50
90.0
 51
180.0
 73
     1
 72
     1
 10
100.4999999999997
 20
8.998224558775476
 11
100.4999999999997
 21
8.29822455877543
 72
     2
 10
100.7499999999997
 20
8.298224558775444
 40
0.2499999999999858
 50
180.0000000000032
 51
270.0000000000163
 73
     1
 72
     1
 10
100.7499999999998
 20
8.048224558775459
 11
101.7186135987563
 21
8.048224558775491
 72
     2
 10
101.7186135987564
 20
7.798224558775476
 40
0.2500000000000142
 50
269.9999999999935
 51
344.9999999999938
 73
     0
 72
     1
 10
101.9600950553286
 20
7.862929320051136
 11
102.9659258262888
 21
4.109117779013942
 72
     2
 10
101.9999999999998
 20
3.850298733911316
 40
0.9999999999999287
 50
344.9999999999927
 51
360.0000000000017
 73
     0
 72
     1
 10
102.9999999999998
 20
3.850298733911287
 11
102.9999999999998
 21
2.583112279387435
 72
     1
 10
102.9999999999998
 20
2.583112279387435
 11
102.4999999999997
 21
2.583112279387639
 72
     2
 10
102.4999999999998
 20
2.333112279387613
 40
0.2500000000000266
 50
90.00000000000325
 51
195.0000000000046
 73
     1
 72
     1
 10
102.2585185434275
 20
2.268407518111956
 11
102.7670370872371
 21
0.3705904760237513
 72
     2
 10
103.2500000003817
 20
0.4999999985749028
 40
0.5000000000000119
 50
194.9999999999867
 51
270.0000000000098
 73
     1
 72
     1
 10
103.2500000003818
 20
-0.0000000014251071
 11
103.7999999999999
 21
-0.0000000014250432
 72
     2
 10
103.7999999999998
 20
0.1999999985749596
 40
0.2000000000000028
 50
270.0000000000529
 51
359.9999999999939
 73
     1
 72
     1
 10
103.9999999999998
 20
0.1999999985749383
 11
103.9999999999998
 21
31.99999999786232
 72
     2
 10
102.9999999999997
 20
31.99999999786231
 40
1.000000000000014
 50
0.0000000000008142
 51
90.00000000000081
 73
     1
 72
     1
 10
102.9999999999997
 20
32.99999999786232
 11
37.90000000000032
 21
32.99999999786232
 72
     2
 10
37.90000000000038
 20
32.79999999786225
 40
0.2000000000000739
 50
90.00000000001628
 51
180.0000000000081
 73
     1
 72
     1
 10
37.7000000000003
 20
32.79999999786222
 11
37.7000000000005
 21
30.99999999786229
 72
     1
 10
37.7000000000005
 20
30.99999999786229
 11
36.49999999999977
 21
30.99999999786229
 72
     2
 10
36.49999999999977
 20
30.49999999786229
 40
0.5
 50
90.0
 51
180.0
 73
     1
 72
     1
 10
35.99999999999977
 20
30.49999999786229
 11
35.99999999999977
 21
28.94999999786211
 72
     2
 10
36.49999999999977
 20
28.94999999786211
 40
0.5
 50
180.0
 51
360.0
 73
     1
 72
     1
 10
36.99999999999977
 20
28.94999999786211
 11
36.99999999999977
 21
29.69999999786211
 72
     1
 10
36.99999999999977
 20
29.69999999786211
 11
38.49999999999977
 21
29.69999999786211
 72
     1
 10
38.49999999999977
 20
29.69999999786211
 11
38.49999999999977
 21
24.19999999786211
 72
     1
 10
38.49999999999977
 20
24.19999999786211
 11
36.99999999999977
 21
24.19999999786208
 72
     1
 10
36.99999999999977
 20
24.19999999786208
 11
36.99999999999977
 21
24.94999999786211
 72
     2
 10
36.49999999999977
 20
24.94999999786211
 40
0.5
 50
0.0
 51
180.0
 73
     1
 72
     1
 10
35.99999999999977
 20
24.94999999786211
 11
35.99999999999977
 21
23.39999999786215
 72
     2
 10
36.49999999999977
 20
23.39999999786215
 40
0.5
 50
180.0
 51
270.0
 73
     1
 72
     1
 10
36.49999999999977
 20
22.89999999786215
 11
38.2000000000005
 21
22.89999999786215
 72
     1
 10
38.2000000000005
 20
22.89999999786215
 11
38.19999999999962
 21
17.49999999786229
 72
     1
 10
38.19999999999962
 20
17.49999999786229
 11
36.49999999999979
 21
17.49999999786229
 72
     2
 10
36.49999999999979
 20
16.99999999786229
 40
0.5
 50
90.0
 51
270.0
 73
     1
 72
     1
 10
36.49999999999979
 20
16.49999999786229
 11
38.19999999999959
 21
16.49999999786229
 72
     1
 10
38.19999999999959
 20
16.49999999786229
 11
38.19999999999961
 21
12.49999999786229
 72
     1
 10
38.19999999999961
 20
12.49999999786229
 11
36.20000000000052
 21
12.49999999786232
 72
     2
 10
36.20000000000058
 20
12.29999999786225
 40
0.2000000000000668
 50
90.00000000001831
 51
180.0000000000101
 73
     1
 72
     1
 10
36.00000000000051
 20
12.29999999786221
 11
35.9999999999998
 21
10.99999999786229
 72
     1
 10
35.9999999999998
 20
10.99999999786229
 11
18.00000000000068
 21
10.99999999786227
 72
     2
 10
18.00000000000068
 20
10.49999999786215
 40
0.5000000000001208
 50
90.0
 51
270.0
 73
     1
 72
     1
 10
18.00000000000068
 20
9.999999997862033
 11
20.50000000000068
 21
9.999999997862047
 72
     2
 10
20.50000000000068
 20
9.499999997862047
 40
0.5
 50
270.0
 51
360.0
 73
     0
 72
     1
 10
21.00000000000068
 20
9.499999997862047
 11
21.00000000000068
 21
7.699999997862079
 72
     2
 10
20.50000000000069
 20
7.699999997862086
 40
0.4999999999999929
 50
0.0000000000008142
 51
90.00000000000081
 73
     0
 72
     1
 10
20.50000000000068
 20
7.199999997862093
 11
1.5
 21
7.199999997862079
 72
     1
 10
1.5
 20
7.199999997862079
 11
1.5
 21
9.499999997862261
 72
     1
 10
1.5
 20
9.499999997862261
 11
2.249999999999985
 21
9.499999997862246
 72
     2
 10
2.25000000000003
 20
9.749999997862259
 40
0.2500000000000124
 50
269.9999999999898
 51
371.5369590328013
 73
     1
 72
     2
 10
1.025255128608463
 20
9.499999997862273
 40
1.499999999999987
 50
11.53695903281277
 51
89.99999999999944
 73
     1
 72
     1
 10
1.025255128608478
 20
10.99999999786226
 11
0.25
 21
10.99999999786224
 72
     2
 10
0.25
 20
10.74999999786224
 40
0.25
 50
90.0
 51
180.0
 73
     1
 72
     1
 10
0.0
 20
10.74999999786224
 11
0.0
 21
0.25
 72
     2
 10
0.2500000000000071
 20
0.2500000000000071
 40
0.2500000000000071
 50
180.0000000000016
 51
269.9999999999984
 73
     1
 72
     1
 10
0.25
 20
0.0
 11
1.250000000000014
 21
-0.0000000000000001
 72
     2
 10
1.250000000000007
 20
0.4999999999999643
 40
0.4999999999999643
 50
270.0000000000008
 51
345.0000000000053
 73
     1
 72
     1
 10
1.732962913144518
 20
0.3705904774487578
 11
2.24148145657179
 21
2.268407518111885
 72
     2
 10
1.99999999999981
 20
2.333112279387717
 40
0.2499999999997756
 50
344.9999999999385
 51
449.9999999999565
 73
     1
 72
     1
 10
2.0
 20
2.583112279387492
 11
1.5
 21
2.583112279387378
 72
     1
 10
1.5
 20
2.583112279387378
 11
1.499999999999573
 21
4.999999997861991
 72
     2
 10
1.999999999999573
 20
4.999999997862076
 40
0.5
 50
179.9999999999902
 51
270.0
 73
     0
 72
     1
 10
1.999999999999573
 20
5.499999997862076
 11
3.749999999999943
 21
5.499999997862062
 72
     2
 10
3.92320508075682
 20
5.599999997862054
 40
0.199999999999987
 50
209.9999999999997
 51
270.0000000000069
 73
     1
 72
     1
 10
3.923205080756844
 20
5.399999997862067
 11
5.150324689015803
 21
5.399999997862025
 72
     2
 10
5.150324689015718
 20
4.899999997862083
 40
0.4999999999999414
 50
270.0000000000098
 51
381.931261899599
 73
     0
 72
     2
 10
8.999999999999413
 20
3.34999999786216
 40
3.649999999999717
 50
158.0687381004092
 51
223.3417582272284
 73
     1
 72
     2
 10
6.999999999999842
 20
1.462541389044382
 40
0.8999999999999673
 50
223.341758227224
 51
403.3417582272252
 73
     1
 72
     2
 10
8.999999999999745
 20
3.349999997862084
 40
1.849999999999972
 50
136.6582417727766
 51
223.3417582272234
 73
     0
 72
     2
 10
6.999999999999816
 20
5.237458606679732
 40
0.8999999999999484
 50
316.6582417727785
 51
349.2612357600555
 73
     1
 72
     2
 10
8.999999999999801
 20
3.349999997862111
 40
2.050000000000012
 50
237.0249334069667
 51
302.9750665930333
 73
     0
 72
     2
 10
10.99999999999996
 20
5.237458606679886
 40
0.9000000000001545
 50
190.738764239952
 51
223.3417582272213
 73
     1
 72
     2
 10
8.999999999999861
 20
3.349999997862169
 40
1.849999999999941
 50
316.6582417727787
 51
403.3417582158199
 73
     0
 72
     2
 10
11.00000000001977
 20
1.462541389778223
 40
0.8999999995109336
 50
136.6582417841811
 51
316.6582417625886
 73
     1
 72
     2
 10
8.999999999999714
 20
3.3499999992873
 40
3.650000000000053
 50
316.6582417625882
 51
381.9312618995905
 73
     1
 72
     2
 10
12.84967531098381
 20
4.899999999287297
 40
0.5000000000000058
 50
158.0687381004082
 51
269.9999999999986
 73
     0
 72
     1
 10
12.8496753109838
 20
5.399999999287302
 11
20.5
 21
5.399999999287302
 72
     2
 10
20.49999999999998
 20
7.699999999287278
 40
2.299999999999975
 50
270.0000000000005
 51
360.0000000000005
 73
     1
 72
     1
 10
22.79999999999995
 20
7.6999999992873
 11
22.79999999999995
 21
7.999999997862275
 72
     2
 10
23.79999999999994
 20
7.999999997862261
 40
0.9999999999999857
 50
180.0000000000008
 51
270.0000000000008
 73
     0
 72
     1
 10
23.79999999999995
 20
8.999999997862246
 11
27.07571662593057
 21
8.999999997862261
 72
     2
 10
27.07571662593047
 20
8.499999997862488
 40
0.4999999999997727
 50
270.0000000000114
 51
378.9838243850599
 73
     0
 72
     2
 10
30.99999999999976
 20
7.149999997862186
 40
3.649999999999917
 50
161.0161756149557
 51
223.3417582272233
 73
     1
 72
     2
 10
28.99999999999987
 20
5.262541389044471
 40
0.8999999999999811
 50
223.34175822722
 51
403.3417582272312
 73
     1
 72
     2
 10
30.9999999999998
 20
7.149999997862224
 40
1.850000000000017
 50
136.6582417727791
 51
223.3417582272215
 73
     0
 72
     2
 10
28.99999999999978
 20
9.037458606679921
 40
0.9000000000000111
 50
316.6582417727767
 51
349.261235760053
 73
     1
 72
     2
 10
30.99999999999981
 20
7.149999997862238
 40
2.050000000000018
 50
237.024933406967
 51
302.9750665930329
 73
     0
 72
     2
 10
32.99999999999999
 20
9.037458606679974
 40
0.9000000000001643
 50
190.7387642399486
 51
223.3417582272175
 73
     1
 72
     2
 10
30.99999999999988
 20
7.149999997862267
 40
1.849999999999928
 50
316.6582417727771
 51
403.341758227226
 73
     0
 72
     2
 10
32.99999999997974
 20
5.262541388310757
 40
0.9000000004890816
 50
136.6582417379294
 51
316.6582417416375
 73
     1
 72
     2
 10
30.99999999999973
 20
7.149999996436654
 40
3.649999999999725
 50
316.6582417727814
 51
378.9838244058561
 73
     1
 72
     2
 10
34.92428337357875
 20
8.499999997862214
 40
0.5000000000000026
 50
161.0161755941517
 51
269.9999999999976
 73
     0
 72
     1
 10
34.92428337357873
 20
8.999999997862218
 11
37.00000000000001
 21
8.999999997862246
 72
     2
 10
37.00000000000003
 20
7.999999997862246
 40
1.0
 50
269.9999999999992
 51
359.9999999999992
 73
     0
 72
     1
 10
38.00000000000003
 20
7.999999997862261
 11
38.0
 21
0.2500000000000284
 72
     2
 10
38.25
 20
0.2500000000000284
 40
0.25
 50
180.0
 51
270.0
 73
     1
 72
     1
 10
38.25
 20
0.0000000000000284
 11
39.74999999999977
 21
0.0000000000000284
 72
     2
 10
39.74999999999977
 20
0.2500000000000284
 40
0.25
 50
270.0
 51
360.0
 73
     1
 72
     1
 10
39.99999999999977
 20
0.2500000000000284
 11
39.9999999999998
 21
11.3249999989318
 72
     1
 10
39.9999999999998
 20
11.3249999989318
 11
41.2352223211297
 21
29.06944372645256
 72
     2
 10
42.23280819139826
 20
28.99999999786229
 40
0.9999999999999984
 50
183.9820374629016
 51
269.9999999999996
 73
     0
 72
     1
 10
42.23280819139825
 20
29.99999999786229
 11
46.32593640974258
 21
29.99999999786229
 72
     2
 10
46.32593640974261
 20
30.19999999786228
 40
0.1999999999999886
 50
269.9999999999919
 51
360.0
 73
     1
 72
     1
 10
46.52593640974259
 20
30.19999999786228
 11
46.52593640974259
 21
30.49999999786229
 72
     1
 10
46.52593640974259
 20
30.49999999786229
 11
57.5259364097426
 21
30.49999999786229
 72
     1
 10
57.5259364097426
 20
30.49999999786229
 11
57.5259364097426
 21
30.19999999786228
 72
     2
 10
57.72593640974259
 20
30.19999999786228
 40
0.1999999999999886
 50
180.0
 51
270.0000000000081
 73
     1
 72
     1
 10
57.72593640974261
 20
29.99999999786229
 11
66.32593640974258
 21
29.99999999786229
 72
     2
 10
66.3259364097426
 20
30.19999999786229
 40
0.2000000000000028
 50
269.9999999999959
 51
360.0000000000041
 73
     1
 72
     1
 10
66.52593640974259
 20
30.19999999786231
 11
66.52593640974259
 21
30.49999999786229
 72
     1
 10
66.52593640974259
 20
30.49999999786229
 11
77.93813054937922
 21
30.49999999786229
 72
     2
 10
78.33813054937923
 20
30.49999999786229
 40
0.4000000000000057
 50
180.0
 51
360.0
 73
     1
 72
     1
 10
78.73813054937923
 20
30.49999999786229
 11
90.15032468901585
 21
30.49999999786229
 72
     2
 10
90.15032468901598
 20
29.99999999786242
 40
0.4999999999998792
 50
269.999999999987
 51
381.9312618995768
 73
     0
 72
     2
 10
93.99999999999982
 20
28.44999999786239
 40
3.649999999999965
 50
158.0687381004057
 51
223.3417582272224
 73
     1
 72
     2
 10
91.99999999999981
 20
26.56254138904475
 40
0.8999999999999815
 50
223.341758227225
 51
403.3417582272252
 73
     1
 72
     2
 10
93.99999999999982
 20
28.44999999786245
 40
1.850000000000034
 50
136.658241772779
 51
223.341758227221
 73
     0
 72
     2
 10
91.99999999999979
 20
30.33745860668013
 40
0.8999999999999797
 50
316.6582417727765
 51
349.2612357600502
 73
     1
 72
     2
 10
93.99999999999984
 20
28.44999999786244
 40
2.050000000000022
 50
237.0249334069654
 51
302.9750665930317
 73
     0
 72
     2
 10
95.99999999999974
 20
30.33745860668019
 40
0.8999999999999253
 50
190.7387642399509
 51
223.3417582272224
 73
     1
 72
     2
 10
93.99999999999977
 20
28.44999999786251
 40
1.850000000000045
 50
316.6582417727773
 51
403.341758248818
 73
     0
 97
        1
330
1209
 75
     0
 76
     1
 98
        1
 10
0.0
 20
0.0
  0
ENDBLK
  5
566
330
564
100
AcDbEntity
  8
0
100
AcDbBlockEnd
  0
BLOCK
  5
66E
330
66D
100
AcDbEntity
  8
0
100
AcDbBlockBegin
  2
08735
 70
     0
 10
0.0
 20
0.0
 30
0.0
  3
08735
  1
08735.dwg
  0
LWPOLYLINE
  5
120D
102
{ACAD_REACTORS
330
120E
102
}
330
66D
100
AcDbEntity
  8
APL Joinery
  6
Continuous
100
AcDbPolyline
 90
       26
 70
     1
 43
0.0
 10
32.81010205144007
 20
-1.499999999999612
 42
0.904069105618463
 10
33.79999999999673
 20
-1.399999999999636
 10
33.79999999999673
 20
-0.25
 42
0.4142135623730951
 10
33.54999999999673
 20
0.0
 10
0.4499999999999993
 20
0.0
 42
0.4142135623730951
 10
0.1999999999999993
 20
-0.25
 10
0.1999999999999803
 20
-1.399999999999636
 42
0.9040691056184559
 10
1.189897948556517
 20
-1.5
 10
1.449999999999999
 20
-1.5
 42
-0.4142135623730951
 10
1.699999999999999
 20
-1.75
 10
1.699999999999999
 20
-15.24999999999886
 10
1.199999999999999
 20
-15.24999999999886
 42
0.5773502691895979
 10
0.9834936490539796
 20
-15.62499999999886
 10
2.433493649053653
 20
-18.13647367097351
 42
0.767326987979131
 10
2.899999999999817
 20
-18.0114736709736
 10
2.899999999999817
 20
-3.0
 42
-0.4142135623730951
 10
3.899999999999817
 20
-2.0
 10
30.09999999999691
 20
-2.0
 42
-0.4142135623730951
 10
31.09999999999691
 20
-3.0
 10
31.09999999999691
 20
-18.0114736709736
 42
0.767326987979131
 10
31.56650635094293
 20
-18.1364736709736
 10
33.01650635094285
 20
-15.62499999999884
 42
0.5773502691895971
 10
32.79999999999673
 20
-15.24999999999886
 10
32.29999999999673
 20
-15.24999999999886
 10
32.29999999999673
 20
-1.75
 42
-0.4142135623730951
 10
32.54999999999673
 20
-1.5
  0
HATCH
  5
120E
330
66D
100
AcDbEntity
  8
APL Hatch
100
AcDbHatch
 10
0.0
 20
0.0
 30
0.0
210
0.0
220
0.0
230
1.0
  2
SOLID
 70
     1
 71
     1
 91
        1
 92
        1
 93
       26
 72
     2
 10
33.29999999999672
 20
-1.399999999999637
 40
0.500000000000012
 50
191.5369590328124
 51
360.0000000000001
 73
     1
 72
     1
 10
33.79999999999673
 20
-1.399999999999636
 11
33.79999999999673
 21
-0.25
 72
     2
 10
33.54999999999673
 20
-0.25
 40
0.25
 50
0.0
 51
90.0
 73
     1
 72
     1
 10
33.54999999999673
 20
0.0
 11
0.4500000000000029
 21
0.0
 72
     2
 10
0.4499999999999993
 20
-0.25
 40
0.25
 50
90.0
 51
180.0
 73
     1
 72
     1
 10
0.1999999999999993
 20
-0.25
 11
0.1999999999999803
 21
-1.399999999999636
 72
     2
 10
0.6999999999999483
 20
-1.399999999999832
 40
0.499999999999968
 50
179.9999999999774
 51
348.4630409671642
 73
     1
 72
     1
 10
1.189897948556517
 20
-1.5
 11
1.449999999999999
 21
-1.5
 72
     2
 10
1.449999999999999
 20
-1.75
 40
0.25
 50
270.0
 51
360.0
 73
     0
 72
     1
 10
1.699999999999999
 20
-1.75
 11
1.699999999999999
 21
-15.24999999999886
 72
     1
 10
1.699999999999999
 20
-15.24999999999886
 11
1.199999999999999
 21
-15.24999999999886
 72
     2
 10
1.200000000000054
 20
-15.49999999999884
 40
0.2499999999999805
 50
90.00000000001273
 51
210.0000000000078
 73
     1
 72
     1
 10
0.9834936490539796
 20
-15.62499999999886
 11
2.433493649053653
 21
-18.13647367097351
 72
     2
 10
2.649999999999817
 20
-18.0114736709736
 40
0.2500000000000005
 50
209.9999999999755
 51
360.0
 73
     1
 72
     1
 10
2.899999999999817
 20
-18.0114736709736
 11
2.899999999999817
 21
-3.0
 72
     2
 10
3.899999999999817
 20
-3.0
 40
1.0
 50
180.0
 51
270.0
 73
     0
 72
     1
 10
3.899999999999817
 20
-2.0
 11
30.09999999999691
 21
-2.0
 72
     2
 10
30.09999999999691
 20
-3.0
 40
1.0
 50
270.0
 51
360.0
 73
     0
 72
     1
 10
31.09999999999691
 20
-3.0
 11
31.09999999999691
 21
-18.0114736709736
 72
     2
 10
31.34999999999685
 20
-18.01147367097366
 40
0.2499999999999396
 50
179.9999999999853
 51
330.0000000000093
 73
     1
 72
     1
 10
31.56650635094293
 20
-18.1364736709736
 11
33.01650635094285
 21
-15.62499999999884
 72
     2
 10
32.79999999999673
 20
-15.49999999999886
 40
0.2499999999999993
 50
330.0000000000046
 51
450.0
 73
     1
 72
     1
 10
32.79999999999673
 20
-15.24999999999886
 11
32.29999999999673
 21
-15.24999999999886
 72
     1
 10
32.29999999999673
 20
-15.24999999999886
 11
32.29999999999673
 21
-1.75
 72
     2
 10
32.54999999999673
 20
-1.75
 40
0.25
 50
180.0
 51
270.0
 73
     0
 72
     1
 10
32.54999999999673
 20
-1.5
 11
32.81010205144007
 21
-1.499999999999612
 97
        1
330
120D
 75
     0
 76
     1
 98
        1
 10
0.0
 20
0.0
  0
ENDBLK
  5
66F
330
66D
100
AcDbEntity
  8
0
100
AcDbBlockEnd
  0
BLOCK
  5
7BE
330
7BD
100
AcDbEntity
  8
0
100
AcDbBlockBegin
  2
vantage a4 SM border
 70
     0
 10
0.0
 20
0.0
 30
0.0
  3
vantage a4 SM border
  1
vantage a4 SM border.dwg
  0
TEXT
  5
1210
330
7BD
100
AcDbEntity
  8
APL Border
100
AcDbText
 10
11.59500000000003
 20
3.979818213543524
 30
0.0
 40
1.5
  1
VANTAGE SPECIFIER'S GUIDE 2011:1     ARCHITECTURAL PROFILES LTD. NB. TECHNICAL SPECIFICATIONS SUBJECT TO CHANGE WITHOUT NOTICE.
 41
1.175568529931163
  7
Arial-Regular
 72
     5
 11
189.595
 21
3.979818213543524
 31
0.0
100
AcDbText
  0
LINE
  5
1211
330
7BD
100
AcDbEntity
  8
APL Border
100
AcDbLine
 10
11.59500000000003
 20
6.189999999999997
 30
0.0
 11
189.595
 21
6.189999999999997
 31
0.0
  0
MTEXT
  5
1212
330
7BD
100
AcDbEntity
  8
APL Border
100
AcDbMText
 10
57.55102029361978
 20
3.879818213543526
 30
0.0
 40
1.5
 41
0.0
 71
     8
 72
     5
  1
{\fCommercialPi BT|b0|i0|c2|p18;a}
  7
Arial-Regular
 73
     1
 44
1.0
1001
ACAD
1000
MTEXTBEGIN
1070
    73
1070
     1
1070
    44
1040
1.0
1070
    74
1070
     0
1000
MTEXTEND
  0
LINE
  5
1213
330
7BD
100
AcDbEntity
  8
APL Border
100
AcDbLine
 10
189.595
 20
268.19
 30
0.0
 11
142.595
 21
268.19
 31
0.0
  0
LINE
  5
1214
330
7BD
100
AcDbEntity
  8
APL Border
100
AcDbLine
 10
189.595
 20
282.19
 30
0.0
 11
189.595
 21
254.19
 31
0.0
  0
LINE
  5
1215
330
7BD
100
AcDbEntity
  8
APL Border
100
AcDbLine
 10
166.095
 20
268.19
 30
0.0
 11
166.095
 21
254.19
 31
0.0
  0
LINE
  5
1216
330
7BD
100
AcDbEntity
  8
APL Border
100
AcDbLine
 10
189.595
 20
254.19
 30
0.0
 11
24.99473224900737
 21
254.19
 31
0.0
  0
LINE
  5
1217
330
7BD
100
AcDbEntity
  8
APL Border
100
AcDbLine
 10
189.595
 20
282.19
 30
0.0
 11
24.99473224900737
 21
282.19
 31
0.0
  0
LINE
  5
1218
330
7BD
100
AcDbEntity
  8
APL Border
100
AcDbLine
 10
142.595
 20
282.19
 30
0.0
 11
142.595
 21
254.19
 31
0.0
  0
TEXT
  5
1219
330
7BD
100
AcDbEntity
  8
APL Border
100
AcDbText
 10
147.845
 20
273.69
 30
0.0
 40
2.5
  1
CAD REF.
  7
Arial-Regular
100
AcDbText
  0
TEXT
  5
121A
330
7BD
100
AcDbEntity
  8
APL Border
100
AcDbText
 10
149.6877694406548
 20
262.19
 30
0.0
 40
2.5
  1
DATE
  7
Arial-Regular
 72
     1
 11
154.345
 21
262.19
 31
0.0
100
AcDbText
  0
TEXT
  5
121B
330
7BD
100
AcDbEntity
  8
APL Border
100
AcDbText
 10
172.1185334242838
 20
262.19
 30
0.0
 40
2.5
  1
SCALE
  7
Arial-Regular
 72
     1
 11
177.845
 21
262.19
 31
0.0
100
AcDbText
  0
INSERT
  5
121C
102
{ACAD_XDICTIONARY
360
121D
102
}
330
7BD
100
AcDbEntity
  8
APL Border
100
AcDbBlockReference
  2
vantage black & white logo
 10
24.99473224900737
 20
256.19
 30
0.0
 41
0.5
 42
0.5
 43
0.5
  0
LINE
  5
1261
330
7BD
100
AcDbEntity
  8
APL Border
100
AcDbLine
 10
24.99473224900737
 20
256.19
 30
0.0
 11
24.99473224900737
 21
254.19
 31
0.0
  0
LINE
  5
1262
330
7BD
100
AcDbEntity
  8
APL Border
100
AcDbLine
 10
24.99473224900716
 20
279.6304177948761
 30
0.0
 11
24.99473224900737
 21
282.19
 31
0.0
  0
ENDBLK
  5
7BF
330
7BD
100
AcDbEntity
  8
0
100
AcDbBlockEnd
  0
BLOCK
  5
7CC
330
7C2
100
AcDbEntity
  8
0
100
AcDbBlockBegin
  2
vantage a4 SM attributes (4)
 70
     2
 10
0.0
 20
0.0
 30
0.0
  3
vantage a4 SM attributes (4)
  1

  0
ATTDEF
  5
7C3
330
7C2
100
AcDbEntity
  8
APL Border
100
AcDbText
 10
41.78979785863008
 20
275.28125
 30
0.0
 40
3.5
  1
DRAWING TITLE LINE 1
  7
Arial-Bold
100
AcDbAttributeDefinition
  3
Drawing Title Line 1
  2
DRAWINGTITLE_1
 70
     0
  0
ATTDEF
  5
7C4
330
7C2
100
AcDbEntity
  8
APL Border
100
AcDbText
 10
41.78979785863008
 20
269.28125
 30
0.0
 40
3.5
  1
DRAWING TITLE LINE 2
  7
Arial-Bold
100
AcDbAttributeDefinition
  3
Drawing Title Line 2
  2
DRAWINGTITLE_2
 70
     0
  0
ATTDEF
  5
7C5
330
7C2
100
AcDbEntity
  8
APL Border
100
AcDbText
 10
41.78979785863008
 20
263.28125
 30
0.0
 40
3.5
  1
DRAWING TITLE LINE 3
  7
Arial-Bold
100
AcDbAttributeDefinition
  3
Drawing Title Line 3
  2
DRAWINGTITLE_3
 70
     0
  0
ATTDEF
  5
7C6
330
7C2
100
AcDbEntity
  8
APL Border
100
AcDbText
 10
41.78979785863008
 20
257.28125
 30
0.0
 40
3.0
  1
DRAWING TITLE LINE 4
  7
Arial-Regular
100
AcDbAttributeDefinition
  3
Drawing Title Line 4
  2
DRAWINGTITLE_4
 70
     0
  0
ATTDEF
  5
7C7
330
7C2
100
AcDbEntity
  8
APL Border
100
AcDbText
 10
165.845
 20
273.69
 30
0.0
 40
2.5
  1
AW123-456
  7
Arial-Regular
100
AcDbAttributeDefinition
  3
CAD Reference
  2
AW123-456
 70
     0
  0
ATTDEF
  5
7C8
330
7C2
100
AcDbEntity
  8
APL Border
100
AcDbText
 10
147.5475920873124
 20
257.1899999999999
 30
0.0
 40
2.5
  1
24.05.02
  7
Arial-Regular
 72
     1
 11
154.345
 21
257.1899999999999
 31
0.0
100
AcDbAttributeDefinition
  3
Date
  2
24.05.02
 70
     0
  0
ATTDEF
  5
7C9
330
7C2
100
AcDbEntity
  8
APL Border
100
AcDbText
 10
175.4174761255116
 20
257.1899999999999
 30
0.0
 40
2.5
  1
1:2
  7
Arial-Regular
 72
     1
 11
177.845
 21
257.1899999999999
 31
0.0
100
AcDbAttributeDefinition
  3
Scale
  2
1:2
 70
     0
  0
ATTDEF
  5
7CA
330
7C2
100
AcDbEntity
  8
APL Border
100
AcDbText
 10
11.59500000000001
 20
1.189999999999997
 30
0.0
 40
3.75
  1
1.2.34
  7
Arial-Bold
100
AcDbAttributeDefinition
  3
Page Number (Left)
  2
1.2.34
 70
     0
  0
ATTDEF
  5
7CB
330
7C2
100
AcDbEntity
  8
APL Border
100
AcDbText
 10
175.0298567530696
 20
1.189999999999997
 30
0.0
 40
3.75
  1
1.2.34
  7
Arial-Bold
 72
     2
 11
189.595
 21
1.189999999999997
 31
0.0
100
AcDbAttributeDefinition
  3
Page Number (Right)
  2
1.2.34
 70
     0
  0
ENDBLK
  5
7CD
330
7C2
100
AcDbEntity
  8
0
100
AcDbBlockEnd
  0
BLOCK
  5
A5A
330
A57
100
AcDbEntity
  8
0
100
AcDbBlockBegin
  2
altair louvre channel
 70
     0
 10
0.0
 20
0.0
 30
0.0
  3
altair louvre channel
  1

  0
LWPOLYLINE
  5
A58
102
{ACAD_REACTORS
330
A59
102
}
330
A57
100
AcDbEntity
  8
APL Joinery
100
AcDbPolyline
 90
       22
 70
     1
 43
0.0
 10
-0.1374999999997648
 20
-5.608551563400236
 10
-0.9107233047029268
 20
-6.381774868103557
 42
-0.6681786379193428
 10
-1.337499999999582
 20
-6.204998172806948
 10
-1.337499999999582
 20
-5.604998172806812
 10
-2.837499999999586
 20
-5.604998172806987
 42
0.414213562373095
 10
-3.137499999999537
 20
-5.904998172806767
 10
-14.53749999999963
 20
-5.904998172806752
 42
0.414213562373095
 10
-16.03749999999963
 20
-7.404998172806752
 10
-16.03749999999963
 20
-39.80499817280686
 42
0.4142135623730951
 10
-14.53749999999964
 20
-41.30499817280685
 10
-3.137499999999594
 20
-41.30499817280663
 42
0.4142135623730951
 10
-2.83749999999959
 20
-41.60499817280657
 10
-1.33749999999959
 20
-41.60499817280657
 10
-1.337499999999593
 20
-41.00499817280668
 42
-0.6681786379193428
 10
-0.9107233047029232
 20
-40.82822147751
 10
-0.1374999999995445
 20
-41.60144478221361
 10
-0.1374999999997719
 20
-42.80499817280684
 10
-17.13749999999954
 20
-42.80499817280686
 42
-0.4142135623730951
 10
-17.63749999999955
 20
-42.30499817280684
 10
-17.63749999999953
 20
-4.904998172806752
 42
-0.414213562373095
 10
-17.13749999999954
 20
-4.404998172806759
 10
-0.1374999999995374
 20
-4.404998172806767
  0
HATCH
  5
A59
330
A57
100
AcDbEntity
  8
APL Hatch
100
AcDbHatch
 10
0.0
 20
0.0
 30
0.0
210
0.0
220
0.0
230
1.0
  2
SOLID
 70
     1
 71
     1
 91
        1
 92
        1
 93
       22
 72
     1
 10
-0.1374999999997648
 20
-5.608551563400236
 11
-0.9107233047029268
 21
-6.381774868103557
 72
     2
 10
-1.087499999999585
 20
-6.204998172806945
 40
0.2499999999999976
 50
44.99999999999237
 51
179.9999999999992
 73
     0
 72
     1
 10
-1.337499999999582
 20
-6.204998172806948
 11
-1.337499999999582
 21
-5.604998172806812
 72
     1
 10
-1.337499999999582
 20
-5.604998172806812
 11
-2.837499999999586
 21
-5.604998172806987
 72
     2
 10
-2.837499999999672
 20
-5.904998172806852
 40
0.2999999999998648
 50
89.99999999998363
 51
179.9999999999837
 73
     1
 72
     1
 10
-3.137499999999537
 20
-5.904998172806767
 11
-14.53749999999963
 21
-5.904998172806752
 72
     2
 10
-14.53749999999963
 20
-7.404998172806752
 40
1.5
 50
90.0
 51
180.0
 73
     1
 72
     1
 10
-16.03749999999963
 20
-7.404998172806752
 11
-16.03749999999963
 21
-39.80499817280686
 72
     2
 10
-14.53749999999964
 20
-39.80499817280686
 40
1.499999999999989
 50
180.0
 51
270.0000000000001
 73
     1
 72
     1
 10
-14.53749999999964
 20
-41.30499817280685
 11
-3.137499999999594
 21
-41.30499817280663
 72
     2
 10
-2.837499999999621
 20
-41.3049981728066
 40
0.2999999999999723
 50
180.0000000000054
 51
270.0000000000061
 73
     1
 72
     1
 10
-2.83749999999959
 20
-41.60499817280657
 11
-1.33749999999959
 21
-41.60499817280657
 72
     1
 10
-1.33749999999959
 20
-41.60499817280657
 11
-1.337499999999593
 21
-41.00499817280668
 72
     2
 10
-1.087499999999574
 20
-41.00499817280665
 40
0.2500000000000195
 50
179.9999999999935
 51
314.9999999999997
 73
     0
 72
     1
 10
-0.9107233047029232
 20
-40.82822147751
 11
-0.1374999999995445
 21
-41.60144478221361
 72
     1
 10
-0.1374999999995445
 20
-41.60144478221361
 11
-0.1374999999997719
 21
-42.80499817280684
 72
     1
 10
-0.1374999999997719
 20
-42.80499817280684
 11
-17.13749999999954
 21
-42.80499817280686
 72
     2
 10
-17.13749999999954
 20
-42.30499817280684
 40
0.5000000000000142
 50
90.0000000000004
 51
180.0
 73
     0
 72
     1
 10
-17.63749999999955
 20
-42.30499817280684
 11
-17.63749999999953
 21
-4.904998172806756
 72
     2
 10
-17.13749999999954
 20
-4.904998172806752
 40
0.4999999999999929
 50
180.0
 51
270.0
 73
     0
 72
     1
 10
-17.13749999999954
 20
-4.404998172806759
 11
-0.1374999999995374
 21
-4.404998172806767
 72
     1
 10
-0.1374999999995374
 20
-4.404998172806767
 11
-0.1374999999997648
 21
-5.608551563400236
 97
        1
330
A58
 75
     0
 76
     1
 98
        1
 10
0.0
 20
0.0
  0
ENDBLK
  5
A5B
330
A57
100
AcDbEntity
  8
0
100
AcDbBlockEnd
  0
BLOCK
  5
C8F
330
C8E
100
AcDbEntity
  8
0
100
AcDbBlockBegin
  2
Louvre Blade
 70
     0
 10
0.0
 20
0.0
 30
0.0
  3
Louvre Blade
  1

  0
LWPOLYLINE
  5
C91
102
{ACAD_REACTORS
330
C96
102
}
330
C8E
100
AcDbEntity
  8
APL Joinery
100
AcDbPolyline
 90
       26
 70
     0
 43
0.0
 10
-8.131634279156756
 20
252.3621371713527
 10
-10.64166961481423
 20
252.3621371713527
 10
-26.22917571386331
 20
252.849246736948
 42
0.4233933810125081
 10
-26.64166961481424
 20
252.4494419065131
 10
-26.6416696148144
 20
250.8121371713528
 42
0.4142135623730951
 10
-26.24166961481437
 20
250.4121371713527
 10
-24.04166961481435
 20
250.4121371713526
 42
-0.4142135623730951
 10
-23.64166961481423
 20
250.0121371713526
 10
-23.64166961481435
 20
249.2121371713529
 42
-0.4142135623730951
 10
-24.04166961481433
 20
248.8121371713528
 10
-26.2416696148144
 20
248.8121371713527
 42
0.4142135623730951
 10
-26.64166961481424
 20
248.4121371713527
 10
-26.6416696148144
 20
246.7748324361924
 42
0.4233933810125081
 10
-26.22917571386329
 20
246.3750276057574
 10
-10.64166961481423
 20
246.8621371713528
 10
-8.131634279156681
 20
246.8621371713528
 10
-8.131634279156813
 20
252.3621371713537
 42
0.0252852570537892
 10
-8.510433213671346
 20
254.3478580164715
 42
0.279059022264911
 10
-14.35648009165802
 20
260.2181559086556
 42
-0.128737322400059
 10
-24.58508577516954
 20
265.7962761116476
 42
0.1911090655024641
 10
-26.64166961481424
 20
266.6121371713527
 10
-28.04166961481435
 20
266.6121371713526
 42
0.4142135623730951
 10
-28.44166961481436
 20
266.2121371713527
 10
-28.44166961481435
 20
264.1121371713525
 42
0.4142135623730951
 10
-28.04166961481433
 20
263.7121371713528
 10
-26.64166961481424
 20
263.7121371713528
  0
LWPOLYLINE
  5
C92
102
{ACAD_REACTORS
330
C96
102
}
330
C8E
100
AcDbEntity
  8
APL Joinery
100
AcDbPolyline
 90
        8
 70
     0
 43
0.0
 10
-27.66575510533102
 20
254.425796260471
 42
-0.1243945903701586
 10
-26.95475941806176
 20
254.612080055949
 10
-10.87023259064926
 20
254.64983334255
 42
0.5494111900532845
 10
-10.51310956689662
 20
255.2229013406656
 42
0.2236471672840769
 10
-14.74176962815195
 20
258.6652386626092
 42
-0.1094464650113609
 10
-24.27183323302813
 20
263.4014020101569
 42
0.1714628946080754
 10
-25.15132292082721
 20
263.7121371713528
 10
-28.04166961481433
 20
263.7121371713528
  0
LWPOLYLINE
  5
C93
102
{ACAD_REACTORS
330
C96
102
}
330
C8E
100
AcDbEntity
  8
APL Joinery
100
AcDbPolyline
 90
        9
 70
     0
 43
0.0
 10
-27.66575510533102
 20
244.7984780822345
 42
0.1243945903701587
 10
-26.95475941806176
 20
244.6121942867565
 10
-10.87023259064926
 20
244.5744410001554
 42
-0.5494111900532845
 10
-10.51310956689662
 20
244.0013730020399
 42
-0.223647167284077
 10
-14.74176962815187
 20
240.5590356800963
 42
0.1094464650113609
 10
-24.27183323302813
 20
235.8228723325485
 42
-0.1714628946080754
 10
-25.15132292082721
 20
235.5121371713527
 10
-28.04166961481433
 20
235.5121371713527
 10
-26.64166961481424
 20
235.5121371713527
  0
LWPOLYLINE
  5
C94
102
{ACAD_REACTORS
330
C96
102
}
330
C8E
100
AcDbEntity
  8
APL Joinery
100
AcDbPolyline
 90
        4
 70
     0
 43
0.0
 10
-27.68195279980392
 20
254.4167370356872
 42
0.26995016655674
 10
-28.44166961481419
 20
253.1121371713528
 10
-28.44166961481422
 20
246.1121371713527
 42
0.2699501665567399
 10
-27.68195279980392
 20
244.8075373070182
  0
LWPOLYLINE
  5
C95
102
{ACAD_REACTORS
330
C96
102
}
330
C8E
100
AcDbEntity
  8
APL Joinery
100
AcDbPolyline
 90
        9
 70
     0
 43
0.0
 10
-28.04166961481435
 20
235.512137171353
 42
0.4142135623730951
 10
-28.44166961481436
 20
235.112137171353
 10
-28.44166961481435
 20
233.0121371713528
 42
0.4142135623730951
 10
-28.04166961481433
 20
232.6121371713528
 10
-26.64166961481426
 20
232.6121371713528
 42
0.1911090655024641
 10
-24.58508577516727
 20
233.42799823106
 42
-0.1287373224000597
 10
-14.35648009165888
 20
239.0061184340498
 42
0.279059022264911
 10
-8.510433213671312
 20
244.8764163262333
 42
0.0252852570537894
 10
-8.131634279156813
 20
246.8621371713518
  0
HATCH
  5
C96
330
C8E
100
AcDbEntity
  8
APL Hatch
100
AcDbHatch
 10
0.0
 20
0.0
 30
0.0
210
0.0
220
0.0
230
1.0
  2
SOLID
 70
     1
 71
     1
 91
        1
 92
        7
 72
     1
 73
     1
 93
       49
 10
-25.15132292082723
 20
263.7121371713528
 42
-0.1714628946080784
 10
-24.27183323302815
 20
263.4014020101568
 42
0.1094464650113562
 10
-14.74176962815238
 20
258.6652386626093
 42
-0.2236471672840931
 10
-10.51310956689663
 20
255.2229013406657
 42
-0.5535710593046296
 10
-10.87533611808524
 20
254.6498213636503
 42
0.0
 10
-26.9547594180597
 20
254.612080055949
 42
0.1243945903705053
 10
-27.66575510533102
 20
254.425796260471
 42
0.273271539154817
 10
-28.44166961481419
 20
253.1121371713528
 42
0.0
 10
-28.44166961481422
 20
246.1121371713527
 42
0.2699501665567398
 10
-27.68195279980392
 20
244.8075373070182
 42
0.1275368524699677
 10
-26.95475941805955
 20
244.6121942867565
 42
0.0
 10
-10.87533611808516
 20
244.5744529790552
 42
-0.5535710593045567
 10
-10.51310956689665
 20
244.0013730020398
 42
-0.2236471672840938
 10
-14.74176962815232
 20
240.5590356800961
 42
0.1094464650113557
 10
-24.27183323302811
 20
235.8228723325486
 42
-0.1714628946080786
 10
-25.1513229208272
 20
235.5121371713527
 42
0.0
 10
-28.04166961481435
 20
235.5121371713527
 42
0.4142135623730951
 10
-28.44166961481436
 20
235.1121371713527
 42
0.0
 10
-28.44166961481435
 20
233.0121371713528
 42
0.4142135623730978
 10
-28.04166961481429
 20
232.6121371713528
 42
0.0
 10
-26.64166961481579
 20
232.6121371713528
 42
0.1911090655024881
 10
-24.58508577516818
 20
233.4279982310592
 42
-0.1287373224000799
 10
-14.35648009165833
 20
239.0061184340499
 42
0.2790590222649189
 10
-8.510433213671127
 20
244.8764163262341
 42
0.0252852570537906
 10
-8.131634279156685
 20
246.8621371713528
 42
0.0
 10
-10.64166961481326
 20
246.8621371713528
 42
0.0
 10
-26.22917571386323
 20
246.3750276057574
 42
-0.4233933810125305
 10
-26.6416696148144
 20
246.7748324361923
 42
0.0
 10
-26.64166961481424
 20
248.4121371713528
 42
-0.4142135623730639
 10
-26.24166961481433
 20
248.8121371713527
 42
0.0
 10
-24.04166961481437
 20
248.8121371713528
 42
0.4142135623730458
 10
-23.64166961481435
 20
249.2121371713527
 42
0.0
 10
-23.64166961481423
 20
250.0121371713525
 42
0.4142135623731262
 10
-24.04166961481428
 20
250.4121371713526
 42
0.0
 10
-26.24166961481436
 20
250.4121371713527
 42
-0.4142135623731081
 10
-26.6416696148144
 20
250.8121371713528
 42
0.0
 10
-26.64166961481424
 20
252.4494419065133
 42
-0.4233933810124917
 10
-26.22917571386322
 20
252.849246736948
 42
0.0
 10
-10.64166961481456
 20
252.3621371713528
 42
0.0
 10
-8.131634279156685
 20
252.3621371713527
 42
0.0252852570538263
 10
-8.510433213671833
 20
254.3478580164735
 42
0.279059022264842
 10
-14.35648009165802
 20
260.2181559086556
 42
-0.1287373224000572
 10
-24.58508577516943
 20
265.7962761116475
 42
0.1911090655025015
 10
-26.64166961481451
 20
266.6121371713527
 42
0.0
 10
-28.0416696148144
 20
266.6121371713526
 42
0.4142135623730612
 10
-28.44166961481436
 20
266.2121371713527
 42
0.0
 10
-28.44166961481435
 20
264.1121371713526
 42
0.414213562373077
 10
-28.04166961481446
 20
263.7121371713528
 42
0.0
 10
-26.64166961481424
 20
263.7121371713528
 42
0.0
 97
        5
330
C91
330
C92
330
C94
330
C93
330
C95
 75
     0
 76
     1
 47
0.0575235133218745
 98
        1
 10
-26.48083843841914
 20
264.9310072796605
  0
ENDBLK
  5
C90
330
C8E
100
AcDbEntity
  8
0
100
AcDbBlockEnd
  0
BLOCK
  5
1221
330
121E
100
AcDbEntity
  8
0
 62
     9
100
AcDbBlockBegin
  2
vantage black & white logo
 70
     0
 10
0.0
 20
0.0
 30
0.0
  3
vantage black & white logo
  1

  0
SPLINE
  5
1222
102
{ACAD_REACTORS
330
1252
102
}
330
121E
100
AcDbEntity
  8
APL Border
 62
     8
100
AcDbSpline
210
0.0
220
0.0
230
1.0
 70
     8
 71
     3
 72
    16
 73
    12
 74
    10
 42
0.0000000001
 43
0.0000000001
 44
0.0000000001
 40
0.0
 40
0.0
 40
0.0
 40
0.0
 40
0.1978277931646383
 40
0.361463118001824
 40
0.5540499897785108
 40
0.7796220130725381
 40
0.979106605438038
 40
1.222151590302332
 40
1.40748727220097
 40
1.607226525619232
 40
1.815049166761618
 40
1.815049166761618
 40
1.815049166761618
 40
1.815049166761618
 10
-6.679452083611295
 20
24.89125032803118
 30
0.0
 10
-6.685371732996674
 20
24.82559351525051
 30
0.0
 10
-6.696187882184245
 20
24.70562798418881
 30
0.0
 10
-6.721757155054659
 20
24.52229576436942
 30
0.0
 10
-6.768469983285688
 20
24.33480615160983
 30
0.0
 10
-6.86071972339088
 20
24.14153771241002
 30
0.0
 10
-7.051789745146238
 20
24.01851519430105
 30
0.0
 10
-7.233921808197289
 20
23.91285203345822
 30
0.0
 10
-7.443451931375125
 20
23.87675735439051
 30
0.0
 10
-7.641222718647389
 20
23.88093312949101
 30
0.0
 10
-7.776581895343343
 20
23.89281010788354
 30
0.0
 10
-7.845603808282817
 20
23.89886637823479
 30
0.0
 11
-6.679452083611295
 21
24.89125032803118
 31
0.0
 11
-6.698967886443824
 21
24.69438750983487
 31
0.0
 11
-6.7229873764864
 21
24.53252465544059
 31
0.0
 11
-6.771947617386814
 21
24.34626516442952
 31
0.0
 11
-6.880972027936735
 21
24.14879006322128
 31
0.0
 11
-7.039699899396197
 21
24.02796140183178
 31
0.0
 11
-7.25666078222261
 21
23.91842218515177
 31
0.0
 11
-7.438645676318543
 21
23.88333923622035
 31
0.0
 11
-7.638384704687155
 21
23.88303939885124
 31
0.0
 11
-7.845603808282817
 21
23.89886637823479
 31
0.0
1001
AcDbBlockRepETag
1070
     1
1071
      590
1005
1222
  0
SPLINE
  5
1223
102
{ACAD_REACTORS
330
1252
102
}
330
121E
100
AcDbEntity
  8
APL Border
 62
     8
100
AcDbSpline
210
0.0
220
0.0
230
1.0
 70
     8
 71
     3
 72
    11
 73
     7
 74
     5
 42
0.0000000001
 43
0.0000000001
 44
0.0000000001
 40
0.0
 40
0.0
 40
0.0
 40
0.0
 40
0.0680840587483313
 40
0.1752723045973904
 40
0.2784233367375334
 40
0.4826852714337078
 40
0.4826852714337078
 40
0.4826852714337078
 40
0.4826852714337078
 10
-7.465264214605014
 20
24.80065518845331
 30
0.0
 10
-7.468646137215252
 20
24.77808681972154
 30
0.0
 10
-7.47735239504952
 20
24.719987903891
 30
0.0
 10
-7.524447891091254
 20
24.63752792323728
 30
0.0
 10
-7.635129760920157
 20
24.54333837224584
 30
0.0
 10
-7.743266182308203
 20
24.55714977626708
 30
0.0
 10
-7.815117916056323
 20
24.56632682606847
 30
0.0
 11
-7.465264214605014
 21
24.80065518845331
 31
0.0
 11
-7.478569823577657
 21
24.73388393846117
 31
0.0
 11
-7.530473398252325
 21
24.64010046985295
 31
0.0
 11
-7.611072397370236
 21
24.57572705319073
 31
0.0
 11
-7.815117916056323
 21
24.56632682606847
 31
0.0
1001
AcDbBlockRepETag
1070
     1
1071
      593
1005
1223
  0
SPLINE
  5
1224
102
{ACAD_REACTORS
330
1252
102
}
330
121E
100
AcDbEntity
  8
APL Border
 62
     8
100
AcDbSpline
210
0.0
220
0.0
230
1.0
 70
     8
 71
     3
 72
    20
 73
    16
 74
     0
 42
0.0000000001
 43
0.0000000001
 40
0.0
 40
0.0
 40
0.0
 40
0.0
 40
0.1774120264923274
 40
0.3258093286713144
 40
0.4834060703451958
 40
0.6311237014699663
 40
0.811161917566129
 40
0.9605198197290178
 40
1.289502400757101
 40
1.459697744220917
 40
1.604754171475458
 40
1.794797311213428
 40
2.030760379210173
 40
2.301729078160567
 40
2.393267743077617
 40
2.393267743077617
 40
2.393267743077617
 40
2.393267743077617
 10
5.780015564168593
 20
26.87985997284487
 30
0.0
 10
5.839056126904296
 20
26.87337384475878
 30
0.0
 10
5.947481505327601
 20
26.86146235781404
 30
0.0
 10
6.098807931884806
 20
26.80185114122353
 30
0.0
 10
6.227972759762906
 20
26.72168911843352
 30
0.0
 10
6.347510602881385
 20
26.61140356622764
 30
0.0
 10
6.442310149474394
 20
26.48207375794227
 30
0.0
 10
6.536759215535255
 20
26.28338234239492
 30
0.0
 10
6.578465181725675
 20
26.06469589684353
 30
0.0
 10
6.553150099427256
 20
25.85079503063701
 30
0.0
 10
6.524121382020268
 20
25.68499989147718
 30
0.0
 10
6.464236525716046
 20
25.50199988960434
 30
0.0
 10
6.327150620479812
 20
25.31187331731421
 30
0.0
 10
6.179477266233362
 20
25.17172660684537
 30
0.0
 10
6.072729148555964
 20
25.11631253421805
 30
0.0
 10
6.045077525535504
 20
25.10350570839811
 30
0.0
1001
AcDbBlockRepETag
1070
     1
1071
      594
1005
1224
  0
SPLINE
  5
1225
102
{ACAD_REACTORS
330
1252
102
}
330
121E
100
AcDbEntity
  8
APL Border
 62
     8
100
AcDbSpline
210
0.0
220
0.0
230
1.0
 70
     8
 71
     3
 72
    17
 73
    13
 74
    11
 42
0.0000000001
 43
0.0000000001
 44
0.0000000001
 40
0.0
 40
0.0
 40
0.0
 40
0.0
 40
0.0975027714782739
 40
0.2117924486065133
 40
0.317678689712162
 40
0.4843960423119905
 40
0.5983164751676271
 40
0.7475672999664091
 40
0.8854036234346642
 40
1.040732215041493
 40
1.197661337444246
 40
1.243973057737614
 40
1.243973057737614
 40
1.243973057737614
 40
1.243973057737614
 10
5.580769717272147
 20
26.18861664944085
 30
0.0
 10
5.613502616848285
 20
26.1875961553427
 30
0.0
 10
5.684603990133519
 20
26.18537947021098
 30
0.0
 10
5.781919321100519
 20
26.1258482190374
 30
0.0
 10
5.832561030472812
 20
26.0011917111029
 30
0.0
 10
5.820388894698232
 20
25.86817511516085
 30
0.0
 10
5.765298612935113
 20
25.7349784962169
 30
0.0
 10
5.67725421213275
 20
25.62965962372396
 30
0.0
 10
5.546675458142082
 20
25.55725132865025
 30
0.0
 10
5.401760839408257
 20
25.51345804330555
 30
0.0
 10
5.281860155064943
 20
25.50729075876586
 30
0.0
 10
5.21427201805345
 20
25.50302975767877
 30
0.0
 10
5.198870965514487
 20
25.50205881951548
 30
0.0
 11
5.580769717272147
 21
26.18861664944085
 31
0.0
 11
5.67764963039707
 21
26.17761333726443
 31
0.0
 11
5.774085473546278
 21
26.11627608549865
 31
0.0
 11
5.81791994770495
 21
26.01988918322082
 31
0.0
 11
5.809153052873227
 21
25.85340249542595
 31
0.0
 11
5.765318578714499
 21
25.74825305939683
 31
0.0
 11
5.668882735565347
 21
25.63434108961652
 31
0.0
 11
5.55010046754208
 21
25.56441523695462
 31
0.0
 11
5.401316428353624
 21
25.51980267086244
 31
0.0
 11
5.245093480229996
 21
25.50493189624708
 31
0.0
 11
5.198870965514487
 21
25.50205881951548
 31
0.0
1001
AcDbBlockRepETag
1070
     1
1071
      595
1005
1225
  0
SPLINE
  5
1226
102
{ACAD_REACTORS
330
125C
330
125D
102
}
330
121E
100
AcDbEntity
  8
APL Border
 62
     8
100
AcDbSpline
210
0.0
220
0.0
230
1.0
 70
     8
 71
     3
 72
    25
 73
    21
 74
     0
 42
0.0000000001
 43
0.0000000001
 40
0.0289432764998855
 40
0.0289432764998855
 40
0.0289432764998855
 40
0.0289432764998855
 40
0.7134165119202287
 40
1.411731005087882
 40
2.041147618059464
 40
3.036171077105474
 40
3.957911241576911
 40
4.83592253147705
 40
5.676684481733094
 40
6.271141751551381
 40
6.974058201941041
 40
7.825808739104269
 40
8.5265481701528
 40
9.125733480364379
 40
9.891766509798275
 40
10.6767880070383
 40
11.66821110410527
 40
12.42950909475574
 40
13.09855121203093
 40
13.70132750762923
 40
13.70132750762923
 40
13.70132750762923
 40
13.70132750762923
 10
13.141643811855
 20
43.40554077871886
 30
0.0
 10
12.91988216430481
 20
43.459256627421
 30
0.0
 10
12.47168844867874
 20
43.5669624691983
 30
0.0
 10
11.80600758681791
 20
43.66484839798013
 30
0.0
 10
11.02988777388427
 20
43.6649333207477
 30
0.0
 10
10.1361516270939
 20
43.55263717791944
 30
0.0
 10
9.306733533720876
 20
43.19741938393827
 30
0.0
 10
8.599762003673276
 20
42.45478219212527
 30
0.0
 10
8.236440109363229
 20
41.77191325718488
 30
0.0
 10
8.073464067873601
 20
41.07996170309042
 30
0.0
 10
8.007035995439764
 20
40.3638923215899
 30
0.0
 10
7.98103501985804
 20
39.60493317412716
 30
0.0
 10
8.107710769833204
 20
38.92055182387923
 30
0.0
 10
8.442098079777224
 20
38.21445924826959
 30
0.0
 10
9.036296716232907
 20
37.66873436641545
 30
0.0
 10
9.909689132144507
 20
37.42421376773082
 30
0.0
 10
10.75775873959412
 20
37.35554609345542
 30
0.0
 10
11.56487972715851
 20
37.38454149767491
 30
0.0
 10
12.23983007222788
 20
37.44815687239099
 30
0.0
 10
12.66077873273661
 20
37.49837935861893
 30
0.0
 10
12.86026661033734
 20
37.52234731786496
 30
0.0
1001
AcDbBlockRepETag
1070
     1
1071
      596
1005
1226
  0
SPLINE
  5
1227
102
{ACAD_REACTORS
330
125C
330
125D
102
}
330
121E
100
AcDbEntity
  8
APL Border
 62
     8
100
AcDbSpline
210
0.0
220
0.0
230
1.0
 70
     8
 71
     3
 72
    19
 73
    15
 74
     0
 42
0.0000000001
 43
0.0000000001
 40
1.529304964685563
 40
1.529304964685563
 40
1.529304964685563
 40
1.529304965389289
 40
2.032016958536417
 40
2.556791262130423
 40
2.964493033520332
 40
3.465275586793771
 40
4.160836826595903
 40
4.71800698457321
 40
5.304510401169525
 40
5.733359288828643
 40
6.099728421126306
 40
6.422629926283571
 40
6.722447272622213
 40
6.957123473755099
 40
6.957123473755099
 40
6.957123473755099
 40
6.957123473755099
 10
11.64369617822672
 20
42.03297741382947
 30
0.0
 10
11.47589856643677
 20
42.04574754506741
 30
0.0
 10
11.13485165915975
 20
42.01473204050012
 30
0.0
 10
10.65553906793815
 20
41.91613810684326
 30
0.0
 10
10.23036575101369
 20
41.67654609785123
 30
0.0
 10
9.854221329784113
 20
41.27113304911427
 30
0.0
 10
9.717431528044755
 20
40.66388266631498
 30
0.0
 10
9.641062203095145
 20
40.05806431643046
 30
0.0
 10
9.716968816830743
 20
39.48770259248511
 30
0.0
 10
10.00680770225198
 20
39.09661486818469
 30
0.0
 10
10.3797311442331
 20
38.98358798973799
 30
0.0
 10
10.70216182646531
 20
38.92661434152812
 30
0.0
 10
10.99026249243499
 20
38.92783484269152
 30
0.0
 10
11.24302802126629
 20
38.95177692242413
 30
0.0
 10
11.33360452536307
 20
38.96406177273881
 30
0.0
1001
AcDbBlockRepETag
1070
     1
1071
      597
1005
1227
  0
LWPOLYLINE
  5
1228
102
{ACAD_REACTORS
330
1259
102
}
330
121E
100
AcDbEntity
  8
APL Border
 62
     8
100
AcDbPolyline
 90
       12
 70
     1
 43
0.0
 10
14.13627631352983
 20
43.61979184908029
 10
18.38986203356285
 20
43.61979184908029
 10
18.21321428445671
 20
41.9726305274507
 10
15.84058876400877
 20
41.9726305274507
 10
15.75340373709809
 20
41.15966911198297
 10
17.71732334684157
 20
41.15966911198297
 10
17.56969663746741
 20
39.57967635988449
 10
15.58395939694927
 20
39.57967635988449
 10
15.5052467299167
 20
38.84571591422678
 10
17.87787225036464
 20
38.84571591422678
 10
17.72077299807506
 20
37.38083558975206
 10
13.46718727804204
 20
37.38083558975206
1001
AcDbBlockRepETag
1070
     1
1071
      599
1005
1228
  0
LWPOLYLINE
  5
1229
102
{ACAD_REACTORS
330
125C
330
125D
102
}
330
121E
100
AcDbEntity
  8
APL Border
 62
     8
100
AcDbPolyline
 90
        2
 70
     0
 43
0.0
 10
13.141643811855
 20
43.40554077871887
 10
13.141643811855
 20
41.76981947766621
1001
AcDbBlockRepETag
1070
     1
1071
      600
1005
1229
  0
LWPOLYLINE
  5
122A
102
{ACAD_REACTORS
330
125C
330
125D
102
}
330
121E
100
AcDbEntity
  8
APL Border
 62
     8
100
AcDbPolyline
 90
        6
 70
     0
 43
0.0
 10
11.33358781659778
 20
38.96390597096916
 10
11.39962533929804
 20
39.57967635988449
 10
10.96889270630695
 20
39.57967635988449
 10
11.12639005748273
 20
41.04826877857415
 10
13.23839963312048
 20
41.04826877857415
 10
12.86026661033734
 20
37.52234731786496
1001
AcDbBlockRepETag
1070
     1
1071
      601
1005
122A
  0
LWPOLYLINE
  5
122B
102
{ACAD_REACTORS
330
1256
102
}
330
121E
100
AcDbEntity
  8
APL Border
 62
     8
100
AcDbPolyline
 90
        8
 70
     1
 43
0.0
 10
3.105743226874893
 20
43.61998313276061
 10
2.929095477768755
 20
41.97282181113101
 10
1.466301152475638
 20
41.97282181113101
 10
0.9741138955425029
 20
37.38339558452146
 10
-0.867968570535281
 20
37.38102687343238
 10
-0.3755272841536326
 20
41.97282181113101
 10
-1.891167362926863
 20
41.97282181113101
 10
-1.725754035154749
 20
43.61998313276061
1001
AcDbBlockRepETag
1070
     1
1071
      604
1005
122B
  0
LWPOLYLINE
  5
122C
102
{ACAD_REACTORS
330
1255
102
}
330
121E
100
AcDbEntity
  8
APL Border
 62
     8
100
AcDbPolyline
 90
       10
 70
     1
 43
0.0
 10
-4.228474015381578
 20
40.14164596649268
 10
-3.855464624526035
 20
43.61979184908029
 10
-2.181839912298443
 20
43.61979184908029
 10
-2.850928947786229
 20
37.38083558975206
 10
-5.032306754624556
 20
37.38083558975206
 10
-6.131920885667284
 20
40.6246666384634
 10
-6.479801476178323
 20
37.38083558975206
 10
-8.135186891292875
 20
37.38083558975206
 10
-7.466097855805088
 20
43.61979184908029
 10
-5.40751765387219
 20
43.61979184908029
1001
AcDbBlockRepETag
1070
     1
1071
      605
1005
122C
  0
LWPOLYLINE
  5
122D
102
{ACAD_REACTORS
330
125C
102
}
330
121E
100
AcDbEntity
  8
APL Border
  6
Continuous
 62
     8
100
AcDbPolyline
 90
        8
 70
     1
 43
0.0
 10
-8.449177928734428
 20
37.38083558975206
 10
-9.847253547555595
 20
43.61979184908029
 10
-12.02298966350147
 20
43.61979184908029
 10
-14.82679588919473
 20
37.38083558975206
 10
-12.95240022532295
 20
37.38083558975206
 10
-12.35252874042399
 20
38.71565392391761
 10
-10.64639685172309
 20
38.71565392391761
 10
-10.34727999772013
 20
37.38083558975206
1001
AcDbBlockRepETag
1070
     1
1071
      606
1005
122D
  0
LWPOLYLINE
  5
122E
330
121E
100
AcDbEntity
  8
APL Border
  6
Continuous
 62
     8
100
AcDbPolyline
 90
        7
 70
     1
 43
0.0
 10
-18.99614352503855
 20
43.61979184908029
 10
-17.7875751270476
 20
37.38083558975206
 10
-15.77022638070494
 20
37.38083558975206
 10
-12.96642015501169
 20
43.61979184908029
 10
-14.7664201550117
 20
43.61979184908029
 10
-16.54136876356097
 20
39.42215966960597
 10
-17.19614352503853
 20
43.61979184908029
1001
AcDbBlockRepETag
1070
     1
1071
      608
1005
122E
  0
LWPOLYLINE
  5
122F
102
{ACAD_REACTORS
330
125F
102
}
330
121E
100
AcDbEntity
  8
APL Border
  6
Continuous
 62
     8
100
AcDbPolyline
 90
        4
 70
     1
 43
0.0
 10
16.33779773177886
 20
35.29789574745093
 10
-16.33747952551644
 20
35.29789574745093
 10
-12.98884796421711
 20
29.49789574745094
 10
12.98916617047902
 20
29.49789574745094
1001
AcDbBlockRepETag
1070
     1
1071
      609
1005
122F
  0
LWPOLYLINE
  5
1230
102
{ACAD_REACTORS
330
1252
102
}
330
121E
100
AcDbEntity
  8
APL Border
 62
     8
100
AcDbPolyline
 90
        9
 70
     1
 43
0.0
 10
7.455500104221528
 20
25.00957443408062
 10
6.800478684667126
 20
26.87985997284487
 10
7.607536311785906
 20
26.87985997284487
 10
7.963471882016364
 20
25.86355557445326
 10
8.538893993587493
 20
26.87985997284487
 10
9.414203966725494
 20
26.87985997284487
 10
8.232331174709315
 20
25.00957443408062
 10
8.120338037129926
 20
23.87985997284487
 10
7.343506966642138
 20
23.87985997284487
1001
AcDbBlockRepETag
1070
     1
1071
      611
1005
1230
  0
LWPOLYLINE
  5
1231
102
{ACAD_REACTORS
330
1252
102
}
330
121E
100
AcDbEntity
  8
APL Border
 62
     8
100
AcDbPolyline
 90
        4
 70
     1
 43
0.0
 10
12.20974330707307
 20
28.14789574745094
 10
8.850698786449385
 20
22.32985997284487
 10
-8.850380580188158
 20
22.32985997284487
 10
-12.20942510081127
 20
28.14789574745094
1001
AcDbBlockRepETag
1070
     1
1071
      613
1005
1231
  0
LWPOLYLINE
  5
1232
102
{ACAD_REACTORS
330
1252
102
}
330
121E
100
AcDbEntity
  8
APL Border
 62
     8
100
AcDbPolyline
 90
        6
 70
     0
 43
0.0
 10
5.580769717272147
 20
26.18861664944085
 10
5.137953374950967
 20
26.18861664944085
 10
4.909077041159065
 20
23.87985997284487
 10
4.132245970671277
 20
23.87985997284487
 10
4.429648034880159
 20
26.87985997284487
 10
5.793677369303878
 20
26.87985997284487
1001
AcDbBlockRepETag
1070
     1
1071
      614
1005
1232
  0
LWPOLYLINE
  5
1233
102
{ACAD_REACTORS
330
125F
102
}
330
121E
100
AcDbEntity
  8
APL Border
  6
Continuous
 62
     8
100
AcDbPolyline
 90
        4
 70
     1
 43
0.0
 10
1.119422795136273
 20
34.02289574745092
 10
0.3425917246484857
 20
34.02289574745092
 10
0.0451896604396041
 20
31.02289574745093
 10
0.8220207309273916
 20
31.02289574745093
1001
AcDbBlockRepETag
1070
     1
1071
      620
1005
1233
  0
LWPOLYLINE
  5
1234
102
{ACAD_REACTORS
330
1252
102
}
330
121E
100
AcDbEntity
  8
APL Border
 62
     8
100
AcDbPolyline
 90
        4
 70
     0
 43
0.0
 10
6.045077525535504
 20
25.1035057083981
 10
6.339444173005233
 20
23.87985997284487
 10
5.532386545886623
 20
23.87985997284487
 10
5.142141867913778
 20
25.50205881951548
1001
AcDbBlockRepETag
1070
     1
1071
      621
1005
1234
  0
LWPOLYLINE
  5
1235
102
{ACAD_REACTORS
330
1253
102
}
330
121E
100
AcDbEntity
  8
APL Border
 62
     8
100
AcDbPolyline
 90
        4
 70
     1
 43
0.0
 10
0.0001591031300165
 20
7.000275566930961
 10
3.563095122801513
 20
13.17146177711931
 10
-0.9450856774407441
 20
20.97985997284487
 10
-8.070957716782203
 20
20.97985997284487
1001
AcDbBlockRepETag
1070
     1
1071
      622
1005
1235
  0
LWPOLYLINE
  5
1236
102
{ACAD_REACTORS
330
1257
102
}
330
121E
100
AcDbEntity
  8
APL Border
 62
     8
100
AcDbPolyline
 90
        3
 70
     1
 43
0.0
 10
0.8484489512626112
 20
20.97985997284487
 10
4.459862437153191
 20
14.72470832814346
 10
8.071275923043373
 20
20.97985997284487
1001
AcDbBlockRepETag
1070
     1
1071
      623
1005
1236
  0
LWPOLYLINE
  5
1237
102
{ACAD_REACTORS
330
1252
102
}
330
121E
100
AcDbEntity
  8
APL Border
 62
     8
100
AcDbPolyline
 90
        4
 70
     0
 43
0.0
 10
-7.465264214605014
 20
24.80065518845331
 10
-7.259144283007998
 20
26.87985997284487
 10
-6.48231321252021
 20
26.87985997284487
 10
-6.679452083611295
 20
24.89125032803118
1001
AcDbBlockRepETag
1070
     1
1071
      626
1005
1237
  0
LWPOLYLINE
  5
1238
102
{ACAD_REACTORS
330
1252
102
}
330
121E
100
AcDbEntity
  8
APL Border
 62
     8
100
AcDbPolyline
 90
        4
 70
     0
 43
0.0
 10
-7.845603808282817
 20
23.89886637823479
 10
-8.399876560405061
 20
23.98304774476413
 10
-8.399876560405061
 20
24.64579492155148
 10
-7.81511791605564
 20
24.56632682606838
1001
AcDbBlockRepETag
1070
     1
1071
      627
1005
1238
  0
LWPOLYLINE
  5
1239
102
{ACAD_REACTORS
330
125F
102
}
330
121E
100
AcDbEntity
  8
APL Border
  6
Continuous
 62
     8
100
AcDbPolyline
 90
        6
 70
     1
 43
0.0
 10
-7.549934049473819
 20
34.02289574745092
 10
-8.326765119961606
 20
34.02289574745092
 10
-8.624167184170488
 20
31.02289574745093
 10
-6.770246795158442
 20
31.02289574745093
 10
-6.700109532938455
 20
31.73039516316516
 10
-7.777198851462713
 20
31.73039516316516
1001
AcDbBlockRepETag
1070
     1
1071
      628
1005
1239
  0
LWPOLYLINE
  5
123A
102
{ACAD_REACTORS
330
125F
102
}
330
121E
100
AcDbEntity
  8
APL Border
  6
Continuous
 62
     8
100
AcDbPolyline
 90
        3
 70
     1
 43
0.0
 10
-10.14693849009504
 20
33.12550842600547
 10
-10.00044093617224
 20
32.51653621849665
 10
-10.45444607654239
 20
32.51653621849665
1001
AcDbBlockRepETag
1070
     1
1071
      629
1005
123A
  0
LWPOLYLINE
  5
123B
102
{ACAD_REACTORS
330
125F
102
}
330
121E
100
AcDbEntity
  8
APL Border
  6
Continuous
 62
     8
100
AcDbPolyline
 90
        8
 70
     1
 43
0.0
 10
-8.834065309397374
 20
31.02289574745093
 10
-9.555761072109191
 20
34.02289574745092
 10
-10.50084997043805
 20
34.02289574745092
 10
-12.01573480092304
 20
31.02289574745093
 10
-11.20867717380426
 20
31.02289574745093
 10
-10.74455961985978
 20
31.94201027933759
 10
-9.862229957552528
 20
31.94201027933759
 10
-9.641122936515984
 20
31.02289574745093
1001
AcDbBlockRepETag
1070
     1
1071
      630
1005
123B
  0
LWPOLYLINE
  5
123C
102
{ACAD_REACTORS
330
1258
102
}
330
121E
100
AcDbEntity
  8
APL Border
 62
     8
100
AcDbPolyline
 90
        3
 70
     1
 43
0.0
 10
0.0000000003145431
 20
4.000000000000009
 10
23.60256143704041
 20
44.88083558975217
 10
-23.60256142783933
 20
44.88083558975206
1001
AcDbBlockRepETag
1070
     1
1071
      631
1005
123C
  0
LWPOLYLINE
  5
123D
102
{ACAD_REACTORS
330
1258
102
}
330
121E
100
AcDbEntity
  8
APL Border
 62
     8
100
AcDbPolyline
 90
        3
 70
     1
 43
0.0
 10
27.06666305249243
 20
46.88083558975206
 10
-27.06666304266244
 20
46.88083558975206
 10
-0.0000000000000284
 20
0.0000000000000238
1001
AcDbBlockRepETag
1070
     1
1071
      703
1005
123D
  0
LWPOLYLINE
  5
123E
102
{ACAD_REACTORS
330
125C
330
125E
102
}
330
121E
100
AcDbEntity
  8
APL Border
  6
Continuous
 62
     8
100
AcDbPolyline
 90
        8
 70
     1
 43
0.0
 10
7.980630193374565
 20
37.38083558975206
 10
6.582554574553398
 20
43.61979184908029
 10
4.406818458607517
 20
43.61979184908029
 10
1.603012232914267
 20
37.38083558975206
 10
3.477407896786047
 20
37.38083558975206
 10
4.077279381685002
 20
38.71565392391761
 10
5.783411270385897
 20
38.71565392391761
 10
6.082528124388858
 20
37.38083558975206
1001
AcDbBlockRepETag
1070
     1
1071
      760
1005
123E
  0
LWPOLYLINE
  5
123F
102
{ACAD_REACTORS
330
125C
330
125E
102
}
330
121E
100
AcDbEntity
  8
APL Border
  6
Continuous
 62
     8
100
AcDbPolyline
 90
        3
 70
     1
 43
0.0
 10
5.206046831612667
 20
41.69367581194667
 10
5.552066120962537
 20
40.14955389030274
 10
4.512113667606024
 20
40.14955389030274
1001
AcDbBlockRepETag
1070
     1
1071
      761
1005
123F
  0
LWPOLYLINE
  5
1240
102
{ACAD_REACTORS
330
125F
102
}
330
121E
100
AcDbEntity
  8
APL Border
  6
Continuous
 62
     8
100
AcDbPolyline
 90
        4
 70
     1
 43
0.0
 10
5.615530392135354
 20
34.02289574745092
 10
4.838699321647567
 20
34.02289574745092
 10
4.541297257438685
 20
31.02289574745093
 10
5.318128327926473
 20
31.02289574745093
1001
AcDbBlockRepETag
1070
     1
1071
      785
1005
1240
  0
LWPOLYLINE
  5
1241
102
{ACAD_REACTORS
330
125F
102
}
330
121E
100
AcDbEntity
  8
APL Border
 62
     8
100
AcDbPolyline
 90
       13
 70
     0
 43
0.0
 10
-5.535628094882099
 20
32.1870929174454
 10
-5.353790768486447
 20
34.02289574745092
 10
-6.130425112774389
 20
34.0248801943346
 10
-6.333826921263238
 20
31.9730940808461
 42
0.1695250701542156
 10
-6.106840682758871
 20
31.39301551086222
 42
0.0826087127293405
 10
-5.813961912619959
 20
31.13108995311734
 42
0.1017056431856583
 10
-5.510404689928634
 20
31.02488019433462
 10
-4.760057203160528
 20
31.0248801943346
 42
0.1918846087154957
 10
-4.136172756560569
 20
31.41919793838074
 42
0.1021851328841131
 10
-3.889225876952792
 20
31.97309408084612
 10
-3.685824068463887
 20
34.0248801943346
 10
-4.462655138951674
 20
34.0248801943346
 10
-4.65073703420694
 20
32.12763147393075
1001
AcDbBlockRepETag
1070
     1
1071
      866
1005
1241
  0
SPLINE
  5
1242
102
{ACAD_REACTORS
330
125F
102
}
330
121E
100
AcDbEntity
  8
APL Border
 62
     8
100
AcDbSpline
210
0.0
220
0.0
230
1.0
 70
     8
 71
     3
 72
    24
 73
    20
 74
    18
 42
0.0000000001
 43
0.0000000001
 44
0.0000000001
 40
0.0
 40
0.0
 40
0.0
 40
0.0
 40
0.1612668085855933
 40
0.2532303870616441
 40
0.3214574742553387
 40
0.4101806452459026
 40
0.5031588697521256
 40
0.5664511009171887
 40
0.624871878778038
 40
0.6731644290699905
 40
0.7797386132933425
 40
0.9206747739903356
 40
1.025058962643435
 40
1.116412352300609
 40
1.212929457806147
 40
1.276240530363035
 40
1.339961572016457
 40
1.386280507025952
 40
1.435584820291647
 40
1.435584820291647
 40
1.435584820291647
 40
1.435584820291647
 10
-5.535628094882099
 20
32.1870929174454
 30
0.0
 10
-5.53213414748617
 20
32.13312332644234
 30
0.0
 10
-5.526647751003197
 20
32.04837718097616
 30
0.0
 10
-5.488860432547518
 20
31.94683424540268
 30
0.0
 10
-5.447171648840961
 20
31.8753242559261
 30
0.0
 10
-5.395818187958767
 20
31.80737001333622
 30
0.0
 10
-5.320761662408248
 20
31.77062767698265
 30
0.0
 10
-5.254477128417399
 20
31.74466351916423
 30
0.0
 10
-5.200112096792143
 20
31.72723210184819
 30
0.0
 10
-5.128888988289486
 20
31.72198763189771
 30
0.0
 10
-5.030042811850907
 20
31.72786870372271
 30
0.0
 10
-4.915707066470194
 20
31.75812586881066
 30
0.0
 10
-4.815771266393483
 20
31.81405298527761
 30
0.0
 10
-4.754740567305573
 20
31.89193427605802
 30
0.0
 10
-4.714673995441981
 20
31.96546823314959
 30
0.0
 10
-4.683526695854578
 20
32.03313813212702
 30
0.0
 10
-4.662006183068958
 20
32.08703079743258
 30
0.0
 10
-4.651792807669443
 20
32.13930455656534
 30
0.0
 10
-4.647206914869654
 20
32.17083533130903
 30
0.0
 10
-4.644842382192905
 20
32.1870929174454
 30
0.0
 11
-5.535628094882099
 21
32.1870929174454
 31
0.0
 11
-5.515298846223288
 21
32.02711258990369
 31
0.0
 11
-5.483433995220536
 21
31.94084596230824
 31
0.0
 11
-5.44947766231354
 21
31.88166908437061
 31
0.0
 11
-5.392321718875223
 21
31.8138089399536
 31
0.0
 11
-5.311535231450477
 21
31.76778184269665
 31
0.0
 11
-5.252609732475718
 21
31.74468006578604
 31
0.0
 11
-5.196420818688864
 21
31.72868652792477
 31
0.0
 11
-5.148347479287053
 21
31.72409039341204
 31
0.0
 11
-5.041949649235618
 21
31.73021889267523
 31
0.0
 11
-4.906104524581394
 21
31.76775692005663
 31
0.0
 11
-4.816802280674096
 21
31.82180475140893
 31
0.0
 11
-4.758009512288197
 21
31.89172507883507
 31
0.0
 11
-4.710553499371997
 21
31.97576958188711
 31
0.0
 11
-4.684063009443377
 21
32.03327215445256
 31
0.0
 11
-4.662061522518769
 21
32.09307437617135
 31
0.0
 11
-4.652346246099511
 21
32.13836297456555
 31
0.0
 11
-4.644842382192905
 21
32.1870929174454
 31
0.0
1001
AcDbBlockRepETag
1070
     1
1071
      827
1005
1242
  0
LWPOLYLINE
  5
1243
102
{ACAD_REACTORS
330
125F
102
}
330
121E
100
AcDbEntity
  8
APL Border
 62
     8
100
AcDbPolyline
 90
       13
 70
     0
 43
0.0
 10
6.787553510813182
 20
32.18510847056172
 10
6.969390837208834
 20
34.02091130056725
 10
6.192756492920892
 20
34.02289574745092
 10
5.989354684432043
 20
31.97110963396243
 42
0.1695250701542156
 10
6.21634092293641
 20
31.39103106397854
 42
0.0826087127293405
 10
6.509219693075323
 20
31.12910550623367
 42
0.1017056431856583
 10
6.812776915766647
 20
31.02289574745094
 10
7.563124402534754
 20
31.02289574745093
 42
0.1918846087154957
 10
8.187008849134713
 20
31.41721349149707
 42
0.1021851328841131
 10
8.433955728742489
 20
31.97110963396244
 10
8.637357537231395
 20
34.02289574745092
 10
7.860526466743607
 20
34.02289574745092
 10
7.672444571488341
 20
32.12564702704707
1001
AcDbBlockRepETag
1070
     1
1071
      837
1005
1243
  0
LWPOLYLINE
  5
1244
102
{ACAD_REACTORS
330
125F
102
}
330
121E
100
AcDbEntity
  8
APL Border
  6
Continuous
 62
     8
100
AcDbPolyline
 90
       13
 70
     1
 43
0.0
 10
-1.295012624591635
 20
34.02807364104484
 10
-0.1975458970834154
 20
34.0280551402308
 10
-0.4949479612922972
 20
31.0280551402308
 10
-1.115886909891884
 20
31.0280551402308
 10
-0.9222174129992311
 20
32.98166797820307
 10
-1.611942464131544
 20
31.0280551402308
 10
-2.344230471214956
 20
31.0280551402308
 10
-2.63016252924163
 20
32.98166797820306
 10
-2.823832026134283
 20
31.0280551402308
 10
-3.44477097473387
 20
31.0280551402308
 10
-3.147349004861581
 20
34.02825593571061
 10
-2.047349004861558
 20
34.02825593571061
 10
-1.8272453185659
 20
32.52441131541936
1001
AcDbBlockRepETag
1070
     1
1071
      867
1005
1244
  0
LWPOLYLINE
  5
1245
102
{ACAD_REACTORS
330
125F
102
}
330
121E
100
AcDbEntity
  8
APL Border
  6
Continuous
 62
     8
100
AcDbPolyline
 90
       10
 70
     1
 43
0.0
 10
1.724974710806094
 20
34.02289574745092
 10
1.427552740933805
 20
31.02269495197112
 10
2.048491689533392
 20
31.02269495197112
 10
2.231899581960561
 20
32.87279534971117
 10
3.051434648859952
 20
31.02269495197112
 10
3.902826396438257
 20
31.02269495197112
 10
4.200228460647139
 20
34.02269495197112
 10
3.580266230192904
 20
34.02269495197112
 10
3.395920304875374
 20
32.17298478610545
 10
2.576558098165463
 20
34.02269495197112
1001
AcDbBlockRepETag
1070
     1
1071
      616
1005
1245
  0
LWPOLYLINE
  5
1246
102
{ACAD_REACTORS
330
125F
102
}
330
121E
100
AcDbEntity
  8
APL Border
  6
Continuous
 62
     8
100
AcDbPolyline
 90
       13
 70
     1
 43
0.0
 10
11.01183437133605
 20
34.02271345278515
 10
12.10930109884427
 20
34.02269495197111
 10
11.81189903463539
 20
31.02269495197111
 10
11.1909600860358
 20
31.02269495197111
 10
11.38462958292845
 20
32.97630778994339
 10
10.69490453179614
 20
31.02269495197111
 10
9.962616524712728
 20
31.02269495197111
 10
9.676684466686054
 20
32.97630778994338
 10
9.483014969793401
 20
31.02269495197111
 10
8.862076021193814
 20
31.02269495197111
 10
9.159497991066103
 20
34.02289574745092
 10
10.25949799106612
 20
34.02289574745092
 10
10.47960167736178
 20
32.51905112715967
1001
AcDbBlockRepETag
1070
     1
1071
      847
1005
1246
  0
SPLINE
  5
1247
102
{ACAD_REACTORS
330
125F
102
}
330
121E
100
AcDbEntity
  8
APL Border
 62
     8
100
AcDbSpline
210
0.0
220
0.0
230
1.0
 70
     8
 71
     3
 72
    24
 73
    20
 74
    18
 42
0.0000000001
 43
0.0000000001
 44
0.0000000001
 40
0.0
 40
0.0
 40
0.0
 40
0.0
 40
0.1612668085856004
 40
0.2532303870616512
 40
0.3214574742553458
 40
0.4101806452458731
 40
0.5031588697521455
 40
0.5664511009172086
 40
0.6248718787780579
 40
0.6731644290699537
 40
0.7797386132933625
 40
0.9206747739903555
 40
1.025058962643406
 40
1.116412352300617
 40
1.212929457806155
 40
1.276240530363043
 40
1.339961572016455
 40
1.386280507025956
 40
1.435584820291643
 40
1.435584820291643
 40
1.435584820291643
 40
1.435584820291643
 10
6.787553510813182
 20
32.18510847056172
 30
0.0
 10
6.791047458209138
 20
32.13113887955867
 30
0.0
 10
6.796533854692151
 20
32.04639273409249
 30
0.0
 10
6.834321173147815
 20
31.94484979851901
 30
0.0
 10
6.876009956854381
 20
31.87333980904243
 30
0.0
 10
6.927363417736518
 20
31.80538556645249
 30
0.0
 10
7.002419943287081
 20
31.76864323009899
 30
0.0
 10
7.068704477277941
 20
31.74267907228054
 30
0.0
 10
7.123069508903178
 20
31.72524765496453
 30
0.0
 10
7.194292617405833
 20
31.72000318501402
 30
0.0
 10
7.293138793844411
 20
31.72588425683905
 30
0.0
 10
7.407474539225143
 20
31.75614142192696
 30
0.0
 10
7.507410339301799
 20
31.81206853839397
 30
0.0
 10
7.568441038389779
 20
31.88994982917432
 30
0.0
 10
7.608507610253345
 20
31.96348378626594
 30
0.0
 10
7.639654909840773
 20
32.03115368524333
 30
0.0
 10
7.661175422626328
 20
32.08504635054892
 30
0.0
 10
7.671388798025919
 20
32.13732010968165
 30
0.0
 10
7.675974690825655
 20
32.16885088442535
 30
0.0
 10
7.678339223502376
 20
32.18510847056172
 30
0.0
 11
6.787553510813182
 21
32.18510847056172
 31
0.0
 11
6.80788275947205
 21
32.02512814302002
 31
0.0
 11
6.839747610474802
 21
31.93886151542456
 31
0.0
 11
6.873703943381798
 21
31.87968463748693
 31
0.0
 11
6.930859886820059
 21
31.81182449306993
 31
0.0
 11
7.011646374244861
 21
31.76579739581298
 31
0.0
 11
7.07057187321962
 21
31.74269561890237
 31
0.0
 11
7.126760787006475
 21
31.72670208104109
 31
0.0
 11
7.174834126408228
 21
31.72210594652836
 31
0.0
 11
7.28123195645972
 21
31.72823444579155
 31
0.0
 11
7.417077081113944
 21
31.76577247317295
 31
0.0
 11
7.506379325021185
 21
31.81982030452526
 31
0.0
 11
7.565172093407142
 21
31.88974063195139
 31
0.0
 11
7.612628106323342
 21
31.97378513500343
 31
0.0
 11
7.639118596251961
 21
32.03128770756889
 31
0.0
 11
7.661120083176541
 21
32.09108992928768
 31
0.0
 11
7.670835359595827
 21
32.13637852768188
 31
0.0
 11
7.678339223502376
 21
32.18510847056172
 31
0.0
1001
AcDbBlockRepETag
1070
     1
1071
      848
1005
1247
  0
LWPOLYLINE
  5
1248
102
{ACAD_REACTORS
330
1252
102
}
330
121E
100
AcDbEntity
  8
APL Border
  6
Continuous
 62
     8
100
AcDbPolyline
 90
        4
 70
     1
 43
0.0
 10
-1.87552020613694
 20
26.87985997284487
 10
-2.652351276624727
 20
26.87985997284487
 10
-2.949753340833609
 20
23.87985997284487
 10
-2.172922270345821
 20
23.87985997284487
1001
AcDbBlockRepETag
1070
     1
1071
      851
1005
1248
  0
LWPOLYLINE
  5
1249
102
{ACAD_REACTORS
330
1252
102
}
330
121E
100
AcDbEntity
  8
APL Border
  6
Continuous
 62
     8
100
AcDbPolyline
 90
       10
 70
     1
 43
0.0
 10
-1.269968290467119
 20
26.87985997284487
 10
-1.567390260339408
 20
23.87965917736506
 10
-0.9464513117398212
 20
23.87965917736506
 10
-0.7630434193126519
 20
25.72975957510511
 10
0.0564916475867392
 20
23.87965917736506
 10
0.9078833951650437
 20
23.87965917736506
 10
1.205285459373925
 20
26.87965917736506
 10
0.5853232289196911
 20
26.87965917736506
 10
0.4009773036021614
 20
25.0299490114994
 10
-0.41838490310775
 20
26.87965917736506
1001
AcDbBlockRepETag
1070
     1
1071
      852
1005
1249
  0
LWPOLYLINE
  5
124A
102
{ACAD_REACTORS
330
1252
102
}
330
121E
100
AcDbEntity
  8
APL Border
 62
     8
100
AcDbPolyline
 90
       13
 70
     0
 43
0.0
 10
1.882971499788112
 20
26.87985997284487
 10
3.847979515363789
 20
26.87985997284487
 10
3.788499102522024
 20
26.27985997284487
 10
2.600322157434135
 20
26.27985997284487
 10
2.540562294183217
 20
25.67704105755032
 10
3.542578834455781
 20
25.67704105755032
 10
3.476410183919
 20
25.07985997284487
 10
2.474393643646379
 20
25.07985997284487
 10
2.421932428393546
 20
24.48037956726917
 10
3.610109373481435
 20
24.48037956726917
 10
3.550577451154907
 20
23.87985997284487
 10
1.58556943557923
 20
23.87985997284487
 10
1.882971499788112
 20
26.87985997284487
1001
AcDbBlockRepETag
1070
     1
1071
      864
1005
124A
  0
LINE
  5
124B
102
{ACAD_REACTORS
330
1252
102
}
330
121E
100
AcDbEntity
  8
APL Border
 62
     8
100
AcDbLine
 10
5.198870965514487
 20
25.50205881951548
 30
0.0
 11
5.142141867913778
 21
25.50205881951548
 31
0.0
1001
AcDbBlockRepETag
1070
     1
1071
      865
1005
124B
  0
SPLINE
  5
124C
102
{ACAD_REACTORS
330
1252
102
}
330
121E
100
AcDbEntity
  8
APL Border
 62
     8
100
AcDbSpline
210
0.0
220
0.0
230
1.0
 70
     8
 71
     3
 72
    25
 73
    21
 74
     0
 42
0.0000000001
 43
0.0000000001
 40
0.0
 40
0.0
 40
0.0
 40
0.0
 40
0.3463130802699203
 40
0.6043703055549736
 40
0.8524756959462802
 40
1.099102870182333
 40
1.318598063912852
 40
1.521064627602771
 40
1.694788988362445
 40
1.912615757663666
 40
2.142780600046976
 40
2.483378398179008
 40
2.873129106540456
 40
3.09179617846886
 40
3.322387155839943
 40
3.509181810940893
 40
3.69147909649244
 40
3.927844502409028
 40
4.143063657146388
 40
4.406491840702669
 40
4.406491840702669
 40
4.406491840702669
 40
4.406491840702669
 10
-5.114032196843737
 20
23.8798599728377
 30
0.0
 10
-5.228982970363915
 20
23.89503832123493
 30
0.0
 10
-5.429589987754155
 20
23.92152690506636
 30
0.0
 10
-5.693675021857103
 20
24.03567408988205
 30
0.0
 10
-5.892941488864977
 20
24.19306688135278
 30
0.0
 10
-6.036314150572081
 20
24.38541826526996
 30
0.0
 10
-6.137502326421099
 20
24.58575647986304
 30
0.0
 10
-6.184089306330008
 20
24.77995730666768
 30
0.0
 10
-6.209030826709039
 20
24.97670983726675
 30
0.0
 10
-6.206060891535827
 20
25.18442176502657
 30
0.0
 10
-6.186178297010457
 20
25.44676950423098
 30
0.0
 10
-6.128537036390639
 20
25.76177491648128
 30
0.0
 10
-6.024273636684796
 20
26.06592307272473
 30
0.0
 10
-5.858617591962229
 20
26.29271170654482
 30
0.0
 10
-5.725334295882049
 20
26.45803039682342
 30
0.0
 10
-5.575727893531166
 20
26.59168695454355
 30
0.0
 10
-5.409633372236157
 20
26.70740493083671
 30
0.0
 10
-5.217340570729675
 20
26.79721770551459
 30
0.0
 10
-4.988026372094168
 20
26.86731869684436
 30
0.0
 10
-4.849424991220388
 20
26.87777876054341
 30
0.0
 10
-4.7645039250757
 20
26.87985997283595
 30
0.0
1001
AcDbBlockRepETag
1070
     1
1071
      875
1005
124C
  0
ELLIPSE
  5
124D
102
{ACAD_REACTORS
330
1251
330
1252
102
}
330
121E
100
AcDbEntity
  8
APL Border
 62
     8
100
AcDbEllipse
 10
-4.728528852722632
 20
25.3825150979867
 30
0.0
 11
-0.2732326585474372
 21
-0.8283682112856686
 31
0.0
210
0.0
220
0.0
230
-1.0
 40
0.767138872147242
 41
0.0
 42
6.283185307179586
1001
AcDbBlockRepETag
1070
     1
1071
      876
1005
124D
  0
SPLINE
  5
124E
102
{ACAD_REACTORS
330
1252
102
}
330
121E
100
AcDbEntity
  8
APL Border
 62
     8
100
AcDbSpline
210
0.0
220
0.0
230
1.0
 70
     8
 71
     3
 72
    26
 73
    22
 74
     0
 42
0.0000000001
 43
0.0000000001
 40
4.60284491300692
 40
4.60284491300692
 40
4.60284491300692
 40
4.60284491300692
 40
4.695921259854779
 40
4.963507654731998
 40
5.182979392648435
 40
5.397234555269768
 40
5.619529682274728
 40
5.869260387557257
 40
6.093250787730498
 40
6.263427758207029
 40
6.582064557968705
 40
6.800458868269094
 40
7.179401531729983
 40
7.575889850719137
 40
7.787844664578662
 40
8.01909420716162
 40
8.205730502580088
 40
8.387453763945252
 40
8.621856230932909
 40
8.833419194479944
 40
8.988019761194074
 40
8.988019761194074
 40
8.988019761194074
 40
8.988019761194074
 10
-4.486699891621668
 20
26.8798599728377
 30
0.0
 10
-4.440001835107608
 20
26.87954742494388
 30
0.0
 10
-4.335540249228728
 20
26.87475925711838
 30
0.0
 10
-4.164200665084621
 20
26.85307202884131
 30
0.0
 10
-3.96932086400659
 20
26.77880589501945
 30
0.0
 10
-3.766465201232762
 20
26.6658847706859
 30
0.0
 10
-3.60114437794968
 20
26.50570040783856
 30
0.0
 10
-3.471205788265336
 20
26.31143584383913
 30
0.0
 10
-3.381388817883674
 20
26.11392472080339
 30
0.0
 10
-3.317144182132551
 20
25.88552622199355
 30
0.0
 10
-3.281793375658168
 20
25.65006475492956
 30
0.0
 10
-3.30137826591374
 20
25.34538614523087
 30
0.0
 10
-3.327064239225308
 20
25.0112478652753
 30
0.0
 10
-3.471288581215731
 20
24.71021445059323
 30
0.0
 10
-3.60460091530777
 20
24.4641890220082
 30
0.0
 10
-3.737092402415015
 20
24.29954990084814
 30
0.0
 10
-3.882945983371143
 20
24.16225529150343
 30
0.0
 10
-4.046861838463826
 20
24.04508050911121
 30
0.0
 10
-4.233796525969012
 20
23.94884265716423
 30
0.0
 10
-4.427631511903911
 20
23.89220734010023
 30
0.0
 10
-4.549580407823555
 20
23.882511578974
 30
0.0
 10
-4.601116794093542
 20
23.87985997285202
 30
0.0
1001
AcDbBlockRepETag
1070
     1
1071
      877
1005
124E
  0
LWPOLYLINE
  5
124F
102
{ACAD_REACTORS
330
1252
102
}
330
121E
100
AcDbEntity
  8
APL Border
 62
     8
100
AcDbPolyline
 90
        2
 70
     0
 43
0.0
 10
-4.764503925211641
 20
26.8798599728377
 10
-4.486699891621924
 20
26.8798599728377
1001
AcDbBlockRepETag
1070
     1
1071
      878
1005
124F
  0
LWPOLYLINE
  5
1250
102
{ACAD_REACTORS
330
1252
102
}
330
121E
100
AcDbEntity
  8
APL Border
 62
     8
100
AcDbPolyline
 90
        2
 70
     0
 43
0.0
 10
-5.114032196843737
 20
23.8798599728377
 10
-4.601116794093513
 20
23.87985997285202
1001
AcDbBlockRepETag
1070
     1
1071
      879
1005
1250
  0
HATCH
  5
1251
330
121E
100
AcDbEntity
  8
APL Border
 62
     8
100
AcDbHatch
 10
0.0
 20
0.0
 30
0.0
210
0.0
220
0.0
230
1.0
  2
SOLID
 70
     1
 71
     1
 91
        1
 92
        5
 93
        1
 72
     3
 10
-4.728528852722632
 20
25.3825150979867
 11
-0.2732326585474372
 21
-0.8283682112856686
 40
0.767138872147242
 50
0.0
 51
360.0
 73
     0
 97
        1
330
124D
 75
     0
 76
     1
 47
0.0172809346375552
 98
        1
 10
-4.520972790815363
 20
25.15086651129009
1001
ACAD
1010
0.0
1020
0.0
1030
0.0
1001
AcDbBlockRepETag
1070
     1
1071
      880
1005
1251
  0
HATCH
  5
1252
330
121E
100
AcDbEntity
  8
APL Border
 62
     8
100
AcDbHatch
 10
0.0
 20
0.0
 30
0.0
210
0.0
220
0.0
230
1.0
  2
SOLID
 70
     1
 71
     1
 91
        9
 92
        7
 72
     0
 73
     1
 93
        4
 10
-12.20942510081127
 20
28.14789574745095
 10
-8.85038058018816
 20
22.32985997284487
 10
8.850698786449385
 20
22.32985997284487
 10
12.20974330707306
 20
28.14789574745094
 97
        1
330
1231
 92
       20
 93
        4
 72
     4
 94
        3
 73
     0
 74
     0
 95
       25
 96
       21
 40
0.0
 40
0.0
 40
0.0
 40
0.0
 40
0.3463130802699203
 40
0.6043703055549736
 40
0.8524756959462802
 40
1.099102870182333
 40
1.318598063912852
 40
1.521064627602771
 40
1.694788988362445
 40
1.912615757663666
 40
2.142780600046976
 40
2.483378398179008
 40
2.873129106540456
 40
3.09179617846886
 40
3.322387155839943
 40
3.509181810940893
 40
3.69147909649244
 40
3.927844502409028
 40
4.143063657146388
 40
4.406491840702669
 40
4.406491840702669
 40
4.406491840702669
 40
4.406491840702669
 10
-5.114032196843737
 20
23.8798599728377
 10
-5.228982970363915
 20
23.89503832123493
 10
-5.429589987754155
 20
23.92152690506636
 10
-5.693675021857103
 20
24.03567408988205
 10
-5.892941488864977
 20
24.19306688135278
 10
-6.036314150572081
 20
24.38541826526996
 10
-6.137502326421099
 20
24.58575647986304
 10
-6.184089306330008
 20
24.77995730666768
 10
-6.209030826709039
 20
24.97670983726675
 10
-6.206060891535827
 20
25.18442176502657
 10
-6.186178297010457
 20
25.44676950423098
 10
-6.128537036390639
 20
25.76177491648128
 10
-6.024273636684796
 20
26.06592307272473
 10
-5.858617591962229
 20
26.29271170654482
 10
-5.725334295882049
 20
26.45803039682342
 10
-5.575727893531166
 20
26.59168695454355
 10
-5.409633372236157
 20
26.70740493083671
 10
-5.217340570729675
 20
26.79721770551459
 10
-4.988026372094168
 20
26.86731869684436
 10
-4.849424991220388
 20
26.87777876054341
 10
-4.7645039250757
 20
26.87985997283595
 72
     1
 10
-4.764503925020689
 20
26.87985997283771
 11
-4.486699891621347
 21
26.8798599728377
 72
     4
 94
        3
 73
     0
 74
     0
 95
       26
 96
       22
 40
4.60284491300692
 40
4.60284491300692
 40
4.60284491300692
 40
4.60284491300692
 40
4.695921259854779
 40
4.963507654731998
 40
5.182979392648435
 40
5.397234555269768
 40
5.619529682274728
 40
5.869260387557257
 40
6.093250787730498
 40
6.263427758207029
 40
6.582064557968705
 40
6.800458868269094
 40
7.179401531729983
 40
7.575889850719137
 40
7.787844664578662
 40
8.01909420716162
 40
8.205730502580088
 40
8.387453763945252
 40
8.621856230932909
 40
8.833419194479944
 40
8.988019761194074
 40
8.988019761194074
 40
8.988019761194074
 40
8.988019761194074
 10
-4.486699891621668
 20
26.8798599728377
 10
-4.440001835107608
 20
26.87954742494388
 10
-4.335540249228728
 20
26.87475925711838
 10
-4.164200665084621
 20
26.85307202884131
 10
-3.96932086400659
 20
26.77880589501945
 10
-3.766465201232762
 20
26.6658847706859
 10
-3.60114437794968
 20
26.50570040783856
 10
-3.471205788265336
 20
26.31143584383913
 10
-3.381388817883674
 20
26.11392472080339
 10
-3.317144182132551
 20
25.88552622199355
 10
-3.281793375658168
 20
25.65006475492956
 10
-3.30137826591374
 20
25.34538614523087
 10
-3.327064239225308
 20
25.0112478652753
 10
-3.471288581215731
 20
24.71021445059323
 10
-3.60460091530777
 20
24.4641890220082
 10
-3.737092402415015
 20
24.29954990084814
 10
-3.882945983371143
 20
24.16225529150343
 10
-4.046861838463826
 20
24.04508050911121
 10
-4.233796525969012
 20
23.94884265716423
 10
-4.427631511903911
 20
23.89220734010023
 10
-4.549580407823555
 20
23.882511578974
 10
-4.601116794093542
 20
23.87985997285202
 72
     1
 10
-4.601116794093525
 20
23.87985997285202
 11
-5.114032196843729
 21
23.8798599728377
 97
        4
330
124C
330
124F
330
124E
330
1250
 92
        4
 93
        1
 72
     3
 10
-4.728528852722632
 20
25.3825150979867
 11
-0.2732326585474372
 21
-0.8283682112856686
 40
0.767138872147242
 50
0.0
 51
360.0
 73
     0
 97
        1
330
124D
 92
       20
 93
        8
 72
     1
 10
-6.482313212520211
 20
26.87985997284487
 11
-6.679452083611267
 21
24.89125032803125
 72
     4
 94
        3
 73
     0
 74
     0
 95
       16
 96
       12
 40
0.0
 40
0.0
 40
0.0
 40
0.0
 40
0.1978277931646383
 40
0.361463118001824
 40
0.5540499897785108
 40
0.7796220130725381
 40
0.979106605438038
 40
1.222151590302332
 40
1.40748727220097
 40
1.607226525619232
 40
1.815049166761618
 40
1.815049166761618
 40
1.815049166761618
 40
1.815049166761618
 10
-6.679452083611295
 20
24.89125032803118
 10
-6.685371732996685
 20
24.82559351525052
 10
-6.696187882184318
 20
24.70562798418881
 10
-6.721757155054632
 20
24.52229576436942
 10
-6.768469983285655
 20
24.33480615160982
 10
-6.860719723390843
 20
24.14153771241002
 10
-7.051789745146265
 20
24.01851519430106
 10
-7.233921808197266
 20
23.91285203345821
 10
-7.443451931375136
 20
23.87675735439051
 10
-7.641222718647384
 20
23.88093312949101
 10
-7.776581895343355
 20
23.89281010788354
 10
-7.845603808282817
 20
23.89886637823479
 72
     1
 10
-7.845603808282787
 20
23.89886637823479
 11
-8.399876560405061
 21
23.98304774476413
 72
     1
 10
-8.399876560405061
 20
23.98304774476413
 11
-8.399876560405061
 21
24.64579492155148
 72
     1
 10
-8.399876560405061
 20
24.64579492155148
 11
-7.815117916056302
 21
24.56632682606845
 72
     4
 94
        3
 73
     0
 74
     0
 95
       11
 96
        7
 40
0.0
 40
0.0
 40
0.0
 40
0.0
 40
0.2042619346961744
 40
0.3074129668363174
 40
0.4146012126853764
 40
0.4826852714337078
 40
0.4826852714337078
 40
0.4826852714337078
 40
0.4826852714337078
 10
-7.815117916056323
 20
24.56632682606847
 10
-7.743266182308218
 20
24.55714977626708
 10
-7.635129760920136
 20
24.54333837224583
 10
-7.524447891091284
 20
24.63752792323729
 10
-7.477352395049535
 20
24.71998790389099
 10
-7.468646137215245
 20
24.77808681972154
 10
-7.465264214605014
 20
24.80065518845331
 72
     1
 10
-7.465264214605014
 20
24.80065518845333
 11
-7.259144283007996
 21
26.87985997284487
 72
     1
 10
-7.259144283007996
 20
26.87985997284487
 11
-6.482313212520211
 21
26.87985997284487
 97
        4
330
1237
330
1222
330
1238
330
1223
 92
       22
 72
     0
 73
     1
 93
        4
 10
-2.652351276624725
 20
26.87985997284486
 10
-1.87552020613694
 20
26.87985997284486
 10
-2.172922270345821
 20
23.87985997284487
 10
-2.949753340833609
 20
23.87985997284487
 97
        1
330
1248
 92
       22
 72
     0
 73
     1
 93
       10
 10
-1.269968290467114
 20
26.87985997284487
 10
-0.4183849031077484
 20
26.87965917736506
 10
0.4009773036021615
 20
25.0299490114994
 10
0.5853232289196909
 20
26.87965917736506
 10
1.205285459373925
 20
26.87965917736506
 10
0.9078833951650439
 20
23.87965917736506
 10
0.056491647586738
 20
23.87965917736506
 10
-0.7630434193126518
 20
25.72975957510511
 10
-0.946451311739821
 20
23.87965917736506
 10
-1.567390260339408
 20
23.87965917736506
 97
        1
330
1249
 92
       22
 72
     0
 73
     1
 93
       12
 10
1.882971499788112
 20
26.87985997284486
 10
3.847979515363789
 20
26.87985997284486
 10
3.788499102522024
 20
26.27985997284486
 10
2.600322157434135
 20
26.27985997284487
 10
2.540562294183218
 20
25.67704105755032
 10
3.542578834455781
 20
25.67704105755032
 10
3.476410183919
 20
25.07985997284487
 10
2.47439364364638
 20
25.07985997284487
 10
2.421932428393546
 20
24.48037956726917
 10
3.610109373481436
 20
24.48037956726917
 10
3.550577451154907
 20
23.87985997284487
 10
1.585569435579231
 20
23.87985997284487
 97
        1
330
124A
 92
       20
 93
       11
 72
     1
 10
4.429648034880159
 20
26.87985997284486
 11
5.780015564168562
 21
26.87985997284487
 72
     4
 94
        3
 73
     0
 74
     0
 95
       20
 96
       16
 40
0.0
 40
0.0
 40
0.0
 40
0.0
 40
0.1774120264923274
 40
0.3258093286713144
 40
0.4834060703451958
 40
0.6311237014699663
 40
0.811161917566129
 40
0.9605198197290178
 40
1.289502400757101
 40
1.459697744220917
 40
1.604754171475458
 40
1.794797311213428
 40
2.030760379210173
 40
2.301729078160567
 40
2.393267743077617
 40
2.393267743077617
 40
2.393267743077617
 40
2.393267743077617
 10
5.780015564168593
 20
26.87985997284487
 10
5.839056126904296
 20
26.87337384475878
 10
5.947481505327601
 20
26.86146235781404
 10
6.098807931884806
 20
26.80185114122353
 10
6.227972759762906
 20
26.72168911843352
 10
6.347510602881385
 20
26.61140356622764
 10
6.442310149474394
 20
26.48207375794227
 10
6.536759215535255
 20
26.28338234239492
 10
6.578465181725675
 20
26.06469589684353
 10
6.553150099427256
 20
25.85079503063701
 10
6.524121382020268
 20
25.68499989147718
 10
6.464236525716046
 20
25.50199988960434
 10
6.327150620479812
 20
25.31187331731421
 10
6.179477266233362
 20
25.17172660684537
 10
6.072729148555964
 20
25.11631253421805
 10
6.045077525535504
 20
25.10350570839811
 72
     1
 10
6.045077525535502
 20
25.1035057083981
 11
6.339444173005232
 21
23.87985997284487
 72
     1
 10
6.339444173005232
 20
23.87985997284487
 11
5.532386545886621
 21
23.87985997284487
 72
     1
 10
5.532386545886621
 20
23.87985997284487
 11
5.142141867913776
 21
25.50205881951548
 72
     1
 10
5.142141867913776
 20
25.50205881951548
 11
5.19887096551445
 21
25.50205881951548
 72
     4
 94
        3
 73
     0
 74
     0
 95
       17
 96
       13
 40
0.0
 40
0.0
 40
0.0
 40
0.0
 40
0.0463117202933683
 40
0.2032408426961212
 40
0.3585694343029505
 40
0.4964057577712057
 40
0.6456565825699876
 40
0.7595770154256244
 40
0.9262943680254526
 40
1.032180609131101
 40
1.14647028625934
 40
1.243973057737614
 40
1.243973057737614
 40
1.243973057737614
 40
1.243973057737614
 10
5.198870965514487
 20
25.50205881951548
 10
5.214272018053407
 20
25.50302975767877
 10
5.28186015506489
 20
25.50729075876586
 10
5.40176083940824
 20
25.51345804330556
 10
5.546675458142118
 20
25.55725132865025
 10
5.67725421213268
 20
25.62965962372397
 10
5.765298612935083
 20
25.7349784962169
 10
5.820388894698254
 20
25.86817511516085
 10
5.832561030472788
 20
26.0011917111029
 10
5.781919321100474
 20
26.1258482190374
 10
5.684603990133524
 20
26.18537947021099
 10
5.613502616848251
 20
26.1875961553427
 10
5.580769717272147
 20
26.18861664944085
 72
     1
 10
5.580769717272125
 20
26.18861664944085
 11
5.137953374950967
 21
26.18861664944085
 72
     1
 10
5.137953374950967
 20
26.18861664944085
 11
4.909077041159065
 21
23.87985997284487
 72
     1
 10
4.909077041159065
 20
23.87985997284487
 11
4.132245970671278
 21
23.87985997284487
 72
     1
 10
4.132245970671278
 20
23.87985997284487
 11
4.429648034880159
 21
26.87985997284486
 97
        5
330
1232
330
1224
330
1234
330
124B
330
1225
 92
       22
 72
     0
 73
     1
 93
        9
 10
6.800478684667179
 20
26.87985997284487
 10
7.607536311785904
 20
26.87985997284487
 10
7.963471882016363
 20
25.86355557445326
 10
8.538893993587493
 20
26.87985997284487
 10
9.414203966725493
 20
26.87985997284487
 10
8.232331174709315
 20
25.00957443408062
 10
8.120338037129924
 20
23.87985997284486
 10
7.343506966642139
 20
23.87985997284486
 10
7.455500104221528
 20
25.00957443408062
 97
        1
330
1230
 75
     0
 76
     1
 47
0.0276408434878157
 98
        9
 10
-5.110068937762804
 20
27.30829258594788
 10
-5.110068937762804
 20
27.30829258594788
 10
-5.110068937762804
 20
27.30829258594788
 10
-5.110068937762804
 20
27.30829258594788
 10
-5.110068937762804
 20
27.30829258594788
 10
-5.110068937762804
 20
27.30829258594788
 10
-5.110068937762804
 20
27.30829258594788
 10
-5.110068937762804
 20
27.30829258594788
 10
-5.110068937762804
 20
27.30829258594788
1001
ACAD
1010
0.0
1020
0.0
1030
0.0
1001
AcDbBlockRepETag
1070
     1
1071
      881
1005
1252
  0
HATCH
  5
1253
330
121E
100
AcDbEntity
  8
APL Border
 62
     8
100
AcDbHatch
 10
0.0
 20
0.0
 30
0.0
210
0.0
220
0.0
230
1.0
  2
SOLID
 70
     1
 71
     1
 91
        1
 92
        7
 72
     0
 73
     1
 93
        4
 10
0.0001591031300169
 20
7.000275566930961
 10
3.563095122801513
 20
13.17146177711931
 10
-0.9450856774407473
 20
20.97985997284487
 10
-8.070957716782199
 20
20.97985997284487
 97
        1
330
1235
 75
     0
 76
     1
 47
0.0707162833847576
 98
        3
 10
-2.675438732228172
 20
16.47794635472378
 10
6.312751868664321
 20
42.28939048605213
 10
-9.894301834166896
 20
39.60217176706084
1001
ACAD
1010
0.0
1020
0.0
1030
0.0
1001
AcDbBlockRepETag
1070
     1
1071
      883
1005
1253
  0
HATCH
  5
1254
330
121E
100
AcDbEntity
  8
APL Border
 62
     8
100
AcDbHatch
 10
0.0
 20
0.0
 30
0.0
210
0.0
220
0.0
230
1.0
  2
SOLID
 70
     1
 71
     0
 91
        1
 92
        7
 72
     0
 73
     1
 93
        7
 10
-12.96642015501169
 20
43.61979184908029
 10
-14.7664201550117
 20
43.61979184908029
 10
-16.54136876356097
 20
39.42215966960598
 10
-17.19614352503853
 20
43.61979184908029
 10
-18.99614352503854
 20
43.61979184908029
 10
-17.7875751270476
 20
37.38083558975206
 10
-15.77022638070493
 20
37.38083558975206
 97
        0
 75
     0
 76
     1
 47
0.0707162833847576
 98
        3
 10
6.249678794057444
 20
42.28939048605213
 10
-9.957374908773772
 20
39.60217176706084
 10
-16.39773218462096
 20
38.68285940442952
1001
ACAD
1010
0.0
1020
0.0
1030
0.0
1001
AcDbBlockRepETag
1070
     1
1071
      884
1005
1254
  0
HATCH
  5
1255
330
121E
100
AcDbEntity
  8
APL Border
 62
     8
100
AcDbHatch
 10
0.0
 20
0.0
 30
0.0
210
0.0
220
0.0
230
1.0
  2
SOLID
 70
     1
 71
     1
 91
        1
 92
        7
 72
     0
 73
     1
 93
       10
 10
-2.850928947786229
 20
37.38083558975206
 10
-2.181839912298442
 20
43.6197918490803
 10
-3.855464624526036
 20
43.61979184908029
 10
-4.228474015381578
 20
40.14164596649268
 10
-5.40751765387219
 20
43.61979184908029
 10
-7.466097855805088
 20
43.61979184908029
 10
-8.135186891292875
 20
37.38083558975206
 10
-6.479801476178323
 20
37.38083558975206
 10
-6.131920885667285
 20
40.6246666384634
 10
-5.032306754624555
 20
37.38083558975206
 97
        1
330
122C
 75
     0
 76
     1
 47
0.0707162833847576
 98
        3
 10
6.312751868664321
 20
42.28939048605213
 10
-5.364819983741796
 20
40.80434854252457
 10
-9.894301834166896
 20
39.60217176706084
1001
ACAD
1010
0.0
1020
0.0
1030
0.0
1001
AcDbBlockRepETag
1070
     1
1071
      886
1005
1255
  0
HATCH
  5
1256
330
121E
100
AcDbEntity
  8
APL Border
 62
     8
100
AcDbHatch
 10
0.0
 20
0.0
 30
0.0
210
0.0
220
0.0
230
1.0
  2
SOLID
 70
     1
 71
     1
 91
        1
 92
        7
 72
     0
 73
     1
 93
        8
 10
2.929095477768755
 20
41.97282181113101
 10
3.105743226874893
 20
43.6199831327606
 10
-1.725754035154748
 20
43.61998313276061
 10
-1.891167362926863
 20
41.97282181113101
 10
-0.3755272841536335
 20
41.97282181113101
 10
-0.8679685705352806
 20
37.38102687343239
 10
0.9741138955425025
 20
37.38339558452146
 10
1.466301152475638
 20
41.97282181113101
 97
        1
330
122B
 75
     0
 76
     1
 47
0.0707162833847576
 98
        3
 10
6.461508006627583
 20
42.28958176973246
 10
0.3042431306128051
 20
42.36029787294049
 10
-9.745545696203633
 20
39.60236305074117
1001
ACAD
1010
0.0
1020
0.0
1030
0.0
1001
AcDbBlockRepETag
1070
     1
1071
      887
1005
1256
  0
HATCH
  5
1257
330
121E
100
AcDbEntity
  8
APL Border
 62
     8
100
AcDbHatch
 10
0.0
 20
0.0
 30
0.0
210
0.0
220
0.0
230
1.0
  2
SOLID
 70
     1
 71
     1
 91
        1
 92
        7
 72
     0
 73
     1
 93
        3
 10
8.071275923043375
 20
20.97985997284487
 10
0.8484489512626126
 20
20.97985997284487
 10
4.459862437153192
 20
14.72470832814346
 97
        1
330
1236
 75
     0
 76
     1
 47
0.0707162833847576
 98
        3
 10
4.897289869501349
 20
18.17513736310713
 10
6.312751868664321
 20
42.28939048605213
 10
-9.894301834166896
 20
39.60217176706084
1001
ACAD
1010
0.0
1020
0.0
1030
0.0
1001
AcDbBlockRepETag
1070
     1
1071
      891
1005
1257
  0
HATCH
  5
1258
330
121E
100
AcDbEntity
  8
APL Border
 62
     8
100
AcDbHatch
 10
0.0
 20
0.0
 30
0.0
210
0.0
220
0.0
230
1.0
  2
SOLID
 70
     1
 71
     1
 91
        2
 92
       16
 93
        3
 72
     1
 10
0.0000000003145431
 20
4.000000000000009
 11
23.60256143704041
 21
44.88083558975217
 72
     1
 10
23.60256143704041
 20
44.88083558975217
 11
-23.60256142783933
 21
44.88083558975206
 72
     1
 10
-23.60256142783933
 20
44.88083558975206
 11
0.0000000003145431
 21
4.000000000000007
 97
        1
330
123C
 92
        1
 93
        3
 72
     1
 10
27.06666305249243
 20
46.88083558975206
 11
-27.06666304266244
 21
46.88083558975206
 72
     1
 10
-27.06666304266244
 20
46.88083558975206
 11
-0.0000000000000284
 21
0.0000000000000213
 72
     1
 10
-0.0000000000000284
 20
0.0000000000000238
 11
27.06666305249243
 21
46.88083558975206
 97
        1
330
123D
 75
     0
 76
     1
 98
        1
 10
-236.5641112216887
 20
1.231020082252661
1001
ACAD
1010
0.0
1020
0.0
1030
0.0
1001
AcDbBlockRepETag
1070
     1
1071
      892
1005
1258
  0
HATCH
  5
1259
330
121E
100
AcDbEntity
  8
APL Border
 62
     8
100
AcDbHatch
 10
0.0
 20
0.0
 30
0.0
210
0.0
220
0.0
230
1.0
  2
SOLID
 70
     1
 71
     1
 91
        1
 92
        7
 72
     0
 73
     1
 93
       12
 10
15.84058876400877
 20
41.9726305274507
 10
18.21321428445671
 20
41.9726305274507
 10
18.38986203356285
 20
43.61979184908029
 10
14.13627631352983
 20
43.61979184908029
 10
13.46718727804204
 20
37.38083558975206
 10
17.72077299807506
 20
37.38083558975207
 10
17.87787225036464
 20
38.84571591422678
 10
15.50524672991671
 20
38.84571591422678
 10
15.58395939694927
 20
39.5796763598845
 10
17.56969663746741
 20
39.57967635988449
 10
17.71732334684157
 20
41.15966911198297
 10
15.75340373709809
 20
41.15966911198297
 97
        1
330
1228
 75
     0
 76
     1
 47
0.0265225354961204
 98
        1
 10
15.74642260871314
 20
42.54140343148856
1001
ACAD
1010
0.0
1020
0.0
1030
0.0
1001
AcDbBlockRepETag
1070
     1
1071
      895
1005
1259
  0
SPLINE
  5
125A
102
{ACAD_REACTORS
330
125C
330
125D
102
}
330
121E
100
AcDbEntity
  8
APL Border
 62
     8
100
AcDbSpline
210
0.0
220
0.0
230
1.0
 70
     8
 71
     3
 72
    12
 73
     8
 74
     0
 42
0.0000000001
 43
0.0000000001
 40
0.0
 40
0.0
 40
0.0
 40
0.0
 40
0.6153828260925694
 40
0.6153828260925694
 40
1.184895113366773
 40
1.184895113366773
 40
1.406874102447421
 40
1.406874102447421
 40
1.406874102447421
 40
1.406874102447421
 10
13.141643811855
 20
41.76981947766621
 30
0.0
 10
12.65093549588437
 20
41.90084145687704
 30
0.0
 10
12.40139116615246
 20
41.94113120867605
 30
0.0
 10
12.08548087756223
 20
41.99544455363318
 30
0.0
 10
11.92864742837253
 20
42.01465504085827
 30
0.0
 10
11.75444086026641
 20
42.02973960983341
 30
0.0
 10
11.75444086026641
 20
42.02973960983341
 30
0.0
 10
11.64369617822672
 20
42.03297741382947
 30
0.0
1001
AcDbBlockRepETag
1070
     1
1071
      898
1005
125A
  0
LWPOLYLINE
  5
125B
102
{ACAD_REACTORS
330
125C
102
}
330
121E
100
AcDbEntity
  8
APL Border
  6
Continuous
 62
     8
100
AcDbPolyline
 90
        3
 70
     1
 43
0.0
 10
-11.22376129049633
 20
41.69367581194667
 10
-10.87774200114645
 20
40.14955389030274
 10
-11.91769445450297
 20
40.14955389030274
1001
AcDbBlockRepETag
1070
     1
1071
      902
1005
125B
  0
HATCH
  5
125C
330
121E
100
AcDbEntity
  8
APL Border
 62
     8
100
AcDbHatch
 10
0.0
 20
0.0
 30
0.0
210
0.0
220
0.0
230
1.0
  2
SOLID
 70
     1
 71
     1
 91
        2
 92
        7
 72
     0
 73
     1
 93
        8
 10
-9.847253547555595
 20
43.61979184908029
 10
-12.02298966350147
 20
43.61979184908029
 10
-14.82679588919472
 20
37.38083558975206
 10
-12.95240022532295
 20
37.38083558975206
 10
-12.352528740424
 20
38.71565392391761
 10
-10.64639685172309
 20
38.71565392391761
 10
-10.34727999772013
 20
37.38083558975206
 10
-8.449177928734428
 20
37.38083558975207
 97
        1
330
122D
 92
       22
 72
     0
 73
     1
 93
        3
 10
-11.22376129049633
 20
41.69367581194668
 10
-10.87774200114645
 20
40.14955389030274
 10
-11.91769445450297
 20
40.14955389030274
 97
        1
330
125B
 75
     0
 76
     1
 47
0.0464409783890934
 98
        3
 10
-10.7866676671747
 20
42.18285929720354
 10
-10.7866676671747
 20
42.18285929720354
 10
4.318789658947025
 20
41.34692151769582
1001
ACAD
1010
0.0
1020
0.0
1030
0.0
1001
AcDbBlockRepETag
1070
     1
1071
      903
1005
125C
  0
HATCH
  5
125D
330
121E
100
AcDbEntity
  8
APL Border
 62
     8
100
AcDbHatch
 10
0.0
 20
0.0
 30
0.0
210
0.0
220
0.0
230
1.0
  2
SOLID
 70
     1
 71
     1
 91
        1
 92
        5
 93
        9
 72
     4
 94
        3
 73
     0
 74
     0
 95
       25
 96
       21
 40
0.0289432764998855
 40
0.0289432764998855
 40
0.0289432764998855
 40
0.0289432764998855
 40
0.7134165119202287
 40
1.411731005087882
 40
2.041147618059464
 40
3.036171077105474
 40
3.957911241576911
 40
4.83592253147705
 40
5.676684481733094
 40
6.271141751551381
 40
6.974058201941041
 40
7.825808739104269
 40
8.5265481701528
 40
9.125733480364379
 40
9.891766509798275
 40
10.6767880070383
 40
11.66821110410527
 40
12.42950909475574
 40
13.09855121203093
 40
13.70132750762923
 40
13.70132750762923
 40
13.70132750762923
 40
13.70132750762923
 10
13.141643811855
 20
43.40554077871886
 10
12.91988216430481
 20
43.459256627421
 10
12.47168844867874
 20
43.5669624691983
 10
11.80600758681791
 20
43.66484839798013
 10
11.02988777388427
 20
43.6649333207477
 10
10.1361516270939
 20
43.55263717791944
 10
9.306733533720876
 20
43.19741938393827
 10
8.599762003673276
 20
42.45478219212527
 10
8.236440109363229
 20
41.77191325718488
 10
8.073464067873601
 20
41.07996170309042
 10
8.007035995439764
 20
40.3638923215899
 10
7.98103501985804
 20
39.60493317412716
 10
8.107710769833204
 20
38.92055182387923
 10
8.442098079777224
 20
38.21445924826959
 10
9.036296716232907
 20
37.66873436641545
 10
9.909689132144507
 20
37.42421376773082
 10
10.75775873959412
 20
37.35554609345542
 10
11.56487972715851
 20
37.38454149767491
 10
12.23983007222788
 20
37.44815687239099
 10
12.66077873273661
 20
37.49837935861893
 10
12.86026661033734
 20
37.52234731786496
 72
     1
 10
12.86026661033734
 20
37.52234731786496
 11
13.23839963312048
 21
41.04826877857415
 72
     1
 10
13.23839963312048
 20
41.04826877857415
 11
11.12639005748273
 21
41.04826877857415
 72
     1
 10
11.12639005748273
 20
41.04826877857415
 11
10.96889270630695
 21
39.57967635988449
 72
     1
 10
10.96889270630695
 20
39.57967635988449
 11
11.39962533929804
 21
39.57967635988449
 72
     1
 10
11.39962533929804
 20
39.57967635988449
 11
11.33360452536307
 21
38.96406177273883
 72
     4
 94
        3
 73
     0
 74
     0
 95
       19
 96
       15
 40
1.529304964685562
 40
1.529304964685562
 40
1.529304964685562
 40
1.529304964685562
 40
1.763981165818448
 40
2.06379851215709
 40
2.386700017314354
 40
2.753069149612017
 40
3.181918037271135
 40
3.768421453867451
 40
4.325591611844758
 40
5.021152851646889
 40
5.521935404920329
 40
5.929637176310238
 40
6.454411479904243
 40
6.957123473051371
 40
6.957123473755098
 40
6.957123473755098
 40
6.957123473755098
 10
11.33360452536307
 20
38.96406177273881
 10
11.24302802126629
 20
38.95177692242413
 10
10.99026249243499
 20
38.92783484269152
 10
10.70216182646531
 20
38.92661434152812
 10
10.3797311442331
 20
38.98358798973799
 10
10.00680770225198
 20
39.09661486818469
 10
9.716968816830743
 20
39.48770259248511
 10
9.641062203095145
 20
40.05806431643046
 10
9.717431528044755
 20
40.66388266631498
 10
9.854221329784113
 20
41.27113304911427
 10
10.23036575101369
 20
41.67654609785123
 10
10.65553906793815
 20
41.91613810684326
 10
11.13485165915975
 20
42.01473204050012
 10
11.47589856643677
 20
42.04574754506741
 10
11.64369617822672
 20
42.03297741382947
 72
     4
 94
        3
 73
     0
 74
     0
 95
       12
 96
        8
 40
0.0
 40
0.0
 40
0.0
 40
0.0
 40
0.2219789890806476
 40
0.2219789890806476
 40
0.7914912763548521
 40
0.7914912763548521
 40
1.406874102447421
 40
1.406874102447421
 40
1.406874102447421
 40
1.406874102447421
 10
11.64369617822672
 20
42.03297741382947
 10
11.75444086026641
 20
42.02973960983341
 10
11.75444086026641
 20
42.02973960983341
 10
11.92864742837253
 20
42.01465504085827
 10
12.08548087756223
 20
41.99544455363318
 10
12.40139116615246
 20
41.94113120867605
 10
12.65093549588437
 20
41.90084145687704
 10
13.141643811855
 20
41.76981947766621
 72
     1
 10
13.14164381185501
 20
41.76981947766621
 11
13.141643811855
 21
43.40554077871886
 97
        5
330
1226
330
122A
330
1227
330
125A
330
1229
 75
     0
 76
     1
 47
0.0464409783890934
 98
        3
 10
-10.7866676671747
 20
42.18285929720354
 10
4.318789658947025
 20
41.34692151769582
 10
10.26801654887663
 20
42.50794595375691
1001
ACAD
1010
0.0
1020
0.0
1030
0.0
1001
AcDbBlockRepETag
1070
     1
1071
      904
1005
125D
  0
HATCH
  5
125E
330
121E
100
AcDbEntity
  8
APL Border
 62
     8
100
AcDbHatch
 10
0.0
 20
0.0
 30
0.0
210
0.0
220
0.0
230
1.0
  2
SOLID
 70
     1
 71
     1
 91
        2
 92
        7
 72
     0
 73
     1
 93
        8
 10
6.582554574553399
 20
43.61979184908029
 10
4.406818458607519
 20
43.6197918490803
 10
1.603012232914266
 20
37.38083558975206
 10
3.477407896786048
 20
37.38083558975206
 10
4.077279381684999
 20
38.71565392391761
 10
5.783411270385895
 20
38.71565392391761
 10
6.082528124388858
 20
37.38083558975206
 10
7.980630193374566
 20
37.38083558975207
 97
        1
330
123E
 92
       22
 72
     0
 73
     1
 93
        3
 10
5.206046831612668
 20
41.69367581194667
 10
5.552066120962536
 20
40.14955389030274
 10
4.512113667606024
 20
40.14955389030274
 97
        1
330
123F
 75
     0
 76
     1
 47
0.0464409783890934
 98
        3
 10
-10.7866676671747
 20
42.18285929720354
 10
4.318789658947025
 20
41.34692151769582
 10
4.318789658947025
 20
41.34692151769582
1001
ACAD
1010
0.0
1020
0.0
1030
0.0
1001
AcDbBlockRepETag
1070
     1
1071
      905
1005
125E
  0
HATCH
  5
125F
330
121E
100
AcDbEntity
  8
APL Border
 62
     8
100
AcDbHatch
 10
0.0
 20
0.0
 30
0.0
210
0.0
220
0.0
230
1.0
  2
SOLID
 70
     1
 71
     1
 91
       11
 92
        7
 72
     0
 73
     1
 93
        4
 10
-16.33747952551644
 20
35.29789574745092
 10
-12.98884796421712
 20
29.49789574745095
 10
12.98916617047902
 20
29.49789574745094
 10
16.33779773177886
 20
35.29789574745093
 97
        1
330
122F
 92
       22
 72
     0
 73
     1
 93
        8
 10
-10.50084997043805
 20
34.02289574745092
 10
-9.555761072109191
 20
34.02289574745092
 10
-8.834065309397374
 20
31.02289574745093
 10
-9.641122936515984
 20
31.02289574745093
 10
-9.86222995755253
 20
31.94201027933759
 10
-10.74455961985978
 20
31.94201027933758
 10
-11.20867717380426
 20
31.02289574745093
 10
-12.01573480092304
 20
31.02289574745093
 97
        1
330
123B
 92
        6
 72
     0
 73
     1
 93
        3
 10
-10.14693849009504
 20
33.12550842600547
 10
-10.00044093617224
 20
32.51653621849666
 10
-10.45444607654239
 20
32.51653621849665
 97
        1
330
123A
 92
       22
 72
     0
 73
     1
 93
        6
 10
-8.326765119961606
 20
34.02289574745092
 10
-7.549934049473819
 20
34.02289574745092
 10
-7.777198851462713
 20
31.73039516316516
 10
-6.700109532938454
 20
31.73039516316516
 10
-6.770246795158442
 20
31.02289574745093
 10
-8.624167184170486
 20
31.02289574745092
 97
        1
330
1239
 92
       20
 93
       13
 72
     1
 10
-6.13042511277439
 20
34.02488019433461
 11
-5.353790768486449
 21
34.02289574745093
 72
     1
 10
-5.353790768486449
 20
34.02289574745093
 11
-5.5356280948821
 21
32.18709291744541
 72
     4
 94
        3
 73
     0
 74
     0
 95
       24
 96
       20
 40
0.0
 40
0.0
 40
0.0
 40
0.0
 40
0.1612668085855933
 40
0.2532303870616441
 40
0.3214574742553387
 40
0.4101806452459026
 40
0.5031588697521256
 40
0.5664511009171887
 40
0.624871878778038
 40
0.6731644290699905
 40
0.7797386132933425
 40
0.9206747739903356
 40
1.025058962643435
 40
1.116412352300609
 40
1.212929457806147
 40
1.276240530363035
 40
1.339961572016457
 40
1.386280507025952
 40
1.435584820291647
 40
1.435584820291647
 40
1.435584820291647
 40
1.435584820291647
 10
-5.535628094882099
 20
32.1870929174454
 10
-5.53213414748617
 20
32.13312332644234
 10
-5.526647751003197
 20
32.04837718097616
 10
-5.488860432547518
 20
31.94683424540268
 10
-5.447171648840961
 20
31.8753242559261
 10
-5.395818187958767
 20
31.80737001333622
 10
-5.320761662408248
 20
31.77062767698265
 10
-5.254477128417399
 20
31.74466351916423
 10
-5.200112096792143
 20
31.72723210184819
 10
-5.128888988289486
 20
31.72198763189771
 10
-5.030042811850907
 20
31.72786870372271
 10
-4.915707066470194
 20
31.75812586881066
 10
-4.815771266393483
 20
31.81405298527762
 10
-4.754740567305573
 20
31.89193427605802
 10
-4.71467399544198
 20
31.96546823314959
 10
-4.683526695854578
 20
32.03313813212702
 10
-4.662006183068958
 20
32.08703079743258
 10
-4.651792807669443
 20
32.13930455656534
 10
-4.647206914869654
 20
32.17083533130903
 10
-4.644842382192905
 20
32.1870929174454
 72
     1
 10
-4.644842382192908
 20
32.18709291744538
 11
-4.462655138951674
 21
34.0248801943346
 72
     1
 10
-4.462655138951674
 20
34.0248801943346
 11
-3.685824068463886
 21
34.0248801943346
 72
     1
 10
-3.685824068463886
 20
34.0248801943346
 11
-3.889225876952792
 21
31.97309408084612
 72
     2
 10
-5.35367831607159
 20
32.29400281725688
 40
1.499200908332752
 50
12.35998596222624
 51
34.57361697223234
 73
     0
 72
     2
 10
-4.942942423735221
 20
32.00494866311196
 40
0.9969860617863467
 50
34.29038331790704
 51
79.42991665428312
 73
     0
 72
     1
 10
-4.760057203160528
 20
31.0248801943346
 11
-5.510404689928634
 21
31.02488019433462
 72
     2
 10
-5.403812384664131
 20
31.8164328281441
 40
0.7986973717449786
 50
97.66944495435136
 51
120.898786067779
 73
     0
 72
     2
 10
-5.173141343771899
 20
32.14234761068797
 40
1.197202176515717
 50
122.3618931068037
 51
141.2515245137382
 73
     0
 72
     2
 10
-5.389471681131198
 20
32.00817328375058
 40
0.9450065449727091
 50
139.3862736078239
 51
177.8726579657922
 73
     0
 72
     1
 10
-6.333826921263238
 20
31.9730940808461
 11
-6.13042511277439
 21
34.02488019433461
 97
        2
330
1241
330
1242
 92
       22
 72
     0
 73
     1
 93
       13
 10
-3.14734900486158
 20
34.02825593571061
 10
-2.047349004861559
 20
34.02825593571061
 10
-1.827245318565901
 20
32.52441131541936
 10
-1.295012624591634
 20
34.02807364104484
 10
-0.1975458970834157
 20
34.0280551402308
 10
-0.4949479612922965
 20
31.0280551402308
 10
-1.115886909891883
 20
31.02805514023081
 10
-0.9222174129992312
 20
32.98166797820307
 10
-1.611942464131546
 20
31.02805514023081
 10
-2.344230471214956
 20
31.0280551402308
 10
-2.630162529241629
 20
32.98166797820306
 10
-2.823832026134283
 20
31.02805514023081
 10
-3.444770974733871
 20
31.0280551402308
 97
        1
330
1244
 92
       22
 72
     0
 73
     1
 93
        4
 10
0.342591724648486
 20
34.02289574745092
 10
1.119422795136273
 20
34.02289574745092
 10
0.822020730927392
 20
31.02289574745093
 10
0.045189660439604
 20
31.02289574745093
 97
        1
330
1233
 92
       22
 72
     0
 73
     1
 93
       10
 10
1.724974710806094
 20
34.02289574745093
 10
2.57655809816546
 20
34.02269495197112
 10
3.395920304875375
 20
32.17298478610545
 10
3.580266230192904
 20
34.02269495197112
 10
4.200228460647139
 20
34.02269495197112
 10
3.902826396438257
 20
31.02269495197112
 10
3.051434648859951
 20
31.02269495197112
 10
2.231899581960561
 20
32.87279534971117
 10
2.048491689533392
 20
31.02269495197111
 10
1.427552740933804
 20
31.02269495197111
 97
        1
330
1245
 92
       22
 72
     0
 73
     1
 93
        4
 10
4.838699321647566
 20
34.02289574745092
 10
5.615530392135354
 20
34.02289574745092
 10
5.318128327926473
 20
31.02289574745093
 10
4.541297257438685
 20
31.02289574745093
 97
        1
330
1240
 92
       20
 93
       13
 72
     1
 10
6.192756492920892
 20
34.02289574745092
 11
6.969390837208833
 21
34.02091130056725
 72
     1
 10
6.969390837208833
 20
34.02091130056725
 11
6.787553510813181
 21
32.18510847056173
 72
     4
 94
        3
 73
     0
 74
     0
 95
       24
 96
       20
 40
0.0
 40
0.0
 40
0.0
 40
0.0
 40
0.1612668085856004
 40
0.2532303870616512
 40
0.3214574742553458
 40
0.4101806452458731
 40
0.5031588697521455
 40
0.5664511009172086
 40
0.6248718787780579
 40
0.6731644290699537
 40
0.7797386132933625
 40
0.9206747739903555
 40
1.025058962643406
 40
1.116412352300617
 40
1.212929457806155
 40
1.276240530363043
 40
1.339961572016455
 40
1.386280507025956
 40
1.435584820291643
 40
1.435584820291643
 40
1.435584820291643
 40
1.435584820291643
 10
6.787553510813182
 20
32.18510847056172
 10
6.791047458209138
 20
32.13113887955868
 10
6.796533854692151
 20
32.04639273409249
 10
6.834321173147815
 20
31.944849798519
 10
6.876009956854381
 20
31.87333980904244
 10
6.927363417736517
 20
31.80538556645249
 10
7.002419943287081
 20
31.76864323009899
 10
7.068704477277941
 20
31.74267907228055
 10
7.123069508903178
 20
31.72524765496452
 10
7.194292617405833
 20
31.72000318501404
 10
7.293138793844411
 20
31.72588425683904
 10
7.407474539225143
 20
31.75614142192696
 10
7.507410339301799
 20
31.81206853839398
 10
7.568441038389779
 20
31.88994982917431
 10
7.608507610253345
 20
31.96348378626593
 10
7.639654909840775
 20
32.03115368524333
 10
7.661175422626328
 20
32.08504635054892
 10
7.671388798025919
 20
32.13732010968165
 10
7.675974690825655
 20
32.16885088442535
 10
7.678339223502376
 20
32.18510847056172
 72
     1
 10
7.678339223502373
 20
32.1851084705617
 11
7.860526466743608
 21
34.02289574745092
 72
     1
 10
7.860526466743608
 20
34.02289574745092
 11
8.637357537231395
 21
34.02289574745092
 72
     1
 10
8.637357537231395
 20
34.02289574745092
 11
8.433955728742489
 21
31.97110963396244
 72
     2
 10
6.969503289623695
 20
32.29201837037321
 40
1.499200908332751
 50
12.35998596222655
 51
34.57361697220028
 73
     0
 72
     2
 10
7.38023918196006
 20
32.00296421622829
 40
0.9969860617863467
 50
34.2903833178587
 51
79.42991665428322
 73
     0
 72
     1
 10
7.563124402534754
 20
31.02289574745093
 11
6.812776915766647
 21
31.02289574745094
 72
     2
 10
6.919369221031151
 20
31.81444838126043
 40
0.7986973717449786
 50
97.66944495435136
 51
120.898786067779
 73
     0
 72
     2
 10
7.150040261923383
 20
32.14036316380429
 40
1.197202176515717
 50
122.3618931068037
 51
141.2515245137382
 73
     0
 72
     2
 10
6.933709924564084
 20
32.0061888368669
 40
0.9450065449727091
 50
139.3862736078239
 51
177.8726579657922
 73
     0
 72
     1
 10
5.989354684432043
 20
31.97110963396243
 11
6.192756492920892
 21
34.02289574745092
 97
        2
330
1243
330
1247
 92
       22
 72
     0
 73
     1
 93
       13
 10
9.159497991066102
 20
34.02289574745092
 10
10.25949799106612
 20
34.02289574745092
 10
10.47960167736178
 20
32.51905112715967
 10
11.01183437133604
 20
34.02271345278515
 10
12.10930109884427
 20
34.02269495197111
 10
11.81189903463539
 20
31.02269495197112
 10
11.1909600860358
 20
31.02269495197111
 10
11.38462958292845
 20
32.97630778994339
 10
10.69490453179614
 20
31.02269495197111
 10
9.962616524712728
 20
31.02269495197112
 10
9.676684466686056
 20
32.97630778994339
 10
9.4830149697934
 20
31.02269495197111
 10
8.862076021193814
 20
31.02269495197111
 97
        1
330
1246
 75
     0
 76
     1
 47
0.0356978143457059
 98
       11
 10
-12.74387987022192
 20
34.13164800304253
 10
-12.74387987022192
 20
34.13164800304253
 10
-12.74387987022192
 20
34.13164800304253
 10
-12.74387987022192
 20
34.13164800304253
 10
-12.74387987022192
 20
34.13164800304253
 10
-12.74387987022192
 20
34.13164800304253
 10
-12.74387987022192
 20
34.13164800304253
 10
-12.74387987022192
 20
34.13164800304253
 10
-12.74387987022192
 20
34.13164800304253
 10
-12.74387987022192
 20
34.13164800304253
 10
-12.74387987022192
 20
34.13164800304253
1001
ACAD
1010
0.0
1020
0.0
1030
0.0
1001
AcDbBlockRepETag
1070
     1
1071
      906
1005
125F
  0
ENDBLK
  5
1260
330
121E
100
AcDbEntity
  8
0
 62
     9
100
AcDbBlockEnd
  0
ENDSEC
  0
SECTION
  2
ENTITIES
  0
LWPOLYLINE
  5
149
330
1F
100
AcDbEntity
  8
0
100
AcDbPolyline
 90
        4
 70
     1
 43
0.0
 10
353.9999991921495
 20
482.0000001108869
 10
-0.0000008078504834
 20
482.0000001108869
 10
-0.0000008078504834
 20
0.0000001108869583
 10
353.9999991921495
 20
0.0000001108869583
  0
TEXT
  5
6E3
330
1F
100
AcDbEntity
  8
APL Notes
100
AcDbText
 10
152.8873078792643
 20
239.0000001108873
 30
0.0
 40
5.0
  1
087006 / 08705
  7
Arial-Bold
 72
     1
 11
177.1642519447487
 21
239.0000001108873
 31
0.0
100
AcDbText
  0
LWPOLYLINE
  5
6E4
330
1F
100
AcDbEntity
  8
APL Joinery
  6
DASHED
 62
     7
 48
20.0
100
AcDbPolyline
 90
        6
 70
     0
 43
0.0
 10
124.6899638564921
 20
328.3950019380804
 10
121.6899638564921
 20
328.3950019380804
 10
121.6899638564921
 20
178.3950019380804
 10
97.19279914261438
 20
178.3950019380804
 10
97.19279914261438
 20
138.3950019380804
 10
102.1927991426144
 20
138.3950019380804
  0
LWPOLYLINE
  5
6E5
330
1F
100
AcDbEntity
  8
APL Joinery
  6
DASHED
 62
     7
 48
20.0
100
AcDbPolyline
 90
        6
 70
     0
 43
0.0
 10
229.3100345278071
 20
328.3950019380804
 10
232.3100345278072
 20
328.3950019380804
 10
232.3100345278072
 20
178.3950019380804
 10
256.8071992416849
 20
178.3950019380804
 10
256.8071992416849
 20
138.3950019380804
 10
250.810034527093
 20
138.3950019380804
  0
INSERT
  5
6E6
330
1F
100
AcDbEntity
  8
APL Joinery
100
AcDbBlockReference
  2
08700
 10
324.9999991921495
 20
241.000000110887
 30
0.0
 50
90.0
  0
INSERT
  5
6E7
330
1F
100
AcDbEntity
  8
APL Joinery
100
AcDbBlockReference
  2
08730
 10
324.9999991921495
 20
241.000000110887
 30
0.0
 50
90.0
  0
INSERT
  5
6E8
330
1F
100
AcDbEntity
  8
APL Joinery
100
AcDbBlockReference
  2
08730
 10
28.99999919214952
 20
241.000000110887
 30
0.0
 41
-1.0
 50
270.0
  0
INSERT
  5
6E9
330
1F
100
AcDbEntity
  8
APL Joinery
100
AcDbBlockReference
  2
08700
 10
28.99999919214952
 20
241.000000110887
 30
0.0
 41
-1.0
 50
270.0
  0
INSERT
  5
6EC
330
1F
100
AcDbEntity
  8
APL Joinery
100
AcDbBlockReference
  2
02046
 10
301.9999991921493
 20
277.0000001108871
 30
0.0
 50
90.0
  0
INSERT
  5
6EE
330
1F
100
AcDbEntity
  8
APL Joinery
100
AcDbBlockReference
  2
02046
 10
51.99999919214974
 20
277.0000001108871
 30
0.0
 41
-1.0
 50
270.0
  0
INSERT
  5
6F0
330
1F
100
AcDbEntity
  8
APL Joinery
100
AcDbBlockReference
  2
08706
 10
176.9999991921481
 20
126.0000001108873
 30
0.0
 50
90.0
  0
INSERT
  5
6F1
330
1F
100
AcDbEntity
  8
APL Joinery
100
AcDbBlockReference
  2
08705
 10
176.9999991921481
 20
126.0000001108873
 30
0.0
 50
90.0
  0
INSERT
  5
6F2
330
1F
100
AcDbEntity
  8
APL Joinery
100
AcDbBlockReference
  2
02046
 10
164.9999991921495
 20
162.0000001108874
 30
0.0
 50
90.0
  0
INSERT
  5
6F7
330
1F
100
AcDbEntity
  8
APL Joinery
100
AcDbBlockReference
  2
02046
 10
188.0028344775576
 20
162.0000001108874
 30
0.0
 41
-1.0
 50
270.0
  0
TEXT
  5
6F8
330
1F
100
AcDbEntity
  8
APL Notes
100
AcDbText
 10
62.25369384132707
 20
222.8000019380801
 30
0.0
 40
5.0
  1
02046
  7
Arial-Bold
 72
     1
 11
71.96549465988096
 21
227.8000019380801
 31
0.0
100
AcDbText
 73
     3
  0
TEXT
  5
6F9
330
1F
100
AcDbEntity
  8
APL Notes
100
AcDbText
 10
166.1001318901784
 20
232.0000001108872
 30
0.0
 40
5.0
  1
Mullion
  7
Arial-Regular
 72
     1
 11
177.1642519447487
 21
232.0000001108872
 31
0.0
100
AcDbText
  0
TEXT
  5
6FA
330
1F
100
AcDbEntity
  8
APL Notes
100
AcDbText
 10
272.8649948567511
 20
222.8000019380801
 30
0.0
 40
5.0
  1
02046
  7
Arial-Bold
 72
     1
 11
282.576795675305
 21
227.8000019380801
 31
0.0
100
AcDbText
 73
     3
  0
TEXT
  5
6FB
330
1F
100
AcDbEntity
  8
APL Notes
100
AcDbText
 10
5.57639755504174
 20
292.6250001108869
 30
0.0
 40
5.0
  1
08730
  7
Arial-Bold
 72
     2
 11
24.99999919214952
 21
295.1250001108869
 31
0.0
100
AcDbText
 73
     2
  0
INSERT
  5
6FC
330
1F
100
AcDbEntity
  8
APL Joinery
100
AcDbBlockReference
  2
08735
 10
279.9999991921495
 20
308.7000001108868
 30
0.0
 50
90.0
  0
TEXT
  5
6FD
330
1F
100
AcDbEntity
  8
APL Notes
100
AcDbText
 10
293.1881983735957
 20
349.0000001108871
 30
0.0
 40
5.0
  1
08700
  7
Arial-Bold
 72
     1
 11
302.8999991921496
 21
349.0000001108871
 31
0.0
100
AcDbText
  0
INSERT
  5
6FE
330
1F
100
AcDbEntity
  8
APL Joinery
100
AcDbBlockReference
  2
08735
 10
73.99999919214952
 20
308.7000001108868
 30
0.0
 41
-1.0
 50
270.0
  0
INSERT
  5
702
330
1F
100
AcDbEntity
  8
APL Joinery
100
AcDbBlockReference
  2
02052
 10
176.9999991921495
 20
309.1450019380802
 30
0.0
  0
TEXT
  5
704
330
1F
100
AcDbEntity
  8
APL Notes
100
AcDbText
 10
153.5092079233896
 20
295.1450019380803
 30
0.0
 40
5.0
  1
Mullion 38 x 25
  7
Arial-Regular
 72
     1
 11
176.9999991921481
 21
300.1450019380803
 31
0.0
100
AcDbText
 73
     3
  0
LINE
  5
705
330
1F
100
AcDbEntity
  8
APL Joinery
  6
DASHED
 62
     7
 48
20.0
100
AcDbLine
 10
117.6899638564921
 20
253.3950019380806
 30
0.0
 11
121.6899638564921
 21
253.3950019380804
 31
0.0
  0
LINE
  5
706
330
1F
100
AcDbEntity
  8
APL Joinery
  6
DASHED
 62
     7
 48
20.0
100
AcDbLine
 10
236.3100345278072
 20
253.3950019380806
 30
0.0
 11
232.3100345278072
 21
253.3950019380804
 31
0.0
  0
TEXT
  5
707
330
1F
100
AcDbEntity
  8
APL Notes
100
AcDbText
 10
167.2881983735942
 20
302.1450019380803
 30
0.0
 40
5.0
  1
02052
  7
Arial-Bold
 72
     1
 11
176.9999991921481
 21
307.1450019380803
 31
0.0
100
AcDbText
 73
     3
  0
TEXT
  5
708
330
1F
100
AcDbEntity
  8
APL Notes
100
AcDbText
 10
41.38819837359553
 20
349.0000001108871
 30
0.0
 40
5.0
  1
08700
  7
Arial-Bold
 72
     1
 11
51.09999919214942
 21
349.0000001108871
 31
0.0
100
AcDbText
  0
TEXT
  5
709
330
1F
100
AcDbEntity
  8
APL Notes
100
AcDbText
 10
75.99999919214951
 20
323.2000001108851
 30
0.0
 40
5.0
  1
08735
  7
Arial-Bold
 11
75.99999919214951
 21
325.7000001108851
 31
0.0
100
AcDbText
 73
     2
  0
TEXT
  5
70A
330
1F
100
AcDbEntity
  8
APL Notes
100
AcDbText
 10
258.5763975550417
 20
323.2000001108851
 30
0.0
 40
5.0
  1
08735
  7
Arial-Bold
 72
     2
 11
277.9999991921495
 21
325.7000001108851
 31
0.0
100
AcDbText
 73
     2
  0
TEXT
  5
70B
330
1F
100
AcDbEntity
  8
APL Notes
100
AcDbText
 10
328.9999991921495
 20
292.6250001108869
 30
0.0
 40
5.0
  1
08730
  7
Arial-Bold
 11
328.9999991921495
 21
295.1250001108869
 31
0.0
100
AcDbText
 73
     2
  0
INSERT
  5
A5C
330
1F
100
AcDbEntity
  8
APL Joinery
100
AcDbBlockReference
  2
altair louvre channel
 10
164.6374991921493
 20
351.8382496257258
 30
0.0
  0
INSERT
  5
A5D
330
1F
100
AcDbEntity
  8
APL Joinery
100
AcDbBlockReference
  2
altair louvre channel
 10
142.1403344782711
 20
161.8382496257256
 30
0.0
  0
INSERT
  5
A5E
330
1F
100
AcDbEntity
  8
APL Joinery
100
AcDbBlockReference
  2
altair louvre channel
 10
279.0028344782716
 20
276.8382496257256
 30
0.0
  0
INSERT
  5
A5F
330
1F
100
AcDbEntity
  8
APL Joinery
100
AcDbBlockReference
  2
altair louvre channel
 10
189.3624991921501
 20
351.8382496257259
 30
0.0
 41
-1.0
  0
INSERT
  5
A60
330
1F
100
AcDbEntity
  8
APL Joinery
100
AcDbBlockReference
  2
altair louvre channel
 10
74.99716390602793
 20
277.3659815738471
 30
0.0
 41
-1.0
  0
INSERT
  5
A61
330
1F
100
AcDbEntity
  8
APL Joinery
100
AcDbBlockReference
  2
altair louvre channel
 10
210.862499191436
 20
161.8382496257256
 30
0.0
 41
-1.0
  0
INSERT
  5
C98
330
1F
100
AcDbEntity
  8
APL Border
100
AcDbBlockReference
  2
Louvre Blade
 10
121.0763335208417
 20
3.621114281566178
 30
0.0
  0
INSERT
  5
C9A
330
1F
100
AcDbEntity
  8
APL Border
100
AcDbBlockReference
  2
Louvre Blade
 10
235.441668806964
 20
78.09338233344499
 30
0.0
  0
INSERT
  5
C9B
330
1F
100
AcDbEntity
  8
APL Border
100
AcDbBlockReference
  2
Louvre Blade
 10
256.9416688062498
 20
-111.9066176665552
 30
0.0
  0
INSERT
  5
C9C
330
1F
100
AcDbEntity
  8
APL Border
100
AcDbBlockReference
  2
Louvre Blade
 10
118.558329577335
 20
78.09338233344499
 30
0.0
 41
-1.0
  0
INSERT
  5
C9D
330
1F
100
AcDbEntity
  8
APL Border
100
AcDbBlockReference
  2
Louvre Blade
 10
96.0615600976679
 20
-111.9066176665552
 30
0.0
 41
-1.0
  0
INSERT
  5
CA0
330
1F
100
AcDbEntity
  8
APL Border
100
AcDbBlockReference
  2
Louvre Blade
 10
232.9236648634573
 20
3.093382333444822
 30
0.0
 41
-1.0
  0
VIEWPORT
  5
7A9
102
{ACAD_XDICTIONARY
360
EEF
102
}
330
7A8
100
AcDbEntity
 67
     1
  8
0
100
AcDbViewport
 10
99.91724491119384
 20
143.1184201240539
 30
0.0
 40
441.2599642813129
 41
299.3707178162971
 68
     1
 69
     1
 12
99.91724491119384
 22
143.1184201240539
 13
0.0
 23
0.0
 14
10.0
 24
10.0
 15
10.0
 25
10.0
 16
0.0
 26
0.0
 36
1.0
 17
0.0
 27
0.0
 37
0.0
 42
50.0
 43
0.0
 44
0.0
 45
299.3707178162971
 50
0.0
 51
0.0
 72
 20000
 90
    32800
  1

281
     0
 71
     1
 74
     0
110
0.0
120
0.0
130
0.0
111
1.0
121
0.0
131
0.0
112
0.0
122
1.0
132
0.0
 79
     0
146
0.0
  0
VIEWPORT
  5
7AA
102
{ACAD_XDICTIONARY
360
EF1
102
}
330
7A8
100
AcDbEntity
 67
     1
  8
0
100
AcDbViewport
 10
100.595
 20
130.7733333333333
 30
0.0
 40
178.0
 41
241.1666666666666
 68
     2
 69
     2
 12
176.9939785046424
 22
240.9816171983433
 13
0.0
 23
0.0
 14
10.0
 24
10.0
 15
10.0
 25
10.0
 16
0.0
 26
0.0
 36
1.0
 17
0.0
 27
0.0
 37
0.0
 42
50.0
 43
0.0
 44
0.0
 45
482.3333333333332
 50
0.0
 51
0.0
 72
 20000
 90
    32864
  1

281
     0
 71
     1
 74
     0
110
0.0
120
0.0
130
0.0
111
1.0
121
0.0
131
0.0
112
0.0
122
1.0
132
0.0
 79
     0
146
0.0
  0
INSERT
  5
7C1
330
7A8
100
AcDbEntity
 67
     1
  8
APL Border
100
AcDbBlockReference
  2
vantage a4 SM border
 10
0.0
 20
0.0
 30
0.0
  0
INSERT
  5
7CE
330
7A8
100
AcDbEntity
 67
     1
  8
APL Border
100
AcDbBlockReference
 66
     1
  2
vantage a4 SM attributes (4)
 10
0.0
 20
0.0
 30
0.0
  0
ATTRIB
  5
7D0
330
7CE
100
AcDbEntity
 67
     1
  8
APL Border
100
AcDbText
 10
41.78979785863008
 20
275.28125
 30
0.0
 40
3.5
  1
APL ARCHITECTURAL SERIES
  7
Arial-Bold
100
AcDbAttribute
  2
DRAWINGTITLE_1
 70
     0
  0
ATTRIB
  5
7D1
330
7CE
100
AcDbEntity
 67
     1
  8
APL Border
100
AcDbText
 10
41.78979785863008
 20
269.28125
 30
0.0
 40
3.5
  1
ALTAIR LOUVRE
  7
Arial-Bold
100
AcDbAttribute
  2
DRAWINGTITLE_2
 70
     0
  0
ATTRIB
  5
7D2
330
7CE
100
AcDbEntity
 67
     1
  8
APL Border
100
AcDbText
 10
41.78979785863008
 20
263.28125
 30
0.0
 40
3.5
  1
HORIZONTAL DETAILS
  7
Arial-Bold
100
AcDbAttribute
  2
DRAWINGTITLE_3
 70
     0
  0
ATTRIB
  5
7D3
330
7CE
100
AcDbEntity
 67
     1
  8
APL Border
100
AcDbText
 10
41.78979785863008
 20
257.28125
 30
0.0
 40
3.0
  1
CROSS SECTION
  7
Arial-Regular
100
AcDbAttribute
  2
DRAWINGTITLE_4
 70
     0
  0
ATTRIB
  5
7D4
330
7CE
100
AcDbEntity
 67
     1
  8
APL Border
100
AcDbText
 10
165.845
 20
273.69
 30
0.0
 40
2.5
  1
VAAW07-0
  7
Arial-Regular
100
AcDbAttribute
  2
AW123-456
 70
     0
  0
ATTRIB
  5
7D5
330
7CE
100
AcDbEntity
 67
     1
  8
APL Border
100
AcDbText
 10
147.5475920873124
 20
257.1899999999999
 30
0.0
 40
2.5
  1
01.06.11
  7
Arial-Regular
 72
     1
 11
154.345
 21
257.1899999999999
 31
0.0
100
AcDbAttribute
  2
24.05.02
 70
     0
  0
ATTRIB
  5
7D6
330
7CE
100
AcDbEntity
 67
     1
  8
APL Border
100
AcDbText
 10
175.4174761255116
 20
257.1899999999999
 30
0.0
 40
2.5
  1
1:2
  7
Arial-Regular
 72
     1
 11
177.845
 21
257.1899999999999
 31
0.0
100
AcDbAttribute
  2
1:2
 70
     0
  0
ATTRIB
  5
7D7
330
7CE
100
AcDbEntity
 67
     1
  8
APL Border
100
AcDbText
 10
11.59500000000001
 20
1.189999999999997
 30
0.0
 40
3.75
  1

  7
Arial-Bold
100
AcDbAttribute
  2
1.2.34
 70
     0
  0
ATTRIB
  5
7D8
330
7CE
100
AcDbEntity
 67
     1
  8
APL Border
100
AcDbText
 10
189.595
 20
1.189999999999997
 30
0.0
 40
3.75
  1

  7
Arial-Bold
 72
     2
 11
189.595
 21
1.189999999999997
 31
0.0
100
AcDbAttribute
  2
1.2.34
 70
     0
  0
SEQEND
  5
7CF
330
7CE
100
AcDbEntity
 67
     1
  8
APL Border
  0
ENDSEC
  0
SECTION
  2
OBJECTS
  0
DICTIONARY
  5
C
330
0
100
AcDbDictionary
281
     1
  3
ACAD_COLOR
350
857
  3
ACAD_GROUP
350
D
  3
ACAD_LAYOUT
350
1A
  3
ACAD_MATERIAL
350
82D
  3
ACAD_MLEADERSTYLE
350
87C
  3
ACAD_MLINESTYLE
350
17
  3
ACAD_PLOTSETTINGS
350
19
  3
ACAD_PLOTSTYLENAME
350
E
  3
ACAD_SCALELIST
350
85A
  3
ACAD_TABLESTYLE
350
858
  3
ACAD_VISUALSTYLE
350
846
  3
ACDB_RECOMPOSE_DATA
350
8FE
  3
ACDBHEADERROUNDTRIPXREC
350
135E
  3
AcDbVariableDictionary
350
6A
  3
DWGPROPS
350
135D
  0
DICTIONARY
  5
900
330
8
100
AcDbDictionary
280
     1
281
     1
  3
ACAD_XREC_ROUNDTRIP
360
EE3
  0
DICTIONARY
  5
890
330
2
100
AcDbDictionary
280
     1
281
     1
  3
ACAD_LAYERFILTERS
360
948
  3
ACAD_LAYERSTATES
360
891
  3
ACLYDICTIONARY
360
947
  0
DICTIONARY
  5
8D0
330
10
100
AcDbDictionary
280
     1
281
     1
  3
ACAD_XREC_ROUNDTRIP
360
EE4
  3
ADSK_XREC_LAYER_RECONCILED
360
8D1
  0
DICTIONARY
  5
8D2
330
2B
100
AcDbDictionary
280
     1
281
     1
  3
ACAD_XREC_ROUNDTRIP
360
EE7
  3
ADSK_XREC_LAYER_RECONCILED
360
8D3
  0
DICTIONARY
  5
8D4
330
2E
100
AcDbDictionary
280
     1
281
     1
  3
ACAD_XREC_ROUNDTRIP
360
EE8
  3
ADSK_XREC_LAYER_RECONCILED
360
8D5
  0
DICTIONARY
  5
8D8
330
6B4
100
AcDbDictionary
280
     1
281
     1
  3
ACAD_XREC_ROUNDTRIP
360
EEE
  3
ADSK_XREC_LAYER_RECONCILED
360
8D9
  0
DICTIONARY
  5
F0E
330
9E3
100
AcDbDictionary
280
     1
281
     1
  3
ACAD_XREC_ROUNDTRIP
360
F0F
  0
DICTIONARY
  5
C8C
330
1F
100
AcDbDictionary
280
     1
281
     1
  3
ACAD_SORTENTS
360
C8D
  0
DICTIONARY
  5
11FE
330
416
100
AcDbDictionary
280
     1
281
     1
  0
DICTIONARY
  5
1201
330
41E
100
AcDbDictionary
280
     1
281
     1
  0
DICTIONARY
  5
1207
330
55E
100
AcDbDictionary
280
     1
281
     1
  3
ACAD_SORTENTS
360
1208
  0
DICTIONARY
  5
120B
330
564
100
AcDbDictionary
280
     1
281
     1
  3
ACAD_SORTENTS
360
120C
  0
DICTIONARY
  5
120F
330
66D
100
AcDbDictionary
280
     1
281
     1
  0
DICTIONARY
  5
121F
330
121E
100
AcDbDictionary
280
     1
281
     1
  3
ACAD_SORTENTS
360
1220
  0
DICTIONARY
  5
121D
330
121C
100
AcDbDictionary
280
     1
281
     1
  0
DICTIONARY
  5
EEF
330
7A9
100
AcDbDictionary
280
     1
281
     1
  3
ACAD_XREC_ROUNDTRIP
360
EF0
  0
DICTIONARY
  5
EF1
330
7AA
100
AcDbDictionary
280
     1
281
     1
  3
ACAD_XREC_ROUNDTRIP
360
EF2
  0
DICTIONARY
  5
857
102
{ACAD_REACTORS
330
C
102
}
330
C
100
AcDbDictionary
281
     1
  0
DICTIONARY
  5
D
102
{ACAD_REACTORS
330
C
102
}
330
C
100
AcDbDictionary
281
     1
  3
*A1
350
18D
  3
*A10
350
2CD
  3
*A2
350
348
  3
*A3
350
349
  3
*A4
350
414
  3
*A5
350
415
  3
*A6
350
4C9
  3
*A7
350
4CC
  3
*A8
350
192
  3
*A9
350
2CC
  0
DICTIONARY
  5
1A
102
{ACAD_REACTORS
330
C
102
}
330
C
100
AcDbDictionary
281
     1
  3
Model
350
22
  3
Vantage A4
350
7B8
  0
DICTIONARY
  5
82D
102
{ACAD_REACTORS
330
C
102
}
330
C
100
AcDbDictionary
281
     1
  3
ByBlock
350
836
  3
ByLayer
350
82E
  3
Global
350
83E
  0
DICTIONARY
  5
87C
102
{ACAD_REACTORS
330
C
102
}
330
C
100
AcDbDictionary
281
     1
  3
Standard
350
A56
  0
DICTIONARY
  5
17
102
{ACAD_REACTORS
330
C
102
}
330
C
100
AcDbDictionary
281
     1
  3
Standard
350
18
  0
DICTIONARY
  5
19
102
{ACAD_REACTORS
330
C
102
}
330
C
100
AcDbDictionary
281
     1
  0
ACDBDICTIONARYWDFLT
  5
E
102
{ACAD_REACTORS
330
C
102
}
330
C
100
AcDbDictionary
281
     1
  3
Normal
350
F
100
AcDbDictionaryWithDefault
340
F
  0
DICTIONARY
  5
85A
102
{ACAD_REACTORS
330
C
102
}
330
C
100
AcDbDictionary
281
     1
  3
A0
350
85B
  3
A1
350
85C
  3
A2
350
85D
  3
A3
350
85E
  3
A4
350
85F
  3
A5
350
860
  3
A6
350
861
  3
A7
350
862
  3
A8
350
863
  3
A9
350
864
  3
B0
350
865
  3
B1
350
866
  3
B2
350
867
  3
B3
350
868
  3
B4
350
869
  3
B5
350
86A
  3
B6
350
86B
  3
B7
350
86C
  3
B8
350
86D
  3
B9
350
86E
  3
C0
350
86F
  3
C1
350
870
  3
C2
350
871
  3
C3
350
872
  3
C4
350
873
  3
C5
350
874
  3
C6
350
875
  3
C7
350
876
  3
C8
350
877
  3
C9
350
878
  3
D0
350
879
  3
D1
350
87A
  3
D2
350
87B
  0
DICTIONARY
  5
858
102
{ACAD_REACTORS
330
C
102
}
330
C
100
AcDbDictionary
281
     1
  3
Standard
350
859
  0
DICTIONARY
  5
846
102
{ACAD_REACTORS
330
C
102
}
330
C
100
AcDbDictionary
281
     1
  3
2dWireframe
350
84C
  3
3D Hidden
350
84E
  3
3dWireframe
350
84D
  3
Basic
350
84B
  3
Brighten
350
852
  3
ColorChange
350
856
  3
Conceptual
350
84F
  3
Dim
350
851
  3
Facepattern
350
855
  3
Flat
350
847
  3
FlatWithEdges
350
848
  3
Gouraud
350
849
  3
GouraudWithEdges
350
84A
  3
Linepattern
350
854
  3
Realistic
350
850
  3
Thicken
350
853
  0
XRECORD
  5
8FE
102
{ACAD_REACTORS
330
C
102
}
330
C
100
AcDbXrecord
280
     1
 90
        1
330
859
  0
DICTIONARY
  5
135E
102
{ACAD_REACTORS
330
C
102
}
330
C
100
AcDbDictionary
281
     1
  0
DICTIONARY
  5
6A
102
{ACAD_REACTORS
330
C
102
}
330
C
100
AcDbDictionary
281
     1
  3
CANNOSCALE
350
931
  3
CMLEADERSTYLE
350
930
  3
CTABLESTYLE
350
92F
  3
DIMASSOC
350
6C
  3
HIDETEXT
350
6B
  3
INDEXCTL
350
933
  3
PROJECTNAME
350
CDB
  3
SORTENTS
350
932
  0
XRECORD
  5
135D
102
{ACAD_REACTORS
330
C
102
}
330
C
100
AcDbXrecord
280
     1
  1
DWGPROPS COOKIE
  2

  3

  4

  6

  7

  8
homer
  9

300
=
301
=
302
=
303
=
304
=
305
=
306
=
307
=
308
=
309
=
 40
0.4417844097222222
 41
2452829.350170197
 42
2455659.526556678
  1

 90
        0
  0
XRECORD
  5
EE3
102
{ACAD_REACTORS
330
900
102
}
330
900
100
AcDbXrecord
280
     1
102
VTR_0.000_0.000_1.000_1.000_VISUALSTYLE
340
84C
102
VTR_0.000_0.000_1.000_1.000_GRIDDISPLAY
 70
     3
102
VTR_0.000_0.000_1.000_1.000_GRIDMAJOR
 70
     5
102
VTR_0.000_0.000_1.000_1.000_DEFAULTLIGHTING
280
     1
102
VTR_0.000_0.000_1.000_1.000_DEFAULTLIGHTINGTYPE
 70
     1
102
VTR_0.000_0.000_1.000_1.000_BRIGHTNESS
141
0.0
102
VTR_0.000_0.000_1.000_1.000_CONTRAST
142
0.0
  0
DICTIONARY
  5
948
102
{ACAD_REACTORS
330
890
102
}
330
890
100
AcDbDictionary
281
     1
  0
DICTIONARY
  5
891
102
{ACAD_REACTORS
330
890
102
}
330
890
100
AcDbDictionary
281
     1
  0
DICTIONARY
  5
947
102
{ACAD_REACTORS
330
890
102
}
330
890
100
AcDbDictionary
281
     1
1001
ACAD
1000
<All
  0
XRECORD
  5
EE4
102
{ACAD_REACTORS
330
8D0
102
}
330
8D0
100
AcDbXrecord
280
     1
102
MATERIAL
340
83E
  0
XRECORD
  5
8D1
102
{ACAD_REACTORS
330
8D0
102
}
330
8D0
100
AcDbXrecord
280
     1
290
     1
  0
XRECORD
  5
EE7
102
{ACAD_REACTORS
330
8D2
102
}
330
8D2
100
AcDbXrecord
280
     1
102
MATERIAL
340
83E
  0
XRECORD
  5
8D3
102
{ACAD_REACTORS
330
8D2
102
}
330
8D2
100
AcDbXrecord
280
     1
290
     1
  0
XRECORD
  5
EE8
102
{ACAD_REACTORS
330
8D4
102
}
330
8D4
100
AcDbXrecord
280
     1
102
MATERIAL
340
83E
  0
XRECORD
  5
8D5
102
{ACAD_REACTORS
330
8D4
102
}
330
8D4
100
AcDbXrecord
280
     1
290
     1
  0
XRECORD
  5
EEE
102
{ACAD_REACTORS
330
8D8
102
}
330
8D8
100
AcDbXrecord
280
     1
102
MATERIAL
340
83E
  0
XRECORD
  5
8D9
102
{ACAD_REACTORS
330
8D8
102
}
330
8D8
100
AcDbXrecord
280
     1
290
     1
  0
XRECORD
  5
F0F
102
{ACAD_REACTORS
330
F0E
102
}
330
F0E
100
AcDbXrecord
280
     1
102
MATERIAL
340
83E
  0
SORTENTSTABLE
  5
C8D
102
{ACAD_REACTORS
330
C8C
102
}
330
C8C
100
AcDbSortentsTable
330
1F
331
702
  5
702
331
A5F
  5
A5F
331
70B
  5
70B
331
6E4
  5
6E4
331
707
  5
707
331
149
  5
149
331
6E9
  5
6E9
331
6FB
  5
6FB
331
6F2
  5
6F2
331
A60
  5
A60
331
6F7
  5
6F7
331
6EE
  5
6EE
331
6E5
  5
6E5
331
708
  5
708
331
6FC
  5
6FC
331
A5C
  5
A5C
331
704
  5
704
331
6E6
  5
6E6
331
6F8
  5
6F8
331
A61
  5
A61
331
709
  5
709
331
6FD
  5
6FD
331
A5D
  5
A5D
331
705
  5
705
331
6E7
  5
6E7
331
6F0
  5
6F0
331
6F9
  5
6F9
331
6E3
  5
6E3
331
6EC
  5
6EC
331
70A
  5
70A
331
6FE
  5
6FE
331
A5E
  5
A5E
331
706
  5
706
331
6F1
  5
6F1
331
6FA
  5
6FA
331
6E8
  5
6E8
  0
SORTENTSTABLE
  5
1208
102
{ACAD_REACTORS
330
1207
102
}
330
1207
100
AcDbSortentsTable
330
55E
  0
SORTENTSTABLE
  5
120C
102
{ACAD_REACTORS
330
120B
102
}
330
120B
100
AcDbSortentsTable
330
564
  0
SORTENTSTABLE
  5
1220
102
{ACAD_REACTORS
330
121F
102
}
330
121F
100
AcDbSortentsTable
330
121E
  0
XRECORD
  5
EF0
102
{ACAD_REACTORS
330
EEF
102
}
330
EEF
100
AcDbXrecord
280
     1
102
VISUALSTYLE
340
84C
102
GRIDDISPLAY
 70
     0
102
GRIDMAJOR
 70
     5
102
DEFAULTLIGHTING
280
     1
102
DEFAULTLIGHTINGTYPE
 70
     1
102
BRIGHTNESS
141
0.0
102
CONTRAST
142
0.0
102
SHADEPLOT
 70
     0
  0
XRECORD
  5
EF2
102
{ACAD_REACTORS
330
EF1
102
}
330
EF1
100
AcDbXrecord
280
     1
102
VISUALSTYLE
340
84C
102
GRIDDISPLAY
 70
     0
102
GRIDMAJOR
 70
     5
102
DEFAULTLIGHTING
280
     1
102
DEFAULTLIGHTINGTYPE
 70
     1
102
BRIGHTNESS
141
0.0
102
CONTRAST
142
0.0
102
SHADEPLOT
 70
     0
  0
GROUP
  5
18D
102
{ACAD_REACTORS
330
D
102
}
330
D
100
AcDbGroup
300

 70
     1
 71
     1
  0
GROUP
  5
2CD
102
{ACAD_REACTORS
330
D
102
}
330
D
100
AcDbGroup
300

 70
     1
 71
     1
  0
GROUP
  5
348
102
{ACAD_REACTORS
330
D
102
}
330
D
100
AcDbGroup
300

 70
     1
 71
     1
  0
GROUP
  5
349
102
{ACAD_REACTORS
330
D
102
}
330
D
100
AcDbGroup
300

 70
     1
 71
     1
  0
GROUP
  5
414
102
{ACAD_REACTORS
330
D
102
}
330
D
100
AcDbGroup
300

 70
     1
 71
     1
  0
GROUP
  5
415
102
{ACAD_REACTORS
330
D
102
}
330
D
100
AcDbGroup
300

 70
     1
 71
     1
  0
GROUP
  5
4C9
102
{ACAD_REACTORS
330
D
102
}
330
D
100
AcDbGroup
300

 70
     1
 71
     1
  0
GROUP
  5
4CC
102
{ACAD_REACTORS
330
D
102
}
330
D
100
AcDbGroup
300

 70
     1
 71
     1
  0
GROUP
  5
192
102
{ACAD_REACTORS
330
D
102
}
330
D
100
AcDbGroup
300

 70
     1
 71
     1
  0
GROUP
  5
2CC
102
{ACAD_REACTORS
330
D
102
}
330
D
100
AcDbGroup
300

 70
     1
 71
     1
  0
LAYOUT
  5
22
102
{ACAD_XDICTIONARY
360
135F
102
}
102
{ACAD_REACTORS
330
1A
102
}
330
1A
100
AcDbPlotSettings
  1

  2
\\APL01\HP LaserJet 4MV
  4
A4
  6

 40
6.805083274841308
 41
5.069413185119628
 42
6.805084228515625
 43
5.027069091796875
 44
209.9733276367187
 45
296.9683227539062
 46
0.0
 47
71.33
 48
-0.0000008078504834
 49
500.0000001108869
140
353.9999991921495
141
982.0000001108869
142
1.0
143
2.454635582726644
 70
 11956
 72
     1
 73
     1
 74
     4
  7
A4 Specifier Manual.ctb
 75
     0
147
0.4073924484094644
148
0.0000008078504834
149
-500.0000001108869
100
AcDbLayout
  1
Model
 70
     1
 71
     0
 10
0.0
 20
0.0
 11
12.0
 21
9.0
 12
0.0
 22
0.0
 32
0.0
 14
0.0
 24
0.0
 34
0.0
 15
0.0
 25
0.0
 35
0.0
146
0.0
 13
0.0
 23
0.0
 33
0.0
 16
1.0
 26
0.0
 36
0.0
 17
0.0
 27
1.0
 37
0.0
 76
     0
330
1F
  0
LAYOUT
  5
7B8
102
{ACAD_XDICTIONARY
360
8A1
102
}
102
{ACAD_REACTORS
330
1A
102
}
330
1A
100
AcDbPlotSettings
  1

  2
\\Aplfp01\APL Technical HP5100 PSLaser
  4
A4
  6

 40
5.027083396911621
 41
5.408084392547607
 42
5.70440673828125
 43
5.365753173828125
 44
209.8886566162109
 45
297.0530090332031
 46
0.0
 47
0.0
 48
0.0
 49
0.0
140
0.0
141
0.0
142
1.0
143
1.0
 70
   688
 72
     1
 73
     0
 74
     5
  7
A4 Specifier Manual.ctb
 75
    16
147
1.0
148
0.0
149
0.0
100
AcDbLayout
  1
Vantage A4
 70
     1
 71
     1
 10
-5.027083396911621
 20
-5.408084392547607
 11
204.8615732192993
 21
291.6449246406555
 12
0.0
 22
0.0
 32
0.0
 14
11.46014251777035
 24
3.285575844812797
 34
-0.0015258207003583
 15
189.6073672775216
 25
282.2033753668244
 35
0.0000000349246037
146
0.0
 13
0.0
 23
0.0
 33
0.0
 16
1.0
 26
0.0
 36
0.0
 17
0.0
 27
1.0
 37
0.0
 76
     0
330
7A8
331
7A9
1001
ACAD_PSEXT
1000
\\Aplfp01\APL Technical HP5100 PSLaser
1000
HP LaserJet 5100 PS
1000
APL Technical Office
1000

1070
     0
  0
MATERIAL
  5
836
102
{ACAD_XDICTIONARY
360
837
102
}
102
{ACAD_REACTORS
330
82D
102
}
330
82D
100
AcDbMaterial
  1
ByBlock
 72
     0
 73
     2
 43
0.0008202099737533
 43
0.0
 43
0.0
 43
0.0
 43
0.0
 43
0.0008202099737533
 43
0.0
 43
0.0
 43
0.0
 43
0.0
 43
1.0
 43
0.0
 43
0.0
 43
0.0
 43
0.0
 43
1.0
 77
     0
 78
     2
 47
0.0008202099737533
 47
0.0
 47
0.0
 47
0.0
 47
0.0
 47
0.0008202099737533
 47
0.0
 47
0.0
 47
0.0
 47
0.0
 47
1.0
 47
0.0
 47
0.0
 47
0.0
 47
0.0
 47
1.0
171
     0
172
     2
 49
0.0008202099737533
 49
0.0
 49
0.0
 49
0.0
 49
0.0
 49
0.0008202099737533
 49
0.0
 49
0.0
 49
0.0
 49
0.0
 49
1.0
 49
0.0
 49
0.0
 49
0.0
 49
0.0
 49
1.0
175
     0
176
     2
142
0.0008202099737533
142
0.0
142
0.0
142
0.0
142
0.0
142
0.0008202099737533
142
0.0
142
0.0
142
0.0
142
0.0
142
1.0
142
0.0
142
0.0
142
0.0
142
0.0
142
1.0
179
     0
270
     2
144
0.0008202099737533
144
0.0
144
0.0
144
0.0
144
0.0
144
0.0008202099737533
144
0.0
144
0.0
144
0.0
144
0.0
144
1.0
144
0.0
144
0.0
144
0.0
144
0.0
144
1.0
274
     2
147
0.0008202099737533
147
0.0
147
0.0
147
0.0
147
0.0
147
0.0008202099737533
147
0.0
147
0.0
147
0.0
147
0.0
147
1.0
147
0.0
147
0.0
147
0.0
147
0.0
147
1.0
  0
MATERIAL
  5
82E
102
{ACAD_XDICTIONARY
360
82F
102
}
102
{ACAD_REACTORS
330
82D
102
}
330
82D
100
AcDbMaterial
  1
ByLayer
 72
     0
 73
     2
 43
0.0008202099737533
 43
0.0
 43
0.0
 43
0.0
 43
0.0
 43
0.0008202099737533
 43
0.0
 43
0.0
 43
0.0
 43
0.0
 43
1.0
 43
0.0
 43
0.0
 43
0.0
 43
0.0
 43
1.0
 77
     0
 78
     2
 47
0.0008202099737533
 47
0.0
 47
0.0
 47
0.0
 47
0.0
 47
0.0008202099737533
 47
0.0
 47
0.0
 47
0.0
 47
0.0
 47
1.0
 47
0.0
 47
0.0
 47
0.0
 47
0.0
 47
1.0
171
     0
172
     2
 49
0.0008202099737533
 49
0.0
 49
0.0
 49
0.0
 49
0.0
 49
0.0008202099737533
 49
0.0
 49
0.0
 49
0.0
 49
0.0
 49
1.0
 49
0.0
 49
0.0
 49
0.0
 49
0.0
 49
1.0
175
     0
176
     2
142
0.0008202099737533
142
0.0
142
0.0
142
0.0
142
0.0
142
0.0008202099737533
142
0.0
142
0.0
142
0.0
142
0.0
142
1.0
142
0.0
142
0.0
142
0.0
142
0.0
142
1.0
179
     0
270
     2
144
0.0008202099737533
144
0.0
144
0.0
144
0.0
144
0.0
144
0.0008202099737533
144
0.0
144
0.0
144
0.0
144
0.0
144
1.0
144
0.0
144
0.0
144
0.0
144
0.0
144
1.0
274
     2
147
0.0008202099737533
147
0.0
147
0.0
147
0.0
147
0.0
147
0.0008202099737533
147
0.0
147
0.0
147
0.0
147
0.0
147
1.0
147
0.0
147
0.0
147
0.0
147
0.0
147
1.0
  0
MATERIAL
  5
83E
102
{ACAD_XDICTIONARY
360
83F
102
}
102
{ACAD_REACTORS
330
82D
102
}
330
82D
100
AcDbMaterial
  1
Global
 72
     0
 73
     2
 43
0.0008202099737533
 43
0.0
 43
0.0
 43
0.0
 43
0.0
 43
0.0008202099737533
 43
0.0
 43
0.0
 43
0.0
 43
0.0
 43
1.0
 43
0.0
 43
0.0
 43
0.0
 43
0.0
 43
1.0
 77
     0
 78
     2
 47
0.0008202099737533
 47
0.0
 47
0.0
 47
0.0
 47
0.0
 47
0.0008202099737533
 47
0.0
 47
0.0
 47
0.0
 47
0.0
 47
1.0
 47
0.0
 47
0.0
 47
0.0
 47
0.0
 47
1.0
171
     0
172
     2
 49
0.0008202099737533
 49
0.0
 49
0.0
 49
0.0
 49
0.0
 49
0.0008202099737533
 49
0.0
 49
0.0
 49
0.0
 49
0.0
 49
1.0
 49
0.0
 49
0.0
 49
0.0
 49
0.0
 49
1.0
175
     0
176
     2
142
0.0008202099737533
142
0.0
142
0.0
142
0.0
142
0.0
142
0.0008202099737533
142
0.0
142
0.0
142
0.0
142
0.0
142
1.0
142
0.0
142
0.0
142
0.0
142
0.0
142
1.0
179
     0
270
     2
144
0.0008202099737533
144
0.0
144
0.0
144
0.0
144
0.0
144
0.0008202099737533
144
0.0
144
0.0
144
0.0
144
0.0
144
1.0
144
0.0
144
0.0
144
0.0
144
0.0
144
1.0
274
     2
147
0.0008202099737533
147
0.0
147
0.0
147
0.0
147
0.0
147
0.0008202099737533
147
0.0
147
0.0
147
0.0
147
0.0
147
1.0
147
0.0
147
0.0
147
0.0
147
0.0
147
1.0
  0
ACAD_PROXY_OBJECT
  5
A56
102
{ACAD_REACTORS
330
87C
102
}
330
87C
100
AcDbProxyObject
 90
      499
 91
      508
 95
   983063
 70
     0
 93
      618
310
40901902A4063FBFFFFFE000000000000002040AD7A3703D0AD73F4254DD185B99185C99000000000000000104090141901A00000000000004100000000000000041025764000000000000300FC0
340
14
340
0
340
11
340
0
 94
        0
1001
ACAD_MLEADERVER
1070
     2
1001
ACAD
1000
AcRTDxfName
1000
MLEADERSTYLE
1000
AcRTDxfName
1000
MLEADERSTYLE
1000
AcRTDxfName
1000
MLEADERSTYLE
1000
AcRTDxfName
1000
MLEADERSTYLE
1000
AcRTDxfName
1000
MLEADERSTYLE
1000
AcRTDxfName
1000
MLEADERSTYLE
  0
MLINESTYLE
  5
18
102
{ACAD_REACTORS
330
17
102
}
330
17
100
AcDbMlineStyle
  2
STANDARD
 70
     0
  3

 62
   256
 51
90.0
 52
90.0
 71
     2
 49
0.5
 62
   256
  6
BYLAYER
 49
-0.5
 62
   256
  6
BYLAYER
  0
ACDBPLACEHOLDER
  5
F
102
{ACAD_REACTORS
330
E
102
}
330
E
  0
ACAD_PROXY_OBJECT
  5
85B
102
{ACAD_REACTORS
330
85A
102
}
330
85A
100
AcDbProxyObject
 90
      499
 91
      507
 95
   983063
 70
     0
 93
       49
310
904313A3100580
 94
        0
1001
ACAD
1000
AcRTDxfName
1000
SCALE
1000
AcRTDxfName
1000
SCALE
1000
AcRTDxfName
1000
SCALE
1000
AcRTDxfName
1000
SCALE
1000
AcRTDxfName
1000
SCALE
1000
AcRTDxfName
1000
SCALE
  0
ACAD_PROXY_OBJECT
  5
85C
102
{ACAD_REACTORS
330
85A
102
}
330
85A
100
AcDbProxyObject
 90
      499
 91
      507
 95
   983063
 70
     0
 93
      113
310
904313A32004000000000000004040
 94
        0
1001
ACAD
1000
AcRTDxfName
1000
SCALE
1000
AcRTDxfName
1000
SCALE
1000
AcRTDxfName
1000
SCALE
1000
AcRTDxfName
1000
SCALE
1000
AcRTDxfName
1000
SCALE
1000
AcRTDxfName
1000
SCALE
  0
ACAD_PROXY_OBJECT
  5
85D
102
{ACAD_REACTORS
330
85A
102
}
330
85A
100
AcDbProxyObject
 90
      499
 91
      507
 95
   983063
 70
     0
 93
      113
310
904313A34004000000000000104040
 94
        0
1001
ACAD
1000
AcRTDxfName
1000
SCALE
1000
AcRTDxfName
1000
SCALE
1000
AcRTDxfName
1000
SCALE
1000
AcRTDxfName
1000
SCALE
1000
AcRTDxfName
1000
SCALE
1000
AcRTDxfName
1000
SCALE
  0
ACAD_PROXY_OBJECT
  5
85E
102
{ACAD_REACTORS
330
85A
102
}
330
85A
100
AcDbProxyObject
 90
      499
 91
      507
 95
   983063
 70
     0
 93
      113
310
904313A35004000000000000144040
 94
        0
1001
ACAD
1000
AcRTDxfName
1000
SCALE
1000
AcRTDxfName
1000
SCALE
1000
AcRTDxfName
1000
SCALE
1000
AcRTDxfName
1000
SCALE
1000
AcRTDxfName
1000
SCALE
1000
AcRTDxfName
1000
SCALE
  0
ACAD_PROXY_OBJECT
  5
85F
102
{ACAD_REACTORS
330
85A
102
}
330
85A
100
AcDbProxyObject
 90
      499
 91
      507
 95
   983063
 70
     0
 93
      113
310
904313A38004000000000000204040
 94
        0
1001
ACAD
1000
AcRTDxfName
1000
SCALE
1000
AcRTDxfName
1000
SCALE
1000
AcRTDxfName
1000
SCALE
1000
AcRTDxfName
1000
SCALE
1000
AcRTDxfName
1000
SCALE
1000
AcRTDxfName
1000
SCALE
  0
ACAD_PROXY_OBJECT
  5
860
102
{ACAD_REACTORS
330
85A
102
}
330
85A
100
AcDbProxyObject
 90
      499
 91
      507
 95
   983063
 70
     0
 93
      121
310
905313A3130004000000000000244040
 94
        0
1001
ACAD
1000
AcRTDxfName
1000
SCALE
1000
AcRTDxfName
1000
SCALE
1000
AcRTDxfName
1000
SCALE
1000
AcRTDxfName
1000
SCALE
1000
AcRTDxfName
1000
SCALE
1000
AcRTDxfName
1000
SCALE
  0
ACAD_PROXY_OBJECT
  5
861
102
{ACAD_REACTORS
330
85A
102
}
330
85A
100
AcDbProxyObject
 90
      499
 91
      507
 95
   983063
 70
     0
 93
      121
310
905313A3136004000000000000304001
 94
        0
1001
ACAD
1000
AcRTDxfName
1000
SCALE
1000
AcRTDxfName
1000
SCALE
1000
AcRTDxfName
1000
SCALE
1000
AcRTDxfName
1000
SCALE
1000
AcRTDxfName
1000
SCALE
1000
AcRTDxfName
1000
SCALE
  0
ACAD_PROXY_OBJECT
  5
862
102
{ACAD_REACTORS
330
85A
102
}
330
85A
100
AcDbProxyObject
 90
      499
 91
      507
 95
   983063
 70
     0
 93
      121
310
905313A3230004000000000000344040
 94
        0
1001
ACAD
1000
AcRTDxfName
1000
SCALE
1000
AcRTDxfName
1000
SCALE
1000
AcRTDxfName
1000
SCALE
1000
AcRTDxfName
1000
SCALE
1000
AcRTDxfName
1000
SCALE
1000
AcRTDxfName
1000
SCALE
  0
ACAD_PROXY_OBJECT
  5
863
102
{ACAD_REACTORS
330
85A
102
}
330
85A
100
AcDbProxyObject
 90
      499
 91
      507
 95
   983063
 70
     0
 93
      121
310
905313A33300040000000000003E4001
 94
        0
1001
ACAD
1000
AcRTDxfName
1000
SCALE
1000
AcRTDxfName
1000
SCALE
1000
AcRTDxfName
1000
SCALE
1000
AcRTDxfName
1000
SCALE
1000
AcRTDxfName
1000
SCALE
1000
AcRTDxfName
1000
SCALE
  0
ACAD_PROXY_OBJECT
  5
864
102
{ACAD_REACTORS
330
85A
102
}
330
85A
100
AcDbProxyObject
 90
      499
 91
      507
 95
   983063
 70
     0
 93
      121
310
905313A3430004000000000000444040
 94
        0
1001
ACAD
1000
AcRTDxfName
1000
SCALE
1000
AcRTDxfName
1000
SCALE
1000
AcRTDxfName
1000
SCALE
1000
AcRTDxfName
1000
SCALE
1000
AcRTDxfName
1000
SCALE
1000
AcRTDxfName
1000
SCALE
  0
ACAD_PROXY_OBJECT
  5
865
102
{ACAD_REACTORS
330
85A
102
}
330
85A
100
AcDbProxyObject
 90
      499
 91
      507
 95
   983063
 70
     0
 93
      121
310
905313A3530004000000000000494001
 94
        0
1001
ACAD
1000
AcRTDxfName
1000
SCALE
1000
AcRTDxfName
1000
SCALE
1000
AcRTDxfName
1000
SCALE
1000
AcRTDxfName
1000
SCALE
1000
AcRTDxfName
1000
SCALE
1000
AcRTDxfName
1000
SCALE
  0
ACAD_PROXY_OBJECT
  5
866
102
{ACAD_REACTORS
330
85A
102
}
330
85A
100
AcDbProxyObject
 90
      499
 91
      507
 95
   983063
 70
     0
 93
      129
310
906313A313030004000000000000594000
 94
        0
1001
ACAD
1000
AcRTDxfName
1000
SCALE
1000
AcRTDxfName
1000
SCALE
1000
AcRTDxfName
1000
SCALE
1000
AcRTDxfName
1000
SCALE
1000
AcRTDxfName
1000
SCALE
1000
AcRTDxfName
1000
SCALE
  0
ACAD_PROXY_OBJECT
  5
867
102
{ACAD_REACTORS
330
85A
102
}
330
85A
100
AcDbProxyObject
 90
      499
 91
      507
 95
   983063
 70
     0
 93
      113
310
904323A31000000000000000010165
 94
        0
1001
ACAD
1000
AcRTDxfName
1000
SCALE
1000
AcRTDxfName
1000
SCALE
1000
AcRTDxfName
1000
SCALE
1000
AcRTDxfName
1000
SCALE
1000
AcRTDxfName
1000
SCALE
1000
AcRTDxfName
1000
SCALE
  0
ACAD_PROXY_OBJECT
  5
868
102
{ACAD_REACTORS
330
85A
102
}
330
85A
100
AcDbProxyObject
 90
      499
 91
      507
 95
   983063
 70
     0
 93
      113
310
904343A31000000000000000410101
 94
        0
1001
ACAD
1000
AcRTDxfName
1000
SCALE
1000
AcRTDxfName
1000
SCALE
1000
AcRTDxfName
1000
SCALE
1000
AcRTDxfName
1000
SCALE
1000
AcRTDxfName
1000
SCALE
1000
AcRTDxfName
1000
SCALE
  0
ACAD_PROXY_OBJECT
  5
869
102
{ACAD_REACTORS
330
85A
102
}
330
85A
100
AcDbProxyObject
 90
      499
 91
      507
 95
   983063
 70
     0
 93
      113
310
904383A31000000000000000810165
 94
        0
1001
ACAD
1000
AcRTDxfName
1000
SCALE
1000
AcRTDxfName
1000
SCALE
1000
AcRTDxfName
1000
SCALE
1000
AcRTDxfName
1000
SCALE
1000
AcRTDxfName
1000
SCALE
1000
AcRTDxfName
1000
SCALE
  0
ACAD_PROXY_OBJECT
  5
86A
102
{ACAD_REACTORS
330
85A
102
}
330
85A
100
AcDbProxyObject
 90
      499
 91
      507
 95
   983063
 70
     0
 93
      121
310
90531303A31000000000000000910120
 94
        0
1001
ACAD
1000
AcRTDxfName
1000
SCALE
1000
AcRTDxfName
1000
SCALE
1000
AcRTDxfName
1000
SCALE
1000
AcRTDxfName
1000
SCALE
1000
AcRTDxfName
1000
SCALE
1000
AcRTDxfName
1000
SCALE
  0
ACAD_PROXY_OBJECT
  5
86B
102
{ACAD_REACTORS
330
85A
102
}
330
85A
100
AcDbProxyObject
 90
      499
 91
      507
 95
   983063
 70
     0
 93
      129
310
9063130303A31000000000000001650100
 94
        0
1001
ACAD
1000
AcRTDxfName
1000
SCALE
1000
AcRTDxfName
1000
SCALE
1000
AcRTDxfName
1000
SCALE
1000
AcRTDxfName
1000
SCALE
1000
AcRTDxfName
1000
SCALE
1000
AcRTDxfName
1000
SCALE
  0
ACAD_PROXY_OBJECT
  5
86C
102
{ACAD_REACTORS
330
85A
102
}
330
85A
100
AcDbProxyObject
 90
      499
 91
      507
 95
   983063
 70
     0
 93
      265
310
90F312F31323822203D2031272D302200000000000000200FC000000000000284018
 94
        0
1001
ACAD
1000
AcRTDxfName
1000
SCALE
1000
AcRTDxfName
1000
SCALE
1000
AcRTDxfName
1000
SCALE
1000
AcRTDxfName
1000
SCALE
1000
AcRTDxfName
1000
SCALE
1000
AcRTDxfName
1000
SCALE
  0
ACAD_PROXY_OBJECT
  5
86D
102
{ACAD_REACTORS
330
85A
102
}
330
85A
100
AcDbProxyObject
 90
      499
 91
      507
 95
   983063
 70
     0
 93
      257
310
90E312F363422203D2031272D302200000000000000240FC000000000000284000
 94
        0
1001
ACAD
1000
AcRTDxfName
1000
SCALE
1000
AcRTDxfName
1000
SCALE
1000
AcRTDxfName
1000
SCALE
1000
AcRTDxfName
1000
SCALE
1000
AcRTDxfName
1000
SCALE
1000
AcRTDxfName
1000
SCALE
  0
ACAD_PROXY_OBJECT
  5
86E
102
{ACAD_REACTORS
330
85A
102
}
330
85A
100
AcDbProxyObject
 90
      499
 91
      507
 95
   983063
 70
     0
 93
      257
310
90E312F333222203D2031272D302200000000000000280FC000000000000284040
 94
        0
1001
ACAD
1000
AcRTDxfName
1000
SCALE
1000
AcRTDxfName
1000
SCALE
1000
AcRTDxfName
1000
SCALE
1000
AcRTDxfName
1000
SCALE
1000
AcRTDxfName
1000
SCALE
1000
AcRTDxfName
1000
SCALE
  0
ACAD_PROXY_OBJECT
  5
86F
102
{ACAD_REACTORS
330
85A
102
}
330
85A
100
AcDbProxyObject
 90
      499
 91
      507
 95
   983063
 70
     0
 93
      257
310
90E312F313622203D2031272D3022000000000000002C0FC000000000000284000
 94
        0
1001
ACAD
1000
AcRTDxfName
1000
SCALE
1000
AcRTDxfName
1000
SCALE
1000
AcRTDxfName
1000
SCALE
1000
AcRTDxfName
1000
SCALE
1000
AcRTDxfName
1000
SCALE
1000
AcRTDxfName
1000
SCALE
  0
ACAD_PROXY_OBJECT
  5
870
102
{ACAD_REACTORS
330
85A
102
}
330
85A
100
AcDbProxyObject
 90
      499
 91
      507
 95
   983063
 70
     0
 93
      257
310
90E332F333222203D2031272D3022000000000000002E0FC000000000000284040
 94
        0
1001
ACAD
1000
AcRTDxfName
1000
SCALE
1000
AcRTDxfName
1000
SCALE
1000
AcRTDxfName
1000
SCALE
1000
AcRTDxfName
1000
SCALE
1000
AcRTDxfName
1000
SCALE
1000
AcRTDxfName
1000
SCALE
  0
ACAD_PROXY_OBJECT
  5
871
102
{ACAD_REACTORS
330
85A
102
}
330
85A
100
AcDbProxyObject
 90
      499
 91
      507
 95
   983063
 70
     0
 93
      249
310
90D312F3822203D2031272D302200000000000000300FC000000000000284040
 94
        0
1001
ACAD
1000
AcRTDxfName
1000
SCALE
1000
AcRTDxfName
1000
SCALE
1000
AcRTDxfName
1000
SCALE
1000
AcRTDxfName
1000
SCALE
1000
AcRTDxfName
1000
SCALE
1000
AcRTDxfName
1000
SCALE
  0
ACAD_PROXY_OBJECT
  5
872
102
{ACAD_REACTORS
330
85A
102
}
330
85A
100
AcDbProxyObject
 90
      499
 91
      507
 95
   983063
 70
     0
 93
      257
310
90E332F313622203D2031272D302200000000000000320FC000000000000284040
 94
        0
1001
ACAD
1000
AcRTDxfName
1000
SCALE
1000
AcRTDxfName
1000
SCALE
1000
AcRTDxfName
1000
SCALE
1000
AcRTDxfName
1000
SCALE
1000
AcRTDxfName
1000
SCALE
1000
AcRTDxfName
1000
SCALE
  0
ACAD_PROXY_OBJECT
  5
873
102
{ACAD_REACTORS
330
85A
102
}
330
85A
100
AcDbProxyObject
 90
      499
 91
      507
 95
   983063
 70
     0
 93
      249
310
90D312F3422203D2031272D302200000000000000340FC000000000000284040
 94
        0
1001
ACAD
1000
AcRTDxfName
1000
SCALE
1000
AcRTDxfName
1000
SCALE
1000
AcRTDxfName
1000
SCALE
1000
AcRTDxfName
1000
SCALE
1000
AcRTDxfName
1000
SCALE
1000
AcRTDxfName
1000
SCALE
  0
ACAD_PROXY_OBJECT
  5
874
102
{ACAD_REACTORS
330
85A
102
}
330
85A
100
AcDbProxyObject
 90
      499
 91
      507
 95
   983063
 70
     0
 93
      249
310
90D332F3822203D2031272D302200000000000000360FC000000000000284028
 94
        0
1001
ACAD
1000
AcRTDxfName
1000
SCALE
1000
AcRTDxfName
1000
SCALE
1000
AcRTDxfName
1000
SCALE
1000
AcRTDxfName
1000
SCALE
1000
AcRTDxfName
1000
SCALE
1000
AcRTDxfName
1000
SCALE
  0
ACAD_PROXY_OBJECT
  5
875
102
{ACAD_REACTORS
330
85A
102
}
330
85A
100
AcDbProxyObject
 90
      499
 91
      507
 95
   983063
 70
     0
 93
      249
310
90D312F3222203D2031272D302200000000000000380FC000000000000284040
 94
        0
1001
ACAD
1000
AcRTDxfName
1000
SCALE
1000
AcRTDxfName
1000
SCALE
1000
AcRTDxfName
1000
SCALE
1000
AcRTDxfName
1000
SCALE
1000
AcRTDxfName
1000
SCALE
1000
AcRTDxfName
1000
SCALE
  0
ACAD_PROXY_OBJECT
  5
876
102
{ACAD_REACTORS
330
85A
102
}
330
85A
100
AcDbProxyObject
 90
      499
 91
      507
 95
   983063
 70
     0
 93
      249
310
90D332F3422203D2031272D3022000000000000003A0FC000000000000284028
 94
        0
1001
ACAD
1000
AcRTDxfName
1000
SCALE
1000
AcRTDxfName
1000
SCALE
1000
AcRTDxfName
1000
SCALE
1000
AcRTDxfName
1000
SCALE
1000
AcRTDxfName
1000
SCALE
1000
AcRTDxfName
1000
SCALE
  0
ACAD_PROXY_OBJECT
  5
877
102
{ACAD_REACTORS
330
85A
102
}
330
85A
100
AcDbProxyObject
 90
      499
 91
      507
 95
   983063
 70
     0
 93
      169
310
90B3122203D2031272D3022004000000000000284000
 94
        0
1001
ACAD
1000
AcRTDxfName
1000
SCALE
1000
AcRTDxfName
1000
SCALE
1000
AcRTDxfName
1000
SCALE
1000
AcRTDxfName
1000
SCALE
1000
AcRTDxfName
1000
SCALE
1000
AcRTDxfName
1000
SCALE
  0
ACAD_PROXY_OBJECT
  5
878
102
{ACAD_REACTORS
330
85A
102
}
330
85A
100
AcDbProxyObject
 90
      499
 91
      507
 95
   983063
 70
     0
 93
      265
310
90F312D312F3222203D2031272D3022000000000000003E0FC000000000000284018
 94
        0
1001
ACAD
1000
AcRTDxfName
1000
SCALE
1000
AcRTDxfName
1000
SCALE
1000
AcRTDxfName
1000
SCALE
1000
AcRTDxfName
1000
SCALE
1000
AcRTDxfName
1000
SCALE
1000
AcRTDxfName
1000
SCALE
  0
ACAD_PROXY_OBJECT
  5
879
102
{ACAD_REACTORS
330
85A
102
}
330
85A
100
AcDbProxyObject
 90
      499
 91
      507
 95
   983063
 70
     0
 93
      233
310
90B3322203D2031272D30220000000000000002100000000000000284000
 94
        0
1001
ACAD
1000
AcRTDxfName
1000
SCALE
1000
AcRTDxfName
1000
SCALE
1000
AcRTDxfName
1000
SCALE
1000
AcRTDxfName
1000
SCALE
1000
AcRTDxfName
1000
SCALE
1000
AcRTDxfName
1000
SCALE
  0
ACAD_PROXY_OBJECT
  5
87A
102
{ACAD_REACTORS
330
85A
102
}
330
85A
100
AcDbProxyObject
 90
      499
 91
      507
 95
   983063
 70
     0
 93
      233
310
90B3622203D2031272D3022000000000000000610000000000000028405D
 94
        0
1001
ACAD
1000
AcRTDxfName
1000
SCALE
1000
AcRTDxfName
1000
SCALE
1000
AcRTDxfName
1000
SCALE
1000
AcRTDxfName
1000
SCALE
1000
AcRTDxfName
1000
SCALE
1000
AcRTDxfName
1000
SCALE
  0
ACAD_PROXY_OBJECT
  5
87B
102
{ACAD_REACTORS
330
85A
102
}
330
85A
100
AcDbProxyObject
 90
      499
 91
      507
 95
   983063
 70
     0
 93
      257
310
90E31272D3022203D2031272D3022000000000000000A100000000000000284000
 94
        0
1001
ACAD
1000
AcRTDxfName
1000
SCALE
1000
AcRTDxfName
1000
SCALE
1000
AcRTDxfName
1000
SCALE
1000
AcRTDxfName
1000
SCALE
1000
AcRTDxfName
1000
SCALE
1000
AcRTDxfName
1000
SCALE
  0
TABLESTYLE
  5
859
102
{ACAD_XDICTIONARY
360
8FC
102
}
102
{ACAD_REACTORS
330
858
102
}
330
858
100
AcDbTableStyle
  3
Standard
 70
     0
 71
     0
 40
1.5
 41
1.5
280
     0
281
     0
  7
Standard
140
4.5
170
     2
 62
     0
 63
     7
283
     0
274
    -2
284
     1
 64
     0
275
    -2
285
     1
 65
     0
276
    -2
286
     1
 66
     0
277
    -2
287
     1
 67
     0
278
    -2
288
     1
 68
     0
279
    -2
289
     1
 69
     0
  7
Standard
140
6.0
170
     5
 62
     0
 63
     7
283
     0
274
    -2
284
     1
 64
     0
275
    -2
285
     1
 65
     0
276
    -2
286
     1
 66
     0
277
    -2
287
     1
 67
     0
278
    -2
288
     1
 68
     0
279
    -2
289
     1
 69
     0
  7
Standard
140
4.5
170
     5
 62
     0
 63
     7
283
     0
274
    -2
284
     1
 64
     0
275
    -2
285
     1
 65
     0
276
    -2
286
     1
 66
     0
277
    -2
287
     1
 67
     0
278
    -2
288
     1
 68
     0
279
    -2
289
     1
 69
     0
  0
ACAD_PROXY_OBJECT
  5
84C
102
{ACAD_REACTORS
330
846
102
}
330
846
100
AcDbProxyObject
 90
      499
 91
      505
 95
   983063
 70
     0
 93
      444
310
430C9915DA5C99599C985B59401049028333333333333E3BF0000000000000FB0107901411070040501600405405064090741402480A0340
 94
        0
1001
ACAD
1000
AcRTDxfName
1000
VISUALSTYLE
1000
AcRTDxfName
1000
VISUALSTYLE
1000
AcRTDxfName
1000
VISUALSTYLE
1000
AcDbSavedByObjectVersion
1070
     0
1000
AcRTDxfName
1000
VISUALSTYLE
1000
AcRTDxfName
1000
VISUALSTYLE
1000
AcRTDxfName
1000
VISUALSTYLE
  0
ACAD_PROXY_OBJECT
  5
84E
102
{ACAD_REACTORS
330
846
102
}
330
846
100
AcDbProxyObject
 90
      499
 91
      505
 95
   983063
 70
     0
 93
      508
310
428CD108121A5919195B8010640502408333333333333E3BF0000000000000FB01079024090700405020000000000001110200405405064090740C02480A0342
 94
        0
1001
ACAD
1000
AcRTDxfName
1000
VISUALSTYLE
1000
AcRTDxfName
1000
VISUALSTYLE
1000
AcRTDxfName
1000
VISUALSTYLE
1000
AcDbSavedByObjectVersion
1070
     0
1000
AcRTDxfName
1000
VISUALSTYLE
1000
AcRTDxfName
1000
VISUALSTYLE
1000
AcRTDxfName
1000
VISUALSTYLE
  0
ACAD_PROXY_OBJECT
  5
84D
102
{ACAD_REACTORS
330
846
102
}
330
846
100
AcDbProxyObject
 90
      499
 91
      505
 95
   983063
 70
     0
 93
      444
310
430CD915DA5C99599C985B59401059028333333333333E3BF0000000000000FB0107901411070040501600405405064090741402480A0340
 94
        0
1001
ACAD
1000
AcRTDxfName
1000
VISUALSTYLE
1000
AcRTDxfName
1000
VISUALSTYLE
1000
AcRTDxfName
1000
VISUALSTYLE
1000
AcDbSavedByObjectVersion
1070
     0
1000
AcRTDxfName
1000
VISUALSTYLE
1000
AcRTDxfName
1000
VISUALSTYLE
1000
AcRTDxfName
1000
VISUALSTYLE
  0
ACAD_PROXY_OBJECT
  5
84B
102
{ACAD_REACTORS
330
846
102
}
330
846
100
AcDbProxyObject
 90
      499
 91
      505
 95
   983063
 70
     0
 93
      396
310
4190985CDA58C0107406404333333333333E3BF0000000000000FB0107A41107004050150841D405064090741402480A0354
 94
        0
1001
ACAD
1000
AcRTDxfName
1000
VISUALSTYLE
1000
AcRTDxfName
1000
VISUALSTYLE
1000
AcRTDxfName
1000
VISUALSTYLE
1000
AcDbSavedByObjectVersion
1070
     0
1000
AcRTDxfName
1000
VISUALSTYLE
1000
AcRTDxfName
1000
VISUALSTYLE
1000
AcRTDxfName
1000
VISUALSTYLE
  0
ACAD_PROXY_OBJECT
  5
852
102
{ACAD_REACTORS
330
846
102
}
330
846
100
AcDbProxyObject
 90
      499
 91
      505
 95
   983063
 70
     0
 93
      436
310
42509C9A59DA1D195B8010C409028333333333333E3BF0000000000000FB010790141107004050150841D405064090741402480A02995A
 94
        0
1001
ACAD
1000
AcRTDxfName
1000
VISUALSTYLE
1000
AcRTDxfName
1000
VISUALSTYLE
1000
AcRTDxfName
1000
VISUALSTYLE
1000
AcDbSavedByObjectVersion
1070
     0
1000
AcRTDxfName
1000
VISUALSTYLE
1000
AcRTDxfName
1000
VISUALSTYLE
1000
AcRTDxfName
1000
VISUALSTYLE
  0
ACAD_PROXY_OBJECT
  5
856
102
{ACAD_REACTORS
330
846
102
}
330
846
100
AcDbProxyObject
 90
      499
 91
      505
 95
   983063
 70
     0
 93
      460
310
4310DBDB1BDC90DA185B99D9401104090240C333333333333E3BF0000000000000FB0108901411070040501508421405064090741402480A0352
 94
        0
1001
ACAD
1000
AcRTDxfName
1000
VISUALSTYLE
1000
AcRTDxfName
1000
VISUALSTYLE
1000
AcRTDxfName
1000
VISUALSTYLE
1000
AcDbSavedByObjectVersion
1070
     0
1000
AcRTDxfName
1000
VISUALSTYLE
1000
AcRTDxfName
1000
VISUALSTYLE
1000
AcRTDxfName
1000
VISUALSTYLE
  0
ACAD_PROXY_OBJECT
  5
84F
102
{ACAD_REACTORS
330
846
102
}
330
846
100
AcDbProxyObject
 90
      499
 91
      505
 95
   983063
 70
     0
 93
      508
310
42D0DBDB98D95C1D1D585B0010940D028333333333333E3BF0000000000000FB0107902409070040501000000000000111010841D405064090740C02480A0340
 94
        0
1001
ACAD
1000
AcRTDxfName
1000
VISUALSTYLE
1000
AcRTDxfName
1000
VISUALSTYLE
1000
AcRTDxfName
1000
VISUALSTYLE
1000
AcDbSavedByObjectVersion
1070
     0
1000
AcRTDxfName
1000
VISUALSTYLE
1000
AcRTDxfName
1000
VISUALSTYLE
1000
AcRTDxfName
1000
VISUALSTYLE
  0
ACAD_PROXY_OBJECT
  5
851
102
{ACAD_REACTORS
330
846
102
}
330
846
100
AcDbProxyObject
 90
      499
 91
      505
 95
   983063
 70
     0
 93
      420
310
41111A5B4010B409028333333333333E3BF0000000000000FB010790141107004050150841D405064090741402480A02677FFFFFD2
 94
        0
1001
ACAD
1000
AcRTDxfName
1000
VISUALSTYLE
1000
AcRTDxfName
1000
VISUALSTYLE
1000
AcRTDxfName
1000
VISUALSTYLE
1000
AcDbSavedByObjectVersion
1070
     0
1000
AcRTDxfName
1000
VISUALSTYLE
1000
AcRTDxfName
1000
VISUALSTYLE
1000
AcRTDxfName
1000
VISUALSTYLE
  0
ACAD_PROXY_OBJECT
  5
855
102
{ACAD_REACTORS
330
846
102
}
330
846
100
AcDbProxyObject
 90
      499
 91
      505
 95
   983063
 70
     0
 93
      452
310
43119858D95C185D1D195C9B8010F409028333333333333E3BF0000000000000FB010790141107004050150841D405064090741402480A0354
 94
        0
1001
ACAD
1000
AcRTDxfName
1000
VISUALSTYLE
1000
AcRTDxfName
1000
VISUALSTYLE
1000
AcRTDxfName
1000
VISUALSTYLE
1000
AcDbSavedByObjectVersion
1070
     0
1000
AcRTDxfName
1000
VISUALSTYLE
1000
AcRTDxfName
1000
VISUALSTYLE
1000
AcRTDxfName
1000
VISUALSTYLE
  0
ACAD_PROXY_OBJECT
  5
847
102
{ACAD_REACTORS
330
846
102
}
330
846
100
AcDbProxyObject
 90
      499
 91
      505
 95
   983063
 70
     0
 93
      396
310
41519B185D00240901404333333333333E3BF0000000000000F9010740A41107004050150841D405064090741402480A1B58
 94
        0
1001
ACAD
1000
AcRTDxfName
1000
VISUALSTYLE
1000
AcRTDxfName
1000
VISUALSTYLE
1000
AcRTDxfName
1000
VISUALSTYLE
1000
AcDbSavedByObjectVersion
1070
     0
1000
AcRTDxfName
1000
VISUALSTYLE
1000
AcRTDxfName
1000
VISUALSTYLE
1000
AcRTDxfName
1000
VISUALSTYLE
  0
ACAD_PROXY_OBJECT
  5
848
102
{ACAD_REACTORS
330
846
102
}
330
846
100
AcDbProxyObject
 90
      499
 91
      505
 95
   983063
 70
     0
 93
      484
310
43919B185D15DA5D1A115919D95CC010140901404333333333333E3BF0000000000000F9010740901411070040501600405405064090741402480A1B58
 94
        0
1001
ACAD
1000
AcRTDxfName
1000
VISUALSTYLE
1000
AcRTDxfName
1000
VISUALSTYLE
1000
AcRTDxfName
1000
VISUALSTYLE
1000
AcDbSavedByObjectVersion
1070
     0
1000
AcRTDxfName
1000
VISUALSTYLE
1000
AcRTDxfName
1000
VISUALSTYLE
1000
AcRTDxfName
1000
VISUALSTYLE
  0
ACAD_PROXY_OBJECT
  5
849
102
{ACAD_REACTORS
330
846
102
}
330
846
100
AcDbProxyObject
 90
      499
 91
      505
 95
   983063
 70
     0
 93
      420
310
4211DBDD5C985D590010240902404333333333333E3BF0000000000000F9010740A411070040501641D405064090741402480A1B58
 94
        0
1001
ACAD
1000
AcRTDxfName
1000
VISUALSTYLE
1000
AcRTDxfName
1000
VISUALSTYLE
1000
AcRTDxfName
1000
VISUALSTYLE
1000
AcDbSavedByObjectVersion
1070
     0
1000
AcRTDxfName
1000
VISUALSTYLE
1000
AcRTDxfName
1000
VISUALSTYLE
1000
AcRTDxfName
1000
VISUALSTYLE
  0
ACAD_PROXY_OBJECT
  5
84A
102
{ACAD_REACTORS
330
846
102
}
330
846
100
AcDbProxyObject
 90
      499
 91
      505
 95
   983063
 70
     0
 93
      508
310
4451DBDD5C985D5915DA5D1A115919D95CC010340902404333333333333E3BF0000000000000F9010740901411070040501600405405064090741402480A1B52
 94
        0
1001
ACAD
1000
AcRTDxfName
1000
VISUALSTYLE
1000
AcRTDxfName
1000
VISUALSTYLE
1000
AcRTDxfName
1000
VISUALSTYLE
1000
AcDbSavedByObjectVersion
1070
     0
1000
AcRTDxfName
1000
VISUALSTYLE
1000
AcRTDxfName
1000
VISUALSTYLE
1000
AcRTDxfName
1000
VISUALSTYLE
  0
ACAD_PROXY_OBJECT
  5
854
102
{ACAD_REACTORS
330
846
102
}
330
846
100
AcDbProxyObject
 90
      499
 91
      505
 95
   983063
 70
     0
 93
      452
310
43131A5B995C185D1D195C9B8010E409028333333333333E3BF0000000000000FB010790141107004050750841D405064090741402483A0353
 94
        0
1001
ACAD
1000
AcRTDxfName
1000
VISUALSTYLE
1000
AcRTDxfName
1000
VISUALSTYLE
1000
AcRTDxfName
1000
VISUALSTYLE
1000
AcDbSavedByObjectVersion
1070
     0
1000
AcRTDxfName
1000
VISUALSTYLE
1000
AcRTDxfName
1000
VISUALSTYLE
1000
AcRTDxfName
1000
VISUALSTYLE
  0
ACAD_PROXY_OBJECT
  5
850
102
{ACAD_REACTORS
330
846
102
}
330
846
100
AcDbProxyObject
 90
      499
 91
      505
 95
   983063
 70
     0
 93
      428
310
429499585B1A5CDD1A58C0108409028333333333333E3BF0000000000000FB01079019070040501508421405064090741402480A1B49
 94
        0
1001
ACAD
1000
AcRTDxfName
1000
VISUALSTYLE
1000
AcRTDxfName
1000
VISUALSTYLE
1000
AcRTDxfName
1000
VISUALSTYLE
1000
AcDbSavedByObjectVersion
1070
     0
1000
AcRTDxfName
1000
VISUALSTYLE
1000
AcRTDxfName
1000
VISUALSTYLE
1000
AcRTDxfName
1000
VISUALSTYLE
  0
ACAD_PROXY_OBJECT
  5
853
102
{ACAD_REACTORS
330
846
102
}
330
846
100
AcDbProxyObject
 90
      499
 91
      505
 95
   983063
 70
     0
 93
      420
310
42151A1A58DAD95B8010D409028333333333333E3BF0000000000000FB010790141107004050150C41D405064090741402480A0352
 94
        0
1001
ACAD
1000
AcRTDxfName
1000
VISUALSTYLE
1000
AcRTDxfName
1000
VISUALSTYLE
1000
AcRTDxfName
1000
VISUALSTYLE
1000
AcDbSavedByObjectVersion
1070
     0
1000
AcRTDxfName
1000
VISUALSTYLE
1000
AcRTDxfName
1000
VISUALSTYLE
1000
AcRTDxfName
1000
VISUALSTYLE
  0
DICTIONARYVAR
  5
931
102
{ACAD_REACTORS
330
6A
102
}
330
6A
100
DictionaryVariables
280
     0
  1
1:1
  0
DICTIONARYVAR
  5
930
102
{ACAD_REACTORS
330
6A
102
}
330
6A
100
DictionaryVariables
280
     0
  1
STANDARD
  0
DICTIONARYVAR
  5
92F
102
{ACAD_REACTORS
330
6A
102
}
330
6A
100
DictionaryVariables
280
     0
  1
STANDARD
  0
DICTIONARYVAR
  5
6C
102
{ACAD_REACTORS
330
6A
102
}
330
6A
100
DictionaryVariables
280
     0
  1
2
  0
DICTIONARYVAR
  5
6B
102
{ACAD_REACTORS
330
6A
102
}
330
6A
100
DictionaryVariables
280
     0
  1
1
  0
DICTIONARYVAR
  5
933
102
{ACAD_REACTORS
330
6A
102
}
330
6A
100
DictionaryVariables
280
     0
  1
0
  0
DICTIONARYVAR
  5
CDB
102
{ACAD_REACTORS
330
6A
102
}
330
6A
100
DictionaryVariables
280
     0
  1

  0
DICTIONARYVAR
  5
932
102
{ACAD_REACTORS
330
6A
102
}
330
6A
100
DictionaryVariables
280
     0
  1
127
  0
DICTIONARY
  5
135F
330
22
100
AcDbDictionary
280
     1
281
     1
  3
ACAD_XREC_ROUNDTRIP
360
1360
  0
DICTIONARY
  5
8A1
330
7B8
100
AcDbDictionary
280
     1
281
     1
  3
ACAD_XREC_ROUNDTRIP
360
1361
  3
ADSK_XREC_LAYOUTTHUMBNAIL
360
8A2
  0
DICTIONARY
  5
837
330
836
100
AcDbDictionary
280
     1
281
     1
  3
ACAD_XREC_ROUNDTRIP
360
EFA
  3
BUMPTILE
360
839
  3
DIFFUSETILE
360
838
  3
OPACITYTILE
360
83C
  3
REFLECTIONTILE
360
83B
  3
REFRACTIONTILE
360
83D
  3
SPECULARTILE
360
83A
  0
DICTIONARY
  5
82F
330
82E
100
AcDbDictionary
280
     1
281
     1
  3
ACAD_XREC_ROUNDTRIP
360
EF9
  3
BUMPTILE
360
831
  3
DIFFUSETILE
360
830
  3
OPACITYTILE
360
834
  3
REFLECTIONTILE
360
833
  3
REFRACTIONTILE
360
835
  3
SPECULARTILE
360
832
  0
DICTIONARY
  5
83F
330
83E
100
AcDbDictionary
280
     1
281
     1
  3
ACAD_XREC_ROUNDTRIP
360
EFB
  3
BUMPTILE
360
841
  3
DIFFUSETILE
360
840
  3
OPACITYTILE
360
844
  3
REFLECTIONTILE
360
843
  3
REFRACTIONTILE
360
845
  3
SPECULARTILE
360
842
  0
DICTIONARY
  5
8FC
330
859
100
AcDbDictionary
280
     1
281
     1
  3
ACAD_ROUNDTRIP_2008_TABLESTYLE_CELLSTYLEMAP
360
EE1
  3
ACAD_XREC_ROUNDTRIP
360
EFC
  0
XRECORD
  5
1360
102
{ACAD_REACTORS
330
135F
102
}
330
135F
100
AcDbXrecord
280
     1
102
SHADEPLOT
 70
     0
102
SHADEPLOTRESLEVEL
 70
     2
102
SHADEPLOTCUSTOMDPI
 70
   300
  0
XRECORD
  5
1361
102
{ACAD_REACTORS
330
8A1
102
}
330
8A1
100
AcDbXrecord
280
     1
102
SHADEPLOT
 70
     1
102
SHADEPLOTRESLEVEL
 70
     2
102
SHADEPLOTCUSTOMDPI
 70
   300
  0
XRECORD
  5
8A2
102
{ACAD_REACTORS
330
8A1
102
}
330
8A1
100
AcDbXrecord
280
     1
310
28000000630000008C0000000100080000000000B0360000000000000000000000010000000000000000000000000000FFFFFF000000000000000000000000000000000000000000000000000000000000000000330000006600000099000000CC000000FF00000000330000333300006633000099330000CC330000FF3300
310
0000660000336600006666000099660000CC660000FF66000000990000339900006699000099990000CC990000FF99000000CC000033CC000066CC000099CC0000CCCC0000FFCC000000FF000033FF000066FF000099FF0000CCFF0000FFFF000000003300330033006600330099003300CC003300FF003300003333003333
310
33006633330099333300CC333300FF33330000663300336633006666330099663300CC663300FF66330000993300339933006699330099993300CC993300FF99330000CC330033CC330066CC330099CC3300CCCC3300FFCC330000FF330033FF330066FF330099FF3300CCFF3300FFFF330000006600330066006600660099
310
006600CC006600FF00660000336600333366006633660099336600CC336600FF33660000666600336666006666660099666600CC666600FF66660000996600339966006699660099996600CC996600FF99660000CC660033CC660066CC660099CC6600CCCC6600FFCC660000FF660033FF660066FF660099FF6600CCFF6600
310
FFFF660000009900330099006600990099009900CC009900FF00990000339900333399006633990099339900CC339900FF33990000669900336699006666990099669900CC669900FF66990000999900339999006699990099999900CC999900FF99990000CC990033CC990066CC990099CC9900CCCC9900FFCC990000FF99
310
0033FF990066FF990099FF9900CCFF9900FFFF99000000CC003300CC006600CC009900CC00CC00CC00FF00CC000033CC003333CC006633CC009933CC00CC33CC00FF33CC000066CC003366CC006666CC009966CC00CC66CC00FF66CC000099CC003399CC006699CC009999CC00CC99CC00FF99CC0000CCCC0033CCCC0066CC
310
CC0099CCCC00CCCCCC00FFCCCC0000FFCC0033FFCC0066FFCC0099FFCC00CCFFCC00FFFFCC000000FF003300FF006600FF009900FF00CC00FF00FF00FF000033FF003333FF006633FF009933FF00CC33FF00FF33FF000066FF003366FF006666FF009966FF00CC66FF00FF66FF000099FF003399FF006699FF009999FF00CC
310
99FF00FF99FF0000CCFF0033CCFF0066CCFF0099CCFF00CCCCFF00FFCCFF0000FFFF0033FFFF0066FFFF0099FFFF00CCFFFF00FFFFFF00000000000D0D0D001A1A1A00282828003535350043434300505050005D5D5D006B6B6B00787878008686860093939300A1A1A100AEAEAE00BBBBBB00C9C9C900D6D6D600E4E4E400
310
F1F1F100FFFFFF0000000000000000000000000000000000000000000000000000000000000000000000000000000000F5F5F5F5F5F5F5F5F5F5F5F5F5F5F5F5F5F5F5F5F5F5F5F5F5F5F5F5F5F5F5F5F5F5F5F5F5F5F5F5F5F5F5F5F5F5F5F5F5F5F5F5F5F5F5F5F5F5F5F5F5F5F5F5F5F5F5F5F5F5F5F5F5F5F5F5F5F5F5
310
F5F5F5F5F5F5F5F5F5F5F5F5F5F5F5F5F5F5F5F500F5E2E2E2E2E2E2E2E2E2E2E2E2E2E2E2E2E2E2E2E2E2E2E2E2E2E2E2E2E2E2E2E2E2E2E2E2E2E2E2E2E2E2E2E2E2E2E2E2E2E2E2E2E2E2E2E2E2E2E2E2E2E2E2E2E2E2E2E2E2E2E2E2E2E2E2E2E2E2E2E2E2E2E2E2E2E2E2E2E2E2E2E2E2E2E2E2F5F500F5E2E2E2E2E2
310
E2E2E2E2E2E2E2E2E2E2E2E2E2E2E2E2E2E2E2E2E2E2E2E2E2E2E2E2E2E2E2E2E2E2E2E2E2E2E2E2E2E2E2E2E2E2E2E2E2E2E2E2E2E2E2E2E2E2E2E2E2E2E2E2E2E2E2E2E2E2E2E2E2E2E2E2E2E2E2E2E2E2E2E2E2E2E2E2E2E2E2F5F500F5E2F5F5F5F5F5F5F5F5E2E2E2E2E2E2E2E2F5F5F5F5F5F5F5F5F5F5F5F5F5F5F5
310
E2E2E2E2E2E2E2E2E2F5F5F5F5F5F5F5F5F5F5F5F5F5F5E2E2E2E2E2E2E2E2E2F5F5F5F5F5F5F5F5F5F5F5F5F5F5F5E2E2E2E2E2E2E2E2F5F5F5F5F5F5F5F5E2F5F500F5E2F5E2E2E2E2E2E2E2E2E2E2E2E2E2E2E2E2E2E2E2E2E2E2E2E2E2F5F5E2E2E2E2E2E2E2E2E2E2E2E2E2E2E2E2E2E2E2E2E2E2E2E2E2E2E2E2E2E2
310
E2E2E2E2E2E2E2E2E2E2E2E2E2E2E2E2E2E2E2E2E2E2E2E2E2E2E2E2E2E2E2E2E2E2E2F5E2F5F500F5E2F5E2E2E2E2F5F5F5F5F5F5F5F5F5F5F5F5F5F5F5F5F5F5F5F5F5F5F5F5F5F5F5F5F5F5F5F5F5F5F5F5F5F5F5F5F5F5F5F5F5F5F5F5F5F5F5F5F5F5F5F5F5F5F5F5F5F5F5F5F5F5F5F5F5F5F5F5F5F5F5F5F5F5F5F5
310
F5F5F5E2E2E2E2E2F5E2F5F500F5E2F5E2E2E2E2F5F5F5F5F5F5F5F5F5F5F5F5F5F5F5F5F5F5F5F5F5F5F5F5F5F5F5F5F5F5F5F5F5F5F5F5F5F5F5F5F5F5F5F5F5F5F5F5F5F5F5F5F5F5F5F5F5F5F5F5F5F5F5F5F5F5F5F5F5F5F5F5F5F5F5F5F5F5F5F5F5F5F5F5E2E2E2E2F5E2F5F500F5E2F5E2E2E2E2E2E2E2E2E2E2E2
310
E2E2E2E2E2E2E2E2E2E2E2E2E2E2E2E2E2E2E2E2E2E2E2E2E2E2E2E2E2E2E2E2E2E2E2E2E2E2E2E2E2E2E2E2E2E2E2E2E2E2E2E2E2E2E2E2E2E2E2E2E2E2E2E2E2E2E2E2E2E2E2E2E2E2E2E2E2E2E2E2E2F5E2F5F500F5E2F5E2E2E2E2F5F5F5F5F5F5F5F5F5F5F5F5F5F5F5F5F5F5F5F5F5F5F5F5F5F5F5F5F5F5F5F5F5F5
310
F5F5F5F5F5F5F5F5F5F5F5F5F5F5F5F5F5F5F5F5F5F5F5F5F5F5F5F5F5F5F5F5F5F5F5F5F5F5F5F5F5F5F5F5F5F5F5F5F5F5E2E2E2E2F5E2F5F500F5E2F5E2E2E2E2F5F5E2E2E2E2E2E2E2E2E2E2E2E2E2E2E2E2E2E2E2E2E2E2E2E2E2E2E2E2E2E2E2E2E2E2E2E2E2E2E2E2E2E2E2E2E2E2E2E2E2E2E2E2E2E2E2E2E2E2E2
310
E2E2E2E2E2E2E2E2E2E2E2E2E2E2E2E2E2E2E2E2E2E2F5E2E2E2E2F5E2F5F500F5E2F5E2E2E2E2F5F5E2E2E2E2E2E2E2E2E2E2E2E2E2E2E2E2E2E2E2E2E2E2E2E2E2E2E2E2E2E2E2E2E2E2E2E2E2E2E2E2E2E2E2E2E2E2E2E2E2E2E2E2E2E2E2E2E2E2E2E2E2E2E2E2E2E2E2E2E2E2E2E2E2E2E2E2E2E2E2E2E2F5E2E2E2E2
310
F5E2F5F500F5E2F5E2E2E2E2F5F5E2E2E2E2E2E2E2E2E2E2E2E2E2E2E2E2E2E2E2E2E2E2E2E2E2E2E2E2E2E2E2E2E2E2E2E2E2E2E2E2E2E2E2E2E2E2E2E2E2E2E2E2E2E2E2E2E2E2E2E2E2E2E2E2E2E2E2E2E2E2E2E2E2E2E2E2E2E2E2E2E2F5E2E2E2E2F5E2F5F500F5E2E2E2E2E2E2F5F5E2E2E2E2E2E2E2E2E2E2E2E2E2
310
E2E2E2E2E2E2E2E2E2E2E2E2E2E2E2E2E2E2E2E2E2E2E2E2E2E2E2E2E2E2E2E2E2E2E2E2E2E2E2E2E2E2E2E2E2E2E2E2E2E2E2E2E2E2E2E2E2E2E2E2E2E2E2E2E2E2E2E2F5E2E2E2E2E2E2F5F500F5E2E2E2E2E2E2F5F5E2E2E2E2E2E2E2E2E2E2E2E2E2E2E2E2E2E2E2E2E2E2E2E2E2E2E2E2E2E2E2E2E2E2E2E2E2E2E2E2
310
E2E2E2E2E2E2E2E2E2E2E2E2E2E2E2E2E2E2E2E2E2E2E2E2E2E2E2E2E2E2E2E2E2E2E2E2E2E2E2E2E2F5E2E2E2E2E2E2F5F500F5E2E2E2E2E2E2F5F5E2E2E2E2E2E2E2E2E2E2E2E2E2E2E2E2E2E2E2E2E2E2E2E2E2E2E2E2E2E2E2E2E2E2E2E2E2E2E2E2E2E2E2E2E2E2E2E2E2E2E2E2E2E2E2E2E2E2E2E2E2E2E2E2E2E2E2
310
E2E2E2E2E2E2E2E2E2E2E2E2E2E2F5E2E2E2E2E2E2F5F500F5E2E2E2E2E2E2F5F5E2E2E2E2E2E2E2E2E2E2E2E2E2E2E2E2E2E2E2E2E2E2E2E2E2E2E2E2E2E2E2E2E2E2E2E2E2E2E2E2E2E2E2E2E2E2E2E2E2E2E2E2E2E2E2E2E2E2E2E2E2E2E2E2E2E2E2E2E2E2E2E2E2E2E2E2E2E2E2E2E2F5E2E2E2E2E2E2F5F500F5E2E2
310
E2E2E2E2F5F5E2E2E2E2E2E2E2E2E2E2E2E2E2E2E2E2E2E2E2E2E2E2E2E2E2E2E2E2E2E2E2E2E2E2E2E2E2E2E2E2E2E2E2E2E2E2E2E2E2E2E2E2E2E2E2E2E2E2E2E2E2E2E2E2E2E2E2E2E2E2E2E2E2E2E2E2E2E2E2E2E2F5E2E2E2E2E2E2F5F500F5E2E2E2E2E2E2F5F5E2E2E2E2E2E2E2E2E2E2E2E2E2E2E2E2E2E2E2E2E2
310
E2E2E2E2E2E2E2E2E2E2E2E2E2E2E2E2E2E2E2E2E2E2E2E2E2E2E2E2E2E2E2E2E2E2E2E2E2E2E2E2E2E2E2E2E2E2E2E2E2E2E2E2E2E2E2E2E2E2E2E2F5E2E2E2E2E2E2F5F500F5E2E2E2E2E2E2F5F5E2E2E2E2E2E2E2E2E2E2E2E2E2E2E2E2E2E2E2E2E2E2E2E2E2E2E2E2E2E2E2E2E2E2E2E2E2E2E2E2E2E2E2E2E2E2E2E2
310
E2E2E2E2E2E2E2E2E2E2E2E2E2E2E2E2E2E2E2E2E2E2E2E2E2E2E2E2E2E2E2E2E2F5E2E2E2E2E2E2F5F500F5E2E2E2E2E2E2F5F5E2E2E2E2E2E2E2E2E2E2E2E2E2E2E2E2E2E2E2E2E2E2E2E2E2E2E2E2E2E2E2E2E2E2E2E2E2E2E2E2E2E2E2E2E2E2E2E2E2E2E2E2E2E2E2E2E2E2E2E2E2E2E2E2E2E2E2E2E2E2E2E2E2E2E2
310
E2E2E2E2E2E2F5E2E2E2E2E2E2F5F500F5E2E2E2E2E2E2F5F5E2E2E2E2E2E2E2E2E2E2E2E2E2E2E2E2E2E2E2E2E2E2E2E2E2E2E2E2E2E2E2E2E2E2E2E2E2E2E2E2E2E2E2E2E2E2E2E2E2E2E2E2E2E2E2E2E2E2E2E2E2E2E2E2E2E2E2E2E2E2E2E2E2E2E2E2E2E2E2E2E2F5E2E2E2E2E2E2F5F500F5E2E2E2E2E2E2F5F5E2E2
310
E2E2E2E2E2E2E2E2E2E2E2E2E2E2E2E2E2E2E2E2E2E2E2E2E2E2E2E2E2E2E2E2E2E2E2E2E2E2E2E2E2E2E2E2E2E2E2E2E2E2E2E2E2E2E2E2E2E2E2E2E2E2E2E2E2E2E2E2E2E2E2E2E2E2E2E2E2E2E2F5E2E2E2E2E2E2F5F500F5E2F5E2E2E2E2F5F5E2E2E2E2E2E2E2E2E2E2E2E2E2E2E2E2E2E2E2E2E2E2E2E2E2E2E2E2E2
310
E2E2E2E2E2E2E2E2E2E2E2E2E2E2E2E2E2E2E2E2E2E2E2E2E2E2E2E2E2E2E2E2E2E2E2E2E2E2E2E2E2E2E2E2E2E2E2E2E2E2E2E2F5E2E2E2E2F5E2F5F500F5E2F5E2E2E2E2F5F5E2E2E2E2E2E2E2E2E2E2E2E2E2E2E2E2E2E2E2E2E2E2E2E2E2E2E2E2E2E2E2E2E2E2E2E2E2E2E2E2E2E2E2E2E2E2E2E2E2E2E2E2E2E2E2E2
310
E2E2E2E2E2E2E2E2E2E2E2E2E2E2E2E2E2E2E2E2E2E2E2E2E2F5E2E2E2E2F5E2F5F500F5E2F5E2E2E2E2F5F5E2E2E2E2E2E2E2E2E2E2E2E2E2E2E2E2E2E2E2E2E2E2E2E2E2E2E2E2E2E2E2E2E2E2E2E2E2E2E2E2E2E2E2E2E2E2E2E2E2E2E2E2E2E2E2E2E2E2E2E2E2E2E2E2E2E2E2E2E2E2E2E2E2E2E2E2E2E2E2E2E2F5E2
310
E2E2E2F5E2F5F500F5E2F5E2E2E2E2F5F5E2E2E2E2E2E2E2E2E2E2E2E2E2E2E2E2E2E2E2E2E2E2E2E2E2E2E2E2E2E2E2E2E2E2E2E2E2E2E2E2E2E2E2E2E2E2E2E2E2E2E2E2E2E2E2E2E2E2E2E2E2E2E2E2E2E2E2E2E2E2E2E2E2E2E2E2E2E2E2E2E2F5E2E2E2E2F5E2F5F500F5E2F5E2E2E2E2F5F5E2E2E2E2E2E2E2E2E2E2
310
E2E2E2E2E2E2E2E2E2E2E2E2E2E2E2E2E2E2E2E2E2E2E2E2E2E2E2E2E2E2E2E2E2E2E2E2E2E2E2E2E2E2E2E2E2E2E2E2E2E2E2E2E2E2E2E2E2E2E2E2E2E2E2E2E2E2E2E2E2E2E2F5E2E2E2E2F5E2F5F500F5E2F5E2E2E2E2F5F5E2E2E2E2E2E2E2E2E2E2E2E2E2E2E2E2E2E2E2E2E2E2E2E2E2E2E2E2E2E2E2E2E2E2E2E2E2
310
E2E2E2E2E2E2E2E2E2E2E2E2E2E2E2E2E2E2E2E2E2E2E2E2E2E2E2E2E2E2E2E2E2E2E2E2E2E2E2E2E2E2E2E2F5E2E2E2E2F5E2F5F500F5E2F5E2E2E2E2F5F5E2E2E2E2E2E2E2E2E2E2E2E2E2E2E2E2E2E2E2E2E2E2E2E2E2E2E2E2E2E2E2E2E2E2E2E2E2E2E2E2E2E2E2E2E2E2E2E2E2E2E2E2E2E2E2E2E2E2E2E2E2E2E2E2
310
E2E2E2E2E2E2E2E2E2E2E2E2E2E2E2E2E2F5E2E2E2E2F5E2F5F500F5E2F5E2E2E2E2F5F5E2E2E2E2E2E2E2E2E2E2E2E2E2E2E2E2E2E2E2E2E2E2E2E2E2E2E2E2E2E2E2E2E2E2E2E2E2E2E2E2E2E2E2E2E2E2E2E2E2E2E2E2E2E2E2E2E2E2E2E2E2E2E2E2E2E2E2E2E2E2E2E2E2E2E2E2E2E2E2E2E2F5E2E2E2E2F5E2F5F500
310
F5E2F5E2E2E2E2F5F5E2E2E2E2E2E2E2E2E2E2E2E2E2E2E2E2E2E2E2E2E2E2E2E2E2E2E2E2E2E2E2E2E2E2E2E2E2E2E2E2E2E2E2E2E2E2E2E2E2E2E2E2E2E2E2E2E2E2E2E2E2E2E2E2E2E2E2E2E2E2E2E2E2E2E2E2E2E2E2E2E2F5E2E2E2E2F5E2F5F500F5E2F5E2E2E2E2F5F5E2E2E2E2E2E2E2E2E2E2E2E2E2E2E2E2E2E2
310
E2E2E2E2E2E2E2E2E2E2E2E2E2E2E2E2E2E2E2E2E2E2E2E2E2E2E2E2E2E2E2E2E2E2E2E2E2E2E2E2E2E2E2E2E2E2E2E2E2E2E2E2E2E2E2E2E2E2E2E2E2E2E2F5E2E2E2E2F5E2F5F500F5E2F5E2E2E2E2F5F5E2E2E2E2E2E2E2E2E2E2E2E2E2E2E2E2E2E2E2E2E2E2E2E2E2E2E2E2E2E2E2E2E2E2E2E2E2E2E2E2E2E2E2E2E2
310
E2E2E2E2E2E2E2E2E2E2E2E2E2E2E2E2E2E2E2E2E2E2E2E2E2E2E2E2E2E2E2E2E2E2E2E2F5E2E2E2E2F5E2F5F500F5E2F5E2E2E2E2F5F5E2E2E2E2E2E2E2E2E2E2E2E2E2E2E2E2E2E2E2E2E2E2E2E2E2E2E2E2E2E2E2E2E2E2E2E2E2E2E2E2E2E2E2E2E2E2E2E2E2E2E2E2E2E2E2E2E2E2E2E2E2E2E2E2E2E2E2E2E2E2E2E2
310
E2E2E2E2E2E2E2E2E2F5E2E2E2E2F5E2F5F500F5E2F5E2E2E2E2F5F5E2E2E2E2E2E2E2E2E2E2E2E2E2E2E2E2E2E2E2E2E2E2E2E2E2E2E2E2E2E2E2E2E2E2E2E2E2E2E2E2E2E2E2E2E2E2E2E2E2E2E2E2E2E2E2E2E2E2E2E2E2E2E2E2E2E2E2E2E2E2E2E2E2E2E2E2E2E2E2E2E2F5E2E2E2E2F5E2F5F500F5E2F5E2E2E2E2F5
310
F5E2E2E2E2E2E2E2E2E2E2E2E2E2E2E2E2E2E2E2E2E2E2E2E2E2E2E2E2E2E2E2E2EFEFEFEFEFEFE2E2E2E2E2EFEFEFEFEFEFE2E2E2E2E2E2E2E2E2E2E2E2E2E2E2E2E2E2E2E2E2E2E2E2E2E2E2E2E2E2E2E2F5E2E2E2E2F5E2F5F500F5E2F5E2E2E2E2F5F5E2E2E2E2E2E2E2E2E2E2E2E2E2E2E2E2E2E2E2E2E2E2E2E2E2E2
310
E2EFEFEFEFEFEFE2E2E2EFEFE2E2E2E2E2EFEFE2E2EFEFEFEFEFEFEFE2E2E2E2E2E2E2E2E2E2E2E2E2E2E2E2E2E2E2E2E2E2E2E2E2E2E2F5E2E2E2E2F5E2F5F500F5E2F5E2E2E2E2F5F5E2E2E2E2E2E2E2E2E2E2E2E2E2E2E2E2E2E2E2E2E2E2E2E2E2EFEFEFEFE2E2E2E2E2E2E2E2EFEFEFEFEFEFEFE2E2E2E2E2E2E2E2EF
310
EFEFEFE2E2E2E2E2E2E2E2E2E2E2E2E2E2E2E2E2E2E2E2E2E2E2E2E2F5E2E2E2E2F5E2F5F500F5E2F5E2E2E2E2F5F5E2E2E2E2E2E2E2E2E2E2E2E2E2E2E2E2E2E2E2E2E2E2E2EFEFEFEFE2EFE2E2E2E2E2E2E2E2EFEFEFEFEFEFEFE2E2E2E2E2E2E2E2EFE2EFEFEFE2E2E2E2E2E2E2E2E2E2E2E2E2E2E2E2E2E2E2E2E2E2E2
310
E2F5E2E2E2E2F5E2F5F500F5E2E2E2E2E2E2F5F5E2E2E2E2E2E2E2E2E2E2E2E2E2E2E2E2E2E2E2E2E2E2E2EFEFEFEFEFEFE2E2E2E2E2E2E2E2EFEFEFEFEFEFEFE2E2E2E2E2E2E2E2EFEFEFEFEFEFE2E2E2E2E2E2E2E2E2E2E2E2E2E2E2E2E2E2E2E2E2E2E2F5E2E2E2E2E2E2F5F500F5E2E2E2E2E2E2F5F5E2E2E2E2E2E2E2
310
E2E2E2E2E2E2E2E2E2E2E2E2E2E2E2F5DCE2E2E2EFEFE2E2E2E2E2E2E2EFEFEFEFEFEFEFEFEFE2E2E2E2E2E2E2EFEFE2E2E2DCF5E2E2E2E2E2E2E2E2E2E2E2E2E2E2E2E2E2E2E2E2E2E2F5E2E2E2E2E2E2F5F500F5E2E2E2E2E2E2F5F5E2E2E2E2E2E2E2E2E2E2E2E2E2E2E2E2E2E2E2E2E2E2F5EFEFEFEFEFEFE2E2E2E2E2
310
E2EFEFEFEFEFE2EFEFEFEFEFE2E2E2E2E2E2EFEFEFEFEFEFF5E2E2E2E2E2E2E2E2E2E2E2E2E2E2E2E2E2E2E2E2E2E2F5E2E2E2E2E2E2F5F500F5E2E2E2E2E2E2F5F5E2E2E2E2E2E2E2E2E2E2E2E2E2E2E2E2E2E2E2E2E2E2F5EFEFEFEFE2EFE2E2E2E2E2E2EFEFEFEFEFE2EFEFEFEFEFE2E2E2E2E2E2EFE2EFEFEFE2F5E2E2
310
E2E2E2E2E2E2E2E2E2E2E2E2E2E2E2E2E2E2E2E2F5E2E2E2E2E2E2F5F500F5E2E2E2E2E2E2F5F5E2E2E2E2E2E2E2E2E2E2E2E2E2E2E2E2E2E2E2E2E2E2F5E2E2EFEFEFEFE2E2E2E2E2E2E2EFEFEFE2E2E2EFEFEFE2E2E2E2E2E2E2EFEFEFEFE2E2F5E2E2E2E2E2E2E2E2E2E2E2E2E2E2E2E2E2E2E2E2E2E2F5E2E2E2E2E2E2
310
F5F500F5E2E2E2E2E2E2F5F5E2E2E2E2E2E2E2E2E2E2E2E2E2E2E2E2E2E2E2E2E2E2F5E2E2E2E2EFEFEFEFEFEFE2E2EFEFEFEFEFE2EFEFEFEFEFE2E2EFEFEFEFEFEFE2E2E2E2F5E2E2E2E2E2E2E2E2E2E2E2E2E2E2E2E2E2E2E2E2E2E2F5E2E2E2E2E2E2F5F500F5E2E2E2E2E2E2F5F5E2E2E2E2E2E2E2E2E2E2E2E2E2E2E2
310
E2E2E2E2E2E2E2F5E2E2E2E2E2EFEFEFEFEFEFEFEFEFEFEFEFE2EFEFEFEFEFEFEFEFEFEFEFEFE2E2E2E2E2F5E2E2E2E2E2E2E2E2E2E2E2E2E2E2E2E2E2E2E2E2E2E2F5E2E2E2E2E2E2F5F500F5E2E2E2E2E2E2F5F5E2E2E2E2E2E2E2E2E2E2E2E2E2E2E2E2E2E2E2E2E2E2F5E2E2E2E2E2E2E2E2E2EFEFEFEFEFEFEFEFEFEF
310
EFEFEFEFEFEFEFE2E2E2E2E2E2E2E2E2F5E2E2E2E2E2E2E2E2E2E2E2E2E2E2E2E2E2E2E2E2E2E2F5E2E2E2E2E2E2F5F500F5E2E2E2E2E2E2F5F5E2E2E2E2E2E2E2E2E2E2E2E2E2E2E2E2E2E2E2E2E2E2F5E2E2E2E2E2E2E2E2E2EFEFEFEFEFEFEFEFEFEFEFEFEFEFEFEFEFE2E2E2E2E2E2E2E2E2F5E2E2E2E2E2E2E2E2E2E2
310
E2E2E2E2E2E2E2E2E2E2E2E2F5E2E2E2E2E2E2F5F500F5E2F5E2E2E2E2F5F5E2E2E2E2E2E2E2E2E2E2E2E2E2E2E2E2E2E2E2E2E2E2F5E2E2E2E2E2E2E2E2E2EFEFE2E2E2E2E2E2E2E2E2E2E2E2E2EFEFE2E2E2E2E2E2E2E2E2F5E2E2E2E2E2E2E2E2E2E2E2E2E2E2E2E2E2E2E2E2E2E2F5E2E2E2E2F5E2F5F500F5E2F5E2E2
310
E2E2F5F5E2E2E2E2E2E2E2E2E2E2E2E2E2E2E2E2E2E2E2E2E2E2F5F5F5F5F5F5E2E2E2E2EFEFE2E2E2E2E2E2E2E2E2E2E2E2E2EFEFE2E2E2E2F5F5F5F5F5F5E2E2E2E2E2E2E2E2E2E2E2E2E2E2E2E2E2E2E2E2E2E2F5E2E2E2E2F5E2F5F500F5E2F5E2E2E2E2F5F5E2E2E2E2E2E2E2E2E2E2E2E2E2E2E2E2E2E2E2E2E2E2E2
310
E2E2E2E2F5E2E2E2E2EFEFE2E2E2E2E2E2E2E2E2E2E2E2E2EFEFE2E2E2E2F5E2E2E2E2E2E2E2E2E2E2E2E2E2E2E2E2E2E2E2E2E2E2E2E2E2E2E2F5E2E2E2E2F5E2F5F500F5E2F5E2E2E2E2F5F5E2E2E2E2E2E2E2E2E2E2E2E2E2E2E2E2E2E2E2E2E2E2E2E2E2E2E2F5E2E2E2E2EFEFE2E2E2E2E2E2E2E2E2E2E2E2E2EFEFE2
310
E2E2E2F5E2E2E2E2E2E2E2E2E2E2E2E2E2E2E2E2E2E2E2E2E2E2E2E2E2E2E2F5E2E2E2E2F5E2F5F500F5E2F5E2E2E2E2F5F5E2E2E2E2E2E2E2E2E2E2E2E2E2E2E2E2E2E2E2E2E2E2E2E2E2E2E2F5E2E2E2E2EFEFE2E2E2E2E2E2E2E2E2E2E2E2E2EFEFE2E2E2E2F5E2E2E2E2E2E2E2E2E2E2E2E2E2E2E2E2E2E2E2E2E2E2E2
310
E2E2E2E2F5E2E2E2E2F5E2F5F500F5E2F5E2E2E2E2F5F5E2E2E2E2E2E2E2E2E2E2E2E2E2E2E2E2E2E2E2E2E2E2E2E2E2E2E2F5E2E2E2E2EFEFE2E2E2E2E2E2E2E2E2E2E2E2E2EFEFE2E2E2E2F5E2E2E2E2E2E2E2E2E2E2E2E2E2E2E2E2E2E2E2E2E2E2E2E2E2E2E2F5E2E2E2E2F5E2F5F500F5E2F5E2E2E2E2F5F5E2E2E2E2
310
E2E2E2E2E2E2E2E2E2E2E2E2E2E2E2E2E2E2E2E2E2E2E2F5E2E2E2E2EFEFE2E2E2E2E2E2E2E2E2E2E2E2E2EFEFE2E2E2E2F5E2E2E2E2E2E2E2E2E2E2E2E2E2E2E2E2E2E2E2E2E2E2E2E2E2E2E2F5E2E2E2E2F5E2F5F500F5E2F5E2E2E2E2F5F5E2E2E2E2E2E2E2E2E2E2E2E2E2E2E2E2E2E2E2E2E2E2E2E2E2E2E2F5E2E2E2
310
E2EFEFE2E2E2E2E2E2E2E2E2E2E2E2E2EFEFE2E2E2E2F5E2E2E2E2E2E2E2E2E2E2E2E2E2E2E2E2E2E2E2E2E2E2E2E2E2E2E2F5E2E2E2E2F5E2F5F500F5E2F5E2E2E2E2F5F5E2E2E2E2E2E2E2E2E2E2E2E2E2E2E2E2E2E2E2E2E2E2E2E2E2E2E2F5E2E2E2E2EFEFE2E2E2E2E2E2E2E2E2E2E2E2E2EFEFE2E2E2E2F5E2E2E2E2
310
E2E2E2E2E2E2E2E2E2E2E2E2E2E2E2E2E2E2E2E2E2E2E2F5E2E2E2E2F5E2F5F500F5E2F5E2E2E2E2F5F5E2E2E2E2E2E2E2E2E2E2E2E2E2E2E2E2E2E2E2E2E2E2E2E2E2E2E2F5E2E2E2E2EFEFE2E2E2E2E2E2E2E2E2E2E2E2E2EFEFE2E2E2E2F5E2E2E2E2E2E2E2E2E2E2E2E2E2E2E2E2E2E2E2E2E2E2E2E2E2E2E2F5E2E2E2
310
E2F5E2F5F500F5E2F5E2E2E2E2F5F5E2E2E2E2E2E2E2E2E2E2E2E2E2E2E2E2E2E2E2E2E2E2E2E2E2E2E2F5E2E2E2E2EFEFEFE2E2E2E2E2E2E2E2E2E2E2EFEFEFE2E2E2E2F5E2E2E2E2E2E2E2E2E2E2E2E2E2E2E2E2E2E2E2E2E2E2E2E2E2E2E2F5E2E2E2E2F5E2F5F500F5E2F5E2E2E2E2F5F5E2E2E2E2E2E2E2E2E2E2E2E2
310
E2F5F5F5F5F5E2E2E2E2E2E2E2E2E2F5E2E2E2E2EFEFEFE2E2E2E2E2E2E2E2E2E2E2EFEFEFE2E2E2E2F5E2E2E2E2E2E2E2E2F5F5F5F5F5E2E2E2E2E2E2E2E2E2E2E2E2E2E2F5E2E2E2E2F5E2F5F500F5E2F5E2E2E2E2F5F5E2E2E2E2E2E2E2E2E2E2E2E2E2F5F5F5F5F5E2E2E2E2E2E2E2E2E2F5E2E2E2E2EFEFEFE2E2E2E2
310
E2E2E2E2E2E2E2EFEFEFE2E2E2E2F5E2E2E2E2E2E2E2E2F5F5F5F5F5E2E2E2E2E2E2E2E2E2E2E2E2E2E2F5E2E2E2E2F5E2F5F500F5E2F5E2E2E2E2F5F5E2E2E2E2E2E2E2E2E2E2E2E2E2E2EFEFEFE2E2E2E2E2E2E2E2E2E2F5E2E2E2E2EFEFEFEFEFEFEFEFEFEFEFEFEFEFEFEFEFE2E2E2E2F5E2E2E2E2E2E2E2E2E2E2EFEF
310
EFE2E2E2E2E2E2E2E2E2E2E2E2E2E2F5E2E2E2E2F5E2F5F500F5E2F5E2E2E2E2F5F5E2E2E2E2E2E2E2E2E2E2E2EFEFEFEFEFEFE2E2E2E2E2E2E2E2E2E2F5E2E2E2E2E2E2E2E2E2F5F5F5F5F5F5E2E2E2E2E2E2E2E2E2E2F5E2E2E2E2E2E2EFEFEFEFEFEFEFEFEFEFE2E2E2E2E2E2E2E2E2E2E2F5E2E2E2E2F5E2F5F500F5E2
310
F5E2E2E2E2F5F5E2E2E2E2E2E2E2E2E2E2E2EFEFE2E2E2EFEFEFEFEFEFEFE2E2E2E2F5E2E2E2E2E2E2F5F5F5F5F5F5F5F5F5F5F5F5E2E2E2E2E2E2E2F5E2E2E2E2EFEFEFEFEFEFEFE2E2E2EFEFE2E2E2E2E2E2E2E2E2E2E2F5E2E2E2E2F5E2F5F500F5E2F5E2E2E2E2F5F5EFEFEFEFEFEFEFEFEFEFEFEFE2E2E2E2E2E2E2E2
310
EFEFEFEFEFE2E2F5E2E2E2E2E2E2F5F5F5F5F5F5F5F5F5F5F5F5E2E2E2E2E2E2E2F5E2E2EFEFEFEFEFE2E2E2E2E2E2E2E2EFEFEFEFEFEFEFEFEFEFEFEFF5E2E2E2E2F5E2F5F500F5E2E2E2E2E2E2F5F5EFEFEFEFE2EFEFEFEFEFE2EFE2E2E2E2E2E2E2E2EFE2E2EFEFEFE2F5E2E2E2E2E2E2E2E2E2E2E2E2E2E2E2E2E2E2E2
310
E2E2E2E2E2E2F5E2EFEFEFE2E2EFE2E2E2E2E2E2E2E2EFE2EFEFEFEFEFE2EFEFEFEFF5E2E2E2E2E2E2F5F500F5E2E2E2E2E2E2F5F5EFEFE2E2E2EFEFEFEFEFE2EFE2E2E2E2E2E2E2E2EFEFEFEFEFEFE2F5E2E2E2E2E2E2E2E2E2E2E2E2E2E2E2E2E2E2E2E2E2E2E2E2E2F5E2EFEFEFEFEFEFE2E2E2E2E2E2E2E2EFE2EFEFEF
310
EFEFE2E2E2EFEFF5E2E2E2E2E2E2F5F500F5E2E2E2E2E2E2F5F5E2E2E2E2E2EFEFE2EFEFEFEFEFEFE2E2E2E2E2E2EFEFEFE2DCEFF5F5E2E2E2E2E2E2E2E2E2E2E2E2E2E2E2E2E2E2E2E2E2E2E2E2E2F5F5EFEFEFEFEFEFE2E2E2E2E2E2EFEFEFEFEFEFE2EFEFE2E2E2E2E2F5E2E2E2E2E2E2F5F500F5E2E2E2E2E2E2F5F5E2
310
E2E2E2E2EFEFE2EFEFEFEFEFEFE2E2E2E2E2E2EFEFEFEFEFEFE2F5E2E2E2E2E2E2E2E2E2E2E2E2E2E2E2E2E2E2E2E2E2E2E2E2E2F5E2EFEFEFEFEFEFE2E2E2E2E2E2EFEFEFEFEFEFE2EFEFE2E2E2E2E2F5E2E2E2E2E2E2F5F500F5E2E2E2E2E2E2F5F5E2E2E2E2E2EFEFE2EFEFEFEFEFEFE2E2E2E2E2E2EFE2EFEFEFEFE2F5
310
E2E2E2E2E2E2E2E2E2E2E2E2E2E2E2E2E2E2E2E2E2E2E2E2E2F5E2EFEFEFEFE2EFE2E2E2E2E2E2EFEFEFEFEFEFE2EFEFE2E2E2E2E2F5E2E2E2E2E2E2F5F500F5E2E2E2E2E2E2F5F5E2E2E2E2E2EFEFE2E2E2E2EFEFEFE2E2E2E2E2E2EFEFEFEFE2E2E2F5E2E2E2E2E2E2E2E2E2E2E2E2E2E2E2E2E2E2E2E2E2E2E2E2E2F5E2
310
E2E2EFEFEFEFE2E2E2E2E2E2EFEFEFE2E2E2E2EFEFE2E2E2E2E2F5E2E2E2E2E2E2F5F500F5E2E2E2E2E2E2F5F5E2E2E2E2E2EFEFE2E2E2E2EFEFEFE2E2EFEFEFEFEFEFE2E2E2E2E2F5E2E2E2E2E2E2E2E2E2E2E2E2E2E2E2E2E2E2E2E2E2E2E2E2E2F5E2E2E2E2E2EFEFEFEFEFEFE2E2EFEFEFE2E2E2E2EFEFE2E2E2E2E2F5
310
E2E2E2E2E2E2F5F500F5E2E2E2E2E2E2F5F5E2E2E2E2E2EFEFE2E2E2E2EFEFEFEFEFEFE2E2E2E2E2E2E2E2E2E2F5E2E2E2E2E2E2E2E2E2E2E2E2E2E2E2E2E2E2E2E2E2E2E2E2E2F5E2E2E2E2E2E2E2E2E2E2EFEFEFEFEFEFE2E2E2E2EFEFE2E2E2E2E2F5E2E2E2E2E2E2F5F500F5E2E2E2E2E2E2F5F5E2E2E2E2E2EFEFE2E2
310
E2E2EFEFEFEFEFEFE2E2E2E2E2E2E2E2E2E2F5E2E2E2E2E2E2E2E2E2E2E2E2E2E2E2E2E2E2E2E2E2E2E2E2E2F5E2E2E2E2E2E2E2E2E2E2EFEFEFEFEFEFE2E2E2E2EFEFE2E2E2E2E2F5E2E2E2E2E2E2F5F500F5E2E2E2E2E2E2F5F5E2E2E2E2E2EFEFE2E2E2E2E2E2E2E2E2EFE2E2E2E2E2E2E2E2E2E2F5E2E2E2E2E2E2E2E2
310
E2E2E2E2E2E2E2E2E2E2E2E2E2E2E2E2E2F5E2E2E2E2E2E2E2E2E2E2EFE2E2E2E2E2E2E2E2E2EFEFE2E2E2E2E2F5E2E2E2E2E2E2F5F500F5E2F5E2E2E2E2F5F5E2E2E2E2E2EFEFE2E2E2E2E2E2E2E2E2EFE2E2E2E2E2E2E2E2E2E2F5E2E2E2E2E2E2E2E2E2E2E2E2E2E2E2E2E2E2E2E2E2E2E2E2E2F5E2E2E2E2E2E2E2E2E2
310
E2EFE2E2E2E2E2E2E2E2E2EFEFE2E2E2E2E2F5E2E2E2E2F5E2F5F500F5E2F5E2E2E2E2F5F5F5F5F5F5F5EFEFE2E2E2E2E2E2E2EFEFEFE2E2E2E2E2E2E2E2E2E2F5E2E2E2E2E2E2E2F5F5F5F5F5F5F5F5F5F5E2E2E2E2E2E2E2E2F5E2E2E2E2E2E2E2E2E2E2EFEFEFE2E2E2E2E2E2E2EFF5F5F5F5F5E2F5E2E2E2E2F5E2F5F5
310
00F5E2F5E2E2E2E2F5F5F5F5F5F5F5EFEFE2E2E2E2E2E2E2EFEFEFE2E2E2E2E2E2E2E2E2E2F5E2E2E2E2E2E2E2F5F5F5F5F5F5F5F5F5F5E2E2E2E2E2E2E2E2F5E2E2E2E2E2E2E2E2E2E2EFEFEFE2E2E2E2E2E2E2EFF5F5F5F5F5E2F5E2E2E2E2F5E2F5F500F5E2F5E2E2E2E2F5F5E2E2E2E2E2EFEFE2E2E2E2E2E2E2E2EFEF
310
E2E2E2E2E2E2E2E2E2E2F5E2E2E2E2E2E2E2E2E2E2F5F5F5F5E2E2E2E2E2E2E2E2E2E2E2F5E2E2E2E2E2E2E2E2E2E2EFEFE2E2E2E2E2E2E2E2EFEFE2E2E2E2E2F5E2E2E2E2F5E2F5F500F5E2F5E2E2E2E2F5F5E2E2E2E2E2EFEFE2E2E2E2E2E2E2E2EFEFE2E2E2E2E2E2E2E2E2E2F5E2E2E2E2E2E2E2E2E2E2F5F5F5F5E2E2
310
E2E2E2E2E2E2E2E2E2F5E2E2E2E2E2E2E2E2E2E2EFEFE2E2E2E2E2E2E2E2EFEFE2E2E2E2E2F5E2E2E2E2F5E2F5F500F5E2F5E2E2E2E2F5F5E2E2E2E2E2EFEFEFEFEFEFEFEFEFEFEFEFE2E2E2E2E2E2E2E2E2E2F5E2E2E2E2EFEFEFEFEFEFEFEFEFEFEFEFEFEFEFEFEFE2E2E2E2F5E2E2E2E2E2E2E2E2E2E2EFEFEFEFEFEFEF
310
EFEFEFEFEFE2E2E2E2E2F5E2E2E2E2F5E2F5F500F5E2F5E2E2E2E2F5F5E2E2E2E2E2EFEFE2E2E2E2EFE2E2E2E2EFE2E2E2E2E2E2E2E2E2E2F5E2E2E2EFEFEFE2E2EFEFEFEFEFEFEFEFEFE2E2EFEFEFE2E2E2F5E2E2E2E2E2E2E2E2E2E2EFE2E2E2E2EFE2E2E2E2EFEFE2E2E2E2E2F5E2E2E2E2F5E2F5F500F5E2F5E2E2E2E2
310
F5F5E2E2E2E2E2EFEFE2E2E2E2EFE2E2E2E2EFE2E2E2E2E2E2E2E2E2E2F5E2EFEFEFE2EFE2E2E2EFEFE2E2E2EFEFE2E2E2EFE2EFEFEFE2F5E2E2E2E2E2E2E2E2E2E2EFE2E2E2E2EFE2E2E2E2EFEFE2E2E2E2E2F5E2E2E2E2F5E2F5F500F5E2F5E2E2E2E2F5F5E2E2E2E2E2EFEFE2E2E2E2EFE2E2E2E2EFF5F5F5F5E2E2E2E2
310
E2E2F5EFEFEFEFEFEFE2E2E2EFEFE2E2E2EFEFE2E2E2EFEFEFEFEFEFF5E2E2E2E2E2F5F5F5F5E2EFE2E2E2E2EFE2E2E2E2EFEFE2E2E2E2E2F5E2E2E2E2F5E2F5F500F5E2F5E2E2E2E2F5F5E2E2E2E2E2EFEFE2E2E2E2EFE2E2E2E2EFF5F5F5F5E2E2E2E2E2E2F5EFEFEFEFEFEFE2E2E2EFEFE2E2E2EFEFE2E2E2EFEFEFEFEF
310
EFF5E2E2E2E2E2F5F5F5F5E2EFE2E2E2E2EFE2E2E2E2EFEFE2E2E2E2E2F5E2E2E2E2F5E2F5F500F5E2F5E2E2E2E2F5F5E2E2E2E2E2EFEFE2E2EFEFEFE2E2E2E2EFE2E2E2E2E2E2E2E2E2E2E2EFEFEFEFEFEFE2E2E2EFEFEFE2EFEFEFE2E2E2EFEFEFEFEFEFE2E2E2E2E2E2E2E2E2E2E2EFE2E2E2E2EFEFEFE2E2EFEFE2E2E2
310
E2E2F5E2E2E2E2F5E2F5F500F5E2F5E2E2E2E2F5F5E2E2E2E2E2EFEFE2E2EFEFEFE2E2E2E2EFE2E2E2E2E2E2E2E2E2E2E2E2EFEFE2E2EFE2E2E2EFEFEFE2EFEFEFE2E2E2EFE2E2EFEFE2E2E2E2E2E2E2E2E2E2E2E2EFE2E2E2E2EFEFEFE2E2EFEFE2E2E2E2E2F5E2E2E2E2F5E2F5F500F5E2F5E2E2E2E2F5F5E2E2E2E2E2EF
310
EFEFEFEFEFEFEFEFEFEFEFE2E2E2E2E2E2E2E2E2E2E2E2EFEFEFEFEFE2E2E2EFEFE2E2E2EFEFE2E2E2EFEFEFEFEFE2E2E2E2E2E2E2E2E2E2E2E2EFEFEFEFEFEFEFEFEFEFEFEFE2E2E2E2E2F5E2E2E2E2F5E2F5F500F5E2F5E2E2E2E2F5F5E2E2E2E2E2EFEFEFEFEFEFEFEFEFEFEFEFE2E2E2E2E2E2E2E2E2E2E2E2E2E2E2EF
310
EFEFEFEFEFEFEFEFEFEFEFEFEFEFEFEFE2E2E2E2E2E2E2E2E2E2E2E2E2E2E2EFEFEFEFEFEFEFEFEFEFEFEFE2E2E2E2E2F5E2E2E2E2F5E2F5F500F5E2F5E2E2E2E2F5F5E2E2E2E2E2EFEFEFEFF5F5F5F5EFEFEFEFE2E2E2E2E2E2E2E2E2E2E2E2E2E2E2E2EFEFEFEFEFEFEFEFEFEFEFEFEFEFEFE2E2E2E2E2E2E2E2E2E2E2E2
310
E2E2E2E2EFEFEFF5F5F5F5EFEFEFEFEFE2E2E2E2E2F5E2E2E2E2F5E2F5F500F5E2F5E2E2E2E2F5F5E2E2E2E2E2E2E2E2E2F5F5F5F5E2E2E2E2E2E2E2E2E2E2E2E2E2E2E2E2E2E2E2E2E2E2E2E2E2E2E2E2E2E2E2E2E2E2E2E2E2E2E2E2E2E2E2E2E2E2E2E2E2E2E2E2E2E2F5F5F5F5E2E2E2E2E2E2E2E2E2E2F5E2E2E2E2F5
310
E2F5F500F5E2F5E2E2E2E2F5F5E2E2E2E2E2E2E2E2E2E2E2E2E2E2E2E2E2E2E2E2E2E2E2E2E2E2E2E2E2E2E2E2E2E2E2E2E2E2E2E2E2E2E2E2E2E2E2E2E2E2E2E2E2E2E2E2E2E2E2E2E2E2E2E2E2E2E2E2E2E2E2E2E2E2E2E2E2E2E2E2E2F5E2E2E2E2F5E2F5F500F5E2E2E2E2E2E2F5F5E2E2E2E2E2E2E2E2E2E2E2E2E2E2
310
E2E2E2E2E2E2E2E2E2E2E2E2E2E2E2E2E2E2E2E2E2E2E2E2E2E2E2E2E2E2E2E2E2E2E2E2E2E2E2E2E2E2E2E2E2E2E2E2E2E2E2E2E2E2E2E2E2E2E2E2E2E2E2E2E2E2E2F5E2E2E2E2E2E2F5F500F5E2E2E2E2E2E2F5F5E2E2E2E2E2E2E2E2E2E2E2E2E2E2E2E2E2E2E2E2E2E2E2E2E2E2E2E2E2E2E2E2E2E2E2E2E2E2E2E2E2
310
E2E2E2E2E2E2E2E2E2E2E2E2E2E2E2E2E2E2E2E2E2E2E2E2E2E2E2E2E2E2E2E2E2E2E2E2E2E2E2E2F5E2E2E2E2E2E2F5F500F5E2E2E2E2E2E2F5F5E2E2E2E2E2E2E2E2E2E2E2E2E2E2E2E2E2E2E2E2E2E2E2E2E2E2E2E2E2E2E2E2E2E2E2E2E2E2E2E2E2E2E2E2E2E2E2E2E2E2E2E2E2E2E2E2E2E2E2E2E2E2E2E2E2E2E2E2
310
E2E2E2E2E2E2E2E2E2E2E2E2E2F5E2E2E2E2E2E2F5F500F5E2E2E2E2E2E2F5F5E2E2E2E2E2E2E2E2E2E2E2E2E2E2E2E2E2E2E2E2E2E2E2E2E2E2E2E2E2E2E2E2E2E2E2E2E2E2E2E2E2E2E2E2E2E2E2E2E2E2E2E2E2E2E2E2E2E2E2E2E2E2E2E2E2E2E2E2E2E2E2E2E2E2E2E2E2E2E2E2E2F5E2E2E2E2E2E2F5F500F5E2E2E2
310
E2E2E2F5F5E2E2E2E2E2E2E2E2E2E2E2E2E2E2E2E2E2E2E2E2E2E2E2E2E2E2E2E2E2E2E2E2E2E2E2E2E2E2E2E2E2E2E2E2E2E2E2E2E2E2E2E2E2E2E2E2E2E2E2E2E2E2E2E2E2E2E2E2E2E2E2E2E2E2E2E2E2E2E2E2E2F5E2E2E2E2E2E2F5F500F5E2E2E2E2E2E2F5F5E2E2E2E2E2E2E2E2E2E2E2E2E2E2E2E2E2E2E2E2E2E2
310
E2E2E2E2E2E2E2E2E2E2E2E2E2E2E2E2E2E2E2E2E2E2E2E2E2E2E2E2E2E2E2E2E2E2E2E2E2E2E2E2E2E2E2E2E2E2E2E2E2E2E2E2E2E2E2E2E2E2E2F5E2E2E2E2E2E2F5F500F5E2E2E2E2E2E2F5F5E2E2E2E2E2E2E2E2E2E2E2E2E2E2E2E2E2E2E2E2E2E2E2E2E2E2E2E2E2E2E2E2E2E2E2E2E2E2E2E2E2E2E2E2E2E2E2E2E2
310
E2E2E2E2E2E2E2E2E2E2E2E2E2E2E2E2E2E2E2E2E2E2E2E2E2E2E2E2E2E2E2E2F5E2E2E2E2E2E2F5F500F5E2E2E2E2E2E2F5F5E2E2E2E2E2E2E2E2E2E2E2E2E2E2E2E2E2E2E2E2E2E2E2E2E2E2E2E2E2E2E2E2E2E2E2E2E2E2E2E2E2E2E2E2E2E2E2E2E2E2E2E2E2E2E2E2E2E2E2E2E2E2E2E2E2E2E2E2E2E2E2E2E2E2E2E2
310
E2E2E2E2E2F5E2E2E2E2E2E2F5F500F5E2E2E2E2E2E2F5F5E2E2E2E2E2E2E2E2E2E2E2E2E2E2E2E2E2E2E2E2E2E2E2E2E2E2E2E2E2E2E2E2E2E2E2E2E2E2E2E2E2E2E2E2E2E2E2E2E2E2E2E2E2E2E2E2E2E2E2E2E2E2E2E2E2E2E2E2E2E2E2E2E2E2E2E2E2E2E2E2E2F5E2E2E2E2E2E2F5F500F5E2F5E2E2E2E2F5F5E2E2E2
310
E2E2E2E2E2E2E2E2E2E2E2E2E2E2E2E2E2E2E2E2E2E2E2E2E2E2E2E2E2E2E2E2E2E2E2E2E2E2E2E2E2E2E2E2E2E2E2E2E2E2E2E2E2E2E2E2E2E2E2E2E2E2E2E2E2E2E2E2E2E2E2E2E2E2E2E2E2E2F5E2E2E2E2F5E2F5F500F5E2F5E2E2E2E2F5F5E2E2E2E2E2E2E2E2E2E2E2E2E2E2E2E2E2E2E2E2E2E2E2E2E2E2E2E2E2E2
310
E2E2E2E2E2E2E2E2E2E2E2E2E2E2E2E2E2E2E2E2E2E2E2E2E2E2E2E2E2E2E2E2E2E2E2E2E2E2E2E2E2E2E2E2E2E2E2E2E2E2E2F5E2E2E2E2F5E2F5F500F5E2F5E2E2E2E2F5F5E2E2E2E2E2E2E2E2E2E2E2E2E2E2E2E2E2E2E2E2E2E2E2E2E2E2E2E2E2E2E2E2E2E2E2E2E2E2E2E2E2E2E2E2E2E2E2E2E2E2E2E2E2E2E2E2E2
310
E2E2E2E2E2E2E2E2E2E2E2E2E2E2E2E2E2E2E2E2E2E2E2E2F5E2E2E2E2F5E2F5F500F5E2F5E2E2E2E2F5F5E2E2E2E2E2E2E2E2E2E2E2E2E2E2E2E2E2E2E2E2E2E2E2E2E2E2E2E2E2E2E2E2E2E2E2E2E2E2E2E2E2E2E2E2E2E2E2E2E2E2E2E2E2E2E2E2E2E2E2E2E2E2E2E2E2E2E2E2E2E2E2E2E2E2E2E2E2E2E2E2E2F5E2E2
310
E2E2F5E2F5F500F5E2F5E2E2E2E2F5F5E2E2E2E2E2E2E2E2E2E2E2E2E2E2E2E2E2E2E2E2E2E2E2E2E2E2E2E2E2E2E2E2E2E2E2E2E2E2E2E2E2E2E2E2E2E2E2E2E2E2E2E2E2E2E2E2E2E2E2E2E2E2E2E2E2E2E2E2E2E2E2E2E2E2E2E2E2E2E2E2E2F5E2E2E2E2F5E2F5F500F5E2F5E2E2E2E2F5F5E2E2E2E2E2E2E2E2E2E2E2
310
E2E2E2E2E2E2E2E2E2E2E2E2E2E2E2E2E2E2E2E2E2E2E2E2E2E2E2E2E2E2E2E2E2E2E2E2E2E2E2E2E2E2E2E2E2E2E2E2E2E2E2E2E2E2E2E2E2E2E2E2E2E2E2E2E2E2E2E2E2E2F5E2E2E2E2F5E2F5F500F5E2F5E2E2E2E2F5F5E2E2E2E2E2E2E2E2E2E2E2E2E2E2E2E2E2E2E2E2E2E2E2E2E2E2E2E2E2E2E2E2E2E2E2E2E2E2
310
E2E2E2E2E2E2E2E2E2E2E2E2E2E2E2E2E2E2E2E2E2E2E2E2E2E2E2E2E2E2E2E2E2E2E2E2E2E2E2E2E2E2E2F5E2E2E2E2F5E2F5F500F5E2F5E2E2E2E2F5F5E2E2E2E2E2E2E2E2E2E2E2E2E2E2E2E2E2E2E2E2E2E2E2E2E2E2E2E2E2E2E2E2E2E2E2E2E2E2E2E2E2E2E2E2E2E2E2E2E2E2E2E2E2E2E2E2E2E2E2E2E2E2E2E2E2
310
E2E2E2E2E2E2E2E2E2E2E2E2E2E2E2E2F5E2E2E2E2F5E2F5F500F5E2F5E2E2E2E2F5F5E2E2E2E2E2E2E2E2E2E2E2E2E2E2E2E2E2E2E2E2E2E2E2E2E2E2E2E2E2E2E2E2E2E2E2E2E2E2E2E2E2E2E2E2E2E2E2E2E2E2E2E2E2E2E2E2E2E2E2E2E2E2E2E2E2E2E2E2E2E2E2E2E2E2E2E2E2E2E2E2E2F5E2E2E2E2F5E2F5F500F5
310
E2F5E2E2E2E2F5F5E2E2E2E2E2E2E2E2E2E2E2E2E2E2E2E2E2E2E2E2E2E2E2E2E2E2E2E2E2E2E2E2E2E2E2E2E2E2E2E2E2E2E2E2E2E2E2E2E2E2E2E2E2E2E2E2E2E2E2E2E2E2E2E2E2E2E2E2E2E2E2E2E2E2E2E2E2E2E2E2E2F5E2E2E2E2F5E2F5F500F5E2F5E2E2E2E2F5F5E2E2E2E2E2E2E2E2E2E2E2E2E2E2E2E2E2E2E2
310
E2E2E2E2E2E2E2E2E2E2E2E2E2E2E2E2E2E2E2E2E2E2E2E2E2E2E2E2E2E2E2E2E2E2E2E2E2E2E2E2E2E2E2E2E2E2E2E2E2E2E2E2E2E2E2E2E2E2E2E2E2E2F5E2E2E2E2F5E2F5F500F5E2F5E2E2E2E2F5F5E2E2E2E2E2E2E2E2E2E2E2E2E2E2E2E2E2E2E2E2E2E2E2E2E2E2E2E2E2E2E2E2E2E2E2E2E2E2E2E2E2E2E2E2E2E2
310
E2E2E2E2E2E2E2E2E2E2E2E2E2E2E2E2E2E2E2E2E2E2E2E2E2E2E2E2E2E2E2E2E2E2E2F5E2E2E2E2F5E2F5F500F5E2F5E2E2E2E2F5F5E2E2E2E2E2E2E2E2E2E2E2E2E2E2E2E2E2E2E2E2E2E2E2E2E2E2E2E2E2E2E2E2E2E2E2E2E2E2E2E2E2E2E2E2E2E2E2E2E2E2E2E2E2E2E2E2E2E2E2E2E2E2E2E2E2E2E2E2E2E2E2E2E2
310
E2E2E2E2E2E2E2E2F5E2E2E2E2F5E2F5F500F5E2F5E2E2E2E2F5F5E2E2E2E2E2E2E2E2E2E2E2E2E2E2E2E2E2E2E2E2E2E2E2E2E2E2E2E2E2E2E2E2E2E2E2E2E2E2E2E2E2E2E2E2E2E2E2E2E2E2E2E2E2E2E2E2E2E2E2E2E2E2E2E2E2E2E2E2E2E2E2E2E2E2E2E2E2E2E2E2E2F5E2E2E2E2F5E2F5F500F5E2F5E2E2E2E2F5F5
310
E2E2E2E2E2E2E2E2E2E2E2E2E2E2E2E2E2E2E2E2E2E2E2E2E2E2E2E2E2E2E2E2E2E2E2E2E2E2E2E2E2E2E2E2E2E2E2E2E2E2E2E2E2E2E2E2E2E2E2E2E2E2E2E2E2E2E2E2E2E2E2E2E2E2E2E2E2E2E2E2E2F5E2E2E2E2F5E2F5F500F5E2F5E2E2E2E2F5F5E2E2E2E2E2E2E2E2E2E2E2E2E2E2E2E2E2E2E2E2E2E2E2E2E2E2E2
310
E2E2E2E2E2E2E2E2E2E2E2E2E2E2E2E2E2E2E2E2E2E2E2E2E2E2E2E2E2E2E2E2E2E2E2E2E2E2E2E2E2E2E2E2E2E2E2E2E2E2E2E2E2E2F5E2E2E2E2F5E2F5F500F5E2F5E2E2E2E2F5F5E2E2E2E2E2E2E2E2E2E2E2E2E2E2E2E2E2E2E2E2E2E2E2E2E2E2E2E2E2E2E2E2E2E2E2E2E2E2E2E2E2E2E2E2E2E2E2E2E2E2E2E2E2E2
310
E2E2E2E2E2E2E2E2E2E2E2E2E2E2E2E2E2E2E2E2E2E2E2E2E2E2E2F5E2E2E2E2F5E2F5F500F5E2E2E2E2E2E2F5F5E2E2E2E2E2E2E2E2E2E2E2E2E2E2E2E2E2E2E2E2E2E2E2E2E2E2E2E2E2E2E2E2E2E2E2E2E2E2E2E2E2E2E2E2E2E2E2E2E2E2E2E2E2E2E2E2E2E2E2E2E2E2E2E2E2E2E2E2E2E2E2E2E2E2E2E2E2E2E2E2E2
310
F5E2E2E2E2E2E2F5F500F5E2E2E2E2E2E2F5F5E2E2E2E2E2E2E2E2E2E2E2E2E2E2E2E2E2E2E2E2E2E2E2E2E2E2E2E2E2E2E2E2E2E2E2E2E2E2E2E2E2E2E2E2E2E2E2E2E2E2E2E2E2E2E2E2E2E2E2E2E2E2E2E2E2E2E2E2E2E2E2E2E2E2E2E2E2E2E2E2E2F5E2E2E2E2E2E2F5F500F5E2E2E2E2E2E2F5F5F5F5F5F5F5F5F5F5
310
F5F5F5F5F5F5F5F5F5F5F5F5F5F5F5F5F5F5F5F5F5F5F5F5F5F5F5F5F5F5F5F5F5F5F5F5F5F5F5F5F5F5F5F5F5F5F5F5F5F5F5F5F5F5F5F5F5F5F5F5F5F5F5F5F5F5F5F5F5F5F5F5F5F5E2E2E2E2E2E2F5F500F5E2E2E2E2E2E2E2E2E2E2E2E2E2F5F5F5F5F5F5F5F5F5F5F5F5F5F5F5F5F5F5F5F5F5F5F5F5F5F5F5F5F5F5
310
F5F5F5F5F5F5F5F5F5F5F5F5F5F5F5F5F5F5F5F5F5F5F5F5F5F5F5F5F5F5F5F5F5F5F5F5F5F5F5F5F5F5F5F5F5F5F5E2E2E2E2E2E2F5F500F5E2E2E2E2E2E2E2E2E2E2E2E2E2F5E2E2E2E2E2E2F5F5F5F5F5F5F5F5F5F5F5F5F5F5F5F5F5E2E2E2E2E2E2E2E2E2E2E2E2E2E2E2E2E2E2E2E2E2E2E2E2E2E2E2E2E2E2F5E2E2
310
F5F5F5F5F5F5E2E2F5E2E2E2E2F5F5E2E2E2E2F5E2E2E2E2E2E2F5F500F5E2E2E2E2E2E2E2E2E2E2E2E2ECECECE2E2E2E2E2F5F5F5F5F5F5F5F5F5F5F5F5F5F5F5F5F5E2E2E2E2E2E2E2E2E2E2E2E2E2E2E2E2E2E2E2E2E2E2E2E2E2E2E2E2E2E2F5E2E2F5F5F5F5F5F5E2E2F5E2E2E2E2F5F5E2E2E2E2F5E2E2E2E2E2E2F5
310
F500F5E2E2E2E2E2E2E2E2E2E2E2ECECECECE2E2E2E2E2E2E2E2E2E2E2E2E2E2E2E2E2E2E2E2E2E2E2E2E2E2E2E2E2E2E2E2E2E2E2E2E2E2E2E2E2E2E2E2E2E2E2E2E2E2E2E2F5E2E2E2E2E2E2E2E2E2E2F5E2E2E2E2E2E2E2E2E2E2F5E2E2E2E2E2E2F5F500F5E2E2E2E2E2E2E2E2E2E2E2ECECECECECE2E2E2E2F5F5F5F5
310
F5F5F5F5F5F5F5F5F5F5F5F5F5F5F5F5F5F5F5F5F5F5E2E2E2E2E2E2E2E2E2E2E2E2E2E2E2E2E2E2E2E2E2F5E2E2E2F5F5F5F5E2E2E2F5E2E2F5F5F5F5F5E2E2E2F5E2E2E2E2E2E2F5F500F5E2E2E2E2E2E2E2E2E2E2ECECECECECECE2E2E2E2F5F5F5F5F5F5F5F5F5F5F5F5F5F5F5F5F5F5F5F5F5F5F5F5F5F5E2E2E2E2E2
310
E2E2E2E2E2E2E2E2E2E2E2E2E2E2E2E2F5E2E2E2E2E2E2E2E2E2E2F5E2E2E2E2E2E2E2E2E2E2F5E2E2E2E2E2E2F5F500F5E2E2E2E2E2E2E2E2E2E2ECECECECECECECE2E2E2E2E2E2E2E2E2E2E2E2E2E2E2E2E2E2E2E2E2E2E2E2E2E2E2E2E2E2E2E2E2E2E2E2E2E2E2E2E2E2E2E2E2E2E2E2E2E2F5E2E2E2E2E2E2E2E2E2E2
310
F5E2E2E2E2E2E2E2E2E2E2F5E2E2E2E2E2E2F5F500F5E2F5E2E2E2E2E2E2E2ECECECECECECECECE2E2E2F5F5F5F5F5F5F5F5F5F5F5F5F5F5F5F5F5F5F5F5F5F5F5F5F5F5F5F5E2E2E2E2E2E2E2E2E2E2E2E2E2E2E2E2E2E2E2F5F5F5F5F5F5F5F5F5F5F5F5F5F5F5F5F5F5F5F5F5F5F5E2E2E2E2F5E2F5F500F5E2F5E2E2E2
310
E2E2E2E2ECECECECECECECECECE2E2F5F5F5F5F5F5F5F5F5F5F5F5F5F5F5F5F5F5F5F5F5F5F5F5F5F5F5F5E2E2E2E2E2E2E2E2E2E2E2E2E2E2E2E2E2E2E2F5E2E2E2E2E2E2E2E2E2E2E2E2E2E2E2E2E2E2E2E2E2F5E2E2E2E2F5E2F5F500F5E2F5E2E2E2E2E2E2ECECECECECECECECECECECE2F5F5F5F5F5F5F5F5F5F5F5F5
310
F5F5F5F5F5F5F5F5F5F5F5F5F5F5F5F5F5F5F5F5F5F5E2E2E2E2E2E2E2E2E2E2E2E2E2F5E2E2F5F5F5F5F5F5F5E2F5F5F5F5F5F5F5F5E2E2E2F5E2E2E2E2F5E2F5F500F5E2F5E2E2E2E2E2ECECECECECECECECECECECECE2F5F5F5F5F5F5F5F5F5F5F5F5F5F5F5F5F5F5F5F5F5F5F5F5F5F5F5F5F5F5F5F5F5F5E2E2E2E2E2
310
E2E2E2E2E2E2E2E2F5E2E2F5F5F5F5F5F5F5E2F5F5F5F5F5F5F5F5E2E2E2F5E2E2E2E2F5E2F5F500F5E2F5E2E2E2E2E2ECECECECECECECECECECECECECF5F5F5F5F5F5F5F5F5F5F5F5F5F5F5F5F5F5F5F5F5F5F5F5F5F5F5F5F5F5F5F5F5F5E2E2E2E2E2E2E2E2E2E2E2E2E2F5E2E2E2E2E2E2E2E2E2E2E2E2E2E2E2E2E2E2
310
E2E2E2F5E2E2E2E2F5E2F5F500F5E2F5E2E2E2E2ECECECECECECECF5ECECECECECECE2E2E2E2E2E2E2E2E2E2E2E2E2E2E2E2E2E2E2E2E2E2E2E2E2E2E2E2E2E2E2E2E2E2E2E2E2E2E2E2E2E2E2E2E2E2E2F5E2E2E2E2E2E2E2E2E2E2E2E2E2E2E2E2E2E2E2E2E2F5E2E2E2E2F5E2F5F500F5E2F5E2E2E2E2E2E2E2E2E2E2E2
310
F5F5F5F5F5F5F5F5F5F5F5F5F5F5F5F5F5F5F5F5F5F5F5F5F5F5F5F5F5F5F5F5F5F5F5F5F5F5F5F5F5F5F5F5F5F5F5F5F5F5F5F5F5F5F5F5F5F5F5F5F5F5F5F5F5F5F5F5F5F5F5F5F5F5F5F5F5E2E2E2E2F5E2F5F500F5E2F5E2E2E2E2E2E2E2E2E2E2E2E2E2E2E2E2E2E2E2E2E2E2E2E2E2E2E2E2E2E2E2E2E2E2E2E2E2E2
310
E2E2E2E2E2E2E2E2E2E2E2E2E2E2E2E2E2E2E2E2E2E2E2E2E2E2E2E2E2E2E2E2E2E2E2E2E2E2E2E2E2E2E2E2E2E2E2E2E2E2E2E2E2E2F5E2F5F500F5E2F5F5F5F5F5F5F5F5E2E2E2E2E2E2E2E2F5F5F5F5F5F5F5F5F5F5F5F5F5F5F5E2E2E2E2E2E2E2E2E2F5F5F5F5F5F5F5F5F5F5F5F5F5F5E2E2E2E2E2E2E2E2E2F5F5F5
310
F5F5F5F5F5F5F5F5F5F5F5F5E2E2E2E2E2E2E2E2F5F5F5F5F5F5F5F5E2F5F500F5E2E2E2E2E2E2E2E2E2E2E2E2E2E2E2E2E2E2E2E2E2E2E2E2E2E2E2E2E2E2E2E2E2E2E2E2E2E2E2E2E2E2E2E2E2E2E2E2E2E2E2E2E2E2E2E2E2E2E2E2E2E2E2E2E2E2E2E2E2E2E2E2E2E2E2E2E2E2E2E2E2E2E2E2E2E2E2E2E2E2E2E2E2E2
310
E2E2F5EF00F5E2E2E2E2E2E2E2E2E2E2E2E2E2E2E2E2E2E2E2E2E2E2E2E2E2E2E2E2E2E2E2E2E2E2E2E2E2E2E2E2E2E2E2E2E2E2E2E2E2E2E2E2E2E2E2E2E2E2E2E2E2E2E2E2E2E2E2E2E2E2E2E2E2E2E2E2E2E2E2E2E2E2E2E2E2E2E2E2E2E2E2E2E2E2E2E2F5EF00F5F5F5F5F5F5F5F5F5F5F5F5F5F5F5F5F5F5F5F5F5F5
310
F5F5F5F5F5F5F5F5F5F5F5F5F5F5F5F5F5F5F5F5F5F5F5F5F5F5F5F5F5F5F5F5F5F5F5F5F5F5F5F5F5F5F5F5F5F5F5F5F5F5F5F5F5F5F5F5F5F5F5F5F5F5F5F5F5F5F5F5F5F5F5F5F5F5F5F5EF00
  0
XRECORD
  5
EFA
102
{ACAD_REACTORS
330
837
102
}
330
837
100
AcDbXrecord
280
     1
102
MATERIAL
148
0.0
149
0.0
149
0.0
 93
        0
 94
      127
282
     0
 72
     0
 77
     0
171
     0
175
     0
179
     0
273
     0
  0
XRECORD
  5
839
102
{ACAD_REACTORS
330
837
102
}
330
837
100
AcDbXrecord
280
     1
270
     1
271
     1
  0
XRECORD
  5
838
102
{ACAD_REACTORS
330
837
102
}
330
837
100
AcDbXrecord
280
     1
270
     1
271
     1
  0
XRECORD
  5
83C
102
{ACAD_REACTORS
330
837
102
}
330
837
100
AcDbXrecord
280
     1
270
     1
271
     1
  0
XRECORD
  5
83B
102
{ACAD_REACTORS
330
837
102
}
330
837
100
AcDbXrecord
280
     1
270
     1
271
     1
  0
XRECORD
  5
83D
102
{ACAD_REACTORS
330
837
102
}
330
837
100
AcDbXrecord
280
     1
270
     1
271
     1
  0
XRECORD
  5
83A
102
{ACAD_REACTORS
330
837
102
}
330
837
100
AcDbXrecord
280
     1
270
     1
271
     1
  0
XRECORD
  5
EF9
102
{ACAD_REACTORS
330
82F
102
}
330
82F
100
AcDbXrecord
280
     1
102
MATERIAL
148
0.0
149
0.0
149
0.0
 93
        0
 94
      127
282
     0
 72
     0
 77
     0
171
     0
175
     0
179
     0
273
     0
  0
XRECORD
  5
831
102
{ACAD_REACTORS
330
82F
102
}
330
82F
100
AcDbXrecord
280
     1
270
     1
271
     1
  0
XRECORD
  5
830
102
{ACAD_REACTORS
330
82F
102
}
330
82F
100
AcDbXrecord
280
     1
270
     1
271
     1
  0
XRECORD
  5
834
102
{ACAD_REACTORS
330
82F
102
}
330
82F
100
AcDbXrecord
280
     1
270
     1
271
     1
  0
XRECORD
  5
833
102
{ACAD_REACTORS
330
82F
102
}
330
82F
100
AcDbXrecord
280
     1
270
     1
271
     1
  0
XRECORD
  5
835
102
{ACAD_REACTORS
330
82F
102
}
330
82F
100
AcDbXrecord
280
     1
270
     1
271
     1
  0
XRECORD
  5
832
102
{ACAD_REACTORS
330
82F
102
}
330
82F
100
AcDbXrecord
280
     1
270
     1
271
     1
  0
XRECORD
  5
EFB
102
{ACAD_REACTORS
330
83F
102
}
330
83F
100
AcDbXrecord
280
     1
102
MATERIAL
148
0.0
149
0.0
149
0.0
 93
        0
 94
      127
282
     0
 72
     0
 77
     0
171
     0
175
     0
179
     0
273
     0
  0
XRECORD
  5
841
102
{ACAD_REACTORS
330
83F
102
}
330
83F
100
AcDbXrecord
280
     1
270
     1
271
     1
  0
XRECORD
  5
840
102
{ACAD_REACTORS
330
83F
102
}
330
83F
100
AcDbXrecord
280
     1
270
     1
271
     1
  0
XRECORD
  5
844
102
{ACAD_REACTORS
330
83F
102
}
330
83F
100
AcDbXrecord
280
     1
270
     1
271
     1
  0
XRECORD
  5
843
102
{ACAD_REACTORS
330
83F
102
}
330
83F
100
AcDbXrecord
280
     1
270
     1
271
     1
  0
XRECORD
  5
845
102
{ACAD_REACTORS
330
83F
102
}
330
83F
100
AcDbXrecord
280
     1
270
     1
271
     1
  0
XRECORD
  5
842
102
{ACAD_REACTORS
330
83F
102
}
330
83F
100
AcDbXrecord
280
     1
270
     1
271
     1
  0
ACAD_PROXY_OBJECT
  5
EE1
102
{ACAD_REACTORS
330
8FC
102
}
330
8FC
100
AcDbProxyObject
 90
      499
 91
      512
 95
   983063
 70
     0
 93
     5304
310
40D054060020000020000003200101A000080002A5058000000C10000000000000006101010000000000003E0FC000000000000F83F0000000000003E0FC000000000000F83F02B5E8DC0F42B1CFC0AD7A3703D0AC73F419019018000000C1003FBFFFFFE0000000000003C8FD029018000000C1003FBFFFFFE00000000000
310
03C8FD049018000000C1003FBFFFFFE0000000000003C8FD089018000000C1003FBFFFFFE0000000000003C8FD109018000000C1003FBFFFFFE0000000000003C8FD209018000000C1003FBFFFFFE0000000000003C8FD01405075F5449544C450041501A8000000C800406800020000A94160000003040000000000000012
310
40404000000000000F83F0000000000003E0FC000000000000F83F0000000000003E0FC0AD7A3703D0AC73F02B5E8DC0F42B1CFD0640640600000030400FEFFFFFF8000000000000F23F40A40600000030400FEFFFFFF8000000000000F23F41240600000030400FEFFFFFF8000000000000F23F42240600000030400FEFFF
310
FFF8000000000000F23F44240600000030400FEFFFFFF8000000000000F23F48240600000030400FEFFFFFF8000000000000F23F409014217D2115051115480105406A0000003200101A000080002A5028000000C10000000000000004901010000000000003E0FC000000000000F83F0000000000003E0FC000000000000F
310
83F02B5E8DC0F42B1CFC0AD7A3703D0AC73F419019018000000C1003FBFFFFFE0000000000003C8FD029018000000C1003FBFFFFFE0000000000003C8FD049018000000C1003FBFFFFFE0000000000003C8FD089018000000C1003FBFFFFFE0000000000003C8FD109018000000C1003FBFFFFFE0000000000003C8FD20901
310
8000000C1003FBFFFFFE0000000000003C8FD03409065F44415441005F
340
11
340
0
340
0
340
0
340
0
340
0
340
0
340
11
340
0
340
0
340
0
340
0
340
0
340
0
340
11
340
0
340
0
340
0
340
0
340
0
340
0
 94
        0
1001
ACAD
1000
AcRTDxfName
1000
CELLSTYLEMAP
1000
AcRTDxfName
1000
CELLSTYLEMAP
1000
AcRTDxfName
1000
CELLSTYLEMAP
  0
XRECORD
  5
EFC
102
{ACAD_REACTORS
330
8FC
102
}
330
8FC
100
AcDbXrecord
280
     1
102
ACAD_ROUNDTRIP_PRE2007_TABLESTYLE
 90
      512
 91
        0
  1

 92
      512
 93
        0
  2

 94
      512
 95
        0
  3

  0
ENDSEC
  0
EOF
