  0
SECTION
  2
HEADER
  9
$ACADVER
  1
AC1021
  9
$ACADMAINTVER
 70
    25
  9
$DWGCODEPAGE
  3
ANSI_1252
  9
$INSBASE
 10
0.0
 20
0.0
 30
0.0
  9
$EXTMIN
 10
2676.19234295962
 20
2195.480256791855
 30
-0.00000001
  9
$EXTMAX
 10
4134.087884124573
 20
3012.573584804836
 30
0.00000001
  9
$LIMMIN
 10
0.0
 20
0.0
  9
$LIMMAX
 10
12.0
 20
9.0
  9
$ORTHOMODE
 70
     0
  9
$REGENMODE
 70
     1
  9
$FILLMODE
 70
     1
  9
$QTEXTMODE
 70
     0
  9
$MIRRTEXT
 70
     0
  9
$LTSCALE
 40
1.0
  9
$ATTMODE
 70
     1
  9
$TEXTSIZE
 40
0.2
  9
$TRACEWID
 40
0.05
  9
$TEXTSTYLE
  7
Standard
  9
$CLAYER
  8
0
  9
$CELTYPE
  6
ByLayer
  9
$CECOLOR
 62
   256
  9
$CELTSCALE
 40
1.0
  9
$DISPSILH
 70
     0
  9
$DIMSCALE
 40
1.0
  9
$DIMASZ
 40
0.18
  9
$DIMEXO
 40
0.0625
  9
$DIMDLI
 40
0.38
  9
$DIMRND
 40
0.0
  9
$DIMDLE
 40
0.0
  9
$DIMEXE
 40
0.18
  9
$DIMTP
 40
0.0
  9
$DIMTM
 40
0.0
  9
$DIMTXT
 40
0.18
  9
$DIMCEN
 40
0.09
  9
$DIMTSZ
 40
0.0
  9
$DIMTOL
 70
     0
  9
$DIMLIM
 70
     0
  9
$DIMTIH
 70
     1
  9
$DIMTOH
 70
     1
  9
$DIMSE1
 70
     0
  9
$DIMSE2
 70
     0
  9
$DIMTAD
 70
     0
  9
$DIMZIN
 70
     0
  9
$DIMBLK
  1

  9
$DIMASO
 70
     1
  9
$DIMSHO
 70
     1
  9
$DIMPOST
  1

  9
$DIMAPOST
  1

  9
$DIMALT
 70
     0
  9
$DIMALTD
 70
     2
  9
$DIMALTF
 40
25.4
  9
$DIMLFAC
 40
1.0
  9
$DIMTOFL
 70
     0
  9
$DIMTVP
 40
0.0
  9
$DIMTIX
 70
     0
  9
$DIMSOXD
 70
     0
  9
$DIMSAH
 70
     0
  9
$DIMBLK1
  1

  9
$DIMBLK2
  1

  9
$DIMSTYLE
  2
Standard
  9
$DIMCLRD
 70
     0
  9
$DIMCLRE
 70
     0
  9
$DIMCLRT
 70
     0
  9
$DIMTFAC
 40
1.0
  9
$DIMGAP
 40
0.09
  9
$DIMJUST
 70
     0
  9
$DIMSD1
 70
     0
  9
$DIMSD2
 70
     0
  9
$DIMTOLJ
 70
     1
  9
$DIMTZIN
 70
     0
  9
$DIMALTZ
 70
     0
  9
$DIMALTTZ
 70
     0
  9
$DIMUPT
 70
     0
  9
$DIMDEC
 70
     4
  9
$DIMTDEC
 70
     4
  9
$DIMALTU
 70
     2
  9
$DIMALTTD
 70
     2
  9
$DIMTXSTY
  7
Standard
  9
$DIMAUNIT
 70
     0
  9
$DIMADEC
 70
     0
  9
$DIMALTRND
 40
0.0
  9
$DIMAZIN
 70
     0
  9
$DIMDSEP
 70
    46
  9
$DIMATFIT
 70
     3
  9
$DIMFRAC
 70
     0
  9
$DIMLDRBLK
  1

  9
$DIMLUNIT
 70
     2
  9
$DIMLWD
 70
    -2
  9
$DIMLWE
 70
    -2
  9
$DIMTMOVE
 70
     0
  9
$DIMFXL
 40
1.0
  9
$DIMFXLON
 70
     0
  9
$DIMJOGANG
 40
0.7853981633974483
  9
$DIMTFILL
 70
     0
  9
$DIMTFILLCLR
 70
     0
  9
$DIMARCSYM
 70
     0
  9
$DIMLTYPE
  6

  9
$DIMLTEX1
  6

  9
$DIMLTEX2
  6

  9
$LUNITS
 70
     2
  9
$LUPREC
 70
     4
  9
$SKETCHINC
 40
0.1
  9
$FILLETRAD
 40
0.0
  9
$AUNITS
 70
     0
  9
$AUPREC
 70
     0
  9
$MENU
  1
.
  9
$ELEVATION
 40
0.0
  9
$PELEVATION
 40
0.0
  9
$THICKNESS
 40
0.0
  9
$LIMCHECK
 70
     0
  9
$CHAMFERA
 40
0.0
  9
$CHAMFERB
 40
0.0
  9
$CHAMFERC
 40
0.0
  9
$CHAMFERD
 40
0.0
  9
$SKPOLY
 70
     0
  9
$TDCREATE
 40
2455036.644096493
  9
$TDUCREATE
 40
2455036.144096494
  9
$TDUPDATE
 40
2455036.644096493
  9
$TDUUPDATE
 40
2455036.144096494
  9
$TDINDWG
 40
0.0000128356
  9
$TDUSRTIMER
 40
0.0000128356
  9
$USRTIMER
 70
     1
  9
$ANGBASE
 50
0.0
  9
$ANGDIR
 70
     0
  9
$PDMODE
 70
     0
  9
$PDSIZE
 40
0.0
  9
$PLINEWID
 40
0.0
  9
$SPLFRAME
 70
     0
  9
$SPLINETYPE
 70
     6
  9
$SPLINESEGS
 70
     8
  9
$HANDSEED
  5
201
  9
$SURFTAB1
 70
     6
  9
$SURFTAB2
 70
     6
  9
$SURFTYPE
 70
     6
  9
$SURFU
 70
     6
  9
$SURFV
 70
     6
  9
$UCSBASE
  2

  9
$UCSNAME
  2

  9
$UCSORG
 10
0.0
 20
0.0
 30
0.0
  9
$UCSXDIR
 10
1.0
 20
0.0
 30
0.0
  9
$UCSYDIR
 10
0.0
 20
1.0
 30
0.0
  9
$UCSORTHOREF
  2

  9
$UCSORTHOVIEW
 70
     0
  9
$UCSORGTOP
 10
0.0
 20
0.0
 30
0.0
  9
$UCSORGBOTTOM
 10
0.0
 20
0.0
 30
0.0
  9
$UCSORGLEFT
 10
0.0
 20
0.0
 30
0.0
  9
$UCSORGRIGHT
 10
0.0
 20
0.0
 30
0.0
  9
$UCSORGFRONT
 10
0.0
 20
0.0
 30
0.0
  9
$UCSORGBACK
 10
0.0
 20
0.0
 30
0.0
  9
$PUCSBASE
  2

  9
$PUCSNAME
  2

  9
$PUCSORG
 10
0.0
 20
0.0
 30
0.0
  9
$PUCSXDIR
 10
1.0
 20
0.0
 30
0.0
  9
$PUCSYDIR
 10
0.0
 20
1.0
 30
0.0
  9
$PUCSORTHOREF
  2

  9
$PUCSORTHOVIEW
 70
     0
  9
$PUCSORGTOP
 10
0.0
 20
0.0
 30
0.0
  9
$PUCSORGBOTTOM
 10
0.0
 20
0.0
 30
0.0
  9
$PUCSORGLEFT
 10
0.0
 20
0.0
 30
0.0
  9
$PUCSORGRIGHT
 10
0.0
 20
0.0
 30
0.0
  9
$PUCSORGFRONT
 10
0.0
 20
0.0
 30
0.0
  9
$PUCSORGBACK
 10
0.0
 20
0.0
 30
0.0
  9
$USERI1
 70
     0
  9
$USERI2
 70
     0
  9
$USERI3
 70
     0
  9
$USERI4
 70
     0
  9
$USERI5
 70
     0
  9
$USERR1
 40
0.0
  9
$USERR2
 40
0.0
  9
$USERR3
 40
0.0
  9
$USERR4
 40
0.0
  9
$USERR5
 40
0.0
  9
$WORLDVIEW
 70
     1
  9
$SHADEDGE
 70
     3
  9
$SHADEDIF
 70
    70
  9
$TILEMODE
 70
     0
  9
$MAXACTVP
 70
    64
  9
$PINSBASE
 10
0.0
 20
0.0
 30
0.0
  9
$PLIMCHECK
 70
     0
  9
$PEXTMIN
 10
2.792850708836863
 20
84.97857142855746
 30
0.0
  9
$PEXTMAX
 10
299.7928507088368
 20
294.9999999999861
 30
0.0
  9
$PLIMMIN
 10
0.0
 20
0.0
  9
$PLIMMAX
 10
12.0
 20
9.0
  9
$UNITMODE
 70
     0
  9
$VISRETAIN
 70
     1
  9
$PLINEGEN
 70
     0
  9
$PSLTSCALE
 70
     1
  9
$TREEDEPTH
 70
  3020
  9
$CMLSTYLE
  2
Standard
  9
$CMLJUST
 70
     0
  9
$CMLSCALE
 40
1.0
  9
$PROXYGRAPHICS
 70
     1
  9
$MEASUREMENT
 70
     1
  9
$CELWEIGHT
370
    -1
  9
$ENDCAPS
280
     0
  9
$JOINSTYLE
280
     0
  9
$LWDISPLAY
290
     0
  9
$INSUNITS
 70
     4
  9
$HYPERLINKBASE
  1

  9
$STYLESHEET
  1

  9
$XEDIT
290
     1
  9
$CEPSNTYPE
380
     0
  9
$PSTYLEMODE
290
     1
  9
$FINGERPRINTGUID
  2
{39106DC1-D49D-49B4-A268-80D64FC33D0E}
  9
$VERSIONGUID
  2
{717B2F9A-8E94-4298-97F0-3BD2F74AD228}
  9
$EXTNAMES
290
     1
  9
$PSVPSCALE
 40
0.0
  9
$OLESTARTUP
290
     0
  9
$SORTENTS
280
   127
  9
$INDEXCTL
280
     0
  9
$HIDETEXT
280
     1
  9
$XCLIPFRAME
290
     0
  9
$HALOGAP
280
     0
  9
$OBSCOLOR
 70
   257
  9
$OBSLTYPE
280
     0
  9
$INTERSECTIONDISPLAY
280
     0
  9
$INTERSECTIONCOLOR
 70
   257
  9
$DIMASSOC
280
     2
  9
$PROJECTNAME
  1

  9
$CAMERADISPLAY
290
     0
  9
$LENSLENGTH
 40
50.0
  9
$CAMERAHEIGHT
 40
0.0
  9
$STEPSPERSEC
 40
2.0
  9
$STEPSIZE
 40
6.0
  9
$3DDWFPREC
 40
2.0
  9
$PSOLWIDTH
 40
0.25
  9
$PSOLHEIGHT
 40
4.0
  9
$LOFTANG1
 40
1.570796326794896
  9
$LOFTANG2
 40
1.570796326794896
  9
$LOFTMAG1
 40
0.0
  9
$LOFTMAG2
 40
0.0
  9
$LOFTPARAM
 70
     7
  9
$LOFTNORMALS
280
     1
  9
$LATITUDE
 40
37.795
  9
$LONGITUDE
 40
-122.394
  9
$NORTHDIRECTION
 40
0.0
  9
$TIMEZONE
 70
 -8000
  9
$LIGHTGLYPHDISPLAY
280
     1
  9
$TILEMODELIGHTSYNCH
280
     1
  9
$CMATERIAL
347
11
  9
$SOLIDHIST
280
     1
  9
$SHOWHIST
280
     1
  9
$DWFFRAME
280
     2
  9
$DGNFRAME
280
     0
  9
$REALWORLDSCALE
290
     1
  9
$INTERFERECOLOR
 62
     1
  9
$INTERFEREOBJVS
345
33
  9
$INTERFEREVPVS
346
30
  9
$CSHADOW
280
     0
  9
$SHADOWPLANELOCATION
 40
0.0
  0
ENDSEC
  0
SECTION
  2
CLASSES
  0
CLASS
  1
ACDBDICTIONARYWDFLT
  2
AcDbDictionaryWithDefault
  3
ObjectDBX Classes
 90
        0
 91
        1
280
     0
281
     0
  0
CLASS
  1
MATERIAL
  2
AcDbMaterial
  3
ObjectDBX Classes
 90
     1153
 91
        3
280
     0
281
     0
  0
CLASS
  1
VISUALSTYLE
  2
AcDbVisualStyle
  3
ObjectDBX Classes
 90
     4095
 91
       16
280
     0
281
     0
  0
CLASS
  1
SCALE
  2
AcDbScale
  3
ObjectDBX Classes
 90
     1153
 91
       33
280
     0
281
     0
  0
CLASS
  1
TABLESTYLE
  2
AcDbTableStyle
  3
ObjectDBX Classes
 90
     4095
 91
        1
280
     0
281
     0
  0
CLASS
  1
MLEADERSTYLE
  2
AcDbMLeaderStyle
  3
ACDB_MLEADERSTYLE_CLASS
 90
     4095
 91
        1
280
     0
281
     0
  0
CLASS
  1
IMAGEDEF
  2
AcDbRasterImageDef
  3
ISM
 90
        0
 91
        2
280
     0
281
     0
  0
CLASS
  1
IMAGE
  2
AcDbRasterImage
  3
ISM
 90
     2175
 91
        2
280
     0
281
     1
  0
CLASS
  1
SORTENTSTABLE
  2
AcDbSortentsTable
  3
ObjectDBX Classes
 90
        0
 91
        1
280
     0
281
     0
  0
CLASS
  1
DICTIONARYVAR
  2
AcDbDictionaryVar
  3
ObjectDBX Classes
 90
        0
 91
        3
280
     0
281
     0
  0
CLASS
  1
CELLSTYLEMAP
  2
AcDbCellStyleMap
  3
ObjectDBX Classes
 90
     1152
 91
        1
280
     0
281
     0
  0
ENDSEC
  0
SECTION
  2
TABLES
  0
TABLE
  2
VPORT
  5
8
330
0
100
AcDbSymbolTable
 70
     1
  0
VPORT
  5
5F
330
8
100
AcDbSymbolTableRecord
100
AcDbViewportTableRecord
  2
*Active
 70
     0
 10
0.0
 20
0.0
 11
1.0
 21
1.0
 12
3405.140113542097
 22
2604.026920798346
 13
0.0
 23
0.0
 14
1.0
 24
1.0
 15
0.0
 25
0.0
 16
0.0
 26
0.0
 36
1.0
 17
0.0
 27
0.0
 37
0.0
 40
817.0933280129807
 41
1.784246047768232
 42
50.0
 43
0.0
 44
0.0
 50
0.0
 51
0.0
 71
     0
 72
   100
 73
     1
 74
     1
 75
     0
 76
     0
 77
     0
 78
     0
281
     0
 65
     1
110
0.0
120
0.0
130
0.0
111
1.0
121
0.0
131
0.0
112
0.0
122
1.0
132
0.0
 79
     0
146
0.0
 60
     3
 61
     5
292
     1
282
     1
141
0.0
142
0.0
 63
   250
421
  3355443
  0
ENDTAB
  0
TABLE
  2
LTYPE
  5
5
330
0
100
AcDbSymbolTable
 70
     4
  0
LTYPE
  5
63
330
5
100
AcDbSymbolTableRecord
100
AcDbLinetypeTableRecord
  2
ByBlock
 70
     0
  3

 72
    65
 73
     0
 40
0.0
  0
LTYPE
  5
64
330
5
100
AcDbSymbolTableRecord
100
AcDbLinetypeTableRecord
  2
ByLayer
 70
     0
  3

 72
    65
 73
     0
 40
0.0
  0
LTYPE
  5
65
330
5
100
AcDbSymbolTableRecord
100
AcDbLinetypeTableRecord
  2
Continuous
 70
     0
  3
Solid line
 72
    65
 73
     0
 40
0.0
  0
LTYPE
  5
7F
330
5
100
AcDbSymbolTableRecord
100
AcDbLinetypeTableRecord
  2
Aligning Line
 70
     0
  3

 72
    65
 73
     2
 40
6.350000000000001
 49
3.175
 74
     0
 49
-3.175
 74
     0
  0
LTYPE
  5
F8
330
5
100
AcDbSymbolTableRecord
100
AcDbLinetypeTableRecord
  2
Dash
 70
     0
  3

 72
    65
 73
     2
 40
6.35
 49
3.175
 74
     0
 49
-3.175
 74
     0
  0
LTYPE
  5
117
330
5
100
AcDbSymbolTableRecord
100
AcDbLinetypeTableRecord
  2
Hidden
 70
     0
  3

 72
    65
 73
     2
 40
7.143750000000001
 49
4.762500000000001
 74
     0
 49
-2.38125
 74
     0
  0
ENDTAB
  0
TABLE
  2
LAYER
  5
2
330
0
100
AcDbSymbolTable
 70
     7
  0
LAYER
  5
5C
330
2
100
AcDbSymbolTableRecord
100
AcDbLayerTableRecord
  2
0
 70
     0
 62
     7
  6
Continuous
370
    -3
390
F
347
21
  0
LAYER
  5
80
330
2
100
AcDbSymbolTableRecord
100
AcDbLayerTableRecord
  2
G-----PAP
 70
     0
 62
     8
  6
Aligning Line
370
    18
390
F
347
21
  0
LAYER
  5
84
330
2
100
AcDbSymbolTableRecord
100
AcDbLayerTableRecord
  2
A-DETLGEM
 70
     0
 62
     3
  6
Continuous
370
    18
390
F
347
21
  0
LAYER
  5
8A
330
2
100
AcDbSymbolTableRecord
100
AcDbLayerTableRecord
  2
A-----NPP
 70
     0
 62
     3
  6
Continuous
370
    35
390
F
347
21
  0
LAYER
  5
158
330
2
100
AcDbSymbolTableRecord
100
AcDbLayerTableRecord
  2
A-----TEP
 70
     0
 62
     2
  6
Continuous
370
     9
390
F
347
21
  0
LAYER
  5
162
330
2
100
AcDbSymbolTableRecord
100
AcDbLayerTableRecord
  2
A-----NOP
 70
     0
 62
     2
  6
Continuous
370
     9
390
F
347
21
  0
LAYER
  5
1B6
330
2
100
AcDbSymbolTableRecord
100
AcDbLayerTableRecord
  2
G-----TTP
 70
     0
 62
     6
  6
Continuous
370
     9
390
F
347
21
  0
ENDTAB
  0
TABLE
  2
STYLE
  5
3
330
0
100
AcDbSymbolTable
 70
     2
  0
STYLE
  5
5D
330
3
100
AcDbSymbolTableRecord
100
AcDbTextStyleTableRecord
  2
Standard
 70
     0
 40
0.0
 41
1.0
 50
0.0
 71
     0
 42
0.2
  3
txt
  4

  0
STYLE
  5
62
330
3
100
AcDbSymbolTableRecord
100
AcDbTextStyleTableRecord
  2
Annotative
 70
     0
 40
0.0
 41
1.0
 50
0.0
 71
     0
 42
0.2
  3

  4

1001
AcadAnnotative
1000
AnnotativeData
1002
{
1070
     1
1070
     1
1002
}
  0
ENDTAB
  0
TABLE
  2
VIEW
  5
6
330
0
100
AcDbSymbolTable
 70
     0
  0
ENDTAB
  0
TABLE
  2
UCS
  5
7
330
0
100
AcDbSymbolTable
 70
     0
  0
ENDTAB
  0
TABLE
  2
APPID
  5
9
330
0
100
AcDbSymbolTable
 70
     5
  0
APPID
  5
5E
330
9
100
AcDbSymbolTableRecord
100
AcDbRegAppTableRecord
  2
ACAD
 70
     0
  0
APPID
  5
66
330
9
100
AcDbSymbolTableRecord
100
AcDbRegAppTableRecord
  2
AcadAnnotative
 70
     0
  0
APPID
  5
70
330
9
100
AcDbSymbolTableRecord
100
AcDbRegAppTableRecord
  2
ACAD_MLEADERVER
 70
     0
  0
APPID
  5
7D
330
9
100
AcDbSymbolTableRecord
100
AcDbRegAppTableRecord
  2
ACCURENDER3
 70
     0
  0
APPID
  5
7E
330
9
100
AcDbSymbolTableRecord
100
AcDbRegAppTableRecord
  2
REVIT
 70
     0
  0
ENDTAB
  0
TABLE
  2
DIMSTYLE
  5
A
330
0
100
AcDbSymbolTable
 70
     2
100
AcDbDimStyleTable
 71
     0
  0
DIMSTYLE
105
60
330
A
100
AcDbSymbolTableRecord
100
AcDbDimStyleTableRecord
  2
Standard
 70
     0
340
5D
  0
DIMSTYLE
105
61
330
A
100
AcDbSymbolTableRecord
100
AcDbDimStyleTableRecord
  2
Annotative
 70
     0
340
5D
1001
AcadAnnotative
1000
AnnotativeData
1002
{
1070
     1
1070
     1
1002
}
  0
ENDTAB
  0
TABLE
  2
BLOCK_RECORD
  5
1
330
0
100
AcDbSymbolTable
 70
     9
  0
BLOCK_RECORD
  5
75
102
{ACAD_XDICTIONARY
360
1F5
102
}
330
1
100
AcDbSymbolTableRecord
100
AcDbBlockTableRecord
  2
*Model_Space
340
78
 70
     0
280
     1
281
     0
  0
BLOCK_RECORD
  5
71
330
1
100
AcDbSymbolTableRecord
100
AcDbBlockTableRecord
  2
*Paper_Space
340
74
 70
     0
280
     1
281
     0
  0
BLOCK_RECORD
  5
79
330
1
100
AcDbSymbolTableRecord
100
AcDbBlockTableRecord
  2
*Paper_Space0
340
7C
 70
     0
280
     1
281
     0
  0
BLOCK_RECORD
  5
CF
330
1
100
AcDbSymbolTableRecord
100
AcDbBlockTableRecord
  2
tmber 100_50 - tmber 100_50_1-0-Detail 4
340
0
102
{BLKREFS
331
E1
102
}
 70
     0
280
     1
281
     0
  0
BLOCK_RECORD
  5
E2
330
1
100
AcDbSymbolTableRecord
100
AcDbBlockTableRecord
  2
ply2 20_ - ply 20__1-5-Detail 4
340
0
102
{BLKREFS
331
F6
102
}
 70
     0
280
     1
281
     0
  0
BLOCK_RECORD
  5
FD
330
1
100
AcDbSymbolTableRecord
100
AcDbBlockTableRecord
  2
fascia board2_ng_ 200_30 - tmber 100_50_1-4-Detail 4
340
0
102
{BLKREFS
331
108
102
}
 70
     0
280
     1
281
     0
  0
BLOCK_RECORD
  5
119
330
1
100
AcDbSymbolTableRecord
100
AcDbBlockTableRecord
  2
nail sp - nail sp_1-1-Detail 4
340
0
102
{BLKREFS
331
132
331
133
331
156
102
}
 70
     0
280
     1
281
     0
  0
BLOCK_RECORD
  5
134
330
1
100
AcDbSymbolTableRecord
100
AcDbBlockTableRecord
  2
Break Line1 - M_Break Line_1-3-Detail 4
340
0
102
{BLKREFS
331
13C
102
}
 70
     0
280
     1
281
     0
  0
BLOCK_RECORD
  5
13D
330
1
100
AcDbSymbolTableRecord
100
AcDbBlockTableRecord
  2
Break Line1 - M_Break Line_1-2-Detail 4
340
0
102
{BLKREFS
331
145
102
}
 70
     0
280
     1
281
     0
  0
BLOCK_RECORD
  5
169
330
1
100
AcDbSymbolTableRecord
100
AcDbBlockTableRecord
  2
M_Label Annotation - M_Label Annotation_1-142258-Detail 4
340
0
102
{BLKREFS
331
16C
331
173
331
17A
331
181
331
188
331
18F
331
196
331
19D
331
1A4
331
1AB
331
1B3
102
}
 70
     0
280
     1
281
     0
  0
BLOCK_RECORD
  5
1B7
330
1
100
AcDbSymbolTableRecord
100
AcDbBlockTableRecord
  2
A4 SPS - A4 sps_0-163380-ROOF_WALL RIDGE-CROSS SECTION
340
0
102
{BLKREFS
331
1E8
102
}
 70
     0
280
     1
281
     0
  0
ENDTAB
  0
ENDSEC
  0
SECTION
  2
BLOCKS
  0
BLOCK
  5
76
330
75
100
AcDbEntity
  8
0
100
AcDbBlockBegin
  2
*Model_Space
 70
     0
 10
0.0
 20
0.0
 30
0.0
  3
*Model_Space
  1

  0
ENDBLK
  5
77
330
75
100
AcDbEntity
  8
0
100
AcDbBlockEnd
  0
BLOCK
  5
72
330
71
100
AcDbEntity
 67
     1
  8
0
100
AcDbBlockBegin
  2
*Paper_Space
 70
     0
 10
0.0
 20
0.0
 30
0.0
  3
*Paper_Space
  1

  0
ENDBLK
  5
73
330
71
100
AcDbEntity
 67
     1
  8
0
100
AcDbBlockEnd
  0
BLOCK
  5
7A
330
79
100
AcDbEntity
 67
     1
  8
0
100
AcDbBlockBegin
  2
*Paper_Space0
 70
     0
 10
0.0
 20
0.0
 30
0.0
  3
*Paper_Space0
  1

  0
ENDBLK
  5
7B
330
79
100
AcDbEntity
 67
     1
  8
0
100
AcDbBlockEnd
  0
BLOCK
  5
DF
330
CF
100
AcDbEntity
  8
0
100
AcDbBlockBegin
  2
tmber 100_50 - tmber 100_50_1-0-Detail 4
 70
     0
 10
0.0
 20
0.0
 30
0.0
  3
tmber 100_50 - tmber 100_50_1-0-Detail 4
  1

  0
HATCH
  5
D9
330
CF
100
AcDbEntity
  8
A-DETLGEM
100
AcDbHatch
 10
0.0
 20
0.0
 30
0.0
210
0.0
220
0.0
230
1.0
  2
FP1_2
 70
     0
 71
     0
 91
        1
 92
        0
 93
        9
 72
     1
 10
50.0
 20
100.0000000000003
 11
0.0
 21
100.0000000000003
 72
     1
 10
0.0
 20
100.0000000000003
 11
0.0
 21
96.16788802208008
 72
     1
 10
0.0
 20
96.16788802208008
 11
24.22382889759397
 21
95.47772350539855
 72
     1
 10
24.22382889759397
 20
95.47772350539855
 11
25.85842515306322
 21
93.74725264949587
 72
     1
 10
25.85842515306322
 20
93.74725264949587
 11
23.83182477647808
 21
92.15117130035638
 72
     1
 10
23.83182477647808
 20
92.15117130035638
 11
0.00000000000027
 21
92.83016717248065
 72
     1
 10
0.0000000000002707
 20
92.83016717248065
 11
0.0
 21
0.0
 72
     1
 10
0.0
 20
0.0
 11
50.0
 21
0.0000000000008122
 72
     1
 10
50.0
 20
0.0000000000008122
 11
50.0
 21
100.0000000000003
 97
        0
 75
     0
 76
     2
 52
0.0
 41
1.0
 77
     0
 78
     1
 53
100.0
 43
329.085
 44
-4326.327999999999
 45
-24.6201938253052
 46
-4.341204441673257
 79
     0
 98
        1
 10
0.0
 20
0.0
1001
REVIT
1002
{
1070
     3
1000
113602
1002
}
  0
LINE
  5
DA
330
CF
100
AcDbEntity
  8
A-DETLGEM
100
AcDbLine
 10
50.0
 20
100.0
 30
0.0
 11
0.0
 21
100.0
 31
0.0
  0
LINE
  5
DB
330
CF
100
AcDbEntity
  8
A-DETLGEM
100
AcDbLine
 10
0.0
 20
100.0
 30
0.0
 11
0.0
 21
96.16788802207997
 31
0.0
  0
LINE
  5
DC
330
CF
100
AcDbEntity
  8
A-DETLGEM
100
AcDbLine
 10
0.0
 20
92.83016717248075
 30
0.0
 11
0.0
 21
0.0
 31
0.0
  0
LINE
  5
DD
330
CF
100
AcDbEntity
  8
A-DETLGEM
100
AcDbLine
 10
0.0
 20
0.0
 30
0.0
 11
50.0
 21
0.0
 31
0.0
  0
LINE
  5
DE
330
CF
100
AcDbEntity
  8
A-DETLGEM
100
AcDbLine
 10
50.0
 20
0.0
 30
0.0
 11
50.0
 21
100.0
 31
0.0
  0
ENDBLK
  5
E0
330
CF
100
AcDbEntity
  8
0
100
AcDbBlockEnd
  0
BLOCK
  5
F4
330
E2
100
AcDbEntity
  8
0
100
AcDbBlockBegin
  2
ply2 20_ - ply 20__1-5-Detail 4
 70
     0
 10
0.0
 20
0.0
 30
0.0
  3
ply2 20_ - ply 20__1-5-Detail 4
  1

  0
LINE
  5
E3
330
E2
100
AcDbEntity
  8
A-DETLGEM
100
AcDbLine
 10
462.8615233617232
 20
11.94621723361908
 30
0.0
 11
492.2295054757212
 21
11.94621723361908
 31
0.0
  0
LINE
  5
E4
330
E2
100
AcDbEntity
  8
A-DETLGEM
100
AcDbLine
 10
319.7017874456455
 20
11.94621723361908
 30
0.0
 11
459.5238025121245
 21
11.94621723361908
 31
0.0
  0
LINE
  5
E5
330
E2
100
AcDbEntity
  8
A-DETLGEM
100
AcDbLine
 10
183.3546686397113
 20
11.94621723361908
 30
0.0
 11
316.3640665960465
 21
11.94621723361908
 31
0.0
  0
LINE
  5
E6
330
E2
100
AcDbEntity
  8
A-DETLGEM
100
AcDbLine
 10
15.20628029469777
 20
11.94621723361908
 30
0.0
 11
180.0133107683765
 21
11.94621723361908
 31
0.0
  0
LINE
  5
E7
330
E2
100
AcDbEntity
  8
A-DETLGEM
100
AcDbLine
 10
179.3596390223971
 20
0.0
 30
0.0
 11
6.841448934623062
 21
0.0
 31
0.0
  0
LINE
  5
E8
330
E2
100
AcDbEntity
  8
A-DETLGEM
100
AcDbLine
 10
316.0237052403667
 20
0.0
 30
0.0
 11
182.7009968937316
 21
0.0
 31
0.0
  0
LINE
  5
E9
330
E2
100
AcDbEntity
  8
A-DETLGEM
100
AcDbLine
 10
459.1834411564438
 20
0.0
 30
0.0
 11
319.3614260899654
 21
0.0
 31
0.0
  0
LINE
  5
EA
330
E2
100
AcDbEntity
  8
A-DETLGEM
100
AcDbLine
 10
492.2295054757212
 20
0.0
 30
0.0
 11
462.5211620060425
 21
0.0
 31
0.0
  0
LINE
  5
EB
330
E2
100
AcDbEntity
  8
A-DETLGEM
100
AcDbLine
 10
492.2295054757212
 20
11.94621723361908
 30
0.0
 11
492.2295054757212
 21
0.0
 31
0.0
  0
LINE
  5
EC
330
E2
100
AcDbEntity
  8
A-DETLGEM
100
AcDbLine
 10
462.7515115585361
 20
8.084953675936002
 30
0.0
 11
492.2295054757212
 21
8.084953675935908
 31
0.0
  0
LINE
  5
ED
330
E2
100
AcDbEntity
  8
A-DETLGEM
100
AcDbLine
 10
319.5917756424585
 20
8.084953675936464
 30
0.0
 11
459.4137907089368
 21
8.084953675936013
 31
0.0
  0
LINE
  5
EE
330
E2
100
AcDbEntity
  8
A-DETLGEM
100
AcDbLine
 10
183.1433884627245
 20
8.084953675936906
 30
0.0
 11
316.2540547928598
 21
8.084953675936477
 31
0.0
  0
LINE
  5
EF
330
E2
100
AcDbEntity
  8
A-DETLGEM
100
AcDbLine
 10
12.50259444459332
 20
8.084953675937457
 30
0.0
 11
179.8020305913897
 21
8.084953675936917
 31
0.0
  0
LINE
  5
F0
330
E2
100
AcDbEntity
  8
A-DETLGEM
100
AcDbLine
 10
462.6355721086123
 20
4.015637839629146
 30
0.0
 11
492.2295054757212
 21
4.01563783962905
 31
0.0
  0
LINE
  5
F1
330
E2
100
AcDbEntity
  8
A-DETLGEM
100
AcDbLine
 10
319.4758361925348
 20
4.015637839629608
 30
0.0
 11
459.2978512590136
 21
4.015637839629157
 31
0.0
  0
LINE
  5
F2
330
E2
100
AcDbEntity
  8
A-DETLGEM
100
AcDbLine
 10
182.9207241049919
 20
4.015637839630049
 30
0.0
 11
316.1381153429361
 21
4.015637839629619
 31
0.0
  0
LINE
  5
F3
330
E2
100
AcDbEntity
  8
A-DETLGEM
100
AcDbLine
 10
9.65322882065393
 20
4.01563783963061
 30
0.0
 11
179.5793662336573
 21
4.01563783963006
 31
0.0
  0
ENDBLK
  5
F5
330
E2
100
AcDbEntity
  8
0
100
AcDbBlockEnd
  0
BLOCK
  5
106
330
FD
100
AcDbEntity
  8
0
100
AcDbBlockBegin
  2
fascia board2_ng_ 200_30 - tmber 100_50_1-4-Detail 4
 70
     0
 10
0.0
 20
0.0
 30
0.0
  3
fascia board2_ng_ 200_30 - tmber 100_50_1-4-Detail 4
  1

  0
LINE
  5
FE
330
FD
100
AcDbEntity
  8
A-DETLGEM
100
AcDbLine
 10
30.0
 20
200.0000000000119
 30
0.0
 11
0.0
 21
200.0000000000119
 31
0.0
  0
LINE
  5
FF
330
FD
100
AcDbEntity
  8
A-DETLGEM
100
AcDbLine
 10
0.0
 20
200.0000000000119
 30
0.0
 11
0.0
 21
0.0
 31
0.0
  0
LINE
  5
100
330
FD
100
AcDbEntity
  8
A-DETLGEM
100
AcDbLine
 10
0.0
 20
0.0
 30
0.0
 11
30.0
 21
0.0
 31
0.0
  0
LINE
  5
101
330
FD
100
AcDbEntity
  8
A-DETLGEM
100
AcDbLine
 10
30.0
 20
0.0
 30
0.0
 11
30.0
 21
9.999999999997692
 31
0.0
  0
LINE
  5
102
330
FD
100
AcDbEntity
  8
A-DETLGEM
100
AcDbLine
 10
29.99999999999318
 20
9.999999999997726
 30
0.0
 11
29.99999999999319
 21
12.55672383538904
 31
0.0
  0
LINE
  5
103
330
FD
100
AcDbEntity
  8
A-DETLGEM
100
AcDbLine
 10
29.99999999999318
 20
12.55672383538904
 30
0.0
 11
29.9999999999932
 21
19.99999999999545
 31
0.0
  0
LINE
  5
104
330
FD
100
AcDbEntity
  8
A-DETLGEM
100
AcDbLine
 10
30.0
 20
19.99999999999545
 30
0.0
 11
30.0
 21
200.0000000000119
 31
0.0
  0
HATCH
  5
105
330
FD
100
AcDbEntity
  8
A-DETLGEM
100
AcDbHatch
 10
0.0
 20
0.0
 30
0.0
210
0.0
220
0.0
230
1.0
  2
FP1_3
 70
     0
 71
     0
 91
        1
 92
        0
 93
        7
 72
     1
 10
30.0
 20
200.0000000000119
 11
0.0
 21
200.0000000000119
 72
     1
 10
0.0
 20
200.0000000000119
 11
0.0
 21
0.0
 72
     1
 10
0.0
 20
0.0
 11
30.0
 21
0.0
 72
     1
 10
30.0
 20
0.0
 11
30.0
 21
9.999999999997692
 72
     1
 10
29.99999999999318
 20
9.999999999997726
 11
29.99999999999319
 21
12.55672383538904
 72
     1
 10
29.99999999999318
 20
12.55672383538904
 11
29.9999999999932
 21
19.99999999999545
 72
     1
 10
30.0
 20
19.99999999999545
 11
30.0
 21
200.0000000000119
 97
        0
 75
     0
 76
     2
 52
0.0
 41
1.0
 77
     0
 78
     1
 53
45.0
 43
-3520.670000000001
 44
-2722.004
 45
-17.67766952966368
 46
17.67766952966369
 79
     0
 98
        1
 10
0.0
 20
0.0
1001
REVIT
1002
{
1070
     3
1000
122107
1002
}
  0
ENDBLK
  5
107
330
FD
100
AcDbEntity
  8
0
100
AcDbBlockEnd
  0
BLOCK
  5
130
330
119
100
AcDbEntity
  8
0
100
AcDbBlockBegin
  2
nail sp - nail sp_1-1-Detail 4
 70
     0
 10
0.0
 20
0.0
 30
0.0
  3
nail sp - nail sp_1-1-Detail 4
  1

  0
LINE
  5
11A
330
119
100
AcDbEntity
  8
A-DETLGEM
100
AcDbLine
 10
93.29474221601016
 20
101.7301492685655
 30
0.0
 11
95.55345240452476
 21
101.7301492685655
 31
0.0
  0
LINE
  5
11B
330
119
100
AcDbEntity
  8
A-DETLGEM
100
AcDbLine
 10
95.55345240452476
 20
101.7301492685655
 30
0.0
 11
95.55345240452476
 21
104.0804720895462
 31
0.0
  0
LINE
  5
11C
330
119
100
AcDbEntity
  8
A-DETLGEM
100
AcDbLine
 10
95.55345240452476
 20
104.0804720895462
 30
0.0
 11
95.55345240452476
 21
108.2464910352092
 31
0.0
  0
LINE
  5
11E
330
119
100
AcDbEntity
  8
A-DETLGEM
100
AcDbLine
 10
95.55345240452478
 20
111.5828580197314
 30
0.0
 11
95.55345240452478
 21
117.742975413612
 31
0.0
  0
LINE
  5
11F
330
119
100
AcDbEntity
  8
A-DETLGEM
100
AcDbLine
 10
95.55345240452478
 20
117.742975413612
 30
0.0
 11
93.29474221601017
 21
117.742975413612
 31
0.0
  0
LINE
  5
120
330
119
100
AcDbEntity
  8
A-DETLGEM
100
AcDbLine
 10
93.29474221601017
 20
117.742975413612
 30
0.0
 11
93.29474221601016
 21
101.7301492685655
 31
0.0
  0
HATCH
  5
121
330
119
100
AcDbEntity
  8
A-DETLGEM
100
AcDbHatch
 10
0.0
 20
0.0
 30
0.0
210
0.0
220
0.0
230
1.0
  2
SOLID
 70
     1
 71
     0
 91
        1
 92
        0
 93
        7
 72
     1
 10
93.29474221601016
 20
101.7301492685655
 11
95.55345240452476
 21
101.7301492685655
 72
     1
 10
95.55345240452476
 20
101.7301492685655
 11
95.55345240452476
 21
104.0804720895462
 72
     1
 10
95.55345240452476
 20
104.0804720895462
 11
95.55345240452476
 21
108.2464910352092
 72
     1
 10
95.55345240452476
 20
108.2464910352092
 11
95.55345240452478
 21
111.5828580197314
 72
     1
 10
95.55345240452478
 20
111.5828580197314
 11
95.55345240452478
 21
117.742975413612
 72
     1
 10
95.55345240452478
 20
117.742975413612
 11
93.29474221601017
 21
117.742975413612
 72
     1
 10
93.29474221601017
 20
117.742975413612
 11
93.29474221601016
 21
101.7301492685655
 97
        0
 75
     0
 76
     1
 98
        1
 10
0.0
 20
0.0
450
        0
451
        0
460
0.0
461
0.0
452
        0
462
0.0
453
        0
470

1001
REVIT
1002
{
1070
     3
1000
129614
1002
}
  0
LINE
  5
122
330
119
100
AcDbEntity
  8
A-DETLGEM
100
AcDbLine
 10
151.9694857141748
 20
111.5828580197311
 30
0.0
 11
95.55345240452478
 21
111.5828580197313
 31
0.0
  0
LINE
  5
123
330
119
100
AcDbEntity
  8
A-DETLGEM
100
AcDbLine
 10
95.55345240452478
 20
111.5828580197313
 30
0.0
 11
95.55345240452478
 21
108.2464910352096
 31
0.0
  0
LINE
  5
124
330
119
100
AcDbEntity
  8
A-DETLGEM
100
AcDbLine
 10
95.55345240452478
 20
108.2464910352096
 30
0.0
 11
151.6723794227039
 21
108.2464910352094
 31
0.0
  0
LINE
  5
125
330
119
100
AcDbEntity
  8
A-DETLGEM
100
AcDbLine
 10
151.6723794227039
 20
108.2464910352094
 30
0.0
 11
153.6527020255147
 21
109.8996417083912
 31
0.0
  0
LINE
  5
126
330
119
100
AcDbEntity
  8
A-DETLGEM
100
AcDbLine
 10
153.6527020255147
 20
109.8996417083912
 30
0.0
 11
151.9694857141748
 21
111.5828580197311
 31
0.0
  0
HATCH
  5
127
330
119
100
AcDbEntity
  8
A-DETLGEM
100
AcDbHatch
 10
0.0
 20
0.0
 30
0.0
210
0.0
220
0.0
230
1.0
  2
SOLID
 70
     1
 71
     0
 91
        1
 92
        0
 93
        5
 72
     1
 10
151.9694857141748
 20
111.5828580197311
 11
95.55345240452478
 21
111.5828580197313
 72
     1
 10
95.55345240452478
 20
111.5828580197313
 11
95.55345240452478
 21
108.2464910352096
 72
     1
 10
95.55345240452478
 20
108.2464910352096
 11
151.6723794227039
 21
108.2464910352094
 72
     1
 10
151.6723794227039
 20
108.2464910352094
 11
153.6527020255147
 21
109.8996417083912
 72
     1
 10
153.6527020255147
 20
109.8996417083912
 11
151.9694857141748
 21
111.5828580197311
 97
        0
 75
     0
 76
     1
 98
        1
 10
0.0
 20
0.0
450
        0
451
        0
460
0.0
461
0.0
452
        0
462
0.0
453
        0
470

1001
REVIT
1002
{
1070
     3
1000
129614
1002
}
  0
LINE
  5
128
330
119
100
AcDbEntity
  8
A-DETLGEM
100
AcDbLine
 10
93.29474221601017
 20
117.742975413612
 30
0.0
 11
95.55345240452478
 21
117.742975413612
 31
0.0
1001
REVIT
1002
{
1070
     3
1000
25650
1002
}
  0
LINE
  5
129
330
119
100
AcDbEntity
  8
A-DETLGEM
100
AcDbLine
 10
93.29474221601017
 20
101.7301492685655
 30
0.0
 11
93.29474221601017
 21
117.742975413612
 31
0.0
1001
REVIT
1002
{
1070
     3
1000
25650
1002
}
  0
LINE
  5
12A
330
119
100
AcDbEntity
  8
A-DETLGEM
100
AcDbLine
 10
95.55345240452478
 20
101.7301492685655
 30
0.0
 11
93.29474221601017
 21
101.7301492685655
 31
0.0
1001
REVIT
1002
{
1070
     3
1000
25650
1002
}
  0
LINE
  5
12B
330
119
100
AcDbEntity
  8
A-DETLGEM
100
AcDbLine
 10
95.55345240452478
 20
117.742975413612
 30
0.0
 11
95.55345240452478
 21
101.7301492685655
 31
0.0
1001
REVIT
1002
{
1070
     3
1000
25650
1002
}
  0
LINE
  5
12C
330
119
100
AcDbEntity
  8
A-DETLGEM
100
AcDbLine
 10
95.55345240452478
 20
111.5828580197313
 30
0.0
 11
151.8652786753083
 21
111.5828580197311
 31
0.0
  0
LINE
  5
12D
330
119
100
AcDbEntity
  8
A-DETLGEM
100
AcDbLine
 10
95.55345240452478
 20
108.2464910352096
 30
0.0
 11
151.6723794227039
 21
108.2464910352094
 31
0.0
  0
LINE
  5
12E
330
119
100
AcDbEntity
  8
A-DETLGEM
100
AcDbLine
 10
151.8652786753083
 20
111.5828580197311
 30
0.0
 11
153.7342458053615
 21
109.967713523739
 31
0.0
  0
LINE
  5
12F
330
119
100
AcDbEntity
  8
A-DETLGEM
100
AcDbLine
 10
151.6723794227038
 20
108.2464910352094
 30
0.0
 11
153.7342458053615
 21
109.967713523739
 31
0.0
  0
ENDBLK
  5
131
330
119
100
AcDbEntity
  8
0
100
AcDbBlockEnd
  0
BLOCK
  5
13A
330
134
100
AcDbEntity
  8
0
100
AcDbBlockBegin
  2
Break Line1 - M_Break Line_1-3-Detail 4
 70
     0
 10
0.0
 20
0.0
 30
0.0
  3
Break Line1 - M_Break Line_1-3-Detail 4
  1

  0
LINE
  5
135
330
134
100
AcDbEntity
  8
A-DETLGEM
370
    35
100
AcDbLine
 10
-18.60697444189654
 20
0.0000000000045937
 30
0.0
 11
-9.303487220949293
 21
12.12986432713317
 31
0.0
1001
REVIT
1002
{
1070
     3
1000
1349
1002
}
  0
LINE
  5
136
330
134
100
AcDbEntity
  8
A-DETLGEM
370
    35
100
AcDbLine
 10
-9.303487220949296
 20
12.12986432713317
 30
0.0
 11
9.215834510488308
 21
-12.01299404650819
 31
0.0
1001
REVIT
1002
{
1070
     3
1000
1349
1002
}
  0
LINE
  5
137
330
134
100
AcDbEntity
  8
A-DETLGEM
370
    35
100
AcDbLine
 10
9.215834510488308
 20
-12.01299404650819
 30
0.0
 11
18.43166902097825
 21
0.0000000000045937
 31
0.0
1001
REVIT
1002
{
1070
     3
1000
1349
1002
}
  0
LINE
  5
138
330
134
100
AcDbEntity
  8
A-DETLGEM
370
    35
100
AcDbLine
 10
18.43166902097825
 20
0.0000000000045937
 30
0.0
 11
138.8293156327174
 21
0.0000000000045937
 31
0.0
1001
REVIT
1002
{
1070
     3
1000
1349
1002
}
  0
LINE
  5
139
330
134
100
AcDbEntity
  8
A-DETLGEM
370
    35
100
AcDbLine
 10
-148.6477375665083
 20
0.0000000000045937
 30
0.0
 11
-18.60697444189654
 21
0.0000000000045937
 31
0.0
1001
REVIT
1002
{
1070
     3
1000
1349
1002
}
  0
ENDBLK
  5
13B
330
134
100
AcDbEntity
  8
0
100
AcDbBlockEnd
  0
BLOCK
  5
143
330
13D
100
AcDbEntity
  8
0
100
AcDbBlockBegin
  2
Break Line1 - M_Break Line_1-2-Detail 4
 70
     0
 10
0.0
 20
0.0
 30
0.0
  3
Break Line1 - M_Break Line_1-2-Detail 4
  1

  0
LINE
  5
13E
330
13D
100
AcDbEntity
  8
A-DETLGEM
370
    35
100
AcDbLine
 10
-18.60697444189654
 20
0.0000000000045937
 30
0.0
 11
-9.303487220949293
 21
12.12986432713317
 31
0.0
1001
REVIT
1002
{
1070
     3
1000
1349
1002
}
  0
LINE
  5
13F
330
13D
100
AcDbEntity
  8
A-DETLGEM
370
    35
100
AcDbLine
 10
-9.303487220949296
 20
12.12986432713317
 30
0.0
 11
9.215834510488308
 21
-12.01299404650819
 31
0.0
1001
REVIT
1002
{
1070
     3
1000
1349
1002
}
  0
LINE
  5
140
330
13D
100
AcDbEntity
  8
A-DETLGEM
370
    35
100
AcDbLine
 10
9.215834510488308
 20
-12.01299404650819
 30
0.0
 11
18.43166902097825
 21
0.0000000000045937
 31
0.0
1001
REVIT
1002
{
1070
     3
1000
1349
1002
}
  0
LINE
  5
141
330
13D
100
AcDbEntity
  8
A-DETLGEM
370
    35
100
AcDbLine
 10
18.43166902097825
 20
0.0000000000045937
 30
0.0
 11
158.6620321426224
 21
0.0000000000045937
 31
0.0
1001
REVIT
1002
{
1070
     3
1000
1349
1002
}
  0
LINE
  5
142
330
13D
100
AcDbEntity
  8
A-DETLGEM
370
    35
100
AcDbLine
 10
-180.7603118045762
 20
0.0000000000045937
 30
0.0
 11
-18.60697444189652
 21
0.0000000000045937
 31
0.0
1001
REVIT
1002
{
1070
     3
1000
1349
1002
}
  0
ENDBLK
  5
144
330
13D
100
AcDbEntity
  8
0
100
AcDbBlockEnd
  0
BLOCK
  5
16A
330
169
100
AcDbEntity
  8
0
100
AcDbBlockBegin
  2
M_Label Annotation - M_Label Annotation_1-142258-Detail 4
 70
     0
 10
0.0
 20
0.0
 30
0.0
  3
M_Label Annotation - M_Label Annotation_1-142258-Detail 4
  1

  0
ENDBLK
  5
16B
330
169
100
AcDbEntity
  8
0
100
AcDbBlockEnd
  0
BLOCK
  5
1E6
330
1B7
100
AcDbEntity
  8
0
100
AcDbBlockBegin
  2
A4 SPS - A4 sps_0-163380-ROOF_WALL RIDGE-CROSS SECTION
 70
     0
 10
0.0
 20
0.0
 30
0.0
  3
A4 SPS - A4 sps_0-163380-ROOF_WALL RIDGE-CROSS SECTION
  1

  0
IMAGE
  5
1B9
330
1B7
100
AcDbEntity
  8
G-----TTP
 92
      140
310
8C00000001000000840000000600000005000000C168BED14A7B22406AAAC3784E8A58400000000000000000C168BED14A7B2240D44C002E3CEE5C400000000000000000F73E2E47CADC5440D44C002E3CEE5C400000000000000000F73E2E47CADC54406AAAC3784E8A58400000000000000000C168BED14A7B22406AAAC3
310
784E8A58400000000000000000
100
AcDbRasterImage
 90
        0
 10
9.240805201047239
 20
98.16103953464486
 30
0.0
 11
0.0609770261884177
 21
0.0
 31
0.0
 12
0.0
 22
0.0609770261884177
 32
0.0
 13
1217.0
 23
288.0
340
1B8
 70
     7
280
     0
281
    50
282
    50
283
     0
360
0
 71
     1
 91
        2
 14
-0.5
 24
-0.5
 14
1216.5
 24
287.5
  0
LINE
  5
1BA
330
1B7
100
AcDbEntity
  8
G-----TTP
100
AcDbLine
 10
97.66108077792623
 20
93.39672673794749
 30
0.0
 11
152.8182236350694
 21
93.39672673794749
 31
0.0
1001
REVIT
1002
{
1070
     3
1000
-2000281
1002
}
  0
LINE
  5
1BB
330
1B7
100
AcDbEntity
  8
G-----TTP
100
AcDbLine
 10
97.66108077792623
 20
96.15458388080464
 30
0.0
 11
152.8182236350694
 21
96.15458388080464
 31
0.0
1001
REVIT
1002
{
1070
     3
1000
-2000281
1002
}
  0
LINE
  5
1BC
330
1B7
100
AcDbEntity
  8
G-----TTP
100
AcDbLine
 10
95.53965220649775
 20
99.12142857141512
 30
0.0
 11
8.798463415511349
 21
99.12142857141541
 31
0.0
  0
LINE
  5
1BD
330
1B7
100
AcDbEntity
  8
G-----TTP
100
AcDbLine
 10
141.5039379207837
 20
114.678571428557
 30
0.0
 11
141.5039379207837
 21
90.63571428570075
 31
0.0
1001
REVIT
1002
{
1070
     3
1000
-2000281
1002
}
  0
LINE
  5
1BE
330
1B7
100
AcDbEntity
  8
G-----TTP
100
AcDbLine
 10
104.7325093493548
 20
114.678571428557
 30
0.0
 11
104.7325093493548
 21
90.63571428570075
 31
0.0
1001
REVIT
1002
{
1070
     3
1000
-2000281
1002
}
  0
LINE
  5
1BF
330
1B7
100
AcDbEntity
  8
G-----TTP
100
AcDbLine
 10
97.66108077792623
 20
109.9438695950903
 30
0.0
 11
152.8182236350694
 21
109.9438695950903
 31
0.0
1001
REVIT
1002
{
1070
     3
1000
-2000281
1002
}
  0
LINE
  5
1C0
330
1B7
100
AcDbEntity
  8
G-----TTP
100
AcDbLine
 10
97.66108077792623
 20
107.1860124522332
 30
0.0
 11
152.8182236350694
 21
107.1860124522332
 31
0.0
1001
REVIT
1002
{
1070
     3
1000
-2000281
1002
}
  0
LINE
  5
1C1
330
1B7
100
AcDbEntity
  8
G-----TTP
100
AcDbLine
 10
97.66108077792623
 20
104.428155309376
 30
0.0
 11
152.8182236350694
 21
104.428155309376
 31
0.0
1001
REVIT
1002
{
1070
     3
1000
-2000281
1002
}
  0
LINE
  5
1C2
330
1B7
100
AcDbEntity
  8
G-----TTP
100
AcDbLine
 10
97.66108077792623
 20
101.6702981665189
 30
0.0
 11
152.8182236350694
 21
101.6702981665189
 31
0.0
1001
REVIT
1002
{
1070
     3
1000
-2000281
1002
}
  0
LINE
  5
1C3
330
1B7
100
AcDbEntity
  8
G-----TTP
100
AcDbLine
 10
97.66108077792623
 20
98.91244102366178
 30
0.0
 11
152.8182236350694
 21
98.91244102366178
 31
0.0
1001
REVIT
1002
{
1070
     3
1000
-2000281
1002
}
  0
LINE
  5
1C4
330
1B7
100
AcDbEntity
  8
G-----TTP
370
    25
100
AcDbLine
 10
152.8182236350694
 20
114.678571428557
 30
0.0
 11
152.8182236350694
 21
90.63571428570075
 31
0.0
1001
REVIT
1002
{
1070
     3
1000
-2000282
1002
}
  0
LINE
  5
1C5
330
1B7
100
AcDbEntity
  8
G-----TTP
370
    25
100
AcDbLine
 10
97.66108077792623
 20
90.63571428570075
 30
0.0
 11
97.66108077792623
 21
114.678571428557
 31
0.0
1001
REVIT
1002
{
1070
     3
1000
-2000282
1002
}
  0
LINE
  5
1C6
330
1B7
100
AcDbEntity
  8
G-----TTP
370
    25
100
AcDbLine
 10
152.8182236350694
 20
90.63571428570075
 30
0.0
 11
97.66108077792623
 21
90.63571428570075
 31
0.0
1001
REVIT
1002
{
1070
     3
1000
-2000282
1002
}
  0
LINE
  5
1C7
330
1B7
100
AcDbEntity
  8
G-----TTP
370
    25
100
AcDbLine
 10
97.66108077792623
 20
114.678571428557
 30
0.0
 11
152.8182236350694
 21
114.678571428557
 31
0.0
1001
REVIT
1002
{
1070
     3
1000
-2000282
1002
}
  0
LINE
  5
1C8
330
1B7
100
AcDbEntity
  8
G-----TTP
370
    25
100
AcDbLine
 10
154.9396522064979
 20
114.6785714285573
 30
0.0
 11
154.9396522064979
 21
90.63571428570096
 31
0.0
1001
REVIT
1002
{
1070
     3
1000
-2000282
1002
}
  0
LINE
  5
1C9
330
1B7
100
AcDbEntity
  8
G-----TTP
100
AcDbLine
 10
215.046795063641
 20
104.7785714285581
 30
0.0
 11
292.8325093493553
 21
104.7785714285581
 31
0.0
1001
REVIT
1002
{
1070
     3
1000
-2000281
1002
}
  0
LINE
  5
1CA
330
1B7
100
AcDbEntity
  8
G-----TTP
100
AcDbLine
 10
215.046795063641
 20
101.2428571428439
 30
0.0
 11
253.939652206498
 21
101.2428571428439
 31
0.0
1001
REVIT
1002
{
1070
     3
1000
-2000281
1002
}
  0
LINE
  5
1CB
330
1B7
100
AcDbEntity
  8
G-----TTP
100
AcDbLine
 10
215.046795063641
 20
97.70714285712955
 30
0.0
 11
253.939652206498
 21
97.70714285712955
 31
0.0
1001
REVIT
1002
{
1070
     3
1000
-2000281
1002
}
  0
LINE
  5
1CC
330
1B7
100
AcDbEntity
  8
G-----TTP
100
AcDbLine
 10
253.939652206498
 20
104.7785714285581
 30
0.0
 11
253.939652206498
 21
90.63571428570096
 31
0.0
1001
REVIT
1002
{
1070
     3
1000
-2000281
1002
}
  0
LINE
  5
1CD
330
1B7
100
AcDbEntity
  8
G-----TTP
100
AcDbLine
 10
292.8325093493553
 20
94.17142857141548
 30
0.0
 11
215.046795063641
 21
94.17142857141548
 31
0.0
1001
REVIT
1002
{
1070
     3
1000
-2000281
1002
}
  0
LINE
  5
1CE
330
1B7
100
AcDbEntity
  8
G-----TTP
100
AcDbLine
 10
215.046795063641
 20
90.63571428570096
 30
0.0
 11
215.046795063641
 21
114.6785714285573
 31
0.0
1001
REVIT
1002
{
1070
     3
1000
-2000281
1002
}
  0
LINE
  5
1CF
330
1B7
100
AcDbEntity
  8
G-----TTP
370
    25
100
AcDbLine
 10
292.8325093493553
 20
114.6785714285573
 30
0.0
 11
154.9396522064979
 21
114.6785714285573
 31
0.0
1001
REVIT
1002
{
1070
     3
1000
-2000282
1002
}
  0
LINE
  5
1D0
330
1B7
100
AcDbEntity
  8
G-----TTP
370
    25
100
AcDbLine
 10
292.8325093493553
 20
90.63571428570096
 30
0.0
 11
154.9396522064979
 21
90.63571428570096
 31
0.0
1001
REVIT
1002
{
1070
     3
1000
-2000282
1002
}
  0
LINE
  5
1D1
330
1B7
100
AcDbEntity
  8
G-----TTP
370
    25
100
AcDbLine
 10
292.8325093493553
 20
90.63571428570096
 30
0.0
 11
292.8325093493553
 21
114.6785714285573
 31
0.0
1001
REVIT
1002
{
1070
     3
1000
-2000282
1002
}
  0
LINE
  5
1D2
330
1B7
100
AcDbEntity
  8
G-----TTP
370
    25
100
AcDbLine
 10
95.53965220649775
 20
90.63571428570085
 30
0.0
 11
95.53965220649775
 21
114.6785714285574
 31
0.0
1001
REVIT
1002
{
1070
     3
1000
-2000282
1002
}
  0
LINE
  5
1D3
330
1B7
100
AcDbEntity
  8
G-----TTP
370
    25
100
AcDbLine
 10
8.798463415511349
 20
114.6785714285574
 30
0.0
 11
95.53965220649775
 21
114.6785714285574
 31
0.0
1001
REVIT
1002
{
1070
     3
1000
-2000282
1002
}
  0
LINE
  5
1D4
330
1B7
100
AcDbEntity
  8
G-----TTP
370
    25
100
AcDbLine
 10
8.798463415511349
 20
90.63571428570085
 30
0.0
 11
95.53965220649775
 21
90.63571428570085
 31
0.0
1001
REVIT
1002
{
1070
     3
1000
-2000282
1002
}
  0
LINE
  5
1D5
330
1B7
100
AcDbEntity
  8
G-----TTP
370
    25
100
AcDbLine
 10
8.798463415511349
 20
114.6785714285574
 30
0.0
 11
8.798463415511349
 21
90.63571428570085
 31
0.0
1001
REVIT
1002
{
1070
     3
1000
-2000282
1002
}
  0
LINE
  5
1D6
330
1B7
100
AcDbEntity
  8
G-----TTP
370
    25
100
AcDbLine
 10
6.677034844082778
 20
116.7999999999851
 30
0.0
 11
294.9539379207838
 21
116.7999999999851
 31
0.0
1001
REVIT
1002
{
1070
     3
1000
-2000282
1002
}
  0
LINE
  5
1D7
330
1B7
100
AcDbEntity
  8
G-----TTP
370
    25
100
AcDbLine
 10
294.9539379207837
 20
291.4642857142719
 30
0.0
 11
294.9539379207837
 21
88.51428571427183
 31
0.0
1001
REVIT
1002
{
1070
     3
1000
-2000282
1002
}
  0
LINE
  5
1D8
330
1B7
100
AcDbEntity
  8
G-----TTP
370
    25
100
AcDbLine
 10
6.677034844082778
 20
88.51428571427181
 30
0.0
 11
294.9539379207838
 21
88.51428571427181
 31
0.0
1001
REVIT
1002
{
1070
     3
1000
-2000282
1002
}
  0
LINE
  5
1D9
330
1B7
100
AcDbEntity
  8
G-----TTP
370
    25
100
AcDbLine
 10
6.677034844082781
 20
291.4642857142719
 30
0.0
 11
6.677034844082781
 21
88.51428571427183
 31
0.0
1001
REVIT
1002
{
1070
     3
1000
-2000282
1002
}
  0
LINE
  5
1DA
330
1B7
100
AcDbEntity
  8
G-----TTP
370
    25
100
AcDbLine
 10
6.677034844082778
 20
291.4642857142719
 30
0.0
 11
294.9539379207838
 21
291.4642857142719
 31
0.0
1001
REVIT
1002
{
1070
     3
1000
-2000282
1002
}
  0
LINE
  5
1DB
330
1B7
100
AcDbEntity
  8
G-----TTP
100
AcDbLine
 10
2.792850708836863
 20
294.999999999986
 30
0.0
 11
2.792850708836863
 21
84.97857142855746
 31
0.0
1001
REVIT
1002
{
1070
     3
1000
-2000281
1002
}
  0
LINE
  5
1DC
330
1B7
100
AcDbEntity
  8
G-----TTP
100
AcDbLine
 10
299.7928507088368
 20
294.999999999986
 30
0.0
 11
2.792850708836863
 21
294.999999999986
 31
0.0
1001
REVIT
1002
{
1070
     3
1000
-2000281
1002
}
  0
LINE
  5
1DD
330
1B7
100
AcDbEntity
  8
G-----TTP
100
AcDbLine
 10
299.7928507088368
 20
84.97857142855746
 30
0.0
 11
299.7928507088368
 21
294.9999999999861
 31
0.0
1001
REVIT
1002
{
1070
     3
1000
-2000281
1002
}
  0
LINE
  5
1DE
330
1B7
100
AcDbEntity
  8
G-----TTP
100
AcDbLine
 10
2.792850708836863
 20
84.97857142855746
 30
0.0
 11
299.7928507088368
 21
84.97857142855746
 31
0.0
1001
REVIT
1002
{
1070
     3
1000
-2000281
1002
}
  0
MTEXT
  5
1DF
330
1B7
100
AcDbEntity
  8
G-----TTP
100
AcDbMText
 10
254.998208396275
 20
93.10343409203412
 30
0.0
 40
1.721182634730538
 41
7.160647605924904
 46
0.0
 71
     1
 72
     1
  1
\fArial|b0|i0|c0|p34|;Scale
 73
     2
 44
0.9385317878468562
1001
REVIT
1002
{
1070
     3
1000
165349
1002
}
  0
MTEXT
  5
1E0
330
1B7
100
AcDbEntity
  8
G-----TTP
100
AcDbMText
 10
216.8973466727144
 20
93.10343409203412
 30
0.0
 40
1.721182634730538
 41
15.05625904236996
 46
0.0
 71
     1
 72
     1
  1
\fArial|b0|i0|c0|p34|;Checked by
 73
     2
 44
0.9385317878468562
1001
REVIT
1002
{
1070
     3
1000
165349
1002
}
  0
MTEXT
  5
1E1
330
1B7
100
AcDbEntity
  8
G-----TTP
100
AcDbMText
 10
216.8973466727144
 20
96.71042441791824
 30
0.0
 40
1.721182634730538
 41
11.94841198759903
 46
0.0
 71
     1
 72
     1
  1
\fArial|b0|i0|c0|p34|;Drawn by
 73
     2
 44
0.9385317878468562
1001
REVIT
1002
{
1070
     3
1000
165349
1002
}
  0
MTEXT
  5
1E2
330
1B7
100
AcDbEntity
  8
G-----TTP
100
AcDbMText
 10
216.8973466727144
 20
100.202514490652
 30
0.0
 40
1.721182634730538
 41
6.047702376851532
 46
0.0
 71
     1
 72
     1
  1
\fArial|b0|i0|c0|p34|;Date
 73
     2
 44
0.9385317878468562
1001
REVIT
1002
{
1070
     3
1000
165349
1002
}
  0
MTEXT
  5
1E3
330
1B7
100
AcDbEntity
  8
G-----TTP
100
AcDbMText
 10
216.8973466727144
 20
103.8301902721618
 30
0.0
 40
1.721182634730538
 41
19.403045125732
 46
0.0
 71
     1
 72
     1
  1
\fArial|b0|i0|c0|p34|;Project number
 73
     2
 44
0.9385317878468562
1001
REVIT
1002
{
1070
     3
1000
165349
1002
}
  0
MTEXT
  5
1E4
330
1B7
100
AcDbEntity
  8
G-----TTP
100
AcDbMText
 10
20.88411674533643
 20
96.19741015798522
 30
0.0
 40
2.950598802395208
 41
72.60485385296722
 46
0.0
 71
     1
 72
     1
  1
\fArial|b0|i0|c0|p34|;South Pacific Shingles (2003) Ltd\P
 73
     2
 44
0.9385317878468562
1001
REVIT
1002
{
1070
     3
1000
165465
1002
}
  0
MTEXT
  5
1E5
330
1B7
100
AcDbEntity
  8
G-----TTP
100
AcDbMText
 10
158.4821206429074
 20
111.5973013750055
 30
0.0
 40
1.967065868263472
 41
65.1317262646808
 46
0.0
 71
     1
 72
     1
  1
\fArial|b0|i0|c0|p34|;South Pacific Shingles (2003) Ltd\PPO Box 51885, Pakuranga, Auckland\P21b Gabador Place, Mt Wellington, Auckland\PNew Zealand\PPh: 64 9 5733017     Fax: 64 9 5733018\PWeb:  www.southpacificshingles.co.nz
 73
     2
 44
0.9385317878468564
1001
REVIT
1002
{
1070
     3
1000
165218
1002
}
  0
ENDBLK
  5
1E7
330
1B7
100
AcDbEntity
  8
0
100
AcDbBlockEnd
  0
ENDSEC
  0
SECTION
  2
ENTITIES
  0
IMAGE
  5
83
330
75
100
AcDbEntity
  8
G-----PAP
 92
      140
310
8C00000001000000840000000600000005000000F6593A7B405DAE4022B08D23032AA7400000000000000000F6593A7B405DAE408154E8AC2589A7400000000000000000C2EEA44F43EFAF408154E8AC2589A7400000000000000000C2EEA44F43EFAF4022B08D23032AA7400000000000000000F6593A7B405DAE4022B08D
310
23032AA7400000000000000000
100
AcDbRasterImage
 90
        0
 10
3886.625940154535
 20
2965.006130626441
 30
0.0
 11
0.1651647714527601
 21
0.0
 31
0.0
 12
0.0
 22
0.16516477145276
 32
0.0
 13
1217.0
 23
288.0
340
82
 70
     7
280
     0
281
    50
282
    50
283
     0
360
0
 71
     1
 91
        2
 14
-0.5
 24
-0.5
 14
1216.5
 24
287.5
1001
REVIT
1002
{
1070
     1
1000
166230
1002
}
1002
{
1070
     5
1000
166201
1002
}
1002
{
1070
     2
1000
-2000560
1002
}
  0
HATCH
  5
89
330
75
100
AcDbEntity
  8
A-DETLGEM
 62
     7
100
AcDbHatch
 10
0.0
 20
0.0
 30
0.0
210
0.0
220
0.0
230
1.0
  2
FP1_1
 70
     0
 71
     0
 91
        1
 92
        0
 93
        4
 72
     1
 10
3520.669912817722
 20
2850.0518340121
 11
3495.669912817744
 21
2850.0518340121
 72
     1
 10
3495.669912817744
 20
2850.0518340121
 11
3495.669912817744
 21
2269.504355184758
 72
     1
 10
3495.669912817744
 20
2269.504355184758
 11
3520.669912817722
 21
2269.504355184758
 72
     1
 10
3520.669912817722
 20
2269.504355184758
 11
3520.669912817722
 21
2850.0518340121
 97
        0
 75
     0
 76
     2
 52
0.0
 41
1.0
 77
     0
 78
     2
 53
45.0
 43
0.0
 44
0.0
 45
-10.60660171779821
 46
10.60660171779821
 79
     0
 53
135.0
 43
0.0
 44
0.0
 45
-10.60660171779821
 46
-10.60660171779821
 79
     0
 98
        1
 10
0.0
 20
0.0
1001
REVIT
1002
{
1070
     1
1000
161953
1002
}
1002
{
1070
     2
1000
-2000059
1002
}
1002
{
1070
     3
1000
744
1002
}
  0
LINE
  5
8B
330
75
100
AcDbEntity
  8
A-----NPP
100
AcDbLine
 10
3520.669912817722
 20
2850.051834012101
 30
0.0
 11
3495.669912817746
 21
2850.051834012101
 31
0.0
1001
REVIT
1002
{
1070
     1
1000
161953
1002
}
1002
{
1070
     2
1000
-2000051
1002
}
1002
{
1070
     3
1000
-2000043
1002
}
  0
LINE
  5
8C
330
75
100
AcDbEntity
  8
A-----NPP
100
AcDbLine
 10
3495.669912817746
 20
2850.051834012101
 30
0.0
 11
3495.669912817746
 21
2269.504355184758
 31
0.0
1001
REVIT
1002
{
1070
     1
1000
161953
1002
}
1002
{
1070
     2
1000
-2000051
1002
}
1002
{
1070
     3
1000
-2000043
1002
}
  0
LINE
  5
8D
330
75
100
AcDbEntity
  8
A-----NPP
370
   100
100
AcDbLine
 10
3520.669912817722
 20
2269.504355184758
 30
0.0
 11
3520.669912817722
 21
2722.004355185045
 31
0.0
1001
REVIT
1002
{
1070
     1
1000
161953
1002
}
1002
{
1070
     2
1000
-2000051
1002
}
1002
{
1070
     3
1000
-2000044
1002
}
  0
HATCH
  5
92
330
75
100
AcDbEntity
  8
A-DETLGEM
 62
   250
100
AcDbHatch
 10
0.0
 20
0.0
 30
0.0
210
0.0
220
0.0
230
1.0
  2
SOLID
 70
     1
 71
     0
 91
        1
 92
        0
 93
        4
 72
     1
 10
3446.968878607921
 20
2841.5459517083
 11
3445.300916358073
 21
2844.078624160106
 72
     1
 10
3445.300916358073
 20
2844.078624160106
 11
3419.982795763985
 21
2827.40466801629
 72
     1
 10
3419.982795763985
 20
2827.40466801629
 11
3421.650758013835
 21
2824.871995564482
 72
     1
 10
3421.650758013835
 20
2824.871995564482
 11
3446.968878607921
 21
2841.5459517083
 97
        0
 75
     0
 76
     1
 98
        1
 10
0.0
 20
0.0
450
        0
451
        0
460
0.0
461
0.0
452
        0
462
0.0
453
        0
470

1001
REVIT
1002
{
1070
     1
1000
161966
1002
}
1002
{
1070
     2
1000
-2000059
1002
}
1002
{
1070
     3
1000
131133
1002
}
  0
HATCH
  5
99
330
75
100
AcDbEntity
  8
A-DETLGEM
 62
   250
100
AcDbHatch
 10
0.0
 20
0.0
 30
0.0
210
0.0
220
0.0
230
1.0
  2
SOLID
 70
     1
 71
     0
 91
        1
 92
        0
 93
        6
 72
     1
 10
3169.699768503976
 20
2662.5737831737
 11
3171.367730753838
 21
2660.04111072187
 72
     1
 10
3171.367730753838
 20
2660.04111072187
 11
3299.352302977759
 21
2744.328928864478
 72
     1
 10
3299.352302977759
 20
2744.328928864478
 11
3297.687334749183
 21
2746.863573112716
 72
     1
 10
3297.687334749183
 20
2746.863573112716
 11
3255.024812667447
 21
2718.766976466377
 72
     1
 10
3255.024812667447
 20
2718.766976466377
 11
3212.362290585711
 21
2690.670379820039
 72
     1
 10
3212.362290585711
 20
2690.670379820039
 11
3169.699768503976
 21
2662.5737831737
 97
        0
 75
     0
 76
     1
 98
        1
 10
0.0
 20
0.0
450
        0
451
        0
460
0.0
461
0.0
452
        0
462
0.0
453
        0
470

1001
REVIT
1002
{
1070
     1
1000
161966
1002
}
1002
{
1070
     2
1000
-2000059
1002
}
1002
{
1070
     3
1000
131133
1002
}
  0
HATCH
  5
9F
330
75
100
AcDbEntity
  8
A-DETLGEM
 62
   250
100
AcDbHatch
 10
0.0
 20
0.0
 30
0.0
210
0.0
220
0.0
230
1.0
  2
SOLID
 70
     1
 71
     0
 91
        1
 92
        0
 93
        5
 72
     1
 10
3300.473718296446
 20
2748.698623897558
 11
3302.138686525021
 21
2746.163979649321
 72
     1
 10
3302.138686525021
 20
2746.163979649321
 11
3418.864374466572
 21
2823.036944779639
 72
     1
 10
3418.864374466572
 20
2823.036944779639
 11
3417.196412216722
 21
2825.569617231448
 72
     1
 10
3417.196412216722
 20
2825.569617231448
 11
3358.835065256584
 21
2787.134120564503
 72
     1
 10
3358.835065256584
 20
2787.134120564503
 11
3300.473718296446
 21
2748.698623897558
 97
        0
 75
     0
 76
     1
 98
        1
 10
0.0
 20
0.0
450
        0
451
        0
460
0.0
461
0.0
452
        0
462
0.0
453
        0
470

1001
REVIT
1002
{
1070
     1
1000
161966
1002
}
1002
{
1070
     2
1000
-2000059
1002
}
1002
{
1070
     3
1000
131133
1002
}
  0
LINE
  5
A0
330
75
100
AcDbEntity
  8
A-----NPP
370
    18
100
AcDbLine
 10
3446.968878607922
 20
2841.545951708301
 30
0.0
 11
3445.300916358075
 21
2844.078624160108
 31
0.0
1001
REVIT
1002
{
1070
     1
1000
161966
1002
}
1002
{
1070
     2
1000
-2000051
1002
}
1002
{
1070
     3
1000
-2000042
1002
}
  0
LINE
  5
A1
330
75
100
AcDbEntity
  8
A-----NPP
370
    18
100
AcDbLine
 10
3445.300916358075
 20
2844.078624160108
 30
0.0
 11
3419.982795763985
 21
2827.404668016291
 31
0.0
1001
REVIT
1002
{
1070
     1
1000
161966
1002
}
1002
{
1070
     2
1000
-2000051
1002
}
1002
{
1070
     3
1000
-2000042
1002
}
  0
LINE
  5
A2
330
75
100
AcDbEntity
  8
A-----NPP
370
    18
100
AcDbLine
 10
3417.196412216722
 20
2825.569617231448
 30
0.0
 11
3305.615377077195
 21
2752.084807034576
 31
0.0
1001
REVIT
1002
{
1070
     1
1000
161966
1002
}
1002
{
1070
     2
1000
-2000051
1002
}
1002
{
1070
     3
1000
-2000042
1002
}
  0
LINE
  5
A3
330
75
100
AcDbEntity
  8
A-----NPP
370
    18
100
AcDbLine
 10
3292.242185362154
 20
2743.277517752152
 30
0.0
 11
3169.699768503976
 21
2662.573783173701
 31
0.0
1001
REVIT
1002
{
1070
     1
1000
161966
1002
}
1002
{
1070
     2
1000
-2000051
1002
}
1002
{
1070
     3
1000
-2000042
1002
}
  0
LINE
  5
A4
330
75
100
AcDbEntity
  8
A-----NPP
370
    18
100
AcDbLine
 10
3169.699768503976
 20
2662.573783173701
 30
0.0
 11
3171.36773075384
 21
2660.041110721871
 31
0.0
1001
REVIT
1002
{
1070
     1
1000
161966
1002
}
1002
{
1070
     2
1000
-2000051
1002
}
1002
{
1070
     3
1000
-2000042
1002
}
  0
LINE
  5
A5
330
75
100
AcDbEntity
  8
A-----NPP
370
    18
100
AcDbLine
 10
3171.36773075384
 20
2660.041110721871
 30
0.0
 11
3299.352302977759
 21
2744.328928864479
 31
0.0
1001
REVIT
1002
{
1070
     1
1000
161966
1002
}
1002
{
1070
     2
1000
-2000051
1002
}
1002
{
1070
     3
1000
-2000042
1002
}
  0
LINE
  5
A6
330
75
100
AcDbEntity
  8
A-----NPP
370
    18
100
AcDbLine
 10
3302.138686525022
 20
2746.163979649321
 30
0.0
 11
3418.864374466572
 21
2823.03694477964
 31
0.0
1001
REVIT
1002
{
1070
     1
1000
161966
1002
}
1002
{
1070
     2
1000
-2000051
1002
}
1002
{
1070
     3
1000
-2000042
1002
}
  0
LINE
  5
A7
330
75
100
AcDbEntity
  8
A-----NPP
370
    18
100
AcDbLine
 10
3421.650758013835
 20
2824.871995564482
 30
0.0
 11
3446.968878607922
 21
2841.545951708301
 31
0.0
1001
REVIT
1002
{
1070
     1
1000
161966
1002
}
1002
{
1070
     2
1000
-2000051
1002
}
1002
{
1070
     3
1000
-2000042
1002
}
  0
HATCH
  5
AC
330
75
100
AcDbEntity
  8
A-DETLGEM
 62
   250
100
AcDbHatch
 10
0.0
 20
0.0
 30
0.0
210
0.0
220
0.0
230
1.0
  2
SOLID
 70
     1
 71
     0
 91
        1
 92
        0
 93
        4
 72
     1
 10
3313.230062335374
 20
2745.934983271593
 11
3311.562100085553
 21
2748.46765572336
 72
     1
 10
3311.562100085553
 20
2748.46765572336
 11
3303.931233350677
 21
2743.44213509659
 72
     1
 10
3303.931233350677
 20
2743.44213509659
 11
3305.5991956005
 21
2740.909462644824
 72
     1
 10
3305.5991956005
 20
2740.909462644824
 11
3313.230062335374
 21
2745.934983271593
 97
        0
 75
     0
 76
     1
 98
        1
 10
0.0
 20
0.0
450
        0
451
        0
460
0.0
461
0.0
452
        0
462
0.0
453
        0
470

1001
REVIT
1002
{
1070
     1
1000
161973
1002
}
1002
{
1070
     2
1000
-2000059
1002
}
1002
{
1070
     3
1000
131133
1002
}
  0
HATCH
  5
B1
330
75
100
AcDbEntity
  8
A-DETLGEM
 62
   250
100
AcDbHatch
 10
0.0
 20
0.0
 30
0.0
210
0.0
220
0.0
230
1.0
  2
SOLID
 70
     1
 71
     0
 91
        1
 92
        0
 93
        4
 72
     1
 10
3302.812812053236
 20
2739.074411859982
 11
3301.144849803414
 21
2741.607084311748
 72
     1
 10
3301.144849803414
 20
2741.607084311748
 11
3190.436566014182
 21
2668.697048916394
 72
     1
 10
3190.436566014182
 20
2668.697048916394
 11
3192.038207901829
 21
2666.120699335963
 72
     1
 10
3192.038207901829
 20
2666.120699335963
 11
3302.812812053236
 21
2739.074411859982
 97
        0
 75
     0
 76
     1
 98
        1
 10
0.0
 20
0.0
450
        0
451
        0
460
0.0
461
0.0
452
        0
462
0.0
453
        0
470

1001
REVIT
1002
{
1070
     1
1000
161973
1002
}
1002
{
1070
     2
1000
-2000059
1002
}
1002
{
1070
     3
1000
131133
1002
}
  0
HATCH
  5
B6
330
75
100
AcDbEntity
  8
A-DETLGEM
 62
   250
100
AcDbHatch
 10
0.0
 20
0.0
 30
0.0
210
0.0
220
0.0
230
1.0
  2
SOLID
 70
     1
 71
     0
 91
        1
 92
        0
 93
        4
 72
     1
 10
3189.25086920321
 20
2664.285019509491
 11
3187.649227315562
 21
2666.861369089922
 72
     1
 10
3187.649227315562
 20
2666.861369089922
 11
3060.669912817653
 21
2583.235591527097
 72
     1
 10
3060.669912817653
 20
2583.235591527097
 11
3060.669912817653
 21
2579.60443590394
 72
     1
 10
3060.669912817653
 20
2579.60443590394
 11
3189.25086920321
 21
2664.285019509491
 97
        0
 75
     0
 76
     1
 98
        1
 10
0.0
 20
0.0
450
        0
451
        0
460
0.0
461
0.0
452
        0
462
0.0
453
        0
470

1001
REVIT
1002
{
1070
     1
1000
161973
1002
}
1002
{
1070
     2
1000
-2000059
1002
}
1002
{
1070
     3
1000
131133
1002
}
  0
LINE
  5
B7
330
75
100
AcDbEntity
  8
A-----NPP
370
    18
100
AcDbLine
 10
3313.230062335375
 20
2745.934983271594
 30
0.0
 11
3311.562100085553
 21
2748.46765572336
 31
0.0
1001
REVIT
1002
{
1070
     1
1000
161973
1002
}
1002
{
1070
     2
1000
-2000051
1002
}
1002
{
1070
     3
1000
-2000042
1002
}
  0
LINE
  5
B8
330
75
100
AcDbEntity
  8
A-----NPP
370
    18
100
AcDbLine
 10
3311.562100085553
 20
2748.46765572336
 30
0.0
 11
3303.931233350679
 21
2743.442135096592
 31
0.0
1001
REVIT
1002
{
1070
     1
1000
161973
1002
}
1002
{
1070
     2
1000
-2000051
1002
}
1002
{
1070
     3
1000
-2000042
1002
}
  0
LINE
  5
B9
330
75
100
AcDbEntity
  8
A-----NPP
370
    18
100
AcDbLine
 10
3301.144849803416
 20
2741.607084311749
 30
0.0
 11
3190.436566014183
 21
2668.697048916395
 31
0.0
1001
REVIT
1002
{
1070
     1
1000
161973
1002
}
1002
{
1070
     2
1000
-2000051
1002
}
1002
{
1070
     3
1000
-2000042
1002
}
  0
LINE
  5
BA
330
75
100
AcDbEntity
  8
A-----NPP
370
    18
100
AcDbLine
 10
3187.649227315563
 20
2666.861369089923
 30
0.0
 11
3060.669912817653
 21
2583.235591527098
 31
0.0
1001
REVIT
1002
{
1070
     1
1000
161973
1002
}
1002
{
1070
     2
1000
-2000051
1002
}
1002
{
1070
     3
1000
-2000042
1002
}
  0
LINE
  5
BB
330
75
100
AcDbEntity
  8
A-----NPP
370
    18
100
AcDbLine
 10
3060.669912817653
 20
2579.604435903941
 30
0.0
 11
3189.25086920321
 21
2664.285019509492
 31
0.0
1001
REVIT
1002
{
1070
     1
1000
161973
1002
}
1002
{
1070
     2
1000
-2000051
1002
}
1002
{
1070
     3
1000
-2000042
1002
}
  0
LINE
  5
BC
330
75
100
AcDbEntity
  8
A-----NPP
370
    18
100
AcDbLine
 10
3192.03820790183
 20
2666.120699335964
 30
0.0
 11
3302.812812053238
 21
2739.074411859983
 31
0.0
1001
REVIT
1002
{
1070
     1
1000
161973
1002
}
1002
{
1070
     2
1000
-2000051
1002
}
1002
{
1070
     3
1000
-2000042
1002
}
  0
LINE
  5
BD
330
75
100
AcDbEntity
  8
A-----NPP
370
    18
100
AcDbLine
 10
3305.599195600501
 20
2740.909462644825
 30
0.0
 11
3313.230062335375
 21
2745.934983271594
 31
0.0
1001
REVIT
1002
{
1070
     1
1000
161973
1002
}
1002
{
1070
     2
1000
-2000051
1002
}
1002
{
1070
     3
1000
-2000042
1002
}
  0
HATCH
  5
C2
330
75
100
AcDbEntity
  8
A-DETLGEM
 62
   250
100
AcDbHatch
 10
0.0
 20
0.0
 30
0.0
210
0.0
220
0.0
230
1.0
  2
SOLID
 70
     1
 71
     0
 91
        1
 92
        0
 93
        4
 72
     1
 10
3210.437784596813
 20
2671.03354364529
 11
3208.769822346966
 21
2673.566216097094
 72
     1
 10
3208.769822346966
 20
2673.566216097094
 11
3193.614443429922
 21
2663.585217607629
 72
     1
 10
3193.614443429922
 20
2663.585217607629
 11
3195.216085317588
 21
2661.008868027167
 72
     1
 10
3195.216085317588
 20
2661.008868027167
 11
3210.437784596813
 21
2671.03354364529
 97
        0
 75
     0
 76
     1
 98
        1
 10
0.0
 20
0.0
450
        0
451
        0
460
0.0
461
0.0
452
        0
462
0.0
453
        0
470

1001
REVIT
1002
{
1070
     1
1000
161980
1002
}
1002
{
1070
     2
1000
-2000059
1002
}
1002
{
1070
     3
1000
131133
1002
}
  0
HATCH
  5
C7
330
75
100
AcDbEntity
  8
A-DETLGEM
 62
   250
100
AcDbHatch
 10
0.0
 20
0.0
 30
0.0
210
0.0
220
0.0
230
1.0
  2
SOLID
 70
     1
 71
     0
 91
        1
 92
        0
 93
        4
 72
     1
 10
3192.428746618968
 20
2659.173188200696
 11
3190.827104731303
 21
2661.749537781157
 72
     1
 10
3190.827104731303
 20
2661.749537781157
 11
3060.669912817653
 21
2576.030880201288
 72
     1
 10
3060.669912817653
 20
2576.030880201288
 11
3060.669912817653
 21
2572.399724578088
 72
     1
 10
3060.669912817653
 20
2572.399724578088
 11
3192.428746618968
 21
2659.173188200696
 97
        0
 75
     0
 76
     1
 98
        1
 10
0.0
 20
0.0
450
        0
451
        0
460
0.0
461
0.0
452
        0
462
0.0
453
        0
470

1001
REVIT
1002
{
1070
     1
1000
161980
1002
}
1002
{
1070
     2
1000
-2000059
1002
}
1002
{
1070
     3
1000
131133
1002
}
  0
LINE
  5
C8
330
75
100
AcDbEntity
  8
A-----NPP
370
    18
100
AcDbLine
 10
3210.437784596815
 20
2671.03354364529
 30
0.0
 11
3208.769822346968
 21
2673.566216097096
 31
0.0
1001
REVIT
1002
{
1070
     1
1000
161980
1002
}
1002
{
1070
     2
1000
-2000051
1002
}
1002
{
1070
     3
1000
-2000042
1002
}
  0
LINE
  5
C9
330
75
100
AcDbEntity
  8
A-----NPP
370
    18
100
AcDbLine
 10
3208.769822346968
 20
2673.566216097096
 30
0.0
 11
3193.614443429923
 21
2663.58521760763
 31
0.0
1001
REVIT
1002
{
1070
     1
1000
161980
1002
}
1002
{
1070
     2
1000
-2000051
1002
}
1002
{
1070
     3
1000
-2000042
1002
}
  0
LINE
  5
CA
330
75
100
AcDbEntity
  8
A-----NPP
370
    18
100
AcDbLine
 10
3190.827104731303
 20
2661.749537781158
 30
0.0
 11
3060.669912817653
 21
2576.030880201289
 31
0.0
1001
REVIT
1002
{
1070
     1
1000
161980
1002
}
1002
{
1070
     2
1000
-2000051
1002
}
1002
{
1070
     3
1000
-2000042
1002
}
  0
LINE
  5
CB
330
75
100
AcDbEntity
  8
A-----NPP
370
    18
100
AcDbLine
 10
3060.669912817653
 20
2572.399724578088
 30
0.0
 11
3192.428746618969
 21
2659.173188200696
 31
0.0
1001
REVIT
1002
{
1070
     1
1000
161980
1002
}
1002
{
1070
     2
1000
-2000051
1002
}
1002
{
1070
     3
1000
-2000042
1002
}
  0
LINE
  5
CC
330
75
100
AcDbEntity
  8
A-----NPP
370
    18
100
AcDbLine
 10
3195.216085317588
 20
2661.008868027169
 30
0.0
 11
3210.437784596815
 21
2671.03354364529
 31
0.0
1001
REVIT
1002
{
1070
     1
1000
161980
1002
}
1002
{
1070
     2
1000
-2000051
1002
}
1002
{
1070
     3
1000
-2000042
1002
}
  0
LINE
  5
CD
330
75
100
AcDbEntity
  8
A-----NPP
100
AcDbLine
 10
3555.669912817732
 20
2847.817362292312
 30
0.0
 11
3555.669912817732
 21
2951.342758175217
 31
0.0
1001
REVIT
1002
{
1070
     1
1000
161933
1002
}
1002
{
1070
     2
1000
-2000051
1002
}
1002
{
1070
     3
1000
-2000043
1002
}
  0
LINE
  5
CE
330
75
100
AcDbEntity
  8
A-----NPP
100
AcDbLine
 10
3555.669912817732
 20
2847.817362292312
 30
0.0
 11
3552.249711384464
 21
2838.420436084453
 31
0.0
1001
REVIT
1002
{
1070
     1
1000
161940
1002
}
1002
{
1070
     2
1000
-2000051
1002
}
1002
{
1070
     3
1000
-2000043
1002
}
  0
INSERT
  5
E1
330
75
100
AcDbEntity
  8
A-DETLGEM
100
AcDbBlockReference
  2
tmber 100_50 - tmber 100_50_1-0-Detail 4
 10
3355.164759252847
 20
2751.050753622473
 30
0.0
 50
304.9999999999859
1001
REVIT
1002
{
1070
     1
1000
161934
1002
}
1002
{
1070
     5
1000
113610
1002
}
1002
{
1070
     2
1000
-2002000
1002
}
  0
INSERT
  5
F6
330
75
100
AcDbEntity
  8
A-DETLGEM
100
AcDbBlockReference
  2
ply2 20_ - ply 20__1-5-Detail 4
 10
3055.065725936959
 20
2540.919148285158
 30
0.0
 50
35.00000000001141
1001
REVIT
1002
{
1070
     1
1000
161935
1002
}
1002
{
1070
     5
1000
124592
1002
}
1002
{
1070
     2
1000
-2002000
1002
}
  0
LINE
  5
F7
330
75
100
AcDbEntity
  8
A-----NPP
370
    18
100
AcDbLine
 10
3060.669912817653
 20
2392.288322490568
 30
0.0
 11
3495.669912817746
 21
2696.878601611918
 31
0.0
1001
REVIT
1002
{
1070
     1
1000
161936
1002
}
1002
{
1070
     2
1000
-2000051
1002
}
1002
{
1070
     3
1000
-2000042
1002
}
  0
LINE
  5
F9
330
75
100
AcDbEntity
  8
A-----NPP
  6
Dash
100
AcDbLine
 10
3425.268881185021
 20
2819.378153672239
 30
0.0
 11
3449.748536911374
 21
2836.518993144617
 31
0.0
1001
REVIT
1002
{
1070
     1
1000
161937
1002
}
1002
{
1070
     2
1000
-2000051
1002
}
1002
{
1070
     3
1000
108841
1002
}
  0
LINE
  5
FA
330
75
100
AcDbEntity
  8
A-----NPP
  6
Dash
100
AcDbLine
 10
3307.99929084951
 20
2737.265102516515
 30
0.0
 11
3422.534780327806
 21
2817.46371564179
 31
0.0
1001
REVIT
1002
{
1070
     1
1000
161937
1002
}
1002
{
1070
     2
1000
-2000051
1002
}
1002
{
1070
     3
1000
108841
1002
}
  0
LINE
  5
FB
330
75
100
AcDbEntity
  8
A-----NPP
  6
Dash
100
AcDbLine
 10
3196.392213697528
 20
2659.116985777111
 30
0.0
 11
3305.265189992296
 21
2735.350664486067
 31
0.0
1001
REVIT
1002
{
1070
     1
1000
161937
1002
}
1002
{
1070
     2
1000
-2000051
1002
}
1002
{
1070
     3
1000
108841
1002
}
  0
LINE
  5
FC
330
75
100
AcDbEntity
  8
A-----NPP
  6
Dash
100
AcDbLine
 10
3060.669912817653
 20
2564.083207597816
 30
0.0
 11
3193.655133566523
 21
2657.200461636697
 31
0.0
1001
REVIT
1002
{
1070
     1
1000
161937
1002
}
1002
{
1070
     2
1000
-2000051
1002
}
1002
{
1070
     3
1000
108841
1002
}
  0
INSERT
  5
108
330
75
100
AcDbEntity
  8
A-DETLGEM
100
AcDbBlockReference
  2
fascia board2_ng_ 200_30 - tmber 100_50_1-4-Detail 4
 10
3520.669912817722
 20
2722.004355185045
 30
0.0
1001
REVIT
1002
{
1070
     1
1000
161938
1002
}
1002
{
1070
     5
1000
122224
1002
}
1002
{
1070
     2
1000
-2002000
1002
}
  0
ARC
  5
109
330
75
100
AcDbEntity
  8
A-----NPP
100
AcDbCircle
 10
3551.55104354866
 20
2951.342758175217
 30
0.0
 40
4.118869269070022
100
AcDbArc
 50
0.0
 51
104.1744168332155
1001
REVIT
1002
{
1070
     1
1000
161939
1002
}
1002
{
1070
     2
1000
-2000051
1002
}
1002
{
1070
     3
1000
-2000043
1002
}
  0
LINE
  5
10A
330
75
100
AcDbEntity
  8
A-----NPP
370
    18
100
AcDbLine
 10
3367.944748047346
 20
2807.171140110554
 30
0.0
 11
3352.493605800049
 21
2832.886159131602
 31
0.0
1001
REVIT
1002
{
1070
     1
1000
161941
1002
}
1002
{
1070
     2
1000
-2000051
1002
}
1002
{
1070
     3
1000
-2000042
1002
}
  0
LINE
  5
10B
330
75
100
AcDbEntity
  8
A-----NPP
370
    18
100
AcDbLine
 10
3352.493605800049
 20
2832.886159131602
 30
0.0
 11
3481.068700905427
 21
2910.141870368168
 31
0.0
1001
REVIT
1002
{
1070
     1
1000
161942
1002
}
1002
{
1070
     2
1000
-2000051
1002
}
1002
{
1070
     3
1000
-2000042
1002
}
  0
LINE
  5
10C
330
75
100
AcDbEntity
  8
A-----NPP
370
    18
100
AcDbLine
 10
3481.068700905427
 20
2910.141870368168
 30
0.0
 11
3486.219081654526
 21
2901.570197361153
 31
0.0
1001
REVIT
1002
{
1070
     1
1000
161943
1002
}
1002
{
1070
     2
1000
-2000051
1002
}
1002
{
1070
     3
1000
-2000042
1002
}
  0
LINE
  5
10D
330
75
100
AcDbEntity
  8
A-----NPP
370
    18
100
AcDbLine
 10
3486.219081654526
 20
2901.570197361153
 30
0.0
 11
3430.503207108833
 21
2868.092722491957
 31
0.0
1001
REVIT
1002
{
1070
     1
1000
161944
1002
}
1002
{
1070
     2
1000
-2000051
1002
}
1002
{
1070
     3
1000
-2000042
1002
}
  0
LINE
  5
10E
330
75
100
AcDbEntity
  8
A-----NPP
370
    18
100
AcDbLine
 10
3430.503207108833
 20
2868.092722491957
 30
0.0
 11
3440.803968607031
 21
2850.949376477925
 31
0.0
1001
REVIT
1002
{
1070
     1
1000
161945
1002
}
1002
{
1070
     2
1000
-2000051
1002
}
1002
{
1070
     3
1000
-2000042
1002
}
  0
LINE
  5
10F
330
75
100
AcDbEntity
  8
A-----NPP
370
    18
100
AcDbLine
 10
3440.803968607031
 20
2850.949376477925
 30
0.0
 11
3367.944748047346
 21
2807.171140110554
 31
0.0
1001
REVIT
1002
{
1070
     1
1000
161946
1002
}
1002
{
1070
     2
1000
-2000051
1002
}
1002
{
1070
     3
1000
-2000042
1002
}
  0
LINE
  5
110
330
75
100
AcDbEntity
  8
A-----NPP
100
AcDbLine
 10
3322.762236778826
 20
2796.433212092836
 30
0.0
 11
3337.039382425435
 21
2827.050649737217
 31
0.0
1001
REVIT
1002
{
1070
     1
1000
161948
1002
}
1002
{
1070
     2
1000
-2000051
1002
}
1002
{
1070
     3
1000
-2000043
1002
}
  0
LINE
  5
111
330
75
100
AcDbEntity
  8
A-----NPP
370
    18
100
AcDbLine
 10
3495.669912817746
 20
2696.878601611918
 30
0.0
 11
3495.669912817746
 21
2850.051834012109
 31
0.0
1001
REVIT
1002
{
1070
     1
1000
161949
1002
}
1002
{
1070
     2
1000
-2000051
1002
}
1002
{
1070
     3
1000
-2000042
1002
}
  0
LINE
  5
112
330
75
100
AcDbEntity
  8
A-----NPP
370
    18
100
AcDbLine
 10
3433.662190182261
 20
2806.633559195516
 30
0.0
 11
3495.669912817746
 21
2850.051834012109
 31
0.0
1001
REVIT
1002
{
1070
     1
1000
161950
1002
}
1002
{
1070
     2
1000
-2000051
1002
}
1002
{
1070
     3
1000
-2000042
1002
}
  0
LINE
  5
113
330
75
100
AcDbEntity
  8
A-----NPP
370
    18
100
AcDbLine
 10
3316.392599846742
 20
2724.520508039805
 30
0.0
 11
3430.928089325045
 21
2804.719121165069
 31
0.0
1001
REVIT
1002
{
1070
     1
1000
161950
1002
}
1002
{
1070
     2
1000
-2000051
1002
}
1002
{
1070
     3
1000
-2000042
1002
}
  0
LINE
  5
114
330
75
100
AcDbEntity
  8
A-----NPP
370
    18
100
AcDbLine
 10
3204.457811217684
 20
2646.142925253812
 30
0.0
 11
3313.658498989527
 21
2722.606070009358
 31
0.0
1001
REVIT
1002
{
1070
     1
1000
161950
1002
}
1002
{
1070
     2
1000
-2000051
1002
}
1002
{
1070
     3
1000
-2000042
1002
}
  0
LINE
  5
115
330
75
100
AcDbEntity
  8
A-----NPP
370
    18
100
AcDbLine
 10
3061.519329344609
 20
2546.056322746013
 30
0.0
 11
3201.720731086679
 21
2644.226401113399
 31
0.0
1001
REVIT
1002
{
1070
     1
1000
161950
1002
}
1002
{
1070
     2
1000
-2000051
1002
}
1002
{
1070
     3
1000
-2000042
1002
}
  0
LINE
  5
116
330
75
100
AcDbEntity
  8
A-----NPP
370
    18
100
AcDbLine
 10
3395.669912817664
 20
2269.504355184758
 30
0.0
 11
3395.669912817664
 21
2626.857847790876
 31
0.0
1001
REVIT
1002
{
1070
     1
1000
161960
1002
}
1002
{
1070
     2
1000
-2000051
1002
}
1002
{
1070
     3
1000
-2000042
1002
}
  0
LINE
  5
118
330
75
100
AcDbEntity
  8
A-----NPP
  6
Hidden
370
    18
100
AcDbLine
 10
3395.669912817664
 20
2626.857847790876
 30
0.0
 11
3395.669912817664
 21
2780.031080191067
 31
0.0
1001
REVIT
1002
{
1070
     1
1000
161961
1002
}
1002
{
1070
     2
1000
-2000051
1002
}
1002
{
1070
     3
1000
-2000286
1002
}
  0
INSERT
  5
132
330
75
100
AcDbEntity
  8
A-DETLGEM
100
AcDbBlockReference
  2
nail sp - nail sp_1-1-Detail 4
 10
3154.728936673827
 20
2767.121840038567
 30
0.0
 50
303.3680193746373
1001
REVIT
1002
{
1070
     1
1000
161962
1002
}
1002
{
1070
     5
1000
129817
1002
}
1002
{
1070
     2
1000
-2002000
1002
}
  0
INSERT
  5
133
330
75
100
AcDbEntity
  8
A-DETLGEM
100
AcDbBlockReference
  2
nail sp - nail sp_1-1-Detail 4
 10
3044.910051176877
 20
2691.440889302838
 30
0.0
 50
301.868019374637
1001
REVIT
1002
{
1070
     1
1000
161963
1002
}
1002
{
1070
     5
1000
129817
1002
}
1002
{
1070
     2
1000
-2002000
1002
}
  0
INSERT
  5
13C
330
75
100
AcDbEntity
  8
A-DETLGEM
100
AcDbBlockReference
  2
Break Line1 - M_Break Line_1-3-Detail 4
 10
3455.669912817755
 20
2269.504355184762
 30
0.0
 50
180.0
1001
REVIT
1002
{
1070
     1
1000
161993
1002
}
1002
{
1070
     5
1000
132166
1002
}
1002
{
1070
     2
1000
-2002000
1002
}
  0
INSERT
  5
145
330
75
100
AcDbEntity
  8
A-DETLGEM
100
AcDbBlockReference
  2
Break Line1 - M_Break Line_1-2-Detail 4
 10
3060.669912817658
 20
2489.504355184742
 30
0.0
 50
90.00000000000005
1001
REVIT
1002
{
1070
     1
1000
161994
1002
}
1002
{
1070
     5
1000
143715
1002
}
1002
{
1070
     2
1000
-2002000
1002
}
  0
HATCH
  5
14A
330
75
100
AcDbEntity
  8
A-DETLGEM
 62
   250
100
AcDbHatch
 10
0.0
 20
0.0
 30
0.0
210
0.0
220
0.0
230
1.0
  2
SOLID
 70
     1
 71
     0
 91
        1
 92
        0
 93
        4
 72
     1
 10
3443.823128693622
 20
2846.83477727042
 11
3442.155166443774
 21
2849.367449722227
 72
     1
 10
3442.155166443774
 20
2849.367449722227
 11
3416.60174686388
 21
2832.538530852982
 72
     1
 10
3416.60174686388
 20
2832.538530852982
 11
3418.26970911373
 21
2830.005858401174
 72
     1
 10
3418.26970911373
 20
2830.005858401174
 11
3443.823128693622
 21
2846.83477727042
 97
        0
 75
     0
 76
     1
 98
        1
 10
0.0
 20
0.0
450
        0
451
        0
460
0.0
461
0.0
452
        0
462
0.0
453
        0
470

1001
REVIT
1002
{
1070
     1
1000
162007
1002
}
1002
{
1070
     2
1000
-2000059
1002
}
1002
{
1070
     3
1000
131133
1002
}
  0
HATCH
  5
14F
330
75
100
AcDbEntity
  8
A-DETLGEM
 62
   250
100
AcDbHatch
 10
0.0
 20
0.0
 30
0.0
210
0.0
220
0.0
230
1.0
  2
SOLID
 70
     1
 71
     0
 91
        1
 92
        0
 93
        4
 72
     1
 10
3280.909014191258
 20
2743.174288147455
 11
3282.576976441115
 21
2740.641615695635
 72
     1
 10
3282.576976441115
 20
2740.641615695635
 11
3415.483325566467
 21
2828.170807616331
 72
     1
 10
3415.483325566467
 20
2828.170807616331
 11
3413.815363316617
 21
2830.703480068139
 72
     1
 10
3413.815363316617
 20
2830.703480068139
 11
3280.909014191258
 21
2743.174288147455
 97
        0
 75
     0
 76
     1
 98
        1
 10
0.0
 20
0.0
450
        0
451
        0
460
0.0
461
0.0
452
        0
462
0.0
453
        0
470

1001
REVIT
1002
{
1070
     1
1000
162007
1002
}
1002
{
1070
     2
1000
-2000059
1002
}
1002
{
1070
     3
1000
131133
1002
}
  0
LINE
  5
150
330
75
100
AcDbEntity
  8
A-----NPP
370
    18
100
AcDbLine
 10
3443.823128693622
 20
2846.834777270422
 30
0.0
 11
3442.155166443774
 21
2849.367449722228
 31
0.0
1001
REVIT
1002
{
1070
     1
1000
162007
1002
}
1002
{
1070
     2
1000
-2000051
1002
}
1002
{
1070
     3
1000
-2000042
1002
}
  0
LINE
  5
151
330
75
100
AcDbEntity
  8
A-----NPP
370
    18
100
AcDbLine
 10
3442.155166443774
 20
2849.367449722228
 30
0.0
 11
3416.601746863881
 21
2832.538530852982
 31
0.0
1001
REVIT
1002
{
1070
     1
1000
162007
1002
}
1002
{
1070
     2
1000
-2000051
1002
}
1002
{
1070
     3
1000
-2000042
1002
}
  0
LINE
  5
152
330
75
100
AcDbEntity
  8
A-----NPP
370
    18
100
AcDbLine
 10
3413.815363316618
 20
2830.703480068141
 30
0.0
 11
3280.909014191259
 21
2743.174288147456
 31
0.0
1001
REVIT
1002
{
1070
     1
1000
162007
1002
}
1002
{
1070
     2
1000
-2000051
1002
}
1002
{
1070
     3
1000
-2000042
1002
}
  0
LINE
  5
153
330
75
100
AcDbEntity
  8
A-----NPP
370
    18
100
AcDbLine
 10
3280.909014191259
 20
2743.174288147456
 30
0.0
 11
3282.576976441117
 21
2740.641615695636
 31
0.0
1001
REVIT
1002
{
1070
     1
1000
162007
1002
}
1002
{
1070
     2
1000
-2000051
1002
}
1002
{
1070
     3
1000
-2000042
1002
}
  0
LINE
  5
154
330
75
100
AcDbEntity
  8
A-----NPP
370
    18
100
AcDbLine
 10
3282.576976441117
 20
2740.641615695636
 30
0.0
 11
3415.483325566468
 21
2828.170807616332
 31
0.0
1001
REVIT
1002
{
1070
     1
1000
162007
1002
}
1002
{
1070
     2
1000
-2000051
1002
}
1002
{
1070
     3
1000
-2000042
1002
}
  0
LINE
  5
155
330
75
100
AcDbEntity
  8
A-----NPP
370
    18
100
AcDbLine
 10
3418.26970911373
 20
2830.005858401174
 30
0.0
 11
3443.823128693622
 21
2846.834777270422
 31
0.0
1001
REVIT
1002
{
1070
     1
1000
162007
1002
}
1002
{
1070
     2
1000
-2000051
1002
}
1002
{
1070
     3
1000
-2000042
1002
}
  0
INSERT
  5
156
330
75
100
AcDbEntity
  8
A-DETLGEM
100
AcDbBlockReference
  2
nail sp - nail sp_1-1-Detail 4
 10
3270.495321553506
 20
2851.517393120059
 30
0.0
 50
303.3680193746373
1001
REVIT
1002
{
1070
     1
1000
162012
1002
}
1002
{
1070
     5
1000
129817
1002
}
1002
{
1070
     2
1000
-2002000
1002
}
  0
LINE
  5
157
330
75
100
AcDbEntity
  8
A-----NPP
100
AcDbLine
 10
3337.039382425435
 20
2827.050649737217
 30
0.0
 11
3550.542437520882
 21
2955.336227586195
 31
0.0
1001
REVIT
1002
{
1070
     1
1000
162029
1002
}
1002
{
1070
     2
1000
-2000051
1002
}
1002
{
1070
     3
1000
-2000043
1002
}
  0
MTEXT
  5
159
330
75
100
AcDbEntity
  8
A-----TEP
 62
     7
100
AcDbMText
 10
2798.974156625789
 20
2619.470183966788
 30
0.0
 40
12.29416167664671
 41
136.05
 46
0.0
 71
     1
 72
     1
  1
\fArial|b0|i0|c0|p34|;ROOF FRAME
 73
     2
 44
0.938531787846856
1001
REVIT
1002
{
1070
     1
1000
161932
1002
}
1002
{
1070
     5
1000
1631
1002
}
1002
{
1070
     2
1000
-2000059
1002
}
1002
{
1070
     3
1000
1632
1002
}
  0
MTEXT
  5
15A
330
75
100
AcDbEntity
  8
A-----TEP
 62
     7
100
AcDbMText
 10
3085.795658670852
 20
2218.429358588263
 30
0.0
 40
17.21182634730539
 41
754.2828797795383
 46
0.0
 71
     1
 72
     1
  1
\fArial|b1|i0|c0|p34|;TYPICAL ROOF/WALL RIDGE DETAIL - CROSS SECTION
 73
     2
 44
0.9385317878468562
1001
REVIT
1002
{
1070
     1
1000
161985
1002
}
1002
{
1070
     5
1000
1635
1002
}
1002
{
1070
     2
1000
-2000059
1002
}
1002
{
1070
     3
1000
1636
1002
}
  0
MTEXT
  5
15B
330
75
100
AcDbEntity
  8
A-----TEP
 62
     7
100
AcDbMText
 10
2827.003683260406
 20
2681.921221234442
 30
0.0
 40
12.29416167664671
 41
104.1
 46
0.0
 71
     1
 72
     1
  1
\fArial|b0|i0|c0|p34|;PLYWOOD
 73
     2
 44
0.938531787846856
1001
REVIT
1002
{
1070
     1
1000
161986
1002
}
1002
{
1070
     5
1000
1631
1002
}
1002
{
1070
     2
1000
-2000059
1002
}
1002
{
1070
     3
1000
1632
1002
}
  0
MTEXT
  5
15C
330
75
100
AcDbEntity
  8
A-----TEP
 62
     7
100
AcDbMText
 10
3807.237884124573
 20
2896.617142278111
 30
0.0
 40
12.29416167664671
 41
280.35
 46
0.0
 71
     1
 72
     1
  1
\fArial|b0|i0|c0|p34|;COLOURSTEEL OR COPPER\PRIDGE FLASHING
 73
     2
 44
0.938531787846856
1001
REVIT
1002
{
1070
     1
1000
161987
1002
}
1002
{
1070
     5
1000
1631
1002
}
1002
{
1070
     2
1000
-2000059
1002
}
1002
{
1070
     3
1000
1632
1002
}
  0
MTEXT
  5
15D
330
75
100
AcDbEntity
  8
A-----TEP
 62
     7
100
AcDbMText
 10
2676.19234295962
 20
2916.617142278225
 30
0.0
 40
12.29416167664671
 41
397.2
 46
0.0
 71
     1
 72
     1
  1
\fArial|b0|i0|c0|p34|;SOUTH PACIFIC SHINGLES RIDGE VENT\P(IN ROOF VENTS ALSO ACCEPTABLE)
 73
     2
 44
0.938531787846856
1001
REVIT
1002
{
1070
     1
1000
161988
1002
}
1002
{
1070
     5
1000
1631
1002
}
1002
{
1070
     2
1000
-2000059
1002
}
1002
{
1070
     3
1000
1632
1002
}
  0
MTEXT
  5
15E
330
75
100
AcDbEntity
  8
A-----TEP
 62
     7
100
AcDbMText
 10
3807.237884124573
 20
2571.366420883794
 30
0.0
 40
12.29416167664671
 41
132.75
 46
0.0
 71
     1
 72
     1
  1
\fArial|b0|i0|c0|p34|;WALL FRAME
 73
     2
 44
0.938531787846856
1001
REVIT
1002
{
1070
     1
1000
161989
1002
}
1002
{
1070
     5
1000
1631
1002
}
1002
{
1070
     2
1000
-2000059
1002
}
1002
{
1070
     3
1000
1632
1002
}
  0
MTEXT
  5
15F
330
75
100
AcDbEntity
  8
A-----TEP
 62
     7
100
AcDbMText
 10
3807.237884124573
 20
2622.819967542117
 30
0.0
 40
12.29416167664671
 41
219.0
 46
0.0
 71
     1
 72
     1
  1
\fArial|b0|i0|c0|p34|;SELECTED CLADDING
 73
     2
 44
0.938531787846856
1001
REVIT
1002
{
1070
     1
1000
161990
1002
}
1002
{
1070
     5
1000
1631
1002
}
1002
{
1070
     2
1000
-2000059
1002
}
1002
{
1070
     3
1000
1632
1002
}
  0
MTEXT
  5
160
330
75
100
AcDbEntity
  8
A-----TEP
 62
     7
100
AcDbMText
 10
3807.237884124573
 20
2725.579755694899
 30
0.0
 40
12.29416167664671
 41
149.85
 46
0.0
 71
     1
 72
     1
  1
\fArial|b0|i0|c0|p34|;BARGE BOARD
 73
     2
 44
0.938531787846856
1001
REVIT
1002
{
1070
     1
1000
161991
1002
}
1002
{
1070
     5
1000
1631
1002
}
1002
{
1070
     2
1000
-2000059
1002
}
1002
{
1070
     3
1000
1632
1002
}
  0
MTEXT
  5
161
330
75
100
AcDbEntity
  8
A-----TEP
 62
     7
100
AcDbMText
 10
3807.237884124573
 20
2792.295335006072
 30
0.0
 40
12.29416167664671
 41
143.1
 46
0.0
 71
     1
 72
     1
  1
\fArial|b0|i0|c0|p34|;AIR VENT GAP
 73
     2
 44
0.938531787846856
1001
REVIT
1002
{
1070
     1
1000
161992
1002
}
1002
{
1070
     5
1000
1631
1002
}
1002
{
1070
     2
1000
-2000059
1002
}
1002
{
1070
     3
1000
1632
1002
}
  0
LINE
  5
163
330
75
100
AcDbEntity
  8
A-----NOP
100
AcDbLine
 10
3376.543243313178
 20
2838.228219315928
 30
0.0
 11
3375.176286392152
 21
2830.306822877918
 31
0.0
1001
REVIT
1002
{
1070
     1
1000
161995
1002
}
1002
{
1070
     5
1000
142258
1002
}
1002
{
1070
     2
1000
-2000150
1002
}
  0
LINE
  5
164
330
75
100
AcDbEntity
  8
A-----NOP
100
AcDbLine
 10
3375.176286392152
 20
2830.306822877918
 30
0.0
 11
3390.641291839437
 21
2831.71674475641
 31
0.0
1001
REVIT
1002
{
1070
     1
1000
161995
1002
}
1002
{
1070
     5
1000
142258
1002
}
1002
{
1070
     2
1000
-2000150
1002
}
  0
LINE
  5
165
330
75
100
AcDbEntity
  8
A-----NOP
100
AcDbLine
 10
3390.641291839437
 20
2831.71674475641
 30
0.0
 11
3376.543243313178
 21
2838.228219315928
 31
0.0
1001
REVIT
1002
{
1070
     1
1000
161995
1002
}
1002
{
1070
     5
1000
142258
1002
}
1002
{
1070
     2
1000
-2000150
1002
}
  0
HATCH
  5
166
330
75
100
AcDbEntity
  8
A-----NOP
100
AcDbHatch
 10
0.0
 20
0.0
 30
0.0
210
0.0
220
0.0
230
1.0
  2
SOLID
 70
     1
 71
     0
 91
        1
 92
        0
 93
        3
 72
     1
 10
3376.543243313178
 20
2838.228219315928
 11
3375.176286392152
 21
2830.306822877918
 72
     1
 10
3375.176286392152
 20
2830.306822877918
 11
3390.641291839437
 21
2831.71674475641
 72
     1
 10
3390.641291839437
 20
2831.71674475641
 11
3376.543243313178
 21
2838.228219315928
 97
        0
 75
     0
 76
     1
 98
        1
 10
0.0
 20
0.0
450
        0
451
        0
460
0.0
461
0.0
452
        0
462
0.0
453
        0
470

1001
REVIT
1002
{
1070
     1
1000
161995
1002
}
1002
{
1070
     5
1000
142258
1002
}
1002
{
1070
     2
1000
-2000150
1002
}
  0
LINE
  5
167
330
75
100
AcDbEntity
  8
A-----NOP
100
AcDbLine
 10
3095.010812715566
 20
2882.732261107222
 30
0.0
 11
2990.602222114525
 21
2882.732261107279
 31
0.0
1001
REVIT
1002
{
1070
     1
1000
161995
1002
}
1002
{
1070
     5
1000
142258
1002
}
1002
{
1070
     2
1000
-2000150
1002
}
  0
LINE
  5
168
330
75
100
AcDbEntity
  8
A-----NOP
100
AcDbLine
 10
3390.641291839437
 20
2831.71674475641
 30
0.0
 11
3095.010812715566
 21
2882.732261107222
 31
0.0
1001
REVIT
1002
{
1070
     1
1000
161995
1002
}
1002
{
1070
     5
1000
142258
1002
}
1002
{
1070
     2
1000
-2000150
1002
}
  0
INSERT
  5
16C
330
75
100
AcDbEntity
  8
A-----NOP
100
AcDbBlockReference
  2
M_Label Annotation - M_Label Annotation_1-142258-Detail 4
 10
2961.83355196719
 20
2888.031106809437
 30
0.0
 41
5.0
 42
5.0
 43
5.0
1001
REVIT
1002
{
1070
     1
1000
161995
1002
}
1002
{
1070
     5
1000
142258
1002
}
1002
{
1070
     2
1000
-2000150
1002
}
  0
LINE
  5
16D
330
75
100
AcDbEntity
  8
A-----NOP
100
AcDbLine
 10
3255.701729705305
 20
2737.143838875994
 30
0.0
 11
3252.955074136005
 21
2729.589173037212
 31
0.0
1001
REVIT
1002
{
1070
     1
1000
161996
1002
}
1002
{
1070
     5
1000
142258
1002
}
1002
{
1070
     2
1000
-2000150
1002
}
  0
LINE
  5
16E
330
75
100
AcDbEntity
  8
A-----NOP
100
AcDbLine
 10
3252.955074136005
 20
2729.589173037212
 30
0.0
 11
3268.425600292927
 21
2728.241176888843
 31
0.0
1001
REVIT
1002
{
1070
     1
1000
161996
1002
}
1002
{
1070
     5
1000
142258
1002
}
1002
{
1070
     2
1000
-2000150
1002
}
  0
LINE
  5
16F
330
75
100
AcDbEntity
  8
A-----NOP
100
AcDbLine
 10
3268.425600292927
 20
2728.241176888843
 30
0.0
 11
3255.701729705305
 21
2737.143838875994
 31
0.0
1001
REVIT
1002
{
1070
     1
1000
161996
1002
}
1002
{
1070
     5
1000
142258
1002
}
1002
{
1070
     2
1000
-2000150
1002
}
  0
HATCH
  5
170
330
75
100
AcDbEntity
  8
A-----NOP
100
AcDbHatch
 10
0.0
 20
0.0
 30
0.0
210
0.0
220
0.0
230
1.0
  2
SOLID
 70
     1
 71
     0
 91
        1
 92
        0
 93
        3
 72
     1
 10
3255.701729705305
 20
2737.143838875994
 11
3252.955074136005
 21
2729.589173037212
 72
     1
 10
3252.955074136005
 20
2729.589173037212
 11
3268.425600292927
 21
2728.241176888843
 72
     1
 10
3268.425600292927
 20
2728.241176888843
 11
3255.701729705305
 21
2737.143838875994
 97
        0
 75
     0
 76
     1
 98
        1
 10
0.0
 20
0.0
450
        0
451
        0
460
0.0
461
0.0
452
        0
462
0.0
453
        0
470

1001
REVIT
1002
{
1070
     1
1000
161996
1002
}
1002
{
1070
     5
1000
142258
1002
}
1002
{
1070
     2
1000
-2000150
1002
}
  0
LINE
  5
171
330
75
100
AcDbEntity
  8
A-----NOP
100
AcDbLine
 10
3026.926618566166
 20
2816.04314421543
 30
0.0
 11
2922.518027965125
 21
2816.043144215488
 31
0.0
1001
REVIT
1002
{
1070
     1
1000
161996
1002
}
1002
{
1070
     5
1000
142258
1002
}
1002
{
1070
     2
1000
-2000150
1002
}
  0
LINE
  5
172
330
75
100
AcDbEntity
  8
A-----NOP
100
AcDbLine
 10
3268.425600292927
 20
2728.241176888843
 30
0.0
 11
3026.926618566166
 21
2816.04314421543
 31
0.0
1001
REVIT
1002
{
1070
     1
1000
161996
1002
}
1002
{
1070
     5
1000
142258
1002
}
1002
{
1070
     2
1000
-2000150
1002
}
  0
INSERT
  5
173
330
75
100
AcDbEntity
  8
A-----NOP
100
AcDbBlockReference
  2
M_Label Annotation - M_Label Annotation_1-142258-Detail 4
 10
2893.749357817791
 20
2821.341989917645
 30
0.0
 41
5.0
 42
5.0
 43
5.0
1001
REVIT
1002
{
1070
     1
1000
161996
1002
}
1002
{
1070
     5
1000
142258
1002
}
1002
{
1070
     2
1000
-2000150
1002
}
  0
LINE
  5
174
330
75
100
AcDbEntity
  8
A-----NOP
100
AcDbLine
 10
3213.750373509751
 20
2688.604804862058
 30
0.0
 11
3211.525265228686
 21
2680.880428777896
 31
0.0
1001
REVIT
1002
{
1070
     1
1000
161997
1002
}
1002
{
1070
     5
1000
142258
1002
}
1002
{
1070
     2
1000
-2000150
1002
}
  0
LINE
  5
175
330
75
100
AcDbEntity
  8
A-----NOP
100
AcDbLine
 10
3211.525265228686
 20
2680.880428777896
 30
0.0
 11
3227.05170137065
 21
2680.590508241338
 31
0.0
1001
REVIT
1002
{
1070
     1
1000
161997
1002
}
1002
{
1070
     5
1000
142258
1002
}
1002
{
1070
     2
1000
-2000150
1002
}
  0
LINE
  5
176
330
75
100
AcDbEntity
  8
A-----NOP
100
AcDbLine
 10
3227.05170137065
 20
2680.590508241338
 30
0.0
 11
3213.750373509751
 21
2688.604804862058
 31
0.0
1001
REVIT
1002
{
1070
     1
1000
161997
1002
}
1002
{
1070
     5
1000
142258
1002
}
1002
{
1070
     2
1000
-2000150
1002
}
  0
HATCH
  5
177
330
75
100
AcDbEntity
  8
A-----NOP
100
AcDbHatch
 10
0.0
 20
0.0
 30
0.0
210
0.0
220
0.0
230
1.0
  2
SOLID
 70
     1
 71
     0
 91
        1
 92
        0
 93
        3
 72
     1
 10
3213.750373509751
 20
2688.604804862058
 11
3211.525265228686
 21
2680.880428777896
 72
     1
 10
3211.525265228686
 20
2680.880428777896
 11
3227.05170137065
 21
2680.590508241338
 72
     1
 10
3227.05170137065
 20
2680.590508241338
 11
3213.750373509751
 21
2688.604804862058
 97
        0
 75
     0
 76
     1
 98
        1
 10
0.0
 20
0.0
450
        0
451
        0
460
0.0
461
0.0
452
        0
462
0.0
453
        0
470

1001
REVIT
1002
{
1070
     1
1000
161997
1002
}
1002
{
1070
     5
1000
142258
1002
}
1002
{
1070
     2
1000
-2000150
1002
}
  0
LINE
  5
178
330
75
100
AcDbEntity
  8
A-----NOP
100
AcDbLine
 10
3026.926618566166
 20
2738.239174508392
 30
0.0
 11
2922.518027965125
 21
2738.239174508449
 31
0.0
1001
REVIT
1002
{
1070
     1
1000
161997
1002
}
1002
{
1070
     5
1000
142258
1002
}
1002
{
1070
     2
1000
-2000150
1002
}
  0
LINE
  5
179
330
75
100
AcDbEntity
  8
A-----NOP
100
AcDbLine
 10
3227.05170137065
 20
2680.590508241338
 30
0.0
 11
3026.926618566166
 21
2738.239174508392
 31
0.0
1001
REVIT
1002
{
1070
     1
1000
161997
1002
}
1002
{
1070
     5
1000
142258
1002
}
1002
{
1070
     2
1000
-2000150
1002
}
  0
INSERT
  5
17A
330
75
100
AcDbEntity
  8
A-----NOP
100
AcDbBlockReference
  2
M_Label Annotation - M_Label Annotation_1-142258-Detail 4
 10
2893.749357817791
 20
2743.538020210607
 30
0.0
 41
5.0
 42
5.0
 43
5.0
1001
REVIT
1002
{
1070
     1
1000
161997
1002
}
1002
{
1070
     5
1000
142258
1002
}
1002
{
1070
     2
1000
-2000150
1002
}
  0
LINE
  5
17B
330
75
100
AcDbEntity
  8
A-----NOP
100
AcDbLine
 10
3158.294909875305
 20
2634.805430701157
 30
0.0
 11
3155.956912440762
 21
2627.114471024491
 31
0.0
1001
REVIT
1002
{
1070
     1
1000
161998
1002
}
1002
{
1070
     5
1000
142258
1002
}
1002
{
1070
     2
1000
-2000150
1002
}
  0
LINE
  5
17C
330
75
100
AcDbEntity
  8
A-----NOP
100
AcDbLine
 10
3155.956912440762
 20
2627.114471024491
 30
0.0
 11
3171.477437294174
 21
2626.597188255983
 31
0.0
1001
REVIT
1002
{
1070
     1
1000
161998
1002
}
1002
{
1070
     5
1000
142258
1002
}
1002
{
1070
     2
1000
-2000150
1002
}
  0
LINE
  5
17D
330
75
100
AcDbEntity
  8
A-----NOP
100
AcDbLine
 10
3171.477437294174
 20
2626.597188255983
 30
0.0
 11
3158.294909875305
 21
2634.805430701157
 31
0.0
1001
REVIT
1002
{
1070
     1
1000
161998
1002
}
1002
{
1070
     5
1000
142258
1002
}
1002
{
1070
     2
1000
-2000150
1002
}
  0
HATCH
  5
17E
330
75
100
AcDbEntity
  8
A-----NOP
100
AcDbHatch
 10
0.0
 20
0.0
 30
0.0
210
0.0
220
0.0
230
1.0
  2
SOLID
 70
     1
 71
     0
 91
        1
 92
        0
 93
        3
 72
     1
 10
3158.294909875305
 20
2634.805430701157
 11
3155.956912440762
 21
2627.114471024491
 72
     1
 10
3155.956912440762
 20
2627.114471024491
 11
3171.477437294174
 21
2626.597188255983
 72
     1
 10
3171.477437294174
 20
2626.597188255983
 11
3158.294909875305
 21
2634.805430701157
 97
        0
 75
     0
 76
     1
 98
        1
 10
0.0
 20
0.0
450
        0
451
        0
460
0.0
461
0.0
452
        0
462
0.0
453
        0
470

1001
REVIT
1002
{
1070
     1
1000
161998
1002
}
1002
{
1070
     5
1000
142258
1002
}
1002
{
1070
     2
1000
-2000150
1002
}
  0
LINE
  5
17F
330
75
100
AcDbEntity
  8
A-----NOP
100
AcDbLine
 10
3026.926618566166
 20
2670.539616451597
 30
0.0
 11
2922.518027965125
 21
2670.539616451654
 31
0.0
1001
REVIT
1002
{
1070
     1
1000
161998
1002
}
1002
{
1070
     5
1000
142258
1002
}
1002
{
1070
     2
1000
-2000150
1002
}
  0
LINE
  5
180
330
75
100
AcDbEntity
  8
A-----NOP
100
AcDbLine
 10
3171.477437294174
 20
2626.597188255983
 30
0.0
 11
3026.926618566166
 21
2670.539616451597
 31
0.0
1001
REVIT
1002
{
1070
     1
1000
161998
1002
}
1002
{
1070
     5
1000
142258
1002
}
1002
{
1070
     2
1000
-2000150
1002
}
  0
INSERT
  5
181
330
75
100
AcDbEntity
  8
A-----NOP
100
AcDbBlockReference
  2
M_Label Annotation - M_Label Annotation_1-142258-Detail 4
 10
2893.749357817791
 20
2675.838462153811
 30
0.0
 41
5.0
 42
5.0
 43
5.0
1001
REVIT
1002
{
1070
     1
1000
161998
1002
}
1002
{
1070
     5
1000
142258
1002
}
1002
{
1070
     2
1000
-2000150
1002
}
  0
LINE
  5
182
330
75
100
AcDbEntity
  8
A-----NOP
100
AcDbLine
 10
3120.112495729978
 20
2512.169686467406
 30
0.0
 11
3114.19091405809
 21
2506.733514721112
 31
0.0
1001
REVIT
1002
{
1070
     1
1000
161999
1002
}
1002
{
1070
     5
1000
142258
1002
}
1002
{
1070
     2
1000
-2000150
1002
}
  0
LINE
  5
183
330
75
100
AcDbEntity
  8
A-----NOP
100
AcDbLine
 10
3114.19091405809
 20
2506.733514721112
 30
0.0
 11
3127.295739471953
 21
2498.401778763932
 31
0.0
1001
REVIT
1002
{
1070
     1
1000
161999
1002
}
1002
{
1070
     5
1000
142258
1002
}
1002
{
1070
     2
1000
-2000150
1002
}
  0
LINE
  5
184
330
75
100
AcDbEntity
  8
A-----NOP
100
AcDbLine
 10
3127.295739471953
 20
2498.401778763932
 30
0.0
 11
3120.112495729978
 21
2512.169686467406
 31
0.0
1001
REVIT
1002
{
1070
     1
1000
161999
1002
}
1002
{
1070
     5
1000
142258
1002
}
1002
{
1070
     2
1000
-2000150
1002
}
  0
HATCH
  5
185
330
75
100
AcDbEntity
  8
A-----NOP
100
AcDbHatch
 10
0.0
 20
0.0
 30
0.0
210
0.0
220
0.0
230
1.0
  2
SOLID
 70
     1
 71
     0
 91
        1
 92
        0
 93
        3
 72
     1
 10
3120.112495729978
 20
2512.169686467406
 11
3114.19091405809
 21
2506.733514721112
 72
     1
 10
3114.19091405809
 20
2506.733514721112
 11
3127.295739471953
 21
2498.401778763932
 72
     1
 10
3127.295739471953
 20
2498.401778763932
 11
3120.112495729978
 21
2512.169686467406
 97
        0
 75
     0
 76
     1
 98
        1
 10
0.0
 20
0.0
450
        0
451
        0
460
0.0
461
0.0
452
        0
462
0.0
453
        0
470

1001
REVIT
1002
{
1070
     1
1000
161999
1002
}
1002
{
1070
     5
1000
142258
1002
}
1002
{
1070
     2
1000
-2000150
1002
}
  0
LINE
  5
186
330
75
100
AcDbEntity
  8
A-----NOP
100
AcDbLine
 10
3026.926618566166
 20
2607.733119736455
 30
0.0
 11
2922.518027965125
 21
2607.733119736511
 31
0.0
1001
REVIT
1002
{
1070
     1
1000
161999
1002
}
1002
{
1070
     5
1000
142258
1002
}
1002
{
1070
     2
1000
-2000150
1002
}
  0
LINE
  5
187
330
75
100
AcDbEntity
  8
A-----NOP
100
AcDbLine
 10
3127.295739471953
 20
2498.401778763932
 30
0.0
 11
3026.926618566166
 21
2607.733119736455
 31
0.0
1001
REVIT
1002
{
1070
     1
1000
161999
1002
}
1002
{
1070
     5
1000
142258
1002
}
1002
{
1070
     2
1000
-2000150
1002
}
  0
INSERT
  5
188
330
75
100
AcDbEntity
  8
A-----NOP
100
AcDbBlockReference
  2
M_Label Annotation - M_Label Annotation_1-142258-Detail 4
 10
2893.749357817791
 20
2613.03196543867
 30
0.0
 41
5.0
 42
5.0
 43
5.0
1001
REVIT
1002
{
1070
     1
1000
161999
1002
}
1002
{
1070
     5
1000
142258
1002
}
1002
{
1070
     2
1000
-2000150
1002
}
  0
LINE
  5
189
330
75
100
AcDbEntity
  8
A-----NOP
100
AcDbLine
 10
3570.366025778405
 20
2895.664724999342
 30
0.0
 11
3572.598220669631
 21
2903.387056170667
 31
0.0
1001
REVIT
1002
{
1070
     1
1000
162000
1002
}
1002
{
1070
     5
1000
142258
1002
}
1002
{
1070
     2
1000
-2000150
1002
}
  0
LINE
  5
18A
330
75
100
AcDbEntity
  8
A-----NOP
100
AcDbLine
 10
3572.598220669631
 20
2903.387056170667
 30
0.0
 11
3557.072057081888
 21
2903.69122295823
 31
0.0
1001
REVIT
1002
{
1070
     1
1000
162000
1002
}
1002
{
1070
     5
1000
142258
1002
}
1002
{
1070
     2
1000
-2000150
1002
}
  0
LINE
  5
18B
330
75
100
AcDbEntity
  8
A-----NOP
100
AcDbLine
 10
3557.072057081888
 20
2903.69122295823
 30
0.0
 11
3570.366025778405
 21
2895.664724999342
 31
0.0
1001
REVIT
1002
{
1070
     1
1000
162000
1002
}
1002
{
1070
     5
1000
142258
1002
}
1002
{
1070
     2
1000
-2000150
1002
}
  0
HATCH
  5
18C
330
75
100
AcDbEntity
  8
A-----NOP
100
AcDbHatch
 10
0.0
 20
0.0
 30
0.0
210
0.0
220
0.0
230
1.0
  2
SOLID
 70
     1
 71
     0
 91
        1
 92
        0
 93
        3
 72
     1
 10
3570.366025778405
 20
2895.664724999342
 11
3572.598220669631
 21
2903.387056170667
 72
     1
 10
3572.598220669631
 20
2903.387056170667
 11
3557.072057081888
 21
2903.69122295823
 72
     1
 10
3557.072057081888
 20
2903.69122295823
 11
3570.366025778405
 21
2895.664724999342
 97
        0
 75
     0
 76
     1
 98
        1
 10
0.0
 20
0.0
450
        0
451
        0
460
0.0
461
0.0
452
        0
462
0.0
453
        0
470

1001
REVIT
1002
{
1070
     1
1000
162000
1002
}
1002
{
1070
     5
1000
142258
1002
}
1002
{
1070
     2
1000
-2000150
1002
}
  0
LINE
  5
18D
330
75
100
AcDbEntity
  8
A-----NOP
100
AcDbLine
 10
3688.00830549049
 20
2865.843166679679
 30
0.0
 11
3803.01997180989
 21
2865.843166679736
 31
0.0
1001
REVIT
1002
{
1070
     1
1000
162000
1002
}
1002
{
1070
     5
1000
142258
1002
}
1002
{
1070
     2
1000
-2000150
1002
}
  0
LINE
  5
18E
330
75
100
AcDbEntity
  8
A-----NOP
100
AcDbLine
 10
3557.072057081888
 20
2903.69122295823
 30
0.0
 11
3688.00830549049
 21
2865.843166679679
 31
0.0
1001
REVIT
1002
{
1070
     1
1000
162000
1002
}
1002
{
1070
     5
1000
142258
1002
}
1002
{
1070
     2
1000
-2000150
1002
}
  0
INSERT
  5
18F
330
75
100
AcDbEntity
  8
A-----NOP
100
AcDbBlockReference
  2
M_Label Annotation - M_Label Annotation_1-142258-Detail 4
 10
3831.717794011428
 20
2871.142012381895
 30
0.0
 41
5.0
 42
5.0
 43
5.0
1001
REVIT
1002
{
1070
     1
1000
162000
1002
}
1002
{
1070
     5
1000
142258
1002
}
1002
{
1070
     2
1000
-2000150
1002
}
  0
LINE
  5
190
330
75
100
AcDbEntity
  8
A-----NOP
100
AcDbLine
 10
3491.027329809937
 20
2809.187793640679
 30
0.0
 11
3492.350537214269
 21
2817.116615426869
 31
0.0
1001
REVIT
1002
{
1070
     1
1000
162001
1002
}
1002
{
1070
     5
1000
142258
1002
}
1002
{
1070
     2
1000
-2000150
1002
}
  0
LINE
  5
191
330
75
100
AcDbEntity
  8
A-----NOP
100
AcDbLine
 10
3492.350537214269
 20
2817.116615426869
 30
0.0
 11
3476.893550636993
 21
2815.621343164733
 31
0.0
1001
REVIT
1002
{
1070
     1
1000
162001
1002
}
1002
{
1070
     5
1000
142258
1002
}
1002
{
1070
     2
1000
-2000150
1002
}
  0
LINE
  5
192
330
75
100
AcDbEntity
  8
A-----NOP
100
AcDbLine
 10
3476.893550636993
 20
2815.621343164733
 30
0.0
 11
3491.027329809937
 21
2809.187793640679
 31
0.0
1001
REVIT
1002
{
1070
     1
1000
162001
1002
}
1002
{
1070
     5
1000
142258
1002
}
1002
{
1070
     2
1000
-2000150
1002
}
  0
HATCH
  5
193
330
75
100
AcDbEntity
  8
A-----NOP
100
AcDbHatch
 10
0.0
 20
0.0
 30
0.0
210
0.0
220
0.0
230
1.0
  2
SOLID
 70
     1
 71
     0
 91
        1
 92
        0
 93
        3
 72
     1
 10
3491.027329809937
 20
2809.187793640679
 11
3492.350537214269
 21
2817.116615426869
 72
     1
 10
3492.350537214269
 20
2817.116615426869
 11
3476.893550636993
 21
2815.621343164733
 72
     1
 10
3476.893550636993
 20
2815.621343164733
 11
3491.027329809937
 21
2809.187793640679
 97
        0
 75
     0
 76
     1
 98
        1
 10
0.0
 20
0.0
450
        0
451
        0
460
0.0
461
0.0
452
        0
462
0.0
453
        0
470

1001
REVIT
1002
{
1070
     1
1000
162001
1002
}
1002
{
1070
     5
1000
142258
1002
}
1002
{
1070
     2
1000
-2000150
1002
}
  0
LINE
  5
194
330
75
100
AcDbEntity
  8
A-----NOP
100
AcDbLine
 10
3688.00830549049
 20
2780.389298061577
 30
0.0
 11
3803.01997180989
 21
2780.389298061634
 31
0.0
1001
REVIT
1002
{
1070
     1
1000
162001
1002
}
1002
{
1070
     5
1000
142258
1002
}
1002
{
1070
     2
1000
-2000150
1002
}
  0
LINE
  5
195
330
75
100
AcDbEntity
  8
A-----NOP
100
AcDbLine
 10
3476.893550636993
 20
2815.621343164733
 30
0.0
 11
3688.00830549049
 21
2780.389298061577
 31
0.0
1001
REVIT
1002
{
1070
     1
1000
162001
1002
}
1002
{
1070
     5
1000
142258
1002
}
1002
{
1070
     2
1000
-2000150
1002
}
  0
INSERT
  5
196
330
75
100
AcDbEntity
  8
A-----NOP
100
AcDbBlockReference
  2
M_Label Annotation - M_Label Annotation_1-142258-Detail 4
 10
3831.717794011428
 20
2785.688143763792
 30
0.0
 41
5.0
 42
5.0
 43
5.0
1001
REVIT
1002
{
1070
     1
1000
162001
1002
}
1002
{
1070
     5
1000
142258
1002
}
1002
{
1070
     2
1000
-2000150
1002
}
  0
LINE
  5
197
330
75
100
AcDbEntity
  8
A-----NOP
100
AcDbLine
 10
3551.579323804076
 20
2750.432372915773
 30
0.0
 11
3553.91907174098
 21
2758.122800234446
 31
0.0
1001
REVIT
1002
{
1070
     1
1000
162002
1002
}
1002
{
1070
     5
1000
142258
1002
}
1002
{
1070
     2
1000
-2000150
1002
}
  0
LINE
  5
198
330
75
100
AcDbEntity
  8
A-----NOP
100
AcDbLine
 10
3553.91907174098
 20
2758.122800234446
 30
0.0
 11
3538.398665029926
 21
2758.643615663825
 31
0.0
1001
REVIT
1002
{
1070
     1
1000
162002
1002
}
1002
{
1070
     5
1000
142258
1002
}
1002
{
1070
     2
1000
-2000150
1002
}
  0
LINE
  5
199
330
75
100
AcDbEntity
  8
A-----NOP
100
AcDbLine
 10
3538.398665029926
 20
2758.643615663825
 30
0.0
 11
3551.579323804076
 21
2750.432372915773
 31
0.0
1001
REVIT
1002
{
1070
     1
1000
162002
1002
}
1002
{
1070
     5
1000
142258
1002
}
1002
{
1070
     2
1000
-2000150
1002
}
  0
HATCH
  5
19A
330
75
100
AcDbEntity
  8
A-----NOP
100
AcDbHatch
 10
0.0
 20
0.0
 30
0.0
210
0.0
220
0.0
230
1.0
  2
SOLID
 70
     1
 71
     0
 91
        1
 92
        0
 93
        3
 72
     1
 10
3551.579323804076
 20
2750.432372915773
 11
3553.91907174098
 21
2758.122800234446
 72
     1
 10
3553.91907174098
 20
2758.122800234446
 11
3538.398665029926
 21
2758.643615663825
 72
     1
 10
3538.398665029926
 20
2758.643615663825
 11
3551.579323804076
 21
2750.432372915773
 97
        0
 75
     0
 76
     1
 98
        1
 10
0.0
 20
0.0
450
        0
451
        0
460
0.0
461
0.0
452
        0
462
0.0
453
        0
470

1001
REVIT
1002
{
1070
     1
1000
162002
1002
}
1002
{
1070
     5
1000
142258
1002
}
1002
{
1070
     2
1000
-2000150
1002
}
  0
LINE
  5
19B
330
75
100
AcDbEntity
  8
A-----NOP
100
AcDbLine
 10
3688.00830549049
 20
2713.126138792461
 30
0.0
 11
3803.01997180989
 21
2713.126138792518
 31
0.0
1001
REVIT
1002
{
1070
     1
1000
162002
1002
}
1002
{
1070
     5
1000
142258
1002
}
1002
{
1070
     2
1000
-2000150
1002
}
  0
LINE
  5
19C
330
75
100
AcDbEntity
  8
A-----NOP
100
AcDbLine
 10
3538.398665029926
 20
2758.643615663825
 30
0.0
 11
3688.00830549049
 21
2713.126138792461
 31
0.0
1001
REVIT
1002
{
1070
     1
1000
162002
1002
}
1002
{
1070
     5
1000
142258
1002
}
1002
{
1070
     2
1000
-2000150
1002
}
  0
INSERT
  5
19D
330
75
100
AcDbEntity
  8
A-----NOP
100
AcDbBlockReference
  2
M_Label Annotation - M_Label Annotation_1-142258-Detail 4
 10
3831.717794011428
 20
2718.424984494677
 30
0.0
 41
5.0
 42
5.0
 43
5.0
1001
REVIT
1002
{
1070
     1
1000
162002
1002
}
1002
{
1070
     5
1000
142258
1002
}
1002
{
1070
     2
1000
-2000150
1002
}
  0
LINE
  5
19E
330
75
100
AcDbEntity
  8
A-----NOP
100
AcDbLine
 10
3519.712735927259
 20
2636.070951511405
 30
0.0
 11
3521.398110304712
 21
2643.930761048529
 31
0.0
1001
REVIT
1002
{
1070
     1
1000
162003
1002
}
1002
{
1070
     5
1000
142258
1002
}
1002
{
1070
     2
1000
-2000150
1002
}
  0
LINE
  5
19F
330
75
100
AcDbEntity
  8
A-----NOP
100
AcDbLine
 10
3521.398110304712
 20
2643.930761048529
 30
0.0
 11
3505.888818850805
 21
2643.145807683183
 31
0.0
1001
REVIT
1002
{
1070
     1
1000
162003
1002
}
1002
{
1070
     5
1000
142258
1002
}
1002
{
1070
     2
1000
-2000150
1002
}
  0
LINE
  5
1A0
330
75
100
AcDbEntity
  8
A-----NOP
100
AcDbLine
 10
3505.888818850805
 20
2643.145807683183
 30
0.0
 11
3519.712735927259
 21
2636.070951511405
 31
0.0
1001
REVIT
1002
{
1070
     1
1000
162003
1002
}
1002
{
1070
     5
1000
142258
1002
}
1002
{
1070
     2
1000
-2000150
1002
}
  0
HATCH
  5
1A1
330
75
100
AcDbEntity
  8
A-----NOP
100
AcDbHatch
 10
0.0
 20
0.0
 30
0.0
210
0.0
220
0.0
230
1.0
  2
SOLID
 70
     1
 71
     0
 91
        1
 92
        0
 93
        3
 72
     1
 10
3519.712735927259
 20
2636.070951511405
 11
3521.398110304712
 21
2643.930761048529
 72
     1
 10
3521.398110304712
 20
2643.930761048529
 11
3505.888818850805
 21
2643.145807683183
 72
     1
 10
3505.888818850805
 20
2643.145807683183
 11
3519.712735927259
 21
2636.070951511405
 97
        0
 75
     0
 76
     1
 98
        1
 10
0.0
 20
0.0
450
        0
451
        0
460
0.0
461
0.0
452
        0
462
0.0
453
        0
470

1001
REVIT
1002
{
1070
     1
1000
162003
1002
}
1002
{
1070
     5
1000
142258
1002
}
1002
{
1070
     2
1000
-2000150
1002
}
  0
LINE
  5
1A2
330
75
100
AcDbEntity
  8
A-----NOP
100
AcDbLine
 10
3654.454395330347
 20
2611.288977719611
 30
0.0
 11
3803.01997180989
 21
2611.288977719611
 31
0.0
1001
REVIT
1002
{
1070
     1
1000
162003
1002
}
1002
{
1070
     5
1000
142258
1002
}
1002
{
1070
     2
1000
-2000150
1002
}
  0
LINE
  5
1A3
330
75
100
AcDbEntity
  8
A-----NOP
100
AcDbLine
 10
3505.888818850805
 20
2643.145807683183
 30
0.0
 11
3654.454395330347
 21
2611.288977719611
 31
0.0
1001
REVIT
1002
{
1070
     1
1000
162003
1002
}
1002
{
1070
     5
1000
142258
1002
}
1002
{
1070
     2
1000
-2000150
1002
}
  0
INSERT
  5
1A4
330
75
100
AcDbEntity
  8
A-----NOP
100
AcDbBlockReference
  2
M_Label Annotation - M_Label Annotation_1-142258-Detail 4
 10
3831.717794011428
 20
2616.587823421768
 30
0.0
 41
5.0
 42
5.0
 43
5.0
1001
REVIT
1002
{
1070
     1
1000
162003
1002
}
1002
{
1070
     5
1000
142258
1002
}
1002
{
1070
     2
1000
-2000150
1002
}
  0
LINE
  5
1A5
330
75
100
AcDbEntity
  8
A-----NOP
100
AcDbLine
 10
3491.308507784037
 20
2577.828928304554
 30
0.0
 11
3492.265317661747
 21
2585.810256991555
 31
0.0
1001
REVIT
1002
{
1070
     1
1000
162004
1002
}
1002
{
1070
     5
1000
142258
1002
}
1002
{
1070
     2
1000
-2000150
1002
}
  0
LINE
  5
1A6
330
75
100
AcDbEntity
  8
A-----NOP
100
AcDbLine
 10
3492.265317661747
 20
2585.810256991555
 30
0.0
 11
3476.893550636993
 21
2583.605024186453
 31
0.0
1001
REVIT
1002
{
1070
     1
1000
162004
1002
}
1002
{
1070
     5
1000
142258
1002
}
1002
{
1070
     2
1000
-2000150
1002
}
  0
LINE
  5
1A7
330
75
100
AcDbEntity
  8
A-----NOP
100
AcDbLine
 10
3476.893550636993
 20
2583.605024186453
 30
0.0
 11
3491.308507784037
 21
2577.828928304554
 31
0.0
1001
REVIT
1002
{
1070
     1
1000
162004
1002
}
1002
{
1070
     5
1000
142258
1002
}
1002
{
1070
     2
1000
-2000150
1002
}
  0
HATCH
  5
1A8
330
75
100
AcDbEntity
  8
A-----NOP
100
AcDbHatch
 10
0.0
 20
0.0
 30
0.0
210
0.0
220
0.0
230
1.0
  2
SOLID
 70
     1
 71
     0
 91
        1
 92
        0
 93
        3
 72
     1
 10
3491.308507784037
 20
2577.828928304554
 11
3492.265317661747
 21
2585.810256991555
 72
     1
 10
3492.265317661747
 20
2585.810256991555
 11
3476.893550636993
 21
2583.605024186453
 72
     1
 10
3476.893550636993
 20
2583.605024186453
 11
3491.308507784037
 21
2577.828928304554
 97
        0
 75
     0
 76
     1
 98
        1
 10
0.0
 20
0.0
450
        0
451
        0
460
0.0
461
0.0
452
        0
462
0.0
453
        0
470

1001
REVIT
1002
{
1070
     1
1000
162004
1002
}
1002
{
1070
     5
1000
142258
1002
}
1002
{
1070
     2
1000
-2000150
1002
}
  0
LINE
  5
1A9
330
75
100
AcDbEntity
  8
A-----NOP
100
AcDbLine
 10
3688.00830549049
 20
2558.296370615645
 30
0.0
 11
3803.01997180989
 21
2558.296370615702
 31
0.0
1001
REVIT
1002
{
1070
     1
1000
162004
1002
}
1002
{
1070
     5
1000
142258
1002
}
1002
{
1070
     2
1000
-2000150
1002
}
  0
LINE
  5
1AA
330
75
100
AcDbEntity
  8
A-----NOP
100
AcDbLine
 10
3476.893550636993
 20
2583.605024186453
 30
0.0
 11
3688.00830549049
 21
2558.296370615645
 31
0.0
1001
REVIT
1002
{
1070
     1
1000
162004
1002
}
1002
{
1070
     5
1000
142258
1002
}
1002
{
1070
     2
1000
-2000150
1002
}
  0
INSERT
  5
1AB
330
75
100
AcDbEntity
  8
A-----NOP
100
AcDbBlockReference
  2
M_Label Annotation - M_Label Annotation_1-142258-Detail 4
 10
3831.717794011428
 20
2563.595216317859
 30
0.0
 41
5.0
 42
5.0
 43
5.0
1001
REVIT
1002
{
1070
     1
1000
162004
1002
}
1002
{
1070
     5
1000
142258
1002
}
1002
{
1070
     2
1000
-2000150
1002
}
  0
MTEXT
  5
1AC
330
75
100
AcDbEntity
  8
A-----TEP
 62
     7
100
AcDbMText
 10
2676.19234295962
 20
2848.013581065209
 30
0.0
 40
12.29416167664671
 41
292.65
 46
0.0
 71
     1
 72
     1
  1
\fArial|b0|i0|c0|p34|;SELECTED OWENS CORNING\PASPHALT SHINGLES
 73
     2
 44
0.938531787846856
1001
REVIT
1002
{
1070
     1
1000
162013
1002
}
1002
{
1070
     5
1000
1631
1002
}
1002
{
1070
     2
1000
-2000059
1002
}
1002
{
1070
     3
1000
1632
1002
}
  0
LINE
  5
1AD
330
75
100
AcDbEntity
  8
A-----NOP
100
AcDbLine
 10
3428.121071256405
 20
2748.365418166002
 30
0.0
 11
3430.540927811855
 21
2756.031015794569
 31
0.0
1001
REVIT
1002
{
1070
     1
1000
162014
1002
}
1002
{
1070
     5
1000
142258
1002
}
1002
{
1070
     2
1000
-2000150
1002
}
  0
LINE
  5
1AE
330
75
100
AcDbEntity
  8
A-----NOP
100
AcDbLine
 10
3430.540927811855
 20
2756.031015794569
 30
0.0
 11
3415.026799624035
 21
2756.713730786271
 31
0.0
1001
REVIT
1002
{
1070
     1
1000
162014
1002
}
1002
{
1070
     5
1000
142258
1002
}
1002
{
1070
     2
1000
-2000150
1002
}
  0
LINE
  5
1AF
330
75
100
AcDbEntity
  8
A-----NOP
100
AcDbLine
 10
3415.026799624035
 20
2756.713730786271
 30
0.0
 11
3428.121071256405
 21
2748.365418166002
 31
0.0
1001
REVIT
1002
{
1070
     1
1000
162014
1002
}
1002
{
1070
     5
1000
142258
1002
}
1002
{
1070
     2
1000
-2000150
1002
}
  0
HATCH
  5
1B0
330
75
100
AcDbEntity
  8
A-----NOP
100
AcDbHatch
 10
0.0
 20
0.0
 30
0.0
210
0.0
220
0.0
230
1.0
  2
SOLID
 70
     1
 71
     0
 91
        1
 92
        0
 93
        3
 72
     1
 10
3428.121071256405
 20
2748.365418166002
 11
3430.540927811855
 21
2756.031015794569
 72
     1
 10
3430.540927811855
 20
2756.031015794569
 11
3415.026799624035
 21
2756.713730786271
 72
     1
 10
3415.026799624035
 20
2756.713730786271
 11
3428.121071256405
 21
2748.365418166002
 97
        0
 75
     0
 76
     1
 98
        1
 10
0.0
 20
0.0
450
        0
451
        0
460
0.0
461
0.0
452
        0
462
0.0
453
        0
470

1001
REVIT
1002
{
1070
     1
1000
162014
1002
}
1002
{
1070
     5
1000
142258
1002
}
1002
{
1070
     2
1000
-2000150
1002
}
  0
LINE
  5
1B1
330
75
100
AcDbEntity
  8
A-----NOP
100
AcDbLine
 10
3688.00830549049
 20
2670.539616451597
 30
0.0
 11
3803.01997180989
 21
2670.539616451654
 31
0.0
1001
REVIT
1002
{
1070
     1
1000
162014
1002
}
1002
{
1070
     5
1000
142258
1002
}
1002
{
1070
     2
1000
-2000150
1002
}
  0
LINE
  5
1B2
330
75
100
AcDbEntity
  8
A-----NOP
100
AcDbLine
 10
3415.026799624035
 20
2756.713730786271
 30
0.0
 11
3688.00830549049
 21
2670.539616451597
 31
0.0
1001
REVIT
1002
{
1070
     1
1000
162014
1002
}
1002
{
1070
     5
1000
142258
1002
}
1002
{
1070
     2
1000
-2000150
1002
}
  0
INSERT
  5
1B3
330
75
100
AcDbEntity
  8
A-----NOP
100
AcDbBlockReference
  2
M_Label Annotation - M_Label Annotation_1-142258-Detail 4
 10
3831.717794011428
 20
2675.838462153811
 30
0.0
 41
5.0
 42
5.0
 43
5.0
1001
REVIT
1002
{
1070
     1
1000
162014
1002
}
1002
{
1070
     5
1000
142258
1002
}
1002
{
1070
     2
1000
-2000150
1002
}
  0
MTEXT
  5
1B4
330
75
100
AcDbEntity
  8
A-----TEP
 62
     7
100
AcDbMText
 10
3807.237884124573
 20
2681.921221234442
 30
0.0
 40
12.29416167664671
 41
326.85
 46
0.0
 71
     1
 72
     1
  1
\fArial|b0|i0|c0|p34|;NOG\P(POSITION TO ALLOW AIR FLOW)
 73
     2
 44
0.938531787846856
1001
REVIT
1002
{
1070
     1
1000
162015
1002
}
1002
{
1070
     5
1000
1631
1002
}
1002
{
1070
     2
1000
-2000059
1002
}
1002
{
1070
     3
1000
1632
1002
}
  0
MTEXT
  5
1B5
330
75
100
AcDbEntity
  8
A-----TEP
 62
     7
100
AcDbMText
 10
2773.616548063285
 20
2768.88650028042
 30
0.0
 40
12.29416167664671
 41
175.5
 46
0.0
 71
     1
 72
     1
  1
\fArial|b0|i0|c0|p34|;No15 RAG FELT\PROOF UNDERLAY\P
 73
     2
 44
0.938531787846856
1001
REVIT
1002
{
1070
     1
1000
162016
1002
}
1002
{
1070
     5
1000
1631
1002
}
1002
{
1070
     2
1000
-2000059
1002
}
1002
{
1070
     3
1000
1632
1002
}
  0
INSERT
  5
1E8
330
71
100
AcDbEntity
 67
     1
  8
G-----TTP
100
AcDbBlockReference
  2
A4 SPS - A4 sps_0-163380-ROOF_WALL RIDGE-CROSS SECTION
 10
0.0
 20
0.0
 30
0.0
1001
REVIT
1002
{
1070
     1
1000
164741
1002
}
1002
{
1070
     5
1000
163380
1002
}
1002
{
1070
     2
1000
-2000280
1002
}
  0
MTEXT
  5
1E9
330
71
100
AcDbEntity
 67
     1
  8
G-----TTP
100
AcDbMText
 10
290.2137418420315
 20
93.41593409203412
 30
0.0
 40
1.721182634730538
 41
6.383685842232174
 46
0.0
 71
     3
 72
     1
  1
\fArial|b0|i0|c0|p34|; 1 : 5
 73
     2
 44
0.9385317878468564
1001
REVIT
1002
{
1070
     1
1000
164741
1002
}
1002
{
1070
     5
1000
163380
1002
}
1002
{
1070
     2
1000
-2000059
1002
}
1002
{
1070
     3
1000
165231
1002
}
  0
MTEXT
  5
1EA
330
71
100
AcDbEntity
 67
     1
  8
G-----TTP
100
AcDbMText
 10
216.8973466727144
 20
111.2275978795859
 30
0.0
 40
2.95059880239521
 41
87.948
 46
0.0
 71
     1
 72
     1
  1
\fArial|b0|i0|c0|p34|;ROOF/WALL RIDGE-CROSS SECTION
 73
     2
 44
0.9385317878468562
1001
REVIT
1002
{
1070
     1
1000
164741
1002
}
1002
{
1070
     5
1000
163380
1002
}
1002
{
1070
     2
1000
-2000059
1002
}
1002
{
1070
     3
1000
165199
1002
}
  0
MTEXT
  5
1EB
330
71
100
AcDbEntity
 67
     1
  8
G-----TTP
100
AcDbMText
 10
273.1795488079906
 20
101.1312212254742
 30
0.0
 40
2.95059880239521
 41
8.208
 46
0.0
 71
     2
 72
     1
  1
\fArial|b0|i0|c0|p34|;004
 73
     2
 44
0.9385317878468562
1001
REVIT
1002
{
1070
     1
1000
164741
1002
}
1002
{
1070
     5
1000
163380
1002
}
1002
{
1070
     2
1000
-2000059
1002
}
1002
{
1070
     3
1000
165199
1002
}
  0
VIEWPORT
  5
1EC
330
71
100
AcDbEntity
 67
     1
  8
A-----NPP
100
AcDbViewport
 10
154.266516880486
 20
191.8868825492279
 30
0.0
 40
289.227020848521
 41
198.2626992087916
 68
    -1
 69
     2
 12
3389.099895080923
 22
2516.916836782856
 13
0.0
 23
0.0
 14
0.0
 24
0.0
 15
0.0
 25
0.0
 16
0.0
 26
0.0
 36
1.0
 17
0.0
 27
0.0
 37
0.0
 42
0.0
 43
0.0
 44
0.0
 45
991.3134960439583
 50
0.0
 51
0.0
 72
   100
 90
    32768
  1

281
     0
 71
     1
 74
     1
110
0.0
120
0.0
130
0.0
111
1.0
121
0.0
131
0.0
112
0.0
122
1.0
132
0.0
 79
     0
146
0.0
170
     0
 61
     5
292
     1
282
     1
141
0.0
142
0.0
 63
   250
421
  3355443
  0
VIEWPORT
  5
1EE
330
71
100
AcDbEntity
 67
     1
  8
0
100
AcDbViewport
 10
6.0
 20
4.5
 30
0.0
 40
12.0
 41
9.0
 68
    -1
 69
     1
 12
6.0
 22
4.5
 13
0.0
 23
0.0
 14
0.0
 24
0.0
 15
0.0
 25
0.0
 16
0.0
 26
0.0
 36
1.0
 17
0.0
 27
0.0
 37
0.0
 42
50.0
 43
0.0
 44
0.0
 45
12.0
 50
0.0
 51
0.0
 72
   100
 90
    32800
  1

281
     0
 71
     1
 74
     1
110
0.0
120
0.0
130
0.0
111
1.0
121
0.0
131
0.0
112
0.0
122
1.0
132
0.0
 79
     0
146
0.0
170
     0
 61
     5
292
     1
282
     1
141
0.0
142
0.0
 63
   250
421
  3355443
  0
ENDSEC
  0
SECTION
  2
OBJECTS
  0
DICTIONARY
  5
C
330
0
100
AcDbDictionary
281
     1
  3
ACAD_COLOR
350
6B
  3
ACAD_GROUP
350
D
  3
ACAD_IMAGE_DICT
350
81
  3
ACAD_LAYOUT
350
6A
  3
ACAD_MATERIAL
350
10
  3
ACAD_MLEADERSTYLE
350
6E
  3
ACAD_MLINESTYLE
350
67
  3
ACAD_PLOTSETTINGS
350
69
  3
ACAD_PLOTSTYLENAME
350
E
  3
ACAD_SCALELIST
350
3A
  3
ACAD_TABLESTYLE
350
6C
  3
ACAD_VISUALSTYLE
350
29
  3
ACDB_RECOMPOSE_DATA
350
200
  3
AcDbVariableDictionary
350
1FA
  3
REVIT_DICTIONARY
350
1F1
  0
DICTIONARY
  5
1F5
330
75
100
AcDbDictionary
280
     1
281
     1
  3
ACAD_SORTENTS
360
1F6
  0
DICTIONARY
  5
6B
102
{ACAD_REACTORS
330
C
102
}
330
C
100
AcDbDictionary
281
     1
  0
DICTIONARY
  5
D
102
{ACAD_REACTORS
330
C
102
}
330
C
100
AcDbDictionary
281
     1
  0
DICTIONARY
  5
81
102
{ACAD_REACTORS
330
C
102
}
330
C
100
AcDbDictionary
281
     1
  3
SPSA-rvt-SPSA-rvt-SPSBanner-165453-166201
350
82
  3
SPSA-rvt-SPSBanner-165453
350
1B8
  0
DICTIONARY
  5
6A
102
{ACAD_REACTORS
330
C
102
}
330
C
100
AcDbDictionary
281
     1
  3
Layout1
350
74
  3
Layout2
350
7C
  3
Model
350
78
  0
DICTIONARY
  5
10
102
{ACAD_REACTORS
330
C
102
}
330
C
100
AcDbDictionary
281
     1
  3
ByBlock
350
19
  3
ByLayer
350
11
  3
Global
350
21
  0
DICTIONARY
  5
6E
102
{ACAD_REACTORS
330
C
102
}
330
C
100
AcDbDictionary
281
     1
  3
Standard
350
6F
  0
DICTIONARY
  5
67
102
{ACAD_REACTORS
330
C
102
}
330
C
100
AcDbDictionary
281
     1
  3
Standard
350
68
  0
DICTIONARY
  5
69
102
{ACAD_REACTORS
330
C
102
}
330
C
100
AcDbDictionary
281
     1
  0
ACDBDICTIONARYWDFLT
  5
E
102
{ACAD_REACTORS
330
C
102
}
330
C
100
AcDbDictionary
281
     1
  3
Normal
350
F
100
AcDbDictionaryWithDefault
340
F
  0
DICTIONARY
  5
3A
102
{ACAD_REACTORS
330
C
102
}
330
C
100
AcDbDictionary
281
     1
  3
A0
350
3B
  3
A1
350
3C
  3
A2
350
3D
  3
A3
350
3E
  3
A4
350
3F
  3
A5
350
40
  3
A6
350
41
  3
A7
350
42
  3
A8
350
43
  3
A9
350
44
  3
B0
350
45
  3
B1
350
46
  3
B2
350
47
  3
B3
350
48
  3
B4
350
49
  3
B5
350
4A
  3
B6
350
4B
  3
B7
350
4C
  3
B8
350
4D
  3
B9
350
4E
  3
C0
350
4F
  3
C1
350
50
  3
C2
350
51
  3
C3
350
52
  3
C4
350
53
  3
C5
350
54
  3
C6
350
55
  3
C7
350
56
  3
C8
350
57
  3
C9
350
58
  3
D0
350
59
  3
D1
350
5A
  3
D2
350
5B
  0
DICTIONARY
  5
6C
102
{ACAD_REACTORS
330
C
102
}
330
C
100
AcDbDictionary
281
     1
  3
Standard
350
6D
  0
DICTIONARY
  5
29
102
{ACAD_REACTORS
330
C
102
}
330
C
100
AcDbDictionary
281
     1
  3
2dWireframe
350
2F
  3
3D Hidden
350
31
  3
3dWireframe
350
30
  3
Basic
350
2E
  3
Brighten
350
35
  3
ColorChange
350
39
  3
Conceptual
350
32
  3
Dim
350
34
  3
Facepattern
350
38
  3
Flat
350
2A
  3
FlatWithEdges
350
2B
  3
Gouraud
350
2C
  3
GouraudWithEdges
350
2D
  3
Linepattern
350
37
  3
Realistic
350
33
  3
Thicken
350
36
  0
XRECORD
  5
200
102
{ACAD_REACTORS
330
C
102
}
330
C
100
AcDbXrecord
280
     1
 90
        1
330
6D
  0
DICTIONARY
  5
1FA
102
{ACAD_REACTORS
330
C
102
}
330
C
100
AcDbDictionary
281
     1
  3
CANNOSCALE
350
1FD
  3
CMLEADERSTYLE
350
1FC
  3
CTABLESTYLE
350
1FB
  0
DICTIONARY
  5
1F1
102
{ACAD_REACTORS
330
C
102
}
330
C
100
AcDbDictionary
281
     1
  3
REVIT_CATEGORY_MAPPING
350
1F3
  3
REVIT_SUB_CATEGORY_MAPPING
350
1F4
  3
REVIT_TYPE_MAPPING
350
1F2
  0
SORTENTSTABLE
  5
1F6
102
{ACAD_REACTORS
330
1F5
102
}
330
1F5
100
AcDbSortentsTable
330
75
  0
IMAGEDEF
  5
82
102
{ACAD_REACTORS
330
81
102
}
330
81
100
AcDbRasterImageDef
 90
        0
  1
C:\Documents and Settings\Edwards\Desktop\south pacific S\SPS 4\SPSA-rvt-SPSA-rvt-SPSBanner-165453-166201.jpg
 10
1217.0
 20
288.0
 11
0.2645833333333333
 21
0.2645833333333333
280
     1
281
     5
  0
IMAGEDEF
  5
1B8
102
{ACAD_REACTORS
330
81
102
}
330
81
100
AcDbRasterImageDef
 90
        0
  1
C:\Documents and Settings\Edwards\Desktop\south pacific S\SPS 4\SPSA-rvt-SPSBanner-165453.jpg
 10
1217.0
 20
288.0
 11
0.2645833333333333
 21
0.2645833333333333
280
     1
281
     5
  0
LAYOUT
  5
74
102
{ACAD_REACTORS
330
6A
102
}
330
6A
100
AcDbPlotSettings
  1

  2

  4

  6

 40
0.0
 41
0.0
 42
0.0
 43
0.0
 44
0.0
 45
0.0
 46
0.0
 47
0.0
 48
0.0
 49
0.0
140
0.0
141
0.0
142
1.0
143
1.0
 70
   688
 72
     0
 73
     0
 74
     5
  7

 75
    16
147
1.0
 76
     0
 77
     2
 78
   300
148
0.0
149
0.0
100
AcDbLayout
  1
Layout1
 70
     1
 71
     1
 10
0.0
 20
0.0
 11
12.0
 21
9.0
 12
0.0
 22
0.0
 32
0.0
 14
0.0
 24
0.0
 34
0.0
 15
0.0
 25
0.0
 35
0.0
146
0.0
 13
0.0
 23
0.0
 33
0.0
 16
1.0
 26
0.0
 36
0.0
 17
0.0
 27
1.0
 37
0.0
 76
     0
330
71
  0
LAYOUT
  5
7C
102
{ACAD_REACTORS
330
6A
102
}
330
6A
100
AcDbPlotSettings
  1

  2

  4

  6

 40
0.0
 41
0.0
 42
0.0
 43
0.0
 44
0.0
 45
0.0
 46
0.0
 47
0.0
 48
0.0
 49
0.0
140
0.0
141
0.0
142
1.0
143
1.0
 70
   688
 72
     0
 73
     0
 74
     5
  7

 75
    16
147
1.0
 76
     0
 77
     2
 78
   300
148
0.0
149
0.0
100
AcDbLayout
  1
Layout2
 70
     1
 71
     2
 10
0.0
 20
0.0
 11
12.0
 21
9.0
 12
0.0
 22
0.0
 32
0.0
 14
0.0
 24
0.0
 34
0.0
 15
0.0
 25
0.0
 35
0.0
146
0.0
 13
0.0
 23
0.0
 33
0.0
 16
1.0
 26
0.0
 36
0.0
 17
0.0
 27
1.0
 37
0.0
 76
     0
330
79
  0
LAYOUT
  5
78
102
{ACAD_REACTORS
330
6A
102
}
330
6A
100
AcDbPlotSettings
  1

  2

  4

  6

 40
0.0
 41
0.0
 42
0.0
 43
0.0
 44
0.0
 45
0.0
 46
0.0
 47
0.0
 48
0.0
 49
0.0
140
0.0
141
0.0
142
1.0
143
1.0
 70
  1712
 72
     0
 73
     0
 74
     0
  7

 75
     0
147
1.0
 76
     0
 77
     2
 78
   300
148
0.0
149
0.0
100
AcDbLayout
  1
Model
 70
     1
 71
     0
 10
0.0
 20
0.0
 11
12.0
 21
9.0
 12
0.0
 22
0.0
 32
0.0
 14
0.0
 24
0.0
 34
0.0
 15
0.0
 25
0.0
 35
0.0
146
0.0
 13
0.0
 23
0.0
 33
0.0
 16
1.0
 26
0.0
 36
0.0
 17
0.0
 27
1.0
 37
0.0
 76
     0
330
75
  0
MATERIAL
  5
19
102
{ACAD_XDICTIONARY
360
1A
102
}
102
{ACAD_REACTORS
330
10
102
}
330
10
100
AcDbMaterial
  1
ByBlock
 72
     0
 43
0.0208333333333333
 43
0.0
 43
0.0
 43
0.0
 43
0.0
 43
0.0208333333333333
 43
0.0
 43
0.0
 43
0.0
 43
0.0
 43
1.0
 43
0.0
 43
0.0
 43
0.0
 43
0.0
 43
1.0
 77
     0
 47
0.0208333333333333
 47
0.0
 47
0.0
 47
0.0
 47
0.0
 47
0.0208333333333333
 47
0.0
 47
0.0
 47
0.0
 47
0.0
 47
1.0
 47
0.0
 47
0.0
 47
0.0
 47
0.0
 47
1.0
171
     0
 49
0.0208333333333333
 49
0.0
 49
0.0
 49
0.0
 49
0.0
 49
0.0208333333333333
 49
0.0
 49
0.0
 49
0.0
 49
0.0
 49
1.0
 49
0.0
 49
0.0
 49
0.0
 49
0.0
 49
1.0
175
     0
142
0.0208333333333333
142
0.0
142
0.0
142
0.0
142
0.0
142
0.0208333333333333
142
0.0
142
0.0
142
0.0
142
0.0
142
1.0
142
0.0
142
0.0
142
0.0
142
0.0
142
1.0
179
     0
144
0.0208333333333333
144
0.0
144
0.0
144
0.0
144
0.0
144
0.0208333333333333
144
0.0
144
0.0
144
0.0
144
0.0
144
1.0
144
0.0
144
0.0
144
0.0
144
0.0
144
1.0
147
0.0208333333333333
147
0.0
147
0.0
147
0.0
147
0.0
147
0.0208333333333333
147
0.0
147
0.0
147
0.0
147
0.0
147
1.0
147
0.0
147
0.0
147
0.0
147
0.0
147
1.0
  0
MATERIAL
  5
11
102
{ACAD_XDICTIONARY
360
12
102
}
102
{ACAD_REACTORS
330
10
102
}
330
10
100
AcDbMaterial
  1
ByLayer
 72
     0
 43
0.0208333333333333
 43
0.0
 43
0.0
 43
0.0
 43
0.0
 43
0.0208333333333333
 43
0.0
 43
0.0
 43
0.0
 43
0.0
 43
1.0
 43
0.0
 43
0.0
 43
0.0
 43
0.0
 43
1.0
 77
     0
 47
0.0208333333333333
 47
0.0
 47
0.0
 47
0.0
 47
0.0
 47
0.0208333333333333
 47
0.0
 47
0.0
 47
0.0
 47
0.0
 47
1.0
 47
0.0
 47
0.0
 47
0.0
 47
0.0
 47
1.0
171
     0
 49
0.0208333333333333
 49
0.0
 49
0.0
 49
0.0
 49
0.0
 49
0.0208333333333333
 49
0.0
 49
0.0
 49
0.0
 49
0.0
 49
1.0
 49
0.0
 49
0.0
 49
0.0
 49
0.0
 49
1.0
175
     0
142
0.0208333333333333
142
0.0
142
0.0
142
0.0
142
0.0
142
0.0208333333333333
142
0.0
142
0.0
142
0.0
142
0.0
142
1.0
142
0.0
142
0.0
142
0.0
142
0.0
142
1.0
179
     0
144
0.0208333333333333
144
0.0
144
0.0
144
0.0
144
0.0
144
0.0208333333333333
144
0.0
144
0.0
144
0.0
144
0.0
144
1.0
144
0.0
144
0.0
144
0.0
144
0.0
144
1.0
147
0.0208333333333333
147
0.0
147
0.0
147
0.0
147
0.0
147
0.0208333333333333
147
0.0
147
0.0
147
0.0
147
0.0
147
1.0
147
0.0
147
0.0
147
0.0
147
0.0
147
1.0
  0
MATERIAL
  5
21
102
{ACAD_XDICTIONARY
360
22
102
}
102
{ACAD_REACTORS
330
10
102
}
330
10
100
AcDbMaterial
  1
Global
 72
     0
 43
0.0208333333333333
 43
0.0
 43
0.0
 43
0.0
 43
0.0
 43
0.0208333333333333
 43
0.0
 43
0.0
 43
0.0
 43
0.0
 43
1.0
 43
0.0
 43
0.0
 43
0.0
 43
0.0
 43
1.0
 77
     0
 47
0.0208333333333333
 47
0.0
 47
0.0
 47
0.0
 47
0.0
 47
0.0208333333333333
 47
0.0
 47
0.0
 47
0.0
 47
0.0
 47
1.0
 47
0.0
 47
0.0
 47
0.0
 47
0.0
 47
1.0
171
     0
 49
0.0208333333333333
 49
0.0
 49
0.0
 49
0.0
 49
0.0
 49
0.0208333333333333
 49
0.0
 49
0.0
 49
0.0
 49
0.0
 49
1.0
 49
0.0
 49
0.0
 49
0.0
 49
0.0
 49
1.0
175
     0
142
0.0208333333333333
142
0.0
142
0.0
142
0.0
142
0.0
142
0.0208333333333333
142
0.0
142
0.0
142
0.0
142
0.0
142
1.0
142
0.0
142
0.0
142
0.0
142
0.0
142
1.0
179
     0
144
0.0208333333333333
144
0.0
144
0.0
144
0.0
144
0.0
144
0.0208333333333333
144
0.0
144
0.0
144
0.0
144
0.0
144
1.0
144
0.0
144
0.0
144
0.0
144
0.0
144
1.0
147
0.0208333333333333
147
0.0
147
0.0
147
0.0
147
0.0
147
0.0208333333333333
147
0.0
147
0.0
147
0.0
147
0.0
147
1.0
147
0.0
147
0.0
147
0.0
147
0.0
147
1.0
  0
MLEADERSTYLE
  5
6F
102
{ACAD_REACTORS
330
6E
102
}
330
6E
100
AcDbMLeaderStyle
170
     2
171
     1
172
     0
 90
        2
 40
0.0
 41
0.0
173
     1
 91
-1056964608
340
63
 92
       -2
290
     1
 42
0.09
291
     1
 43
0.36
  3
Standard
 44
0.18
300

342
5D
174
     1
178
     6
175
     1
176
     0
 93
-1056964608
 45
0.18
292
     0
297
     0
 46
0.18
 94
-1056964608
 47
1.0
 49
1.0
140
1.0
293
     1
141
0.0
294
     1
177
     0
142
1.0
295
     1
296
     0
143
0.125
1001
ACAD_MLEADERVER
1070
     2
  0
MLINESTYLE
  5
68
102
{ACAD_REACTORS
330
67
102
}
330
67
100
AcDbMlineStyle
  2
STANDARD
 70
     0
  3

 62
   256
 51
90.0
 52
90.0
 71
     2
 49
0.5
 62
   256
  6
BYLAYER
 49
-0.5
 62
   256
  6
BYLAYER
  0
ACDBPLACEHOLDER
  5
F
102
{ACAD_REACTORS
330
E
102
}
330
E
  0
SCALE
  5
3B
102
{ACAD_REACTORS
330
3A
102
}
330
3A
100
AcDbScale
 70
     0
300
1:1
140
1.0
141
1.0
290
     1
  0
SCALE
  5
3C
102
{ACAD_REACTORS
330
3A
102
}
330
3A
100
AcDbScale
 70
     0
300
1:2
140
1.0
141
2.0
290
     0
  0
SCALE
  5
3D
102
{ACAD_REACTORS
330
3A
102
}
330
3A
100
AcDbScale
 70
     0
300
1:4
140
1.0
141
4.0
290
     0
  0
SCALE
  5
3E
102
{ACAD_REACTORS
330
3A
102
}
330
3A
100
AcDbScale
 70
     0
300
1:5
140
1.0
141
5.0
290
     0
  0
SCALE
  5
3F
102
{ACAD_REACTORS
330
3A
102
}
330
3A
100
AcDbScale
 70
     0
300
1:8
140
1.0
141
8.0
290
     0
  0
SCALE
  5
40
102
{ACAD_REACTORS
330
3A
102
}
330
3A
100
AcDbScale
 70
     0
300
1:10
140
1.0
141
10.0
290
     0
  0
SCALE
  5
41
102
{ACAD_REACTORS
330
3A
102
}
330
3A
100
AcDbScale
 70
     0
300
1:16
140
1.0
141
16.0
290
     0
  0
SCALE
  5
42
102
{ACAD_REACTORS
330
3A
102
}
330
3A
100
AcDbScale
 70
     0
300
1:20
140
1.0
141
20.0
290
     0
  0
SCALE
  5
43
102
{ACAD_REACTORS
330
3A
102
}
330
3A
100
AcDbScale
 70
     0
300
1:30
140
1.0
141
30.0
290
     0
  0
SCALE
  5
44
102
{ACAD_REACTORS
330
3A
102
}
330
3A
100
AcDbScale
 70
     0
300
1:40
140
1.0
141
40.0
290
     0
  0
SCALE
  5
45
102
{ACAD_REACTORS
330
3A
102
}
330
3A
100
AcDbScale
 70
     0
300
1:50
140
1.0
141
50.0
290
     0
  0
SCALE
  5
46
102
{ACAD_REACTORS
330
3A
102
}
330
3A
100
AcDbScale
 70
     0
300
1:100
140
1.0
141
100.0
290
     0
  0
SCALE
  5
47
102
{ACAD_REACTORS
330
3A
102
}
330
3A
100
AcDbScale
 70
     0
300
2:1
140
2.0
141
1.0
290
     0
  0
SCALE
  5
48
102
{ACAD_REACTORS
330
3A
102
}
330
3A
100
AcDbScale
 70
     0
300
4:1
140
4.0
141
1.0
290
     0
  0
SCALE
  5
49
102
{ACAD_REACTORS
330
3A
102
}
330
3A
100
AcDbScale
 70
     0
300
8:1
140
8.0
141
1.0
290
     0
  0
SCALE
  5
4A
102
{ACAD_REACTORS
330
3A
102
}
330
3A
100
AcDbScale
 70
     0
300
10:1
140
10.0
141
1.0
290
     0
  0
SCALE
  5
4B
102
{ACAD_REACTORS
330
3A
102
}
330
3A
100
AcDbScale
 70
     0
300
100:1
140
100.0
141
1.0
290
     0
  0
SCALE
  5
4C
102
{ACAD_REACTORS
330
3A
102
}
330
3A
100
AcDbScale
 70
     0
300
1/128" = 1'-0"
140
0.0078125
141
12.0
290
     0
  0
SCALE
  5
4D
102
{ACAD_REACTORS
330
3A
102
}
330
3A
100
AcDbScale
 70
     0
300
1/64" = 1'-0"
140
0.015625
141
12.0
290
     0
  0
SCALE
  5
4E
102
{ACAD_REACTORS
330
3A
102
}
330
3A
100
AcDbScale
 70
     0
300
1/32" = 1'-0"
140
0.03125
141
12.0
290
     0
  0
SCALE
  5
4F
102
{ACAD_REACTORS
330
3A
102
}
330
3A
100
AcDbScale
 70
     0
300
1/16" = 1'-0"
140
0.0625
141
12.0
290
     0
  0
SCALE
  5
50
102
{ACAD_REACTORS
330
3A
102
}
330
3A
100
AcDbScale
 70
     0
300
3/32" = 1'-0"
140
0.09375
141
12.0
290
     0
  0
SCALE
  5
51
102
{ACAD_REACTORS
330
3A
102
}
330
3A
100
AcDbScale
 70
     0
300
1/8" = 1'-0"
140
0.125
141
12.0
290
     0
  0
SCALE
  5
52
102
{ACAD_REACTORS
330
3A
102
}
330
3A
100
AcDbScale
 70
     0
300
3/16" = 1'-0"
140
0.1875
141
12.0
290
     0
  0
SCALE
  5
53
102
{ACAD_REACTORS
330
3A
102
}
330
3A
100
AcDbScale
 70
     0
300
1/4" = 1'-0"
140
0.25
141
12.0
290
     0
  0
SCALE
  5
54
102
{ACAD_REACTORS
330
3A
102
}
330
3A
100
AcDbScale
 70
     0
300
3/8" = 1'-0"
140
0.375
141
12.0
290
     0
  0
SCALE
  5
55
102
{ACAD_REACTORS
330
3A
102
}
330
3A
100
AcDbScale
 70
     0
300
1/2" = 1'-0"
140
0.5
141
12.0
290
     0
  0
SCALE
  5
56
102
{ACAD_REACTORS
330
3A
102
}
330
3A
100
AcDbScale
 70
     0
300
3/4" = 1'-0"
140
0.75
141
12.0
290
     0
  0
SCALE
  5
57
102
{ACAD_REACTORS
330
3A
102
}
330
3A
100
AcDbScale
 70
     0
300
1" = 1'-0"
140
1.0
141
12.0
290
     0
  0
SCALE
  5
58
102
{ACAD_REACTORS
330
3A
102
}
330
3A
100
AcDbScale
 70
     0
300
1-1/2" = 1'-0"
140
1.5
141
12.0
290
     0
  0
SCALE
  5
59
102
{ACAD_REACTORS
330
3A
102
}
330
3A
100
AcDbScale
 70
     0
300
3" = 1'-0"
140
3.0
141
12.0
290
     0
  0
SCALE
  5
5A
102
{ACAD_REACTORS
330
3A
102
}
330
3A
100
AcDbScale
 70
     0
300
6" = 1'-0"
140
6.0
141
12.0
290
     0
  0
SCALE
  5
5B
102
{ACAD_REACTORS
330
3A
102
}
330
3A
100
AcDbScale
 70
     0
300
1'-0" = 1'-0"
140
12.0
141
12.0
290
     0
  0
TABLESTYLE
  5
6D
102
{ACAD_XDICTIONARY
360
1FE
102
}
102
{ACAD_REACTORS
330
6C
102
}
330
6C
100
AcDbTableStyle
  3
Standard
 70
     0
 71
     0
 40
0.06
 41
0.06
280
     0
281
     0
  7
Standard
140
0.18
170
     2
 62
     0
 63
     7
283
     0
 90
      512
 91
        0
  1

274
    -2
284
     1
 64
     0
275
    -2
285
     1
 65
     0
276
    -2
286
     1
 66
     0
277
    -2
287
     1
 67
     0
278
    -2
288
     1
 68
     0
279
    -2
289
     1
 69
     0
  7
Standard
140
0.25
170
     5
 62
     0
 63
     7
283
     0
 90
      512
 91
        0
  1

274
    -2
284
     1
 64
     0
275
    -2
285
     1
 65
     0
276
    -2
286
     1
 66
     0
277
    -2
287
     1
 67
     0
278
    -2
288
     1
 68
     0
279
    -2
289
     1
 69
     0
  7
Standard
140
0.18
170
     5
 62
     0
 63
     7
283
     0
 90
      512
 91
        0
  1

274
    -2
284
     1
 64
     0
275
    -2
285
     1
 65
     0
276
    -2
286
     1
 66
     0
277
    -2
287
     1
 67
     0
278
    -2
288
     1
 68
     0
279
    -2
289
     1
 69
     0
  0
VISUALSTYLE
  5
2F
102
{ACAD_REACTORS
330
29
102
}
330
29
100
AcDbVisualStyle
  2
2dWireframe
 70
     4
 71
     0
 72
     2
 73
     0
 90
        0
 40
-0.6
 41
-30.0
 62
     5
 63
     7
421
 16777215
 74
     1
 91
        4
 64
     7
 65
   257
 75
     1
175
     1
 42
1.0
 92
        0
 66
   257
 43
1.0
 76
     1
 77
     6
 78
     2
 67
     7
 79
     5
170
     0
171
     0
290
     0
174
     0
 93
        1
 44
0.0
173
     0
291
     0
 45
0.0
  0
VISUALSTYLE
  5
31
102
{ACAD_REACTORS
330
29
102
}
330
29
100
AcDbVisualStyle
  2
3D Hidden
 70
     6
 71
     1
 72
     2
 73
     2
 90
        0
 40
-0.6
 41
-30.0
 62
     5
 63
     7
421
 16777215
 74
     2
 91
        2
 64
     7
 65
   257
 75
     2
175
     1
 42
40.0
 92
        0
 66
   257
 43
1.0
 76
     1
 77
     6
 78
     2
 67
     7
 79
     3
170
     0
171
     0
290
     0
174
     0
 93
        1
 44
0.0
173
     0
291
     0
 45
0.0
  0
VISUALSTYLE
  5
30
102
{ACAD_REACTORS
330
29
102
}
330
29
100
AcDbVisualStyle
  2
3dWireframe
 70
     5
 71
     0
 72
     2
 73
     0
 90
        0
 40
-0.6
 41
-30.0
 62
     5
 63
     7
421
 16777215
 74
     1
 91
        4
 64
     7
 65
   257
 75
     1
175
     1
 42
1.0
 92
        0
 66
   257
 43
1.0
 76
     1
 77
     6
 78
     2
 67
     7
 79
     5
170
     0
171
     0
290
     0
174
     0
 93
        1
 44
0.0
173
     0
291
     0
 45
0.0
  0
VISUALSTYLE
  5
2E
102
{ACAD_REACTORS
330
29
102
}
330
29
100
AcDbVisualStyle
  2
Basic
 70
     7
 71
     1
 72
     0
 73
     1
 90
        0
 40
-0.6
 41
-30.0
 62
     5
 63
     7
421
 16777215
 74
     0
 91
        4
 64
     7
 65
   257
 75
     1
175
     1
 42
1.0
 92
        8
 66
     7
 43
1.0
 76
     1
 77
     6
 78
     2
 67
     7
 79
     5
170
     0
171
     0
290
     0
174
     0
 93
        1
 44
0.0
173
     0
291
     1
 45
0.0
  0
VISUALSTYLE
  5
35
102
{ACAD_REACTORS
330
29
102
}
330
29
100
AcDbVisualStyle
  2
Brighten
 70
    12
 71
     2
 72
     2
 73
     0
 90
        0
 40
-0.6
 41
-30.0
 62
     5
 63
     7
421
 16777215
 74
     1
 91
        4
 64
     7
 65
   257
 75
     1
175
     1
 42
1.0
 92
        8
 66
     7
 43
1.0
 76
     1
 77
     6
 78
     2
 67
     7
 79
     5
170
     0
171
     0
290
     0
174
     0
 93
        1
 44
50.0
173
     0
291
     1
 45
0.0
  0
VISUALSTYLE
  5
39
102
{ACAD_REACTORS
330
29
102
}
330
29
100
AcDbVisualStyle
  2
ColorChange
 70
    16
 71
     2
 72
     2
 73
     3
 90
        0
 40
-0.6
 41
-30.0
 62
     5
 63
     8
421
  8421504
 74
     1
 91
        4
 64
     7
 65
   257
 75
     1
175
     1
 42
1.0
 92
        8
 66
     8
424
  8421504
 43
1.0
 76
     1
 77
     6
 78
     2
 67
     7
 79
     5
170
     0
171
     0
290
     0
174
     0
 93
        1
 44
0.0
173
     0
291
     1
 45
0.0
  0
VISUALSTYLE
  5
32
102
{ACAD_REACTORS
330
29
102
}
330
29
100
AcDbVisualStyle
  2
Conceptual
 70
     9
 71
     3
 72
     2
 73
     0
 90
        0
 40
-0.6
 41
-30.0
 62
     5
 63
     7
421
 16777215
 74
     2
 91
        2
 64
     7
 65
   257
 75
     1
175
     1
 42
40.0
 92
        8
 66
     7
 43
1.0
 76
     1
 77
     6
 78
     2
 67
     7
 79
     3
170
     0
171
     0
290
     0
174
     0
 93
        1
 44
0.0
173
     0
291
     0
 45
0.0
  0
VISUALSTYLE
  5
34
102
{ACAD_REACTORS
330
29
102
}
330
29
100
AcDbVisualStyle
  2
Dim
 70
    11
 71
     2
 72
     2
 73
     0
 90
        0
 40
-0.6
 41
-30.0
 62
     5
 63
     7
421
 16777215
 74
     1
 91
        4
 64
     7
 65
   257
 75
     1
175
     1
 42
1.0
 92
        8
 66
     7
 43
1.0
 76
     1
 77
     6
 78
     2
 67
     7
 79
     5
170
     0
171
     0
290
     0
174
     0
 93
        1
 44
-50.0
173
     0
291
     1
 45
0.0
  0
VISUALSTYLE
  5
38
102
{ACAD_REACTORS
330
29
102
}
330
29
100
AcDbVisualStyle
  2
Facepattern
 70
    15
 71
     2
 72
     2
 73
     0
 90
        0
 40
-0.6
 41
-30.0
 62
     5
 63
     7
421
 16777215
 74
     1
 91
        4
 64
     7
 65
   257
 75
     1
175
     1
 42
1.0
 92
        8
 66
     7
 43
1.0
 76
     1
 77
     6
 78
     2
 67
     7
 79
     5
170
     0
171
     0
290
     0
174
     0
 93
        1
 44
0.0
173
     0
291
     1
 45
0.0
  0
VISUALSTYLE
  5
2A
102
{ACAD_REACTORS
330
29
102
}
330
29
100
AcDbVisualStyle
  2
Flat
 70
     0
 71
     2
 72
     1
 73
     1
 90
        2
 40
-0.6
 41
30.0
 62
     5
 63
     7
421
 16777215
 74
     0
 91
        4
 64
     7
 65
   257
 75
     1
175
     1
 42
1.0
 92
        8
 66
     7
 43
1.0
 76
     1
 77
     6
 78
     2
 67
     7
 79
     5
170
     0
171
     0
290
     0
174
     0
 93
       13
 44
0.0
173
     0
291
     1
 45
0.0
  0
VISUALSTYLE
  5
2B
102
{ACAD_REACTORS
330
29
102
}
330
29
100
AcDbVisualStyle
  2
FlatWithEdges
 70
     1
 71
     2
 72
     1
 73
     1
 90
        2
 40
-0.6
 41
30.0
 62
     5
 63
     7
421
 16777215
 74
     1
 91
        4
 64
     7
 65
   257
 75
     1
175
     1
 42
1.0
 92
        0
 66
   257
 43
1.0
 76
     1
 77
     6
 78
     2
 67
     7
 79
     5
170
     0
171
     0
290
     0
174
     0
 93
       13
 44
0.0
173
     0
291
     1
 45
0.0
  0
VISUALSTYLE
  5
2C
102
{ACAD_REACTORS
330
29
102
}
330
29
100
AcDbVisualStyle
  2
Gouraud
 70
     2
 71
     2
 72
     2
 73
     1
 90
        2
 40
-0.6
 41
30.0
 62
     5
 63
     7
421
 16777215
 74
     0
 91
        4
 64
     7
 65
   257
 75
     1
175
     1
 42
1.0
 92
        0
 66
     7
 43
1.0
 76
     1
 77
     6
 78
     2
 67
     7
 79
     5
170
     0
171
     0
290
     0
174
     0
 93
       13
 44
0.0
173
     0
291
     1
 45
0.0
  0
VISUALSTYLE
  5
2D
102
{ACAD_REACTORS
330
29
102
}
330
29
100
AcDbVisualStyle
  2
GouraudWithEdges
 70
     3
 71
     2
 72
     2
 73
     1
 90
        2
 40
-0.6
 41
30.0
 62
     5
 63
     7
421
 16777215
 74
     1
 91
        4
 64
     7
 65
   257
 75
     1
175
     1
 42
1.0
 92
        0
 66
   257
 43
1.0
 76
     1
 77
     6
 78
     2
 67
     7
 79
     5
170
     0
171
     0
290
     0
174
     0
 93
       13
 44
0.0
173
     0
291
     1
 45
0.0
  0
VISUALSTYLE
  5
37
102
{ACAD_REACTORS
330
29
102
}
330
29
100
AcDbVisualStyle
  2
Linepattern
 70
    14
 71
     2
 72
     2
 73
     0
 90
        0
 40
-0.6
 41
-30.0
 62
     5
 63
     7
421
 16777215
 74
     1
 91
        4
 64
     7
 65
   257
 75
     7
175
     7
 42
1.0
 92
        8
 66
     7
 43
1.0
 76
     1
 77
     6
 78
     2
 67
     7
 79
     5
170
     0
171
     0
290
     0
174
     0
 93
        1
 44
0.0
173
     0
291
     1
 45
0.0
  0
VISUALSTYLE
  5
33
102
{ACAD_REACTORS
330
29
102
}
330
29
100
AcDbVisualStyle
  2
Realistic
 70
     8
 71
     2
 72
     2
 73
     0
 90
        0
 40
-0.6
 41
-30.0
 62
     5
 63
     7
421
 16777215
 74
     1
 91
        0
 64
     7
 65
   257
 75
     1
175
     1
 42
1.0
 92
        8
 66
     8
424
  7895160
 43
1.0
 76
     1
 77
     6
 78
     2
 67
     7
 79
     5
170
     0
171
     0
290
     0
174
     0
 93
       13
 44
0.0
173
     0
291
     0
 45
0.0
  0
VISUALSTYLE
  5
36
102
{ACAD_REACTORS
330
29
102
}
330
29
100
AcDbVisualStyle
  2
Thicken
 70
    13
 71
     2
 72
     2
 73
     0
 90
        0
 40
-0.6
 41
-30.0
 62
     5
 63
     7
421
 16777215
 74
     1
 91
        4
 64
     7
 65
   257
 75
     1
175
     1
 42
1.0
 92
       12
 66
     7
 43
1.0
 76
     1
 77
     6
 78
     2
 67
     7
 79
     5
170
     0
171
     0
290
     0
174
     0
 93
        1
 44
0.0
173
     0
291
     1
 45
0.0
  0
DICTIONARYVAR
  5
1FD
102
{ACAD_REACTORS
330
1FA
102
}
330
1FA
100
DictionaryVariables
280
     0
  1
1:1
  0
DICTIONARYVAR
  5
1FC
102
{ACAD_REACTORS
330
1FA
102
}
330
1FA
100
DictionaryVariables
280
     0
  1
STANDARD
  0
DICTIONARYVAR
  5
1FB
102
{ACAD_REACTORS
330
1FA
102
}
330
1FA
100
DictionaryVariables
280
     0
  1
STANDARD
  0
XRECORD
  5
1F3
102
{ACAD_REACTORS
330
1F1
102
}
330
1F1
100
AcDbXrecord
280
     1
  1
-2000051
  1
Lines
  1
-2000059
  1
Internal Object Styles
  1
-2000150
  1
Generic Annotations
  1
-2000280
  1
Title Blocks
  1
-2000560
  1
Raster Images
  1
-2002000
  1
Detail Items
  0
XRECORD
  5
1F4
102
{ACAD_REACTORS
330
1F1
102
}
330
1F1
100
AcDbXrecord
280
     1
  1
-2000042
  1
Thin Lines
  1
-2000043
  1
Medium Lines
  1
-2000044
  1
Wide Lines
  1
-2000281
  1
Thin Lines
  1
-2000282
  1
Medium Lines
  1
-2000286
  1
<Hidden>
  1
108841
  1
undrl
  1
113602
  1

  1
122107
  1

  1
129614
  1

  1
131133
  1

  1
1349
  1
Medium Lines
  1
1632
  1

  1
1636
  1

  1
165199
  1

  1
165218
  1

  1
165231
  1

  1
165349
  1

  1
165465
  1

  1
25650
  1
Light Lines
  1
744
  1

  0
XRECORD
  5
1F2
102
{ACAD_REACTORS
330
1F1
102
}
330
1F1
100
AcDbXrecord
280
     1
  1
113610
  1
tmber 100'50 : tmber 100'50
  1
122224
  1
fascia board2(ng) 200'30 : tmber 100'50
  1
124592
  1
ply2 20' : ply 20'
  1
129817
  1
nail sp : nail sp
  1
132166
  1
Break Line1 : M_Break Line
  1
142258
  1
M_Label Annotation : M_Label Annotation
  1
143715
  1
Break Line1 : M_Break Line
  1
1631
  1
Text : 2.5mm Arial
  1
163380
  1
A4 SPS : A4 sps
  1
1635
  1
Text : 3.5mm Arial
  1
166201
  1
Raster image : C:\Documents and Settings\Edwards\Desktop\south pacific S\SPSA-rvt-SPSBanner-165453.jpg
  0
DICTIONARY
  5
1A
330
19
100
AcDbDictionary
280
     1
281
     1
  3
BUMPTILE
360
1C
  3
DIFFUSETILE
360
1B
  3
OPACITYTILE
360
1F
  3
REFLECTIONTILE
360
1E
  3
REFRACTIONTILE
360
20
  3
SPECULARTILE
360
1D
  0
DICTIONARY
  5
12
330
11
100
AcDbDictionary
280
     1
281
     1
  3
BUMPTILE
360
14
  3
DIFFUSETILE
360
13
  3
OPACITYTILE
360
17
  3
REFLECTIONTILE
360
16
  3
REFRACTIONTILE
360
18
  3
SPECULARTILE
360
15
  0
DICTIONARY
  5
22
330
21
100
AcDbDictionary
280
     1
281
     1
  3
BUMPTILE
360
24
  3
DIFFUSETILE
360
23
  3
OPACITYTILE
360
27
  3
REFLECTIONTILE
360
26
  3
REFRACTIONTILE
360
28
  3
SPECULARTILE
360
25
  0
DICTIONARY
  5
1FE
330
6D
100
AcDbDictionary
280
     1
281
     1
  3
ACAD_ROUNDTRIP_2008_TABLESTYLE_CELLSTYLEMAP
360
1FF
  0
XRECORD
  5
1C
102
{ACAD_REACTORS
330
1A
102
}
330
1A
100
AcDbXrecord
280
     1
270
     1
271
     1
  0
XRECORD
  5
1B
102
{ACAD_REACTORS
330
1A
102
}
330
1A
100
AcDbXrecord
280
     1
270
     1
271
     1
  0
XRECORD
  5
1F
102
{ACAD_REACTORS
330
1A
102
}
330
1A
100
AcDbXrecord
280
     1
270
     1
271
     1
  0
XRECORD
  5
1E
102
{ACAD_REACTORS
330
1A
102
}
330
1A
100
AcDbXrecord
280
     1
270
     1
271
     1
  0
XRECORD
  5
20
102
{ACAD_REACTORS
330
1A
102
}
330
1A
100
AcDbXrecord
280
     1
270
     1
271
     1
  0
XRECORD
  5
1D
102
{ACAD_REACTORS
330
1A
102
}
330
1A
100
AcDbXrecord
280
     1
270
     1
271
     1
  0
XRECORD
  5
14
102
{ACAD_REACTORS
330
12
102
}
330
12
100
AcDbXrecord
280
     1
270
     1
271
     1
  0
XRECORD
  5
13
102
{ACAD_REACTORS
330
12
102
}
330
12
100
AcDbXrecord
280
     1
270
     1
271
     1
  0
XRECORD
  5
17
102
{ACAD_REACTORS
330
12
102
}
330
12
100
AcDbXrecord
280
     1
270
     1
271
     1
  0
XRECORD
  5
16
102
{ACAD_REACTORS
330
12
102
}
330
12
100
AcDbXrecord
280
     1
270
     1
271
     1
  0
XRECORD
  5
18
102
{ACAD_REACTORS
330
12
102
}
330
12
100
AcDbXrecord
280
     1
270
     1
271
     1
  0
XRECORD
  5
15
102
{ACAD_REACTORS
330
12
102
}
330
12
100
AcDbXrecord
280
     1
270
     1
271
     1
  0
XRECORD
  5
24
102
{ACAD_REACTORS
330
22
102
}
330
22
100
AcDbXrecord
280
     1
270
     1
271
     1
  0
XRECORD
  5
23
102
{ACAD_REACTORS
330
22
102
}
330
22
100
AcDbXrecord
280
     1
270
     1
271
     1
  0
XRECORD
  5
27
102
{ACAD_REACTORS
330
22
102
}
330
22
100
AcDbXrecord
280
     1
270
     1
271
     1
  0
XRECORD
  5
26
102
{ACAD_REACTORS
330
22
102
}
330
22
100
AcDbXrecord
280
     1
270
     1
271
     1
  0
XRECORD
  5
28
102
{ACAD_REACTORS
330
22
102
}
330
22
100
AcDbXrecord
280
     1
270
     1
271
     1
  0
XRECORD
  5
25
102
{ACAD_REACTORS
330
22
102
}
330
22
100
AcDbXrecord
280
     1
270
     1
271
     1
  0
CELLSTYLEMAP
  5
1FF
102
{ACAD_REACTORS
330
1FE
102
}
330
1FE
100
AcDbCellStyleMap
 90
        3
300
CELLSTYLE
  1
TABLEFORMAT_BEGIN
 90
        5
170
     1
 91
        0
 92
    32768
 62
   257
 93
        1
300
CONTENTFORMAT
  1
CONTENTFORMAT_BEGIN
 90
        0
 91
        0
 92
      512
 93
        0
300

 40
0.0
140
1.0
 94
        5
 62
     0
340
5D
144
0.25
309
CONTENTFORMAT_END
171
     0
 94
        0
309
TABLEFORMAT_END
  1
CELLSTYLE_BEGIN
 90
        1
 91
        1
300
_TITLE
309
CELLSTYLE_END
300
CELLSTYLE
  1
TABLEFORMAT_BEGIN
 90
        5
170
     1
 91
        0
 92
        0
 62
   257
 93
        1
300
CONTENTFORMAT
  1
CONTENTFORMAT_BEGIN
 90
        0
 91
        0
 92
      512
 93
        0
300

 40
0.0
140
1.0
 94
        5
 62
     0
340
5D
144
0.18
309
CONTENTFORMAT_END
171
     0
 94
        0
309
TABLEFORMAT_END
  1
CELLSTYLE_BEGIN
 90
        2
 91
        1
300
_HEADER
309
CELLSTYLE_END
300
CELLSTYLE
  1
TABLEFORMAT_BEGIN
 90
        5
170
     1
 91
        0
 92
        0
 62
   257
 93
        1
300
CONTENTFORMAT
  1
CONTENTFORMAT_BEGIN
 90
        0
 91
        0
 92
      512
 93
        0
300

 40
0.0
140
1.0
 94
        2
 62
     0
340
5D
144
0.18
309
CONTENTFORMAT_END
171
     0
 94
        0
309
TABLEFORMAT_END
  1
CELLSTYLE_BEGIN
 90
        3
 91
        2
300
_DATA
309
CELLSTYLE_END
  0
ENDSEC
  0
EOF
