  0
SECTION
  2
HEADER
  9
$ACADVER
  1
AC1021
  9
$ACADMAINTVER
 70
    25
  9
$DWGCODEPAGE
  3
ANSI_1252
  9
$INSBASE
 10
0.0
 20
0.0
 30
0.0
  9
$EXTMIN
 10
2027.97804518541
 20
2053.50623421638
 30
-0.00000001
  9
$EXTMAX
 10
3488.425274840388
 20
2818.216894980114
 30
0.00000001
  9
$LIMMIN
 10
0.0
 20
0.0
  9
$LIMMAX
 10
12.0
 20
9.0
  9
$ORTHOMODE
 70
     0
  9
$REGENMODE
 70
     1
  9
$FILLMODE
 70
     1
  9
$QTEXTMODE
 70
     0
  9
$MIRRTEXT
 70
     0
  9
$LTSCALE
 40
1.0
  9
$ATTMODE
 70
     1
  9
$TEXTSIZE
 40
0.2
  9
$TRACEWID
 40
0.05
  9
$TEXTSTYLE
  7
Standard
  9
$CLAYER
  8
0
  9
$CELTYPE
  6
ByLayer
  9
$CECOLOR
 62
   256
  9
$CELTSCALE
 40
1.0
  9
$DISPSILH
 70
     0
  9
$DIMSCALE
 40
1.0
  9
$DIMASZ
 40
0.18
  9
$DIMEXO
 40
0.0625
  9
$DIMDLI
 40
0.38
  9
$DIMRND
 40
0.0
  9
$DIMDLE
 40
0.0
  9
$DIMEXE
 40
0.18
  9
$DIMTP
 40
0.0
  9
$DIMTM
 40
0.0
  9
$DIMTXT
 40
0.18
  9
$DIMCEN
 40
0.09
  9
$DIMTSZ
 40
0.0
  9
$DIMTOL
 70
     0
  9
$DIMLIM
 70
     0
  9
$DIMTIH
 70
     1
  9
$DIMTOH
 70
     1
  9
$DIMSE1
 70
     0
  9
$DIMSE2
 70
     0
  9
$DIMTAD
 70
     0
  9
$DIMZIN
 70
     0
  9
$DIMBLK
  1

  9
$DIMASO
 70
     1
  9
$DIMSHO
 70
     1
  9
$DIMPOST
  1

  9
$DIMAPOST
  1

  9
$DIMALT
 70
     0
  9
$DIMALTD
 70
     2
  9
$DIMALTF
 40
25.4
  9
$DIMLFAC
 40
1.0
  9
$DIMTOFL
 70
     0
  9
$DIMTVP
 40
0.0
  9
$DIMTIX
 70
     0
  9
$DIMSOXD
 70
     0
  9
$DIMSAH
 70
     0
  9
$DIMBLK1
  1

  9
$DIMBLK2
  1

  9
$DIMSTYLE
  2
Standard
  9
$DIMCLRD
 70
     0
  9
$DIMCLRE
 70
     0
  9
$DIMCLRT
 70
     0
  9
$DIMTFAC
 40
1.0
  9
$DIMGAP
 40
0.09
  9
$DIMJUST
 70
     0
  9
$DIMSD1
 70
     0
  9
$DIMSD2
 70
     0
  9
$DIMTOLJ
 70
     1
  9
$DIMTZIN
 70
     0
  9
$DIMALTZ
 70
     0
  9
$DIMALTTZ
 70
     0
  9
$DIMUPT
 70
     0
  9
$DIMDEC
 70
     4
  9
$DIMTDEC
 70
     4
  9
$DIMALTU
 70
     2
  9
$DIMALTTD
 70
     2
  9
$DIMTXSTY
  7
Standard
  9
$DIMAUNIT
 70
     0
  9
$DIMADEC
 70
     0
  9
$DIMALTRND
 40
0.0
  9
$DIMAZIN
 70
     0
  9
$DIMDSEP
 70
    46
  9
$DIMATFIT
 70
     3
  9
$DIMFRAC
 70
     0
  9
$DIMLDRBLK
  1

  9
$DIMLUNIT
 70
     2
  9
$DIMLWD
 70
    -2
  9
$DIMLWE
 70
    -2
  9
$DIMTMOVE
 70
     0
  9
$DIMFXL
 40
1.0
  9
$DIMFXLON
 70
     0
  9
$DIMJOGANG
 40
0.7853981633974483
  9
$DIMTFILL
 70
     0
  9
$DIMTFILLCLR
 70
     0
  9
$DIMARCSYM
 70
     0
  9
$DIMLTYPE
  6

  9
$DIMLTEX1
  6

  9
$DIMLTEX2
  6

  9
$LUNITS
 70
     2
  9
$LUPREC
 70
     4
  9
$SKETCHINC
 40
0.1
  9
$FILLETRAD
 40
0.0
  9
$AUNITS
 70
     0
  9
$AUPREC
 70
     0
  9
$MENU
  1
.
  9
$ELEVATION
 40
0.0
  9
$PELEVATION
 40
0.0
  9
$THICKNESS
 40
0.0
  9
$LIMCHECK
 70
     0
  9
$CHAMFERA
 40
0.0
  9
$CHAMFERB
 40
0.0
  9
$CHAMFERC
 40
0.0
  9
$CHAMFERD
 40
0.0
  9
$SKPOLY
 70
     0
  9
$TDCREATE
 40
2455036.652475035
  9
$TDUCREATE
 40
2455036.152475035
  9
$TDUPDATE
 40
2455036.652475035
  9
$TDUUPDATE
 40
2455036.152475035
  9
$TDINDWG
 40
0.0000128472
  9
$TDUSRTIMER
 40
0.0000128472
  9
$USRTIMER
 70
     1
  9
$ANGBASE
 50
0.0
  9
$ANGDIR
 70
     0
  9
$PDMODE
 70
     0
  9
$PDSIZE
 40
0.0
  9
$PLINEWID
 40
0.0
  9
$SPLFRAME
 70
     0
  9
$SPLINETYPE
 70
     6
  9
$SPLINESEGS
 70
     8
  9
$HANDSEED
  5
26C
  9
$SURFTAB1
 70
     6
  9
$SURFTAB2
 70
     6
  9
$SURFTYPE
 70
     6
  9
$SURFU
 70
     6
  9
$SURFV
 70
     6
  9
$UCSBASE
  2

  9
$UCSNAME
  2

  9
$UCSORG
 10
0.0
 20
0.0
 30
0.0
  9
$UCSXDIR
 10
1.0
 20
0.0
 30
0.0
  9
$UCSYDIR
 10
0.0
 20
1.0
 30
0.0
  9
$UCSORTHOREF
  2

  9
$UCSORTHOVIEW
 70
     0
  9
$UCSORGTOP
 10
0.0
 20
0.0
 30
0.0
  9
$UCSORGBOTTOM
 10
0.0
 20
0.0
 30
0.0
  9
$UCSORGLEFT
 10
0.0
 20
0.0
 30
0.0
  9
$UCSORGRIGHT
 10
0.0
 20
0.0
 30
0.0
  9
$UCSORGFRONT
 10
0.0
 20
0.0
 30
0.0
  9
$UCSORGBACK
 10
0.0
 20
0.0
 30
0.0
  9
$PUCSBASE
  2

  9
$PUCSNAME
  2

  9
$PUCSORG
 10
0.0
 20
0.0
 30
0.0
  9
$PUCSXDIR
 10
1.0
 20
0.0
 30
0.0
  9
$PUCSYDIR
 10
0.0
 20
1.0
 30
0.0
  9
$PUCSORTHOREF
  2

  9
$PUCSORTHOVIEW
 70
     0
  9
$PUCSORGTOP
 10
0.0
 20
0.0
 30
0.0
  9
$PUCSORGBOTTOM
 10
0.0
 20
0.0
 30
0.0
  9
$PUCSORGLEFT
 10
0.0
 20
0.0
 30
0.0
  9
$PUCSORGRIGHT
 10
0.0
 20
0.0
 30
0.0
  9
$PUCSORGFRONT
 10
0.0
 20
0.0
 30
0.0
  9
$PUCSORGBACK
 10
0.0
 20
0.0
 30
0.0
  9
$USERI1
 70
     0
  9
$USERI2
 70
     0
  9
$USERI3
 70
     0
  9
$USERI4
 70
     0
  9
$USERI5
 70
     0
  9
$USERR1
 40
0.0
  9
$USERR2
 40
0.0
  9
$USERR3
 40
0.0
  9
$USERR4
 40
0.0
  9
$USERR5
 40
0.0
  9
$WORLDVIEW
 70
     1
  9
$SHADEDGE
 70
     3
  9
$SHADEDIF
 70
    70
  9
$TILEMODE
 70
     0
  9
$MAXACTVP
 70
    64
  9
$PINSBASE
 10
0.0
 20
0.0
 30
0.0
  9
$PLIMCHECK
 70
     0
  9
$PEXTMIN
 10
2.792850708837467
 20
84.97857142855533
 30
0.0
  9
$PEXTMAX
 10
299.7928507088389
 20
294.999999999986
 30
0.0
  9
$PLIMMIN
 10
0.0
 20
0.0
  9
$PLIMMAX
 10
12.0
 20
9.0
  9
$UNITMODE
 70
     0
  9
$VISRETAIN
 70
     1
  9
$PLINEGEN
 70
     0
  9
$PSLTSCALE
 70
     1
  9
$TREEDEPTH
 70
  3020
  9
$CMLSTYLE
  2
Standard
  9
$CMLJUST
 70
     0
  9
$CMLSCALE
 40
1.0
  9
$PROXYGRAPHICS
 70
     1
  9
$MEASUREMENT
 70
     1
  9
$CELWEIGHT
370
    -1
  9
$ENDCAPS
280
     0
  9
$JOINSTYLE
280
     0
  9
$LWDISPLAY
290
     0
  9
$INSUNITS
 70
     4
  9
$HYPERLINKBASE
  1

  9
$STYLESHEET
  1

  9
$XEDIT
290
     1
  9
$CEPSNTYPE
380
     0
  9
$PSTYLEMODE
290
     1
  9
$FINGERPRINTGUID
  2
{F51AF662-DFDA-4E94-99CF-92C4EE65EA28}
  9
$VERSIONGUID
  2
{DF9E4BCC-C813-4EC2-879C-01BEC33C580A}
  9
$EXTNAMES
290
     1
  9
$PSVPSCALE
 40
0.0
  9
$OLESTARTUP
290
     0
  9
$SORTENTS
280
   127
  9
$INDEXCTL
280
     0
  9
$HIDETEXT
280
     1
  9
$XCLIPFRAME
290
     0
  9
$HALOGAP
280
     0
  9
$OBSCOLOR
 70
   257
  9
$OBSLTYPE
280
     0
  9
$INTERSECTIONDISPLAY
280
     0
  9
$INTERSECTIONCOLOR
 70
   257
  9
$DIMASSOC
280
     2
  9
$PROJECTNAME
  1

  9
$CAMERADISPLAY
290
     0
  9
$LENSLENGTH
 40
50.0
  9
$CAMERAHEIGHT
 40
0.0
  9
$STEPSPERSEC
 40
2.0
  9
$STEPSIZE
 40
6.0
  9
$3DDWFPREC
 40
2.0
  9
$PSOLWIDTH
 40
0.25
  9
$PSOLHEIGHT
 40
4.0
  9
$LOFTANG1
 40
1.570796326794896
  9
$LOFTANG2
 40
1.570796326794896
  9
$LOFTMAG1
 40
0.0
  9
$LOFTMAG2
 40
0.0
  9
$LOFTPARAM
 70
     7
  9
$LOFTNORMALS
280
     1
  9
$LATITUDE
 40
37.795
  9
$LONGITUDE
 40
-122.394
  9
$NORTHDIRECTION
 40
0.0
  9
$TIMEZONE
 70
 -8000
  9
$LIGHTGLYPHDISPLAY
280
     1
  9
$TILEMODELIGHTSYNCH
280
     1
  9
$CMATERIAL
347
11
  9
$SOLIDHIST
280
     1
  9
$SHOWHIST
280
     1
  9
$DWFFRAME
280
     2
  9
$DGNFRAME
280
     0
  9
$REALWORLDSCALE
290
     1
  9
$INTERFERECOLOR
 62
     1
  9
$INTERFEREOBJVS
345
33
  9
$INTERFEREVPVS
346
30
  9
$CSHADOW
280
     0
  9
$SHADOWPLANELOCATION
 40
0.0
  0
ENDSEC
  0
SECTION
  2
CLASSES
  0
CLASS
  1
ACDBDICTIONARYWDFLT
  2
AcDbDictionaryWithDefault
  3
ObjectDBX Classes
 90
        0
 91
        1
280
     0
281
     0
  0
CLASS
  1
MATERIAL
  2
AcDbMaterial
  3
ObjectDBX Classes
 90
     1153
 91
        3
280
     0
281
     0
  0
CLASS
  1
VISUALSTYLE
  2
AcDbVisualStyle
  3
ObjectDBX Classes
 90
     4095
 91
       16
280
     0
281
     0
  0
CLASS
  1
SCALE
  2
AcDbScale
  3
ObjectDBX Classes
 90
     1153
 91
       33
280
     0
281
     0
  0
CLASS
  1
TABLESTYLE
  2
AcDbTableStyle
  3
ObjectDBX Classes
 90
     4095
 91
        1
280
     0
281
     0
  0
CLASS
  1
MLEADERSTYLE
  2
AcDbMLeaderStyle
  3
ACDB_MLEADERSTYLE_CLASS
 90
     4095
 91
        1
280
     0
281
     0
  0
CLASS
  1
IMAGEDEF
  2
AcDbRasterImageDef
  3
ISM
 90
        0
 91
        2
280
     0
281
     0
  0
CLASS
  1
IMAGE
  2
AcDbRasterImage
  3
ISM
 90
     2175
 91
        2
280
     0
281
     1
  0
CLASS
  1
SORTENTSTABLE
  2
AcDbSortentsTable
  3
ObjectDBX Classes
 90
        0
 91
        1
280
     0
281
     0
  0
CLASS
  1
DICTIONARYVAR
  2
AcDbDictionaryVar
  3
ObjectDBX Classes
 90
        0
 91
        3
280
     0
281
     0
  0
CLASS
  1
CELLSTYLEMAP
  2
AcDbCellStyleMap
  3
ObjectDBX Classes
 90
     1152
 91
        1
280
     0
281
     0
  0
ENDSEC
  0
SECTION
  2
TABLES
  0
TABLE
  2
VPORT
  5
8
330
0
100
AcDbSymbolTable
 70
     1
  0
VPORT
  5
5F
330
8
100
AcDbSymbolTableRecord
100
AcDbViewportTableRecord
  2
*Active
 70
     0
 10
0.0
 20
0.0
 11
1.0
 21
1.0
 12
2758.201660012899
 22
2435.861564598247
 13
0.0
 23
0.0
 14
1.0
 24
1.0
 15
0.0
 25
0.0
 16
0.0
 26
0.0
 36
1.0
 17
0.0
 27
0.0
 37
0.0
 40
764.7106607637347
 41
1.909803674237253
 42
50.0
 43
0.0
 44
0.0
 50
0.0
 51
0.0
 71
     0
 72
   100
 73
     1
 74
     1
 75
     0
 76
     0
 77
     0
 78
     0
281
     0
 65
     1
110
0.0
120
0.0
130
0.0
111
1.0
121
0.0
131
0.0
112
0.0
122
1.0
132
0.0
 79
     0
146
0.0
 60
     3
 61
     5
292
     1
282
     1
141
0.0
142
0.0
 63
   250
421
  3355443
  0
ENDTAB
  0
TABLE
  2
LTYPE
  5
5
330
0
100
AcDbSymbolTable
 70
     3
  0
LTYPE
  5
63
330
5
100
AcDbSymbolTableRecord
100
AcDbLinetypeTableRecord
  2
ByBlock
 70
     0
  3

 72
    65
 73
     0
 40
0.0
  0
LTYPE
  5
64
330
5
100
AcDbSymbolTableRecord
100
AcDbLinetypeTableRecord
  2
ByLayer
 70
     0
  3

 72
    65
 73
     0
 40
0.0
  0
LTYPE
  5
65
330
5
100
AcDbSymbolTableRecord
100
AcDbLinetypeTableRecord
  2
Continuous
 70
     0
  3
Solid line
 72
    65
 73
     0
 40
0.0
  0
LTYPE
  5
7F
330
5
100
AcDbSymbolTableRecord
100
AcDbLinetypeTableRecord
  2
Aligning Line
 70
     0
  3

 72
    65
 73
     2
 40
6.350000000000001
 49
3.175
 74
     0
 49
-3.175
 74
     0
  0
LTYPE
  5
84
330
5
100
AcDbSymbolTableRecord
100
AcDbLinetypeTableRecord
  2
Dash
 70
     0
  3

 72
    65
 73
     2
 40
6.35
 49
3.175
 74
     0
 49
-3.175
 74
     0
  0
ENDTAB
  0
TABLE
  2
LAYER
  5
2
330
0
100
AcDbSymbolTable
 70
     7
  0
LAYER
  5
5C
330
2
100
AcDbSymbolTableRecord
100
AcDbLayerTableRecord
  2
0
 70
     0
 62
     7
  6
Continuous
370
    -3
390
F
347
21
  0
LAYER
  5
80
330
2
100
AcDbSymbolTableRecord
100
AcDbLayerTableRecord
  2
G-----PAP
 70
     0
 62
     8
  6
Aligning Line
370
    18
390
F
347
21
  0
LAYER
  5
85
330
2
100
AcDbSymbolTableRecord
100
AcDbLayerTableRecord
  2
A-----NPP
 70
     0
 62
     5
  6
Dash
370
    35
390
F
347
21
  0
LAYER
  5
8C
330
2
100
AcDbSymbolTableRecord
100
AcDbLayerTableRecord
  2
A-DETLGEM
 70
     0
 62
     3
  6
Continuous
370
    18
390
F
347
21
  0
LAYER
  5
1DB
330
2
100
AcDbSymbolTableRecord
100
AcDbLayerTableRecord
  2
A-----TEP
 70
     0
 62
     2
  6
Continuous
370
     9
390
F
347
21
  0
LAYER
  5
1E2
330
2
100
AcDbSymbolTableRecord
100
AcDbLayerTableRecord
  2
A-----NOP
 70
     0
 62
     2
  6
Continuous
370
     9
390
F
347
21
  0
LAYER
  5
221
330
2
100
AcDbSymbolTableRecord
100
AcDbLayerTableRecord
  2
G-----TTP
 70
     0
 62
     6
  6
Continuous
370
     9
390
F
347
21
  0
ENDTAB
  0
TABLE
  2
STYLE
  5
3
330
0
100
AcDbSymbolTable
 70
     2
  0
STYLE
  5
5D
330
3
100
AcDbSymbolTableRecord
100
AcDbTextStyleTableRecord
  2
Standard
 70
     0
 40
0.0
 41
1.0
 50
0.0
 71
     0
 42
0.2
  3
txt
  4

  0
STYLE
  5
62
330
3
100
AcDbSymbolTableRecord
100
AcDbTextStyleTableRecord
  2
Annotative
 70
     0
 40
0.0
 41
1.0
 50
0.0
 71
     0
 42
0.2
  3

  4

1001
AcadAnnotative
1000
AnnotativeData
1002
{
1070
     1
1070
     1
1002
}
  0
ENDTAB
  0
TABLE
  2
VIEW
  5
6
330
0
100
AcDbSymbolTable
 70
     0
  0
ENDTAB
  0
TABLE
  2
UCS
  5
7
330
0
100
AcDbSymbolTable
 70
     0
  0
ENDTAB
  0
TABLE
  2
APPID
  5
9
330
0
100
AcDbSymbolTable
 70
     5
  0
APPID
  5
5E
330
9
100
AcDbSymbolTableRecord
100
AcDbRegAppTableRecord
  2
ACAD
 70
     0
  0
APPID
  5
66
330
9
100
AcDbSymbolTableRecord
100
AcDbRegAppTableRecord
  2
AcadAnnotative
 70
     0
  0
APPID
  5
70
330
9
100
AcDbSymbolTableRecord
100
AcDbRegAppTableRecord
  2
ACAD_MLEADERVER
 70
     0
  0
APPID
  5
7D
330
9
100
AcDbSymbolTableRecord
100
AcDbRegAppTableRecord
  2
ACCURENDER3
 70
     0
  0
APPID
  5
7E
330
9
100
AcDbSymbolTableRecord
100
AcDbRegAppTableRecord
  2
REVIT
 70
     0
  0
ENDTAB
  0
TABLE
  2
DIMSTYLE
  5
A
330
0
100
AcDbSymbolTable
 70
     2
100
AcDbDimStyleTable
 71
     0
  0
DIMSTYLE
105
60
330
A
100
AcDbSymbolTableRecord
100
AcDbDimStyleTableRecord
  2
Standard
 70
     0
340
5D
  0
DIMSTYLE
105
61
330
A
100
AcDbSymbolTableRecord
100
AcDbDimStyleTableRecord
  2
Annotative
 70
     0
340
5D
1001
AcadAnnotative
1000
AnnotativeData
1002
{
1070
     1
1070
     1
1002
}
  0
ENDTAB
  0
TABLE
  2
BLOCK_RECORD
  5
1
330
0
100
AcDbSymbolTable
 70
    12
  0
BLOCK_RECORD
  5
75
102
{ACAD_XDICTIONARY
360
260
102
}
330
1
100
AcDbSymbolTableRecord
100
AcDbBlockTableRecord
  2
*Model_Space
340
78
 70
     0
280
     1
281
     0
  0
BLOCK_RECORD
  5
71
330
1
100
AcDbSymbolTableRecord
100
AcDbBlockTableRecord
  2
*Paper_Space
340
74
 70
     0
280
     1
281
     0
  0
BLOCK_RECORD
  5
79
330
1
100
AcDbSymbolTableRecord
100
AcDbBlockTableRecord
  2
*Paper_Space0
340
7C
 70
     0
280
     1
281
     0
  0
BLOCK_RECORD
  5
105
330
1
100
AcDbSymbolTableRecord
100
AcDbBlockTableRecord
  2
tmber 100_50 - tmber 100_50_1-6-Detail 6
340
0
102
{BLKREFS
331
10D
331
139
102
}
 70
     0
280
     1
281
     0
  0
BLOCK_RECORD
  5
10E
330
1
100
AcDbSymbolTableRecord
100
AcDbBlockTableRecord
  2
ply2 20_ - ply 20__1-8-Detail 6
340
0
102
{BLKREFS
331
123
102
}
 70
     0
280
     1
281
     0
  0
BLOCK_RECORD
  5
124
330
1
100
AcDbSymbolTableRecord
100
AcDbBlockTableRecord
  2
ply2 20_ - ply 20__1-7-Detail 6
340
0
102
{BLKREFS
331
138
102
}
 70
     0
280
     1
281
     0
  0
BLOCK_RECORD
  5
13E
330
1
100
AcDbSymbolTableRecord
100
AcDbBlockTableRecord
  2
Break Line1 - M_Break Line_1-5-Detail 6
340
0
102
{BLKREFS
331
146
102
}
 70
     0
280
     1
281
     0
  0
BLOCK_RECORD
  5
147
330
1
100
AcDbSymbolTableRecord
100
AcDbBlockTableRecord
  2
Break Line1 - M_Break Line_1-4-Detail 6
340
0
102
{BLKREFS
331
14F
102
}
 70
     0
280
     1
281
     0
  0
BLOCK_RECORD
  5
159
330
1
100
AcDbSymbolTableRecord
100
AcDbBlockTableRecord
  2
nail sp - nail sp_1-3-Detail 6
340
0
102
{BLKREFS
331
172
331
173
102
}
 70
     0
280
     1
281
     0
  0
BLOCK_RECORD
  5
174
330
1
100
AcDbSymbolTableRecord
100
AcDbBlockTableRecord
  2
nail sp - nail sp_1-0-Detail 6
340
0
102
{BLKREFS
331
18D
331
18E
331
1DA
102
}
 70
     0
280
     1
281
     0
  0
BLOCK_RECORD
  5
18F
330
1
100
AcDbSymbolTableRecord
100
AcDbBlockTableRecord
  2
SPS RIDGE VENT - SPS RIDGE VENT_1-2-Detail 6
340
0
102
{BLKREFS
331
19E
102
}
 70
     0
280
     1
281
     0
  0
BLOCK_RECORD
  5
1B0
330
1
100
AcDbSymbolTableRecord
100
AcDbBlockTableRecord
  2
nail sp - nail sp_1-1-Detail 6
340
0
102
{BLKREFS
331
1C9
102
}
 70
     0
280
     1
281
     0
  0
BLOCK_RECORD
  5
1E9
330
1
100
AcDbSymbolTableRecord
100
AcDbBlockTableRecord
  2
M_Label Annotation - M_Label Annotation_1-142258-Detail 6
340
0
102
{BLKREFS
331
1EC
331
1F3
331
1FA
331
202
331
209
331
210
331
217
331
21F
102
}
 70
     0
280
     1
281
     0
  0
BLOCK_RECORD
  5
222
330
1
100
AcDbSymbolTableRecord
100
AcDbBlockTableRecord
  2
A4 SPS - A4 sps_0-163380-RIDGE-CROSS SECTION
340
0
102
{BLKREFS
331
253
102
}
 70
     0
280
     1
281
     0
  0
ENDTAB
  0
ENDSEC
  0
SECTION
  2
BLOCKS
  0
BLOCK
  5
76
330
75
100
AcDbEntity
  8
0
100
AcDbBlockBegin
  2
*Model_Space
 70
     0
 10
0.0
 20
0.0
 30
0.0
  3
*Model_Space
  1

  0
ENDBLK
  5
77
330
75
100
AcDbEntity
  8
0
100
AcDbBlockEnd
  0
BLOCK
  5
72
330
71
100
AcDbEntity
 67
     1
  8
0
100
AcDbBlockBegin
  2
*Paper_Space
 70
     0
 10
0.0
 20
0.0
 30
0.0
  3
*Paper_Space
  1

  0
ENDBLK
  5
73
330
71
100
AcDbEntity
 67
     1
  8
0
100
AcDbBlockEnd
  0
BLOCK
  5
7A
330
79
100
AcDbEntity
 67
     1
  8
0
100
AcDbBlockBegin
  2
*Paper_Space0
 70
     0
 10
0.0
 20
0.0
 30
0.0
  3
*Paper_Space0
  1

  0
ENDBLK
  5
7B
330
79
100
AcDbEntity
 67
     1
  8
0
100
AcDbBlockEnd
  0
BLOCK
  5
10B
330
105
100
AcDbEntity
  8
0
100
AcDbBlockBegin
  2
tmber 100_50 - tmber 100_50_1-6-Detail 6
 70
     0
 10
0.0
 20
0.0
 30
0.0
  3
tmber 100_50 - tmber 100_50_1-6-Detail 6
  1

  0
LINE
  5
106
330
105
100
AcDbEntity
  8
A-DETLGEM
100
AcDbLine
 10
50.0
 20
100.0
 30
0.0
 11
0.0
 21
100.0
 31
0.0
  0
LINE
  5
107
330
105
100
AcDbEntity
  8
A-DETLGEM
100
AcDbLine
 10
0.0
 20
100.0
 30
0.0
 11
0.0
 21
0.0
 31
0.0
  0
LINE
  5
108
330
105
100
AcDbEntity
  8
A-DETLGEM
100
AcDbLine
 10
0.0
 20
0.0
 30
0.0
 11
50.0
 21
0.0
 31
0.0
  0
LINE
  5
109
330
105
100
AcDbEntity
  8
A-DETLGEM
100
AcDbLine
 10
50.0
 20
0.0
 30
0.0
 11
50.0
 21
100.0
 31
0.0
  0
HATCH
  5
10A
330
105
100
AcDbEntity
  8
A-DETLGEM
100
AcDbHatch
 10
0.0
 20
0.0
 30
0.0
210
0.0
220
0.0
230
1.0
  2
FP1_1
 70
     0
 71
     0
 91
        1
 92
        0
 93
        4
 72
     1
 10
50.0
 20
100.0
 11
0.0
 21
100.0
 72
     1
 10
0.0
 20
100.0
 11
0.0
 21
0.0
 72
     1
 10
0.0
 20
0.0
 11
50.0
 21
0.0
 72
     1
 10
50.0
 20
0.0
 11
50.0
 21
100.0
 97
        0
 75
     0
 76
     2
 52
0.0
 41
1.0
 77
     0
 78
     1
 53
290.0
 43
-1104.699
 44
3496.308
 45
23.49231551964771
 46
8.55050358314172
 79
     0
 98
        1
 10
0.0
 20
0.0
1001
REVIT
1002
{
1070
     3
1000
113602
1002
}
  0
ENDBLK
  5
10C
330
105
100
AcDbEntity
  8
0
100
AcDbBlockEnd
  0
BLOCK
  5
121
330
10E
100
AcDbEntity
  8
0
100
AcDbBlockBegin
  2
ply2 20_ - ply 20__1-8-Detail 6
 70
     0
 10
0.0
 20
0.0
 30
0.0
  3
ply2 20_ - ply 20__1-8-Detail 6
  1

  0
LINE
  5
10F
330
10E
100
AcDbEntity
  8
A-DETLGEM
100
AcDbLine
 10
317.9662061754735
 20
11.94621723361908
 30
0.0
 11
392.1537997254219
 21
11.94621723361908
 31
0.0
  0
LINE
  5
110
330
10E
100
AcDbEntity
  8
A-DETLGEM
100
AcDbLine
 10
177.3351991154609
 20
11.94621723361908
 30
0.0
 11
314.6278534879745
 21
11.94621723361908
 31
0.0
  0
LINE
  5
111
330
10E
100
AcDbEntity
  8
A-DETLGEM
100
AcDbLine
 10
22.24294788446412
 20
11.94621723361908
 30
0.0
 11
173.996846427962
 21
11.94621723361908
 31
0.0
  0
LINE
  5
112
330
10E
100
AcDbEntity
  8
A-DETLGEM
100
AcDbLine
 10
0.0
 20
11.94621723361908
 30
0.0
 11
18.90459519696465
 21
11.94621723361908
 31
0.0
  0
LINE
  5
113
330
10E
100
AcDbEntity
  8
A-DETLGEM
100
AcDbLine
 10
0.0
 20
0.0
 30
0.0
 11
0.0
 21
6.071876166871061
 31
0.0
  0
LINE
  5
114
330
10E
100
AcDbEntity
  8
A-DETLGEM
100
AcDbLine
 10
19.31681632912452
 20
0.0
 30
0.0
 11
0.0
 21
0.0
 31
0.0
  0
LINE
  5
115
330
10E
100
AcDbEntity
  8
A-DETLGEM
100
AcDbLine
 10
174.4090675601224
 20
0.0
 30
0.0
 11
22.65516901662425
 21
0.0
 31
0.0
  0
LINE
  5
116
330
10E
100
AcDbEntity
  8
A-DETLGEM
100
AcDbLine
 10
315.0400746201343
 20
0.0
 30
0.0
 11
177.7474202476213
 21
0.0
 31
0.0
  0
LINE
  5
117
330
10E
100
AcDbEntity
  8
A-DETLGEM
100
AcDbLine
 10
397.7244123074414
 20
0.0
 30
0.0
 11
318.3784273076335
 21
0.0
 31
0.0
  0
LINE
  5
118
330
10E
100
AcDbEntity
  8
A-DETLGEM
100
AcDbLine
 10
318.0994445390648
 20
8.084953675936469
 30
0.0
 11
393.9543364925244
 21
8.084953675936224
 31
0.0
  0
LINE
  5
119
330
10E
100
AcDbEntity
  8
A-DETLGEM
100
AcDbLine
 10
177.4684374790523
 20
8.084953675936924
 30
0.0
 11
314.7610918515659
 21
8.08495367593648
 31
0.0
  0
LINE
  5
11A
330
10E
100
AcDbEntity
  8
A-DETLGEM
100
AcDbLine
 10
22.37618624805579
 20
8.084953675937425
 30
0.0
 11
174.1300847915535
 21
8.084953675936935
 31
0.0
  0
LINE
  5
11B
330
10E
100
AcDbEntity
  8
A-DETLGEM
100
AcDbLine
 10
0.0
 20
8.084953675937498
 30
0.0
 11
19.03783356055607
 21
8.084953675937436
 31
0.0
  0
LINE
  5
11C
330
10E
100
AcDbEntity
  8
A-DETLGEM
100
AcDbLine
 10
318.2398620409699
 20
4.015637839629612
 30
0.0
 11
395.8518896304456
 21
4.015637839629362
 31
0.0
  0
LINE
  5
11D
330
10E
100
AcDbEntity
  8
A-DETLGEM
100
AcDbLine
 10
177.6088549809577
 20
4.015637839630066
 30
0.0
 11
314.9015093534706
 21
4.015637839629623
 31
0.0
  0
LINE
  5
11E
330
10E
100
AcDbEntity
  8
A-DETLGEM
100
AcDbLine
 10
22.51660374996073
 20
4.015637839630568
 30
0.0
 11
174.2705022934586
 21
4.015637839630078
 31
0.0
  0
LINE
  5
11F
330
10E
100
AcDbEntity
  8
A-DETLGEM
100
AcDbLine
 10
0.0
 20
4.015637839630641
 30
0.0
 11
19.17825106246127
 21
4.015637839630579
 31
0.0
  0
LINE
  5
120
330
10E
100
AcDbEntity
  8
A-DETLGEM
100
AcDbLine
 10
0.0
 20
11.94621723361908
 30
0.0
 11
0.0
 21
0.0
 31
0.0
  0
ENDBLK
  5
122
330
10E
100
AcDbEntity
  8
0
100
AcDbBlockEnd
  0
BLOCK
  5
136
330
124
100
AcDbEntity
  8
0
100
AcDbBlockBegin
  2
ply2 20_ - ply 20__1-7-Detail 6
 70
     0
 10
0.0
 20
0.0
 30
0.0
  3
ply2 20_ - ply 20__1-7-Detail 6
  1

  0
LINE
  5
125
330
124
100
AcDbEntity
  8
A-DETLGEM
100
AcDbLine
 10
475.4077992305136
 20
11.94621723361908
 30
0.0
 11
492.2295054757212
 21
11.94621723361908
 31
0.0
  0
LINE
  5
126
330
124
100
AcDbEntity
  8
A-DETLGEM
100
AcDbLine
 10
324.8488493791269
 20
11.94621723361908
 30
0.0
 11
472.0697844744448
 21
11.94621723361908
 31
0.0
  0
LINE
  5
127
330
124
100
AcDbEntity
  8
A-DETLGEM
100
AcDbLine
 10
179.5295311297576
 20
11.94621723361908
 30
0.0
 11
321.5105163313437
 21
11.94621723361908
 31
0.0
  0
LINE
  5
128
330
124
100
AcDbEntity
  8
A-DETLGEM
100
AcDbLine
 10
97.94529025242541
 20
11.94621723361908
 30
0.0
 11
176.1911980819749
 21
11.94621723361908
 31
0.0
  0
LINE
  5
129
330
124
100
AcDbEntity
  8
A-DETLGEM
100
AcDbLine
 10
175.7810211680223
 20
0.0
 30
0.0
 11
92.37467767040595
 21
0.0
 31
0.0
  0
LINE
  5
12A
330
124
100
AcDbEntity
  8
A-DETLGEM
100
AcDbLine
 10
321.1003394173914
 20
0.0
 30
0.0
 11
179.1193542158048
 21
0.0
 31
0.0
  0
LINE
  5
12B
330
124
100
AcDbEntity
  8
A-DETLGEM
100
AcDbLine
 10
471.6942838930456
 20
0.0
 30
0.0
 11
324.4386724651741
 21
0.0
 31
0.0
  0
LINE
  5
12C
330
124
100
AcDbEntity
  8
A-DETLGEM
100
AcDbLine
 10
492.2295054757212
 20
0.0
 30
0.0
 11
475.0322986491138
 21
0.0
 31
0.0
  0
LINE
  5
12D
330
124
100
AcDbEntity
  8
A-DETLGEM
100
AcDbLine
 10
492.2295054757212
 20
11.94621723361908
 30
0.0
 11
492.2295054757212
 21
0.0
 31
0.0
  0
LINE
  5
12E
330
124
100
AcDbEntity
  8
A-DETLGEM
100
AcDbLine
 10
475.286429705542
 20
8.084953675935963
 30
0.0
 11
492.2295054757212
 21
8.084953675935908
 31
0.0
  0
LINE
  5
12F
330
124
100
AcDbEntity
  8
A-DETLGEM
100
AcDbLine
 10
324.7162717489801
 20
8.084953675936448
 30
0.0
 11
471.9484149494738
 21
8.084953675935974
 31
0.0
  0
LINE
  5
130
330
124
100
AcDbEntity
  8
A-DETLGEM
100
AcDbLine
 10
179.396953499611
 20
8.084953675936919
 30
0.0
 11
321.3779387011975
 21
8.084953675936459
 31
0.0
  0
LINE
  5
131
330
124
100
AcDbEntity
  8
A-DETLGEM
100
AcDbLine
 10
96.14475348532355
 20
8.084953675937187
 30
0.0
 11
176.0586204518283
 21
8.08495367593693
 31
0.0
  0
LINE
  5
132
330
124
100
AcDbEntity
  8
A-DETLGEM
100
AcDbLine
 10
475.1585205580234
 20
4.015637839629105
 30
0.0
 11
492.2295054757212
 21
4.01563783962905
 31
0.0
  0
LINE
  5
133
330
124
100
AcDbEntity
  8
A-DETLGEM
100
AcDbLine
 10
324.5765505821037
 20
4.015637839629592
 30
0.0
 11
471.8205058019546
 21
4.015637839629116
 31
0.0
  0
LINE
  5
134
330
124
100
AcDbEntity
  8
A-DETLGEM
100
AcDbLine
 10
179.2572323327352
 20
4.015637839630062
 30
0.0
 11
321.2382175343211
 21
4.015637839629603
 31
0.0
  0
LINE
  5
135
330
124
100
AcDbEntity
  8
A-DETLGEM
100
AcDbLine
 10
94.2472003474023
 20
4.015637839630336
 30
0.0
 11
175.9188992849524
 21
4.015637839630072
 31
0.0
  0
ENDBLK
  5
137
330
124
100
AcDbEntity
  8
0
100
AcDbBlockEnd
  0
BLOCK
  5
144
330
13E
100
AcDbEntity
  8
0
100
AcDbBlockBegin
  2
Break Line1 - M_Break Line_1-5-Detail 6
 70
     0
 10
0.0
 20
0.0
 30
0.0
  3
Break Line1 - M_Break Line_1-5-Detail 6
  1

  0
LINE
  5
13F
330
13E
100
AcDbEntity
  8
A-DETLGEM
370
    35
100
AcDbLine
 10
-18.60697444189654
 20
0.0000000000045937
 30
0.0
 11
-9.303487220949293
 21
12.12986432713317
 31
0.0
1001
REVIT
1002
{
1070
     3
1000
1349
1002
}
  0
LINE
  5
140
330
13E
100
AcDbEntity
  8
A-DETLGEM
370
    35
100
AcDbLine
 10
-9.303487220949296
 20
12.12986432713317
 30
0.0
 11
9.215834510488308
 21
-12.01299404650819
 31
0.0
1001
REVIT
1002
{
1070
     3
1000
1349
1002
}
  0
LINE
  5
141
330
13E
100
AcDbEntity
  8
A-DETLGEM
370
    35
100
AcDbLine
 10
9.215834510488308
 20
-12.01299404650819
 30
0.0
 11
18.43166902097825
 21
0.0000000000045937
 31
0.0
1001
REVIT
1002
{
1070
     3
1000
1349
1002
}
  0
LINE
  5
142
330
13E
100
AcDbEntity
  8
A-DETLGEM
370
    35
100
AcDbLine
 10
18.43166902097825
 20
0.0000000000045937
 30
0.0
 11
155.5688178466799
 21
0.0000000000045937
 31
0.0
1001
REVIT
1002
{
1070
     3
1000
1349
1002
}
  0
LINE
  5
143
330
13E
100
AcDbEntity
  8
A-DETLGEM
370
    35
100
AcDbLine
 10
-184.9268332502268
 20
0.0000000000045937
 30
0.0
 11
-18.60697444189655
 21
0.0000000000045937
 31
0.0
1001
REVIT
1002
{
1070
     3
1000
1349
1002
}
  0
ENDBLK
  5
145
330
13E
100
AcDbEntity
  8
0
100
AcDbBlockEnd
  0
BLOCK
  5
14D
330
147
100
AcDbEntity
  8
0
100
AcDbBlockBegin
  2
Break Line1 - M_Break Line_1-4-Detail 6
 70
     0
 10
0.0
 20
0.0
 30
0.0
  3
Break Line1 - M_Break Line_1-4-Detail 6
  1

  0
LINE
  5
148
330
147
100
AcDbEntity
  8
A-DETLGEM
370
    35
100
AcDbLine
 10
-18.60697444189652
 20
-0.0000000000045937
 30
0.0
 11
-186.5813516057267
 21
-0.0000000000045937
 31
0.0
1001
REVIT
1002
{
1070
     3
1000
1349
1002
}
  0
LINE
  5
149
330
147
100
AcDbEntity
  8
A-DETLGEM
370
    35
100
AcDbLine
 10
164.0163453050659
 20
-0.0000000000045937
 30
0.0
 11
18.43166902097825
 21
-0.0000000000045937
 31
0.0
1001
REVIT
1002
{
1070
     3
1000
1349
1002
}
  0
LINE
  5
14A
330
147
100
AcDbEntity
  8
A-DETLGEM
370
    35
100
AcDbLine
 10
18.43166902097825
 20
-0.0000000000045937
 30
0.0
 11
9.215834510488308
 21
12.01299404650819
 31
0.0
1001
REVIT
1002
{
1070
     3
1000
1349
1002
}
  0
LINE
  5
14B
330
147
100
AcDbEntity
  8
A-DETLGEM
370
    35
100
AcDbLine
 10
9.215834510488308
 20
12.01299404650819
 30
0.0
 11
-9.303487220949296
 21
-12.12986432713317
 31
0.0
1001
REVIT
1002
{
1070
     3
1000
1349
1002
}
  0
LINE
  5
14C
330
147
100
AcDbEntity
  8
A-DETLGEM
370
    35
100
AcDbLine
 10
-9.303487220949293
 20
-12.12986432713317
 30
0.0
 11
-18.60697444189654
 21
-0.0000000000045937
 31
0.0
1001
REVIT
1002
{
1070
     3
1000
1349
1002
}
  0
ENDBLK
  5
14E
330
147
100
AcDbEntity
  8
0
100
AcDbBlockEnd
  0
BLOCK
  5
170
330
159
100
AcDbEntity
  8
0
100
AcDbBlockBegin
  2
nail sp - nail sp_1-3-Detail 6
 70
     0
 10
0.0
 20
0.0
 30
0.0
  3
nail sp - nail sp_1-3-Detail 6
  1

  0
LINE
  5
15A
330
159
100
AcDbEntity
  8
A-DETLGEM
100
AcDbLine
 10
93.29474221601016
 20
101.7301492685655
 30
0.0
 11
95.55345240452476
 21
101.7301492685655
 31
0.0
  0
LINE
  5
15B
330
159
100
AcDbEntity
  8
A-DETLGEM
100
AcDbLine
 10
95.55345240452476
 20
101.7301492685655
 30
0.0
 11
95.55345240452476
 21
104.0804720895462
 31
0.0
  0
LINE
  5
15C
330
159
100
AcDbEntity
  8
A-DETLGEM
100
AcDbLine
 10
95.55345240452476
 20
104.0804720895462
 30
0.0
 11
95.55345240452476
 21
108.2464910352095
 31
0.0
  0
LINE
  5
15E
330
159
100
AcDbEntity
  8
A-DETLGEM
100
AcDbLine
 10
95.55345240452478
 20
111.5828580197313
 30
0.0
 11
95.55345240452478
 21
117.742975413612
 31
0.0
  0
LINE
  5
15F
330
159
100
AcDbEntity
  8
A-DETLGEM
100
AcDbLine
 10
95.55345240452478
 20
117.742975413612
 30
0.0
 11
93.29474221601017
 21
117.742975413612
 31
0.0
  0
LINE
  5
160
330
159
100
AcDbEntity
  8
A-DETLGEM
100
AcDbLine
 10
93.29474221601017
 20
117.742975413612
 30
0.0
 11
93.29474221601016
 21
101.7301492685655
 31
0.0
  0
HATCH
  5
161
330
159
100
AcDbEntity
  8
A-DETLGEM
100
AcDbHatch
 10
0.0
 20
0.0
 30
0.0
210
0.0
220
0.0
230
1.0
  2
SOLID
 70
     1
 71
     0
 91
        1
 92
        0
 93
        7
 72
     1
 10
93.29474221601016
 20
101.7301492685655
 11
95.55345240452476
 21
101.7301492685655
 72
     1
 10
95.55345240452476
 20
101.7301492685655
 11
95.55345240452476
 21
104.0804720895462
 72
     1
 10
95.55345240452476
 20
104.0804720895462
 11
95.55345240452476
 21
108.2464910352095
 72
     1
 10
95.55345240452476
 20
108.2464910352095
 11
95.55345240452478
 21
111.5828580197313
 72
     1
 10
95.55345240452478
 20
111.5828580197313
 11
95.55345240452478
 21
117.742975413612
 72
     1
 10
95.55345240452478
 20
117.742975413612
 11
93.29474221601017
 21
117.742975413612
 72
     1
 10
93.29474221601017
 20
117.742975413612
 11
93.29474221601016
 21
101.7301492685655
 97
        0
 75
     0
 76
     1
 98
        1
 10
0.0
 20
0.0
450
        0
451
        0
460
0.0
461
0.0
452
        0
462
0.0
453
        0
470

1001
REVIT
1002
{
1070
     3
1000
129614
1002
}
  0
LINE
  5
162
330
159
100
AcDbEntity
  8
A-DETLGEM
100
AcDbLine
 10
151.9694857141748
 20
111.5828580197311
 30
0.0
 11
95.55345240452478
 21
111.5828580197313
 31
0.0
  0
LINE
  5
163
330
159
100
AcDbEntity
  8
A-DETLGEM
100
AcDbLine
 10
95.55345240452478
 20
111.5828580197313
 30
0.0
 11
95.55345240452478
 21
108.2464910352096
 31
0.0
  0
LINE
  5
164
330
159
100
AcDbEntity
  8
A-DETLGEM
100
AcDbLine
 10
95.55345240452478
 20
108.2464910352096
 30
0.0
 11
151.6723794227039
 21
108.2464910352094
 31
0.0
  0
LINE
  5
165
330
159
100
AcDbEntity
  8
A-DETLGEM
100
AcDbLine
 10
151.6723794227039
 20
108.2464910352094
 30
0.0
 11
153.6527020255147
 21
109.8996417083912
 31
0.0
  0
LINE
  5
166
330
159
100
AcDbEntity
  8
A-DETLGEM
100
AcDbLine
 10
153.6527020255147
 20
109.8996417083912
 30
0.0
 11
151.9694857141748
 21
111.5828580197311
 31
0.0
  0
HATCH
  5
167
330
159
100
AcDbEntity
  8
A-DETLGEM
100
AcDbHatch
 10
0.0
 20
0.0
 30
0.0
210
0.0
220
0.0
230
1.0
  2
SOLID
 70
     1
 71
     0
 91
        1
 92
        0
 93
        5
 72
     1
 10
151.9694857141748
 20
111.5828580197311
 11
95.55345240452478
 21
111.5828580197313
 72
     1
 10
95.55345240452478
 20
111.5828580197313
 11
95.55345240452478
 21
108.2464910352096
 72
     1
 10
95.55345240452478
 20
108.2464910352096
 11
151.6723794227039
 21
108.2464910352094
 72
     1
 10
151.6723794227039
 20
108.2464910352094
 11
153.6527020255147
 21
109.8996417083912
 72
     1
 10
153.6527020255147
 20
109.8996417083912
 11
151.9694857141748
 21
111.5828580197311
 97
        0
 75
     0
 76
     1
 98
        1
 10
0.0
 20
0.0
450
        0
451
        0
460
0.0
461
0.0
452
        0
462
0.0
453
        0
470

1001
REVIT
1002
{
1070
     3
1000
129614
1002
}
  0
LINE
  5
168
330
159
100
AcDbEntity
  8
A-DETLGEM
100
AcDbLine
 10
93.29474221601017
 20
117.742975413612
 30
0.0
 11
95.55345240452478
 21
117.742975413612
 31
0.0
1001
REVIT
1002
{
1070
     3
1000
25650
1002
}
  0
LINE
  5
169
330
159
100
AcDbEntity
  8
A-DETLGEM
100
AcDbLine
 10
93.29474221601017
 20
101.7301492685655
 30
0.0
 11
93.29474221601017
 21
117.742975413612
 31
0.0
1001
REVIT
1002
{
1070
     3
1000
25650
1002
}
  0
LINE
  5
16A
330
159
100
AcDbEntity
  8
A-DETLGEM
100
AcDbLine
 10
95.55345240452478
 20
101.7301492685655
 30
0.0
 11
93.29474221601017
 21
101.7301492685655
 31
0.0
1001
REVIT
1002
{
1070
     3
1000
25650
1002
}
  0
LINE
  5
16B
330
159
100
AcDbEntity
  8
A-DETLGEM
100
AcDbLine
 10
95.55345240452478
 20
117.742975413612
 30
0.0
 11
95.55345240452478
 21
101.7301492685655
 31
0.0
1001
REVIT
1002
{
1070
     3
1000
25650
1002
}
  0
LINE
  5
16C
330
159
100
AcDbEntity
  8
A-DETLGEM
100
AcDbLine
 10
95.55345240452478
 20
111.5828580197313
 30
0.0
 11
151.8652786753083
 21
111.5828580197311
 31
0.0
  0
LINE
  5
16D
330
159
100
AcDbEntity
  8
A-DETLGEM
100
AcDbLine
 10
95.55345240452478
 20
108.2464910352096
 30
0.0
 11
151.6723794227039
 21
108.2464910352094
 31
0.0
  0
LINE
  5
16E
330
159
100
AcDbEntity
  8
A-DETLGEM
100
AcDbLine
 10
151.8652786753083
 20
111.5828580197311
 30
0.0
 11
153.7342458053615
 21
109.967713523739
 31
0.0
  0
LINE
  5
16F
330
159
100
AcDbEntity
  8
A-DETLGEM
100
AcDbLine
 10
151.6723794227038
 20
108.2464910352094
 30
0.0
 11
153.7342458053615
 21
109.967713523739
 31
0.0
  0
ENDBLK
  5
171
330
159
100
AcDbEntity
  8
0
100
AcDbBlockEnd
  0
BLOCK
  5
18B
330
174
100
AcDbEntity
  8
0
100
AcDbBlockBegin
  2
nail sp - nail sp_1-0-Detail 6
 70
     0
 10
0.0
 20
0.0
 30
0.0
  3
nail sp - nail sp_1-0-Detail 6
  1

  0
LINE
  5
175
330
174
100
AcDbEntity
  8
A-DETLGEM
100
AcDbLine
 10
93.29474221601016
 20
-101.7301492685655
 30
0.0
 11
93.29474221601017
 21
-117.742975413612
 31
0.0
  0
LINE
  5
176
330
174
100
AcDbEntity
  8
A-DETLGEM
100
AcDbLine
 10
93.29474221601017
 20
-117.742975413612
 30
0.0
 11
95.55345240452478
 21
-117.742975413612
 31
0.0
  0
LINE
  5
177
330
174
100
AcDbEntity
  8
A-DETLGEM
100
AcDbLine
 10
95.55345240452478
 20
-117.742975413612
 30
0.0
 11
95.55345240452478
 21
-111.5828580197313
 31
0.0
  0
LINE
  5
179
330
174
100
AcDbEntity
  8
A-DETLGEM
100
AcDbLine
 10
95.55345240452476
 20
-108.2464910352096
 30
0.0
 11
95.55345240452476
 21
-104.0804720895462
 31
0.0
  0
LINE
  5
17A
330
174
100
AcDbEntity
  8
A-DETLGEM
100
AcDbLine
 10
95.55345240452476
 20
-104.0804720895462
 30
0.0
 11
95.55345240452476
 21
-101.7301492685655
 31
0.0
  0
LINE
  5
17B
330
174
100
AcDbEntity
  8
A-DETLGEM
100
AcDbLine
 10
95.55345240452476
 20
-101.7301492685655
 30
0.0
 11
93.29474221601016
 21
-101.7301492685655
 31
0.0
  0
HATCH
  5
17C
330
174
100
AcDbEntity
  8
A-DETLGEM
100
AcDbHatch
 10
0.0
 20
0.0
 30
0.0
210
0.0
220
0.0
230
1.0
  2
SOLID
 70
     1
 71
     0
 91
        1
 92
        0
 93
        7
 72
     1
 10
93.29474221601016
 20
-101.7301492685655
 11
93.29474221601017
 21
-117.742975413612
 72
     1
 10
93.29474221601017
 20
-117.742975413612
 11
95.55345240452478
 21
-117.742975413612
 72
     1
 10
95.55345240452478
 20
-117.742975413612
 11
95.55345240452478
 21
-111.5828580197313
 72
     1
 10
95.55345240452478
 20
-111.5828580197313
 11
95.55345240452476
 21
-108.2464910352096
 72
     1
 10
95.55345240452476
 20
-108.2464910352096
 11
95.55345240452476
 21
-104.0804720895462
 72
     1
 10
95.55345240452476
 20
-104.0804720895462
 11
95.55345240452476
 21
-101.7301492685655
 72
     1
 10
95.55345240452476
 20
-101.7301492685655
 11
93.29474221601016
 21
-101.7301492685655
 97
        0
 75
     0
 76
     1
 98
        1
 10
0.0
 20
0.0
450
        0
451
        0
460
0.0
461
0.0
452
        0
462
0.0
453
        0
470

1001
REVIT
1002
{
1070
     3
1000
129614
1002
}
  0
LINE
  5
17D
330
174
100
AcDbEntity
  8
A-DETLGEM
100
AcDbLine
 10
151.9694857141748
 20
-111.5828580197311
 30
0.0
 11
153.6527020255147
 21
-109.8996417083912
 31
0.0
  0
LINE
  5
17E
330
174
100
AcDbEntity
  8
A-DETLGEM
100
AcDbLine
 10
153.6527020255147
 20
-109.8996417083912
 30
0.0
 11
151.6723794227039
 21
-108.2464910352094
 31
0.0
  0
LINE
  5
17F
330
174
100
AcDbEntity
  8
A-DETLGEM
100
AcDbLine
 10
151.6723794227039
 20
-108.2464910352094
 30
0.0
 11
95.55345240452478
 21
-108.2464910352096
 31
0.0
  0
LINE
  5
180
330
174
100
AcDbEntity
  8
A-DETLGEM
100
AcDbLine
 10
95.55345240452478
 20
-108.2464910352096
 30
0.0
 11
95.55345240452478
 21
-111.5828580197313
 31
0.0
  0
LINE
  5
181
330
174
100
AcDbEntity
  8
A-DETLGEM
100
AcDbLine
 10
95.55345240452478
 20
-111.5828580197313
 30
0.0
 11
151.9694857141748
 21
-111.5828580197311
 31
0.0
  0
HATCH
  5
182
330
174
100
AcDbEntity
  8
A-DETLGEM
100
AcDbHatch
 10
0.0
 20
0.0
 30
0.0
210
0.0
220
0.0
230
1.0
  2
SOLID
 70
     1
 71
     0
 91
        1
 92
        0
 93
        5
 72
     1
 10
151.9694857141748
 20
-111.5828580197311
 11
153.6527020255147
 21
-109.8996417083912
 72
     1
 10
153.6527020255147
 20
-109.8996417083912
 11
151.6723794227039
 21
-108.2464910352094
 72
     1
 10
151.6723794227039
 20
-108.2464910352094
 11
95.55345240452478
 21
-108.2464910352096
 72
     1
 10
95.55345240452478
 20
-108.2464910352096
 11
95.55345240452478
 21
-111.5828580197313
 72
     1
 10
95.55345240452478
 20
-111.5828580197313
 11
151.9694857141748
 21
-111.5828580197311
 97
        0
 75
     0
 76
     1
 98
        1
 10
0.0
 20
0.0
450
        0
451
        0
460
0.0
461
0.0
452
        0
462
0.0
453
        0
470

1001
REVIT
1002
{
1070
     3
1000
129614
1002
}
  0
LINE
  5
183
330
174
100
AcDbEntity
  8
A-DETLGEM
100
AcDbLine
 10
93.29474221601017
 20
-117.742975413612
 30
0.0
 11
95.55345240452478
 21
-117.742975413612
 31
0.0
1001
REVIT
1002
{
1070
     3
1000
25650
1002
}
  0
LINE
  5
184
330
174
100
AcDbEntity
  8
A-DETLGEM
100
AcDbLine
 10
93.29474221601017
 20
-101.7301492685655
 30
0.0
 11
93.29474221601017
 21
-117.742975413612
 31
0.0
1001
REVIT
1002
{
1070
     3
1000
25650
1002
}
  0
LINE
  5
185
330
174
100
AcDbEntity
  8
A-DETLGEM
100
AcDbLine
 10
95.55345240452478
 20
-101.7301492685655
 30
0.0
 11
93.29474221601017
 21
-101.7301492685655
 31
0.0
1001
REVIT
1002
{
1070
     3
1000
25650
1002
}
  0
LINE
  5
186
330
174
100
AcDbEntity
  8
A-DETLGEM
100
AcDbLine
 10
95.55345240452478
 20
-117.742975413612
 30
0.0
 11
95.55345240452478
 21
-101.7301492685655
 31
0.0
1001
REVIT
1002
{
1070
     3
1000
25650
1002
}
  0
LINE
  5
187
330
174
100
AcDbEntity
  8
A-DETLGEM
100
AcDbLine
 10
95.55345240452478
 20
-111.5828580197313
 30
0.0
 11
151.8652786753083
 21
-111.5828580197311
 31
0.0
  0
LINE
  5
188
330
174
100
AcDbEntity
  8
A-DETLGEM
100
AcDbLine
 10
95.55345240452478
 20
-108.2464910352096
 30
0.0
 11
151.6723794227039
 21
-108.2464910352094
 31
0.0
  0
LINE
  5
189
330
174
100
AcDbEntity
  8
A-DETLGEM
100
AcDbLine
 10
151.8652786753083
 20
-111.5828580197311
 30
0.0
 11
153.7342458053615
 21
-109.967713523739
 31
0.0
  0
LINE
  5
18A
330
174
100
AcDbEntity
  8
A-DETLGEM
100
AcDbLine
 10
151.6723794227038
 20
-108.2464910352094
 30
0.0
 11
153.7342458053615
 21
-109.967713523739
 31
0.0
  0
ENDBLK
  5
18C
330
174
100
AcDbEntity
  8
0
100
AcDbBlockEnd
  0
BLOCK
  5
19C
330
18F
100
AcDbEntity
  8
0
100
AcDbBlockBegin
  2
SPS RIDGE VENT - SPS RIDGE VENT_1-2-Detail 6
 70
     0
 10
0.0
 20
0.0
 30
0.0
  3
SPS RIDGE VENT - SPS RIDGE VENT_1-2-Detail 6
  1

  0
LINE
  5
190
330
18F
100
AcDbEntity
  8
A-DETLGEM
100
AcDbLine
 10
12.67854785228171
 20
-0.0000000000284227
 30
0.0
 11
0.0000000000380674
 21
27.18923361111465
 31
0.0
  0
LINE
  5
191
330
18F
100
AcDbEntity
  8
A-DETLGEM
100
AcDbLine
 10
0.0000000000380718
 20
27.18923361111464
 30
0.0
 11
104.3193899152605
 21
75.83416402264919
 31
0.0
  0
LINE
  5
192
330
18F
100
AcDbEntity
  8
A-DETLGEM
100
AcDbLine
 10
108.5796597288544
 20
66.44888095285489
 30
0.0
 11
81.26234451564391
 21
54.04870798874746
 31
0.0
  0
LINE
  5
193
330
18F
100
AcDbEntity
  8
A-DETLGEM
100
AcDbLine
 10
81.26234451564393
 20
54.04870798874746
 30
0.0
 11
89.71470975047774
 21
35.92255224797533
 31
0.0
  0
LINE
  5
194
330
18F
100
AcDbEntity
  8
A-DETLGEM
100
AcDbLine
 10
89.71470975047774
 20
35.92255224797534
 30
0.0
 11
12.6785478522817
 21
-0.0000000000284253
 31
0.0
  0
LINE
  5
195
330
18F
100
AcDbEntity
  8
A-DETLGEM
100
AcDbLine
 10
302.2725555715405
 20
1.474647314217608
 30
0.0
 11
314.9511034237957
 21
28.6638809253864
 31
0.0
  0
LINE
  5
196
330
18F
100
AcDbEntity
  8
A-DETLGEM
100
AcDbLine
 10
314.9511034237957
 20
28.66388092538642
 30
0.0
 11
213.7941048792883
 21
75.83416402267146
 31
0.0
  0
LINE
  5
197
330
18F
100
AcDbEntity
  8
A-DETLGEM
100
AcDbLine
 10
206.4995252967602
 20
68.20190315531615
 30
0.0
 11
233.6887589081634
 21
55.52335530296144
 31
0.0
  0
LINE
  5
198
330
18F
100
AcDbEntity
  8
A-DETLGEM
100
AcDbLine
 10
233.6887589081634
 20
55.52335530296144
 30
0.0
 11
225.2363936733443
 21
37.39719956222031
 31
0.0
  0
LINE
  5
199
330
18F
100
AcDbEntity
  8
A-DETLGEM
100
AcDbLine
 10
225.2363936733443
 20
37.3971995622203
 30
0.0
 11
302.2725555715405
 21
1.474647314217601
 31
0.0
  0
ARC
  5
19A
330
18F
100
AcDbEntity
  8
A-DETLGEM
100
AcDbCircle
 10
159.5661449054262
 20
-45.87325287653603
 30
0.0
 40
123.352679008804
100
AcDbArc
 50
67.6365049851287
 51
114.4147650921633
  0
ARC
  5
19B
330
18F
100
AcDbEntity
  8
A-DETLGEM
100
AcDbCircle
 10
159.056747397271
 20
-41.5504779079044
 30
0.0
 40
129.5196219315098
100
AcDbArc
 50
64.99999999999701
 51
115.0000000000044
  0
ENDBLK
  5
19D
330
18F
100
AcDbEntity
  8
0
100
AcDbBlockEnd
  0
BLOCK
  5
1C7
330
1B0
100
AcDbEntity
  8
0
100
AcDbBlockBegin
  2
nail sp - nail sp_1-1-Detail 6
 70
     0
 10
0.0
 20
0.0
 30
0.0
  3
nail sp - nail sp_1-1-Detail 6
  1

  0
LINE
  5
1B1
330
1B0
100
AcDbEntity
  8
A-DETLGEM
100
AcDbLine
 10
93.29474221601016
 20
101.7301492685655
 30
0.0
 11
95.55345240452476
 21
101.7301492685655
 31
0.0
  0
LINE
  5
1B2
330
1B0
100
AcDbEntity
  8
A-DETLGEM
100
AcDbLine
 10
95.55345240452476
 20
101.7301492685655
 30
0.0
 11
95.55345240452476
 21
104.0804720895462
 31
0.0
  0
LINE
  5
1B3
330
1B0
100
AcDbEntity
  8
A-DETLGEM
100
AcDbLine
 10
95.55345240452476
 20
104.0804720895462
 30
0.0
 11
95.55345240452476
 21
108.2464910352096
 31
0.0
  0
LINE
  5
1B5
330
1B0
100
AcDbEntity
  8
A-DETLGEM
100
AcDbLine
 10
95.55345240452478
 20
111.5828580197316
 30
0.0
 11
95.55345240452478
 21
117.742975413612
 31
0.0
  0
LINE
  5
1B6
330
1B0
100
AcDbEntity
  8
A-DETLGEM
100
AcDbLine
 10
95.55345240452478
 20
117.742975413612
 30
0.0
 11
93.29474221601017
 21
117.742975413612
 31
0.0
  0
LINE
  5
1B7
330
1B0
100
AcDbEntity
  8
A-DETLGEM
100
AcDbLine
 10
93.29474221601017
 20
117.742975413612
 30
0.0
 11
93.29474221601016
 21
101.7301492685655
 31
0.0
  0
HATCH
  5
1B8
330
1B0
100
AcDbEntity
  8
A-DETLGEM
100
AcDbHatch
 10
0.0
 20
0.0
 30
0.0
210
0.0
220
0.0
230
1.0
  2
SOLID
 70
     1
 71
     0
 91
        1
 92
        0
 93
        7
 72
     1
 10
93.29474221601016
 20
101.7301492685655
 11
95.55345240452476
 21
101.7301492685655
 72
     1
 10
95.55345240452476
 20
101.7301492685655
 11
95.55345240452476
 21
104.0804720895462
 72
     1
 10
95.55345240452476
 20
104.0804720895462
 11
95.55345240452476
 21
108.2464910352096
 72
     1
 10
95.55345240452476
 20
108.2464910352096
 11
95.55345240452478
 21
111.5828580197316
 72
     1
 10
95.55345240452478
 20
111.5828580197316
 11
95.55345240452478
 21
117.742975413612
 72
     1
 10
95.55345240452478
 20
117.742975413612
 11
93.29474221601017
 21
117.742975413612
 72
     1
 10
93.29474221601017
 20
117.742975413612
 11
93.29474221601016
 21
101.7301492685655
 97
        0
 75
     0
 76
     1
 98
        1
 10
0.0
 20
0.0
450
        0
451
        0
460
0.0
461
0.0
452
        0
462
0.0
453
        0
470

1001
REVIT
1002
{
1070
     3
1000
129614
1002
}
  0
LINE
  5
1B9
330
1B0
100
AcDbEntity
  8
A-DETLGEM
100
AcDbLine
 10
151.9694857141748
 20
111.5828580197311
 30
0.0
 11
95.55345240452478
 21
111.5828580197313
 31
0.0
  0
LINE
  5
1BA
330
1B0
100
AcDbEntity
  8
A-DETLGEM
100
AcDbLine
 10
95.55345240452478
 20
111.5828580197313
 30
0.0
 11
95.55345240452478
 21
108.2464910352096
 31
0.0
  0
LINE
  5
1BB
330
1B0
100
AcDbEntity
  8
A-DETLGEM
100
AcDbLine
 10
95.55345240452478
 20
108.2464910352096
 30
0.0
 11
151.6723794227039
 21
108.2464910352094
 31
0.0
  0
LINE
  5
1BC
330
1B0
100
AcDbEntity
  8
A-DETLGEM
100
AcDbLine
 10
151.6723794227039
 20
108.2464910352094
 30
0.0
 11
153.6527020255147
 21
109.8996417083912
 31
0.0
  0
LINE
  5
1BD
330
1B0
100
AcDbEntity
  8
A-DETLGEM
100
AcDbLine
 10
153.6527020255147
 20
109.8996417083912
 30
0.0
 11
151.9694857141748
 21
111.5828580197311
 31
0.0
  0
HATCH
  5
1BE
330
1B0
100
AcDbEntity
  8
A-DETLGEM
100
AcDbHatch
 10
0.0
 20
0.0
 30
0.0
210
0.0
220
0.0
230
1.0
  2
SOLID
 70
     1
 71
     0
 91
        1
 92
        0
 93
        5
 72
     1
 10
151.9694857141748
 20
111.5828580197311
 11
95.55345240452478
 21
111.5828580197313
 72
     1
 10
95.55345240452478
 20
111.5828580197313
 11
95.55345240452478
 21
108.2464910352096
 72
     1
 10
95.55345240452478
 20
108.2464910352096
 11
151.6723794227039
 21
108.2464910352094
 72
     1
 10
151.6723794227039
 20
108.2464910352094
 11
153.6527020255147
 21
109.8996417083912
 72
     1
 10
153.6527020255147
 20
109.8996417083912
 11
151.9694857141748
 21
111.5828580197311
 97
        0
 75
     0
 76
     1
 98
        1
 10
0.0
 20
0.0
450
        0
451
        0
460
0.0
461
0.0
452
        0
462
0.0
453
        0
470

1001
REVIT
1002
{
1070
     3
1000
129614
1002
}
  0
LINE
  5
1BF
330
1B0
100
AcDbEntity
  8
A-DETLGEM
100
AcDbLine
 10
93.29474221601017
 20
117.742975413612
 30
0.0
 11
95.55345240452478
 21
117.742975413612
 31
0.0
1001
REVIT
1002
{
1070
     3
1000
25650
1002
}
  0
LINE
  5
1C0
330
1B0
100
AcDbEntity
  8
A-DETLGEM
100
AcDbLine
 10
93.29474221601017
 20
101.7301492685655
 30
0.0
 11
93.29474221601017
 21
117.742975413612
 31
0.0
1001
REVIT
1002
{
1070
     3
1000
25650
1002
}
  0
LINE
  5
1C1
330
1B0
100
AcDbEntity
  8
A-DETLGEM
100
AcDbLine
 10
95.55345240452478
 20
101.7301492685655
 30
0.0
 11
93.29474221601017
 21
101.7301492685655
 31
0.0
1001
REVIT
1002
{
1070
     3
1000
25650
1002
}
  0
LINE
  5
1C2
330
1B0
100
AcDbEntity
  8
A-DETLGEM
100
AcDbLine
 10
95.55345240452478
 20
117.742975413612
 30
0.0
 11
95.55345240452478
 21
101.7301492685655
 31
0.0
1001
REVIT
1002
{
1070
     3
1000
25650
1002
}
  0
LINE
  5
1C3
330
1B0
100
AcDbEntity
  8
A-DETLGEM
100
AcDbLine
 10
95.55345240452478
 20
111.5828580197313
 30
0.0
 11
151.8652786753083
 21
111.5828580197311
 31
0.0
  0
LINE
  5
1C4
330
1B0
100
AcDbEntity
  8
A-DETLGEM
100
AcDbLine
 10
95.55345240452478
 20
108.2464910352096
 30
0.0
 11
151.6723794227039
 21
108.2464910352094
 31
0.0
  0
LINE
  5
1C5
330
1B0
100
AcDbEntity
  8
A-DETLGEM
100
AcDbLine
 10
151.8652786753083
 20
111.5828580197311
 30
0.0
 11
153.7342458053615
 21
109.967713523739
 31
0.0
  0
LINE
  5
1C6
330
1B0
100
AcDbEntity
  8
A-DETLGEM
100
AcDbLine
 10
151.6723794227038
 20
108.2464910352094
 30
0.0
 11
153.7342458053615
 21
109.967713523739
 31
0.0
  0
ENDBLK
  5
1C8
330
1B0
100
AcDbEntity
  8
0
100
AcDbBlockEnd
  0
BLOCK
  5
1EA
330
1E9
100
AcDbEntity
  8
0
100
AcDbBlockBegin
  2
M_Label Annotation - M_Label Annotation_1-142258-Detail 6
 70
     0
 10
0.0
 20
0.0
 30
0.0
  3
M_Label Annotation - M_Label Annotation_1-142258-Detail 6
  1

  0
ENDBLK
  5
1EB
330
1E9
100
AcDbEntity
  8
0
100
AcDbBlockEnd
  0
BLOCK
  5
251
330
222
100
AcDbEntity
  8
0
100
AcDbBlockBegin
  2
A4 SPS - A4 sps_0-163380-RIDGE-CROSS SECTION
 70
     0
 10
0.0
 20
0.0
 30
0.0
  3
A4 SPS - A4 sps_0-163380-RIDGE-CROSS SECTION
  1

  0
IMAGE
  5
224
330
222
100
AcDbEntity
  8
G-----TTP
 92
      140
310
8C00000001000000840000000600000005000000C168BED14A7B22406AAAC3784E8A58400000000000000000C168BED14A7B2240D44C002E3CEE5C400000000000000000F73E2E47CADC5440D44C002E3CEE5C400000000000000000F73E2E47CADC54406AAAC3784E8A58400000000000000000C168BED14A7B22406AAAC3
310
784E8A58400000000000000000
100
AcDbRasterImage
 90
        0
 10
9.240805201047239
 20
98.16103953464486
 30
0.0
 11
0.0609770261884177
 21
0.0
 31
0.0
 12
0.0
 22
0.0609770261884177
 32
0.0
 13
1217.0
 23
288.0
340
223
 70
     7
280
     0
281
    50
282
    50
283
     0
360
0
 71
     1
 91
        2
 14
-0.5
 24
-0.5
 14
1216.5
 24
287.5
  0
LINE
  5
225
330
222
100
AcDbEntity
  8
G-----TTP
100
AcDbLine
 10
97.66108077792623
 20
93.39672673794749
 30
0.0
 11
152.8182236350694
 21
93.39672673794749
 31
0.0
1001
REVIT
1002
{
1070
     3
1000
-2000281
1002
}
  0
LINE
  5
226
330
222
100
AcDbEntity
  8
G-----TTP
100
AcDbLine
 10
97.66108077792623
 20
96.15458388080464
 30
0.0
 11
152.8182236350694
 21
96.15458388080464
 31
0.0
1001
REVIT
1002
{
1070
     3
1000
-2000281
1002
}
  0
LINE
  5
227
330
222
100
AcDbEntity
  8
G-----TTP
100
AcDbLine
 10
95.53965220649775
 20
99.12142857141512
 30
0.0
 11
8.798463415511349
 21
99.12142857141541
 31
0.0
  0
LINE
  5
228
330
222
100
AcDbEntity
  8
G-----TTP
100
AcDbLine
 10
141.5039379207837
 20
114.678571428557
 30
0.0
 11
141.5039379207837
 21
90.63571428570075
 31
0.0
1001
REVIT
1002
{
1070
     3
1000
-2000281
1002
}
  0
LINE
  5
229
330
222
100
AcDbEntity
  8
G-----TTP
100
AcDbLine
 10
104.7325093493548
 20
114.678571428557
 30
0.0
 11
104.7325093493548
 21
90.63571428570075
 31
0.0
1001
REVIT
1002
{
1070
     3
1000
-2000281
1002
}
  0
LINE
  5
22A
330
222
100
AcDbEntity
  8
G-----TTP
100
AcDbLine
 10
97.66108077792623
 20
109.9438695950903
 30
0.0
 11
152.8182236350694
 21
109.9438695950903
 31
0.0
1001
REVIT
1002
{
1070
     3
1000
-2000281
1002
}
  0
LINE
  5
22B
330
222
100
AcDbEntity
  8
G-----TTP
100
AcDbLine
 10
97.66108077792623
 20
107.1860124522332
 30
0.0
 11
152.8182236350694
 21
107.1860124522332
 31
0.0
1001
REVIT
1002
{
1070
     3
1000
-2000281
1002
}
  0
LINE
  5
22C
330
222
100
AcDbEntity
  8
G-----TTP
100
AcDbLine
 10
97.66108077792623
 20
104.428155309376
 30
0.0
 11
152.8182236350694
 21
104.428155309376
 31
0.0
1001
REVIT
1002
{
1070
     3
1000
-2000281
1002
}
  0
LINE
  5
22D
330
222
100
AcDbEntity
  8
G-----TTP
100
AcDbLine
 10
97.66108077792623
 20
101.6702981665189
 30
0.0
 11
152.8182236350694
 21
101.6702981665189
 31
0.0
1001
REVIT
1002
{
1070
     3
1000
-2000281
1002
}
  0
LINE
  5
22E
330
222
100
AcDbEntity
  8
G-----TTP
100
AcDbLine
 10
97.66108077792623
 20
98.91244102366178
 30
0.0
 11
152.8182236350694
 21
98.91244102366178
 31
0.0
1001
REVIT
1002
{
1070
     3
1000
-2000281
1002
}
  0
LINE
  5
22F
330
222
100
AcDbEntity
  8
G-----TTP
370
    25
100
AcDbLine
 10
152.8182236350694
 20
114.678571428557
 30
0.0
 11
152.8182236350694
 21
90.63571428570075
 31
0.0
1001
REVIT
1002
{
1070
     3
1000
-2000282
1002
}
  0
LINE
  5
230
330
222
100
AcDbEntity
  8
G-----TTP
370
    25
100
AcDbLine
 10
97.66108077792623
 20
90.63571428570075
 30
0.0
 11
97.66108077792623
 21
114.678571428557
 31
0.0
1001
REVIT
1002
{
1070
     3
1000
-2000282
1002
}
  0
LINE
  5
231
330
222
100
AcDbEntity
  8
G-----TTP
370
    25
100
AcDbLine
 10
152.8182236350694
 20
90.63571428570075
 30
0.0
 11
97.66108077792623
 21
90.63571428570075
 31
0.0
1001
REVIT
1002
{
1070
     3
1000
-2000282
1002
}
  0
LINE
  5
232
330
222
100
AcDbEntity
  8
G-----TTP
370
    25
100
AcDbLine
 10
97.66108077792623
 20
114.678571428557
 30
0.0
 11
152.8182236350694
 21
114.678571428557
 31
0.0
1001
REVIT
1002
{
1070
     3
1000
-2000282
1002
}
  0
LINE
  5
233
330
222
100
AcDbEntity
  8
G-----TTP
370
    25
100
AcDbLine
 10
154.9396522064979
 20
114.6785714285573
 30
0.0
 11
154.9396522064979
 21
90.63571428570096
 31
0.0
1001
REVIT
1002
{
1070
     3
1000
-2000282
1002
}
  0
LINE
  5
234
330
222
100
AcDbEntity
  8
G-----TTP
100
AcDbLine
 10
215.046795063641
 20
104.7785714285581
 30
0.0
 11
292.8325093493553
 21
104.7785714285581
 31
0.0
1001
REVIT
1002
{
1070
     3
1000
-2000281
1002
}
  0
LINE
  5
235
330
222
100
AcDbEntity
  8
G-----TTP
100
AcDbLine
 10
215.046795063641
 20
101.2428571428439
 30
0.0
 11
253.939652206498
 21
101.2428571428439
 31
0.0
1001
REVIT
1002
{
1070
     3
1000
-2000281
1002
}
  0
LINE
  5
236
330
222
100
AcDbEntity
  8
G-----TTP
100
AcDbLine
 10
215.046795063641
 20
97.70714285712955
 30
0.0
 11
253.939652206498
 21
97.70714285712955
 31
0.0
1001
REVIT
1002
{
1070
     3
1000
-2000281
1002
}
  0
LINE
  5
237
330
222
100
AcDbEntity
  8
G-----TTP
100
AcDbLine
 10
253.939652206498
 20
104.7785714285581
 30
0.0
 11
253.939652206498
 21
90.63571428570096
 31
0.0
1001
REVIT
1002
{
1070
     3
1000
-2000281
1002
}
  0
LINE
  5
238
330
222
100
AcDbEntity
  8
G-----TTP
100
AcDbLine
 10
292.8325093493553
 20
94.17142857141548
 30
0.0
 11
215.046795063641
 21
94.17142857141548
 31
0.0
1001
REVIT
1002
{
1070
     3
1000
-2000281
1002
}
  0
LINE
  5
239
330
222
100
AcDbEntity
  8
G-----TTP
100
AcDbLine
 10
215.046795063641
 20
90.63571428570096
 30
0.0
 11
215.046795063641
 21
114.6785714285573
 31
0.0
1001
REVIT
1002
{
1070
     3
1000
-2000281
1002
}
  0
LINE
  5
23A
330
222
100
AcDbEntity
  8
G-----TTP
370
    25
100
AcDbLine
 10
292.8325093493553
 20
114.6785714285573
 30
0.0
 11
154.9396522064979
 21
114.6785714285573
 31
0.0
1001
REVIT
1002
{
1070
     3
1000
-2000282
1002
}
  0
LINE
  5
23B
330
222
100
AcDbEntity
  8
G-----TTP
370
    25
100
AcDbLine
 10
292.8325093493553
 20
90.63571428570096
 30
0.0
 11
154.9396522064979
 21
90.63571428570096
 31
0.0
1001
REVIT
1002
{
1070
     3
1000
-2000282
1002
}
  0
LINE
  5
23C
330
222
100
AcDbEntity
  8
G-----TTP
370
    25
100
AcDbLine
 10
292.8325093493553
 20
90.63571428570096
 30
0.0
 11
292.8325093493553
 21
114.6785714285573
 31
0.0
1001
REVIT
1002
{
1070
     3
1000
-2000282
1002
}
  0
LINE
  5
23D
330
222
100
AcDbEntity
  8
G-----TTP
370
    25
100
AcDbLine
 10
95.53965220649775
 20
90.63571428570085
 30
0.0
 11
95.53965220649775
 21
114.6785714285574
 31
0.0
1001
REVIT
1002
{
1070
     3
1000
-2000282
1002
}
  0
LINE
  5
23E
330
222
100
AcDbEntity
  8
G-----TTP
370
    25
100
AcDbLine
 10
8.798463415511349
 20
114.6785714285574
 30
0.0
 11
95.53965220649775
 21
114.6785714285574
 31
0.0
1001
REVIT
1002
{
1070
     3
1000
-2000282
1002
}
  0
LINE
  5
23F
330
222
100
AcDbEntity
  8
G-----TTP
370
    25
100
AcDbLine
 10
8.798463415511349
 20
90.63571428570085
 30
0.0
 11
95.53965220649775
 21
90.63571428570085
 31
0.0
1001
REVIT
1002
{
1070
     3
1000
-2000282
1002
}
  0
LINE
  5
240
330
222
100
AcDbEntity
  8
G-----TTP
370
    25
100
AcDbLine
 10
8.798463415511349
 20
114.6785714285574
 30
0.0
 11
8.798463415511349
 21
90.63571428570085
 31
0.0
1001
REVIT
1002
{
1070
     3
1000
-2000282
1002
}
  0
LINE
  5
241
330
222
100
AcDbEntity
  8
G-----TTP
370
    25
100
AcDbLine
 10
6.677034844082778
 20
116.7999999999851
 30
0.0
 11
294.9539379207838
 21
116.7999999999851
 31
0.0
1001
REVIT
1002
{
1070
     3
1000
-2000282
1002
}
  0
LINE
  5
242
330
222
100
AcDbEntity
  8
G-----TTP
370
    25
100
AcDbLine
 10
294.9539379207837
 20
291.4642857142719
 30
0.0
 11
294.9539379207837
 21
88.51428571427183
 31
0.0
1001
REVIT
1002
{
1070
     3
1000
-2000282
1002
}
  0
LINE
  5
243
330
222
100
AcDbEntity
  8
G-----TTP
370
    25
100
AcDbLine
 10
6.677034844082778
 20
88.51428571427181
 30
0.0
 11
294.9539379207838
 21
88.51428571427181
 31
0.0
1001
REVIT
1002
{
1070
     3
1000
-2000282
1002
}
  0
LINE
  5
244
330
222
100
AcDbEntity
  8
G-----TTP
370
    25
100
AcDbLine
 10
6.677034844082781
 20
291.4642857142719
 30
0.0
 11
6.677034844082781
 21
88.51428571427183
 31
0.0
1001
REVIT
1002
{
1070
     3
1000
-2000282
1002
}
  0
LINE
  5
245
330
222
100
AcDbEntity
  8
G-----TTP
370
    25
100
AcDbLine
 10
6.677034844082778
 20
291.4642857142719
 30
0.0
 11
294.9539379207838
 21
291.4642857142719
 31
0.0
1001
REVIT
1002
{
1070
     3
1000
-2000282
1002
}
  0
LINE
  5
246
330
222
100
AcDbEntity
  8
G-----TTP
100
AcDbLine
 10
2.792850708836863
 20
294.999999999986
 30
0.0
 11
2.792850708836863
 21
84.97857142855746
 31
0.0
1001
REVIT
1002
{
1070
     3
1000
-2000281
1002
}
  0
LINE
  5
247
330
222
100
AcDbEntity
  8
G-----TTP
100
AcDbLine
 10
299.7928507088368
 20
294.999999999986
 30
0.0
 11
2.792850708836863
 21
294.999999999986
 31
0.0
1001
REVIT
1002
{
1070
     3
1000
-2000281
1002
}
  0
LINE
  5
248
330
222
100
AcDbEntity
  8
G-----TTP
100
AcDbLine
 10
299.7928507088368
 20
84.97857142855746
 30
0.0
 11
299.7928507088368
 21
294.9999999999861
 31
0.0
1001
REVIT
1002
{
1070
     3
1000
-2000281
1002
}
  0
LINE
  5
249
330
222
100
AcDbEntity
  8
G-----TTP
100
AcDbLine
 10
2.792850708836863
 20
84.97857142855746
 30
0.0
 11
299.7928507088368
 21
84.97857142855746
 31
0.0
1001
REVIT
1002
{
1070
     3
1000
-2000281
1002
}
  0
MTEXT
  5
24A
330
222
100
AcDbEntity
  8
G-----TTP
100
AcDbMText
 10
254.998208396275
 20
93.10343409203412
 30
0.0
 40
1.721182634730538
 41
7.160647605924904
 46
0.0
 71
     1
 72
     1
  1
\fArial|b0|i0|c0|p34|;Scale
 73
     2
 44
0.9385317878468562
1001
REVIT
1002
{
1070
     3
1000
165349
1002
}
  0
MTEXT
  5
24B
330
222
100
AcDbEntity
  8
G-----TTP
100
AcDbMText
 10
216.8973466727144
 20
93.10343409203412
 30
0.0
 40
1.721182634730538
 41
15.05625904236996
 46
0.0
 71
     1
 72
     1
  1
\fArial|b0|i0|c0|p34|;Checked by
 73
     2
 44
0.9385317878468562
1001
REVIT
1002
{
1070
     3
1000
165349
1002
}
  0
MTEXT
  5
24C
330
222
100
AcDbEntity
  8
G-----TTP
100
AcDbMText
 10
216.8973466727144
 20
96.71042441791824
 30
0.0
 40
1.721182634730538
 41
11.94841198759903
 46
0.0
 71
     1
 72
     1
  1
\fArial|b0|i0|c0|p34|;Drawn by
 73
     2
 44
0.9385317878468562
1001
REVIT
1002
{
1070
     3
1000
165349
1002
}
  0
MTEXT
  5
24D
330
222
100
AcDbEntity
  8
G-----TTP
100
AcDbMText
 10
216.8973466727144
 20
100.202514490652
 30
0.0
 40
1.721182634730538
 41
6.047702376851532
 46
0.0
 71
     1
 72
     1
  1
\fArial|b0|i0|c0|p34|;Date
 73
     2
 44
0.9385317878468562
1001
REVIT
1002
{
1070
     3
1000
165349
1002
}
  0
MTEXT
  5
24E
330
222
100
AcDbEntity
  8
G-----TTP
100
AcDbMText
 10
216.8973466727144
 20
103.8301902721618
 30
0.0
 40
1.721182634730538
 41
19.403045125732
 46
0.0
 71
     1
 72
     1
  1
\fArial|b0|i0|c0|p34|;Project number
 73
     2
 44
0.9385317878468562
1001
REVIT
1002
{
1070
     3
1000
165349
1002
}
  0
MTEXT
  5
24F
330
222
100
AcDbEntity
  8
G-----TTP
100
AcDbMText
 10
20.88411674533643
 20
96.19741015798522
 30
0.0
 40
2.950598802395208
 41
72.60485385296722
 46
0.0
 71
     1
 72
     1
  1
\fArial|b0|i0|c0|p34|;South Pacific Shingles (2003) Ltd\P
 73
     2
 44
0.9385317878468562
1001
REVIT
1002
{
1070
     3
1000
165465
1002
}
  0
MTEXT
  5
250
330
222
100
AcDbEntity
  8
G-----TTP
100
AcDbMText
 10
158.4821206429074
 20
111.5973013750055
 30
0.0
 40
1.967065868263472
 41
65.1317262646808
 46
0.0
 71
     1
 72
     1
  1
\fArial|b0|i0|c0|p34|;South Pacific Shingles (2003) Ltd\PPO Box 51885, Pakuranga, Auckland\P21b Gabador Place, Mt Wellington, Auckland\PNew Zealand\PPh: 64 9 5733017     Fax: 64 9 5733018\PWeb:  www.southpacificshingles.co.nz
 73
     2
 44
0.9385317878468564
1001
REVIT
1002
{
1070
     3
1000
165218
1002
}
  0
ENDBLK
  5
252
330
222
100
AcDbEntity
  8
0
100
AcDbBlockEnd
  0
ENDSEC
  0
SECTION
  2
ENTITIES
  0
IMAGE
  5
83
330
75
100
AcDbEntity
  8
G-----PAP
 92
      140
310
8C0000000100000084000000060000000500000015F5B5493A58A940253881834CA5A540000000000000000015F5B5493A58A94084DCDB0C6F04A6400000000000000000E189201E3DEAAA4084DCDB0C6F04A6400000000000000000E189201E3DEAAA40253881834CA5A540000000000000000015F5B5493A58A940253881
310
834CA5A5400000000000000000
100
AcDbRasterImage
 90
        0
 10
3244.113843618553
 20
2770.649440801719
 30
0.0
 11
0.1651647714527601
 21
0.0
 31
0.0
 12
0.0
 22
0.16516477145276
 32
0.0
 13
1217.0
 23
288.0
340
82
 70
     7
280
     0
281
    50
282
    50
283
     0
360
0
 71
     1
 91
        2
 14
-0.5
 24
-0.5
 14
1216.5
 24
287.5
1001
REVIT
1002
{
1070
     1
1000
166242
1002
}
1002
{
1070
     5
1000
166201
1002
}
1002
{
1070
     2
1000
-2000560
1002
}
  0
LINE
  5
86
330
75
100
AcDbEntity
  8
A-----NPP
100
AcDbLine
 10
2684.405720799829
 20
2544.315335554838
 30
0.0
 11
2699.188482784579
 21
2551.208650677012
 31
0.0
1001
REVIT
1002
{
1070
     1
1000
160492
1002
}
1002
{
1070
     2
1000
-2000051
1002
}
1002
{
1070
     3
1000
108841
1002
}
  0
LINE
  5
87
330
75
100
AcDbEntity
  8
A-----NPP
100
AcDbLine
 10
2547.963355745013
 20
2480.691215832977
 30
0.0
 11
2681.380452033162
 21
2542.904629560963
 31
0.0
1001
REVIT
1002
{
1070
     1
1000
160492
1002
}
1002
{
1070
     2
1000
-2000051
1002
}
1002
{
1070
     3
1000
108841
1002
}
  0
LINE
  5
88
330
75
100
AcDbEntity
  8
A-----NPP
100
AcDbLine
 10
2416.25932600876
 20
2419.276618157069
 30
0.0
 11
2544.937798508085
 21
2479.280375323211
 31
0.0
1001
REVIT
1002
{
1070
     1
1000
160492
1002
}
1002
{
1070
     2
1000
-2000051
1002
}
1002
{
1070
     3
1000
108841
1002
}
  0
LINE
  5
89
330
75
100
AcDbEntity
  8
A-----NPP
100
AcDbLine
 10
2343.864152293049
 20
2385.51819423996
 30
0.0
 11
2413.233768771833
 21
2417.865777647303
 31
0.0
1001
REVIT
1002
{
1070
     1
1000
160492
1002
}
1002
{
1070
     2
1000
-2000051
1002
}
1002
{
1070
     3
1000
108841
1002
}
  0
LINE
  5
8A
330
75
100
AcDbEntity
  8
A-----NPP
  6
Continuous
100
AcDbLine
 10
2343.864152293049
 20
2166.421223304296
 30
0.0
 11
2727.264575886458
 21
2345.203776965831
 31
0.0
1001
REVIT
1002
{
1070
     1
1000
160496
1002
}
1002
{
1070
     2
1000
-2000051
1002
}
1002
{
1070
     3
1000
-2000043
1002
}
  0
LINE
  5
8B
330
75
100
AcDbEntity
  8
A-----NPP
  6
Continuous
100
AcDbLine
 10
2727.264575886459
 20
2345.203776965831
 30
0.0
 11
3107.760587663446
 21
2163.021181317875
 31
0.0
1001
REVIT
1002
{
1070
     1
1000
160497
1002
}
1002
{
1070
     2
1000
-2000051
1002
}
1002
{
1070
     3
1000
-2000043
1002
}
  0
HATCH
  5
91
330
75
100
AcDbEntity
  8
A-DETLGEM
 62
   250
100
AcDbHatch
 10
0.0
 20
0.0
 30
0.0
210
0.0
220
0.0
230
1.0
  2
SOLID
 70
     1
 71
     0
 91
        1
 92
        0
 93
        4
 72
     1
 10
2558.850607340352
 20
2488.778046226473
 11
2557.664052625063
 21
2491.568855378442
 72
     1
 10
2557.664052625063
 20
2491.568855378442
 11
2545.531676408964
 21
2486.410592156915
 72
     1
 10
2545.531676408964
 20
2486.410592156915
 11
2546.718231124255
 21
2483.619783004947
 72
     1
 10
2546.718231124255
 20
2483.619783004947
 11
2558.850607340352
 21
2488.778046226473
 97
        0
 75
     0
 76
     1
 98
        1
 10
0.0
 20
0.0
450
        0
451
        0
460
0.0
461
0.0
452
        0
462
0.0
453
        0
470

1001
REVIT
1002
{
1070
     1
1000
160500
1002
}
1002
{
1070
     2
1000
-2000059
1002
}
1002
{
1070
     3
1000
131133
1002
}
  0
HATCH
  5
96
330
75
100
AcDbEntity
  8
A-DETLGEM
 62
   250
100
AcDbHatch
 10
0.0
 20
0.0
 30
0.0
210
0.0
220
0.0
230
1.0
  2
SOLID
 70
     1
 71
     0
 91
        1
 92
        0
 93
        4
 72
     1
 10
2343.864152293048
 20
2400.668594538754
 11
2343.864152293048
 21
2397.373303705748
 72
     1
 10
2343.864152293048
 20
2397.373303705748
 11
2409.992701536607
 21
2425.48885645323
 72
     1
 10
2409.992701536607
 20
2425.48885645323
 11
2408.806146821311
 21
2428.279665605211
 72
     1
 10
2408.806146821311
 20
2428.279665605211
 11
2343.864152293048
 21
2400.668594538754
 97
        0
 75
     0
 76
     1
 98
        1
 10
0.0
 20
0.0
450
        0
451
        0
460
0.0
461
0.0
452
        0
462
0.0
453
        0
470

1001
REVIT
1002
{
1070
     1
1000
160500
1002
}
1002
{
1070
     2
1000
-2000059
1002
}
1002
{
1070
     3
1000
131133
1002
}
  0
HATCH
  5
9B
330
75
100
AcDbEntity
  8
A-DETLGEM
 62
   250
100
AcDbHatch
 10
0.0
 20
0.0
 30
0.0
210
0.0
220
0.0
230
1.0
  2
SOLID
 70
     1
 71
     0
 91
        1
 92
        0
 93
        4
 72
     1
 10
2411.876525977145
 20
2429.585083735475
 11
2413.063080692442
 21
2426.794274583495
 72
     1
 10
2413.063080692442
 20
2426.794274583495
 11
2543.647851968422
 21
2482.314364874682
 72
     1
 10
2543.647851968422
 20
2482.314364874682
 11
2542.46129725313
 21
2485.105174026652
 72
     1
 10
2542.46129725313
 20
2485.105174026652
 11
2411.876525977145
 21
2429.585083735475
 97
        0
 75
     0
 76
     1
 98
        1
 10
0.0
 20
0.0
450
        0
451
        0
460
0.0
461
0.0
452
        0
462
0.0
453
        0
470

1001
REVIT
1002
{
1070
     1
1000
160500
1002
}
1002
{
1070
     2
1000
-2000059
1002
}
1002
{
1070
     3
1000
131133
1002
}
  0
LINE
  5
9C
330
75
100
AcDbEntity
  8
A-----NPP
  6
Continuous
370
    18
100
AcDbLine
 10
2558.850607340353
 20
2488.778046226475
 30
0.0
 11
2557.664052625064
 21
2491.568855378442
 31
0.0
1001
REVIT
1002
{
1070
     1
1000
160500
1002
}
1002
{
1070
     2
1000
-2000051
1002
}
1002
{
1070
     3
1000
-2000042
1002
}
  0
LINE
  5
9D
330
75
100
AcDbEntity
  8
A-----NPP
  6
Continuous
370
    18
100
AcDbLine
 10
2557.664052625064
 20
2491.568855378443
 30
0.0
 11
2545.531676408965
 21
2486.410592156917
 31
0.0
1001
REVIT
1002
{
1070
     1
1000
160500
1002
}
1002
{
1070
     2
1000
-2000051
1002
}
1002
{
1070
     3
1000
-2000042
1002
}
  0
LINE
  5
9E
330
75
100
AcDbEntity
  8
A-----NPP
  6
Continuous
370
    18
100
AcDbLine
 10
2542.46129725313
 20
2485.105174026652
 30
0.0
 11
2411.876525977146
 21
2429.585083735476
 31
0.0
1001
REVIT
1002
{
1070
     1
1000
160500
1002
}
1002
{
1070
     2
1000
-2000051
1002
}
1002
{
1070
     3
1000
-2000042
1002
}
  0
LINE
  5
9F
330
75
100
AcDbEntity
  8
A-----NPP
  6
Continuous
370
    18
100
AcDbLine
 10
2408.806146821311
 20
2428.279665605212
 30
0.0
 11
2343.864152293049
 21
2400.668594538755
 31
0.0
1001
REVIT
1002
{
1070
     1
1000
160500
1002
}
1002
{
1070
     2
1000
-2000051
1002
}
1002
{
1070
     3
1000
-2000042
1002
}
  0
LINE
  5
A0
330
75
100
AcDbEntity
  8
A-----NPP
  6
Continuous
370
    18
100
AcDbLine
 10
2343.864152293049
 20
2397.373303705748
 30
0.0
 11
2409.992701536607
 21
2425.488856453231
 31
0.0
1001
REVIT
1002
{
1070
     1
1000
160500
1002
}
1002
{
1070
     2
1000
-2000051
1002
}
1002
{
1070
     3
1000
-2000042
1002
}
  0
LINE
  5
A1
330
75
100
AcDbEntity
  8
A-----NPP
  6
Continuous
370
    18
100
AcDbLine
 10
2413.063080692442
 20
2426.794274583496
 30
0.0
 11
2543.647851968423
 21
2482.314364874683
 31
0.0
1001
REVIT
1002
{
1070
     1
1000
160500
1002
}
1002
{
1070
     2
1000
-2000051
1002
}
1002
{
1070
     3
1000
-2000042
1002
}
  0
LINE
  5
A2
330
75
100
AcDbEntity
  8
A-----NPP
  6
Continuous
370
    18
100
AcDbLine
 10
2546.718231124256
 20
2483.619783004948
 30
0.0
 11
2558.850607340353
 21
2488.778046226475
 31
0.0
1001
REVIT
1002
{
1070
     1
1000
160500
1002
}
1002
{
1070
     2
1000
-2000051
1002
}
1002
{
1070
     3
1000
-2000042
1002
}
  0
HATCH
  5
A7
330
75
100
AcDbEntity
  8
A-DETLGEM
 62
   250
100
AcDbHatch
 10
0.0
 20
0.0
 30
0.0
210
0.0
220
0.0
230
1.0
  2
SOLID
 70
     1
 71
     0
 91
        1
 92
        0
 93
        4
 72
     1
 10
2427.682717215877
 20
2426.528027344365
 11
2426.496162500587
 21
2429.318836496333
 72
     1
 10
2426.496162500587
 20
2429.318836496333
 11
2414.210540216264
 21
2424.09541839142
 72
     1
 10
2414.210540216264
 20
2424.09541839142
 11
2415.397094931556
 21
2421.304609239452
 72
     1
 10
2415.397094931556
 20
2421.304609239452
 11
2427.682717215877
 21
2426.528027344365
 97
        0
 75
     0
 76
     1
 98
        1
 10
0.0
 20
0.0
450
        0
451
        0
460
0.0
461
0.0
452
        0
462
0.0
453
        0
470

1001
REVIT
1002
{
1070
     1
1000
160507
1002
}
1002
{
1070
     2
1000
-2000059
1002
}
1002
{
1070
     3
1000
131133
1002
}
  0
HATCH
  5
AC
330
75
100
AcDbEntity
  8
A-DETLGEM
 62
   250
100
AcDbHatch
 10
0.0
 20
0.0
 30
0.0
210
0.0
220
0.0
230
1.0
  2
SOLID
 70
     1
 71
     0
 91
        1
 92
        0
 93
        4
 72
     1
 10
2343.864152293048
 20
2394.18658774454
 11
2343.864152293048
 21
2390.891296911547
 72
     1
 10
2343.864152293048
 20
2390.891296911547
 11
2412.326715775721
 21
2419.999191109187
 72
     1
 10
2412.326715775721
 20
2419.999191109187
 11
2411.140161060429
 21
2422.790000261156
 72
     1
 10
2411.140161060429
 20
2422.790000261156
 11
2343.864152293048
 21
2394.18658774454
 97
        0
 75
     0
 76
     1
 98
        1
 10
0.0
 20
0.0
450
        0
451
        0
460
0.0
461
0.0
452
        0
462
0.0
453
        0
470

1001
REVIT
1002
{
1070
     1
1000
160507
1002
}
1002
{
1070
     2
1000
-2000059
1002
}
1002
{
1070
     3
1000
131133
1002
}
  0
LINE
  5
AD
330
75
100
AcDbEntity
  8
A-----NPP
  6
Continuous
370
    18
100
AcDbLine
 10
2427.682717215877
 20
2426.528027344365
 30
0.0
 11
2426.496162500587
 21
2429.318836496334
 31
0.0
1001
REVIT
1002
{
1070
     1
1000
160507
1002
}
1002
{
1070
     2
1000
-2000051
1002
}
1002
{
1070
     3
1000
-2000042
1002
}
  0
LINE
  5
AE
330
75
100
AcDbEntity
  8
A-----NPP
  6
Continuous
370
    18
100
AcDbLine
 10
2426.496162500587
 20
2429.318836496334
 30
0.0
 11
2414.210540216265
 21
2424.095418391421
 31
0.0
1001
REVIT
1002
{
1070
     1
1000
160507
1002
}
1002
{
1070
     2
1000
-2000051
1002
}
1002
{
1070
     3
1000
-2000042
1002
}
  0
LINE
  5
AF
330
75
100
AcDbEntity
  8
A-----NPP
  6
Continuous
370
    18
100
AcDbLine
 10
2411.14016106043
 20
2422.790000261156
 30
0.0
 11
2343.864152293049
 21
2394.18658774454
 31
0.0
1001
REVIT
1002
{
1070
     1
1000
160507
1002
}
1002
{
1070
     2
1000
-2000051
1002
}
1002
{
1070
     3
1000
-2000042
1002
}
  0
LINE
  5
B0
330
75
100
AcDbEntity
  8
A-----NPP
  6
Continuous
370
    18
100
AcDbLine
 10
2343.864152293049
 20
2390.891296911548
 30
0.0
 11
2412.326715775722
 21
2419.999191109188
 31
0.0
1001
REVIT
1002
{
1070
     1
1000
160507
1002
}
1002
{
1070
     2
1000
-2000051
1002
}
1002
{
1070
     3
1000
-2000042
1002
}
  0
LINE
  5
B1
330
75
100
AcDbEntity
  8
A-----NPP
  6
Continuous
370
    18
100
AcDbLine
 10
2415.397094931556
 20
2421.304609239452
 30
0.0
 11
2427.682717215877
 21
2426.528027344365
 31
0.0
1001
REVIT
1002
{
1070
     1
1000
160507
1002
}
1002
{
1070
     2
1000
-2000051
1002
}
1002
{
1070
     3
1000
-2000042
1002
}
  0
HATCH
  5
B6
330
75
100
AcDbEntity
  8
A-DETLGEM
 62
   250
100
AcDbHatch
 10
0.0
 20
0.0
 30
0.0
210
0.0
220
0.0
230
1.0
  2
SOLID
 70
     1
 71
     0
 91
        1
 92
        0
 93
        4
 72
     1
 10
2698.929388043114
 20
2555.455467150402
 11
2697.74283332785
 21
2558.246276302311
 72
     1
 10
2697.74283332785
 20
2558.246276302311
 11
2681.41104142561
 21
2551.302567995677
 72
     1
 10
2681.41104142561
 20
2551.302567995677
 11
2682.605688300324
 21
2548.515199347729
 72
     1
 10
2682.605688300324
 20
2548.515199347729
 11
2698.929388043114
 21
2555.455467150402
 97
        0
 75
     0
 76
     1
 98
        1
 10
0.0
 20
0.0
450
        0
451
        0
460
0.0
461
0.0
452
        0
462
0.0
453
        0
470

1001
REVIT
1002
{
1070
     1
1000
160515
1002
}
1002
{
1070
     2
1000
-2000059
1002
}
1002
{
1070
     3
1000
131133
1002
}
  0
HATCH
  5
BB
330
75
100
AcDbEntity
  8
A-DETLGEM
 62
   250
100
AcDbHatch
 10
0.0
 20
0.0
 30
0.0
210
0.0
220
0.0
230
1.0
  2
SOLID
 70
     1
 71
     0
 91
        1
 92
        0
 93
        4
 72
     1
 10
2394.05168480431
 20
2429.127391903279
 11
2395.238239519585
 21
2426.336582751343
 72
     1
 10
2395.238239519585
 20
2426.336582751343
 11
2541.083820486719
 21
2488.345037066072
 72
     1
 10
2541.083820486719
 20
2488.345037066072
 11
2539.897265771447
 21
2491.135846217995
 72
     1
 10
2539.897265771447
 20
2491.135846217995
 11
2394.05168480431
 21
2429.127391903279
 97
        0
 75
     0
 76
     1
 98
        1
 10
0.0
 20
0.0
450
        0
451
        0
460
0.0
461
0.0
452
        0
462
0.0
453
        0
470

1001
REVIT
1002
{
1070
     1
1000
160515
1002
}
1002
{
1070
     2
1000
-2000059
1002
}
1002
{
1070
     3
1000
131133
1002
}
  0
HATCH
  5
C0
330
75
100
AcDbEntity
  8
A-DETLGEM
 62
   250
100
AcDbHatch
 10
0.0
 20
0.0
 30
0.0
210
0.0
220
0.0
230
1.0
  2
SOLID
 70
     1
 71
     0
 91
        1
 92
        0
 93
        4
 72
     1
 10
2542.967644927281
 20
2492.441264348259
 11
2544.154199642553
 21
2489.650455196337
 72
     1
 10
2544.154199642553
 20
2489.650455196337
 11
2679.535296237359
 21
2547.209775729804
 72
     1
 10
2679.535296237359
 20
2547.209775729804
 11
2678.340649362646
 21
2549.997144377751
 72
     1
 10
2678.340649362646
 20
2549.997144377751
 11
2542.967644927281
 21
2492.441264348259
 97
        0
 75
     0
 76
     1
 98
        1
 10
0.0
 20
0.0
450
        0
451
        0
460
0.0
461
0.0
452
        0
462
0.0
453
        0
470

1001
REVIT
1002
{
1070
     1
1000
160515
1002
}
1002
{
1070
     2
1000
-2000059
1002
}
1002
{
1070
     3
1000
131133
1002
}
  0
LINE
  5
C1
330
75
100
AcDbEntity
  8
A-----NPP
  6
Continuous
370
    18
100
AcDbLine
 10
2698.929388043115
 20
2555.455467150403
 30
0.0
 11
2697.742833327851
 21
2558.246276302312
 31
0.0
1001
REVIT
1002
{
1070
     1
1000
160515
1002
}
1002
{
1070
     2
1000
-2000051
1002
}
1002
{
1070
     3
1000
-2000042
1002
}
  0
LINE
  5
C2
330
75
100
AcDbEntity
  8
A-----NPP
  6
Continuous
370
    18
100
AcDbLine
 10
2697.742833327851
 20
2558.246276302313
 30
0.0
 11
2681.411041425611
 21
2551.302567995678
 31
0.0
1001
REVIT
1002
{
1070
     1
1000
160515
1002
}
1002
{
1070
     2
1000
-2000051
1002
}
1002
{
1070
     3
1000
-2000042
1002
}
  0
LINE
  5
C3
330
75
100
AcDbEntity
  8
A-----NPP
  6
Continuous
370
    18
100
AcDbLine
 10
2678.340649362646
 20
2549.997144377752
 30
0.0
 11
2542.967644927283
 21
2492.44126434826
 31
0.0
1001
REVIT
1002
{
1070
     1
1000
160515
1002
}
1002
{
1070
     2
1000
-2000051
1002
}
1002
{
1070
     3
1000
-2000042
1002
}
  0
LINE
  5
C4
330
75
100
AcDbEntity
  8
A-----NPP
  6
Continuous
370
    18
100
AcDbLine
 10
2539.897265771448
 20
2491.135846217995
 30
0.0
 11
2394.05168480431
 21
2429.127391903279
 31
0.0
1001
REVIT
1002
{
1070
     1
1000
160515
1002
}
1002
{
1070
     2
1000
-2000051
1002
}
1002
{
1070
     3
1000
-2000042
1002
}
  0
LINE
  5
C5
330
75
100
AcDbEntity
  8
A-----NPP
  6
Continuous
370
    18
100
AcDbLine
 10
2394.05168480431
 20
2429.127391903279
 30
0.0
 11
2395.238239519586
 21
2426.336582751344
 31
0.0
1001
REVIT
1002
{
1070
     1
1000
160515
1002
}
1002
{
1070
     2
1000
-2000051
1002
}
1002
{
1070
     3
1000
-2000042
1002
}
  0
LINE
  5
C6
330
75
100
AcDbEntity
  8
A-----NPP
  6
Continuous
370
    18
100
AcDbLine
 10
2395.238239519587
 20
2426.336582751344
 30
0.0
 11
2541.08382048672
 21
2488.345037066073
 31
0.0
1001
REVIT
1002
{
1070
     1
1000
160515
1002
}
1002
{
1070
     2
1000
-2000051
1002
}
1002
{
1070
     3
1000
-2000042
1002
}
  0
LINE
  5
C7
330
75
100
AcDbEntity
  8
A-----NPP
  6
Continuous
370
    18
100
AcDbLine
 10
2544.154199642554
 20
2489.650455196337
 30
0.0
 11
2679.535296237361
 21
2547.209775729805
 31
0.0
1001
REVIT
1002
{
1070
     1
1000
160515
1002
}
1002
{
1070
     2
1000
-2000051
1002
}
1002
{
1070
     3
1000
-2000042
1002
}
  0
LINE
  5
C8
330
75
100
AcDbEntity
  8
A-----NPP
  6
Continuous
370
    18
100
AcDbLine
 10
2682.605688300326
 20
2548.515199347731
 30
0.0
 11
2698.929388043115
 21
2555.455467150403
 31
0.0
1001
REVIT
1002
{
1070
     1
1000
160515
1002
}
1002
{
1070
     2
1000
-2000051
1002
}
1002
{
1070
     3
1000
-2000042
1002
}
  0
HATCH
  5
CD
330
75
100
AcDbEntity
  8
A-DETLGEM
 62
   250
100
AcDbHatch
 10
0.0
 20
0.0
 30
0.0
210
0.0
220
0.0
230
1.0
  2
SOLID
 70
     1
 71
     0
 91
        1
 92
        0
 93
        4
 72
     1
 10
2896.815686998767
 20
2490.573074107468
 11
2895.629609294615
 21
2487.782062195151
 72
     1
 10
2895.629609294615
 20
2487.782062195151
 11
2912.579698255693
 21
2480.578896020392
 72
     1
 10
2912.579698255693
 20
2480.578896020392
 11
2913.765775959847
 21
2483.36990793271
 72
     1
 10
2913.765775959847
 20
2483.36990793271
 11
2896.815686998767
 21
2490.573074107468
 97
        0
 75
     0
 76
     1
 98
        1
 10
0.0
 20
0.0
450
        0
451
        0
460
0.0
461
0.0
452
        0
462
0.0
453
        0
470

1001
REVIT
1002
{
1070
     1
1000
160523
1002
}
1002
{
1070
     2
1000
-2000059
1002
}
1002
{
1070
     3
1000
131133
1002
}
  0
HATCH
  5
D2
330
75
100
AcDbEntity
  8
A-DETLGEM
 62
   250
100
AcDbHatch
 10
0.0
 20
0.0
 30
0.0
210
0.0
220
0.0
230
1.0
  2
SOLID
 70
     1
 71
     0
 91
        1
 92
        0
 93
        4
 72
     1
 10
3107.760587663446
 20
2397.634176156692
 11
3107.760587663446
 21
2400.929227594652
 72
     1
 10
3107.760587663446
 20
2400.929227594652
 11
3046.18816453091
 21
2427.095249296638
 72
     1
 10
3046.18816453091
 20
2427.095249296638
 11
3045.00208682675
 21
2424.304237384309
 72
     1
 10
3045.00208682675
 20
2424.304237384309
 11
3107.760587663446
 21
2397.634176156692
 97
        0
 75
     0
 76
     1
 98
        1
 10
0.0
 20
0.0
450
        0
451
        0
460
0.0
461
0.0
452
        0
462
0.0
453
        0
470

1001
REVIT
1002
{
1070
     1
1000
160523
1002
}
1002
{
1070
     2
1000
-2000059
1002
}
1002
{
1070
     3
1000
131133
1002
}
  0
HATCH
  5
D7
330
75
100
AcDbEntity
  8
A-DETLGEM
 62
   250
100
AcDbHatch
 10
0.0
 20
0.0
 30
0.0
210
0.0
220
0.0
230
1.0
  2
SOLID
 70
     1
 71
     0
 91
        1
 92
        0
 93
        4
 72
     1
 10
3041.931484598982
 20
2425.609130718733
 11
3043.11756230314
 21
2428.400142631062
 72
     1
 10
3043.11756230314
 20
2428.400142631062
 11
2916.836378187617
 21
2482.065014598286
 72
     1
 10
2916.836378187617
 20
2482.065014598286
 11
2915.650300483462
 21
2479.274002685968
 72
     1
 10
2915.650300483462
 20
2479.274002685968
 11
3041.931484598982
 21
2425.609130718733
 97
        0
 75
     0
 76
     1
 98
        1
 10
0.0
 20
0.0
450
        0
451
        0
460
0.0
461
0.0
452
        0
462
0.0
453
        0
470

1001
REVIT
1002
{
1070
     1
1000
160523
1002
}
1002
{
1070
     2
1000
-2000059
1002
}
1002
{
1070
     3
1000
131133
1002
}
  0
LINE
  5
D8
330
75
100
AcDbEntity
  8
A-----NPP
  6
Continuous
370
    18
100
AcDbLine
 10
2895.629609294616
 20
2487.782062195153
 30
0.0
 11
2912.579698255695
 21
2480.578896020393
 31
0.0
1001
REVIT
1002
{
1070
     1
1000
160523
1002
}
1002
{
1070
     2
1000
-2000051
1002
}
1002
{
1070
     3
1000
-2000042
1002
}
  0
LINE
  5
D9
330
75
100
AcDbEntity
  8
A-----NPP
  6
Continuous
370
    18
100
AcDbLine
 10
2915.650300483464
 20
2479.274002685968
 30
0.0
 11
3041.931484598982
 21
2425.609130718734
 31
0.0
1001
REVIT
1002
{
1070
     1
1000
160523
1002
}
1002
{
1070
     2
1000
-2000051
1002
}
1002
{
1070
     3
1000
-2000042
1002
}
  0
LINE
  5
DA
330
75
100
AcDbEntity
  8
A-----NPP
  6
Continuous
370
    18
100
AcDbLine
 10
3045.002086826752
 20
2424.304237384309
 30
0.0
 11
3107.760587663446
 21
2397.634176156693
 31
0.0
1001
REVIT
1002
{
1070
     1
1000
160523
1002
}
1002
{
1070
     2
1000
-2000051
1002
}
1002
{
1070
     3
1000
-2000042
1002
}
  0
LINE
  5
DB
330
75
100
AcDbEntity
  8
A-----NPP
  6
Continuous
370
    18
100
AcDbLine
 10
3107.760587663446
 20
2400.929227594653
 30
0.0
 11
3046.188164530911
 21
2427.095249296639
 31
0.0
1001
REVIT
1002
{
1070
     1
1000
160523
1002
}
1002
{
1070
     2
1000
-2000051
1002
}
1002
{
1070
     3
1000
-2000042
1002
}
  0
LINE
  5
DC
330
75
100
AcDbEntity
  8
A-----NPP
  6
Continuous
370
    18
100
AcDbLine
 10
3043.117562303141
 20
2428.400142631063
 30
0.0
 11
2916.836378187618
 21
2482.065014598287
 31
0.0
1001
REVIT
1002
{
1070
     1
1000
160523
1002
}
1002
{
1070
     2
1000
-2000051
1002
}
1002
{
1070
     3
1000
-2000042
1002
}
  0
LINE
  5
DD
330
75
100
AcDbEntity
  8
A-----NPP
  6
Continuous
370
    18
100
AcDbLine
 10
2913.765775959848
 20
2483.369907932711
 30
0.0
 11
2896.815686998767
 21
2490.57307410747
 31
0.0
1001
REVIT
1002
{
1070
     1
1000
160523
1002
}
1002
{
1070
     2
1000
-2000051
1002
}
1002
{
1070
     3
1000
-2000042
1002
}
  0
LINE
  5
DE
330
75
100
AcDbEntity
  8
A-----NPP
  6
Continuous
370
    18
100
AcDbLine
 10
2896.815686998767
 20
2490.57307410747
 30
0.0
 11
2895.629609294616
 21
2487.782062195153
 31
0.0
1001
REVIT
1002
{
1070
     1
1000
160523
1002
}
1002
{
1070
     2
1000
-2000051
1002
}
1002
{
1070
     3
1000
-2000042
1002
}
  0
HATCH
  5
E3
330
75
100
AcDbEntity
  8
A-DETLGEM
 62
   250
100
AcDbHatch
 10
0.0
 20
0.0
 30
0.0
210
0.0
220
0.0
230
1.0
  2
SOLID
 70
     1
 71
     0
 91
        1
 92
        0
 93
        4
 72
     1
 10
3025.515554801617
 20
2428.970419270488
 11
3024.329477097446
 21
2426.179407358124
 72
     1
 10
3024.329477097446
 20
2426.179407358124
 11
3039.444204731504
 21
2419.756202436642
 72
     1
 10
3039.444204731504
 20
2419.756202436642
 11
3040.630282435677
 21
2422.547214349006
 72
     1
 10
3040.630282435677
 20
2422.547214349006
 11
3025.515554801617
 21
2428.970419270488
 97
        0
 75
     0
 76
     1
 98
        1
 10
0.0
 20
0.0
450
        0
451
        0
460
0.0
461
0.0
452
        0
462
0.0
453
        0
470

1001
REVIT
1002
{
1070
     1
1000
160531
1002
}
1002
{
1070
     2
1000
-2000059
1002
}
1002
{
1070
     3
1000
131133
1002
}
  0
HATCH
  5
E8
330
75
100
AcDbEntity
  8
A-DETLGEM
 62
   250
100
AcDbHatch
 10
0.0
 20
0.0
 30
0.0
210
0.0
220
0.0
230
1.0
  2
SOLID
 70
     1
 71
     0
 91
        1
 92
        0
 93
        4
 72
     1
 10
3107.760587663446
 20
2390.724245150325
 11
3107.760587663446
 21
2394.019296588327
 72
     1
 10
3107.760587663446
 20
2394.019296588327
 11
3043.700884663446
 21
2421.242321014582
 72
     1
 10
3043.700884663446
 20
2421.242321014582
 11
3042.514806959273
 21
2418.451309102218
 72
     1
 10
3042.514806959273
 20
2418.451309102218
 11
3107.760587663446
 21
2390.724245150325
 97
        0
 75
     0
 76
     1
 98
        1
 10
0.0
 20
0.0
450
        0
451
        0
460
0.0
461
0.0
452
        0
462
0.0
453
        0
470

1001
REVIT
1002
{
1070
     1
1000
160531
1002
}
1002
{
1070
     2
1000
-2000059
1002
}
1002
{
1070
     3
1000
131133
1002
}
  0
LINE
  5
E9
330
75
100
AcDbEntity
  8
A-----NPP
  6
Continuous
370
    18
100
AcDbLine
 10
3024.329477097446
 20
2426.179407358125
 30
0.0
 11
3039.444204731505
 21
2419.756202436643
 31
0.0
1001
REVIT
1002
{
1070
     1
1000
160531
1002
}
1002
{
1070
     2
1000
-2000051
1002
}
1002
{
1070
     3
1000
-2000042
1002
}
  0
LINE
  5
EA
330
75
100
AcDbEntity
  8
A-----NPP
  6
Continuous
370
    18
100
AcDbLine
 10
3042.514806959274
 20
2418.451309102219
 30
0.0
 11
3107.760587663446
 21
2390.724245150326
 31
0.0
1001
REVIT
1002
{
1070
     1
1000
160531
1002
}
1002
{
1070
     2
1000
-2000051
1002
}
1002
{
1070
     3
1000
-2000042
1002
}
  0
LINE
  5
EB
330
75
100
AcDbEntity
  8
A-----NPP
  6
Continuous
370
    18
100
AcDbLine
 10
3107.760587663446
 20
2394.019296588327
 30
0.0
 11
3043.700884663448
 21
2421.242321014583
 31
0.0
1001
REVIT
1002
{
1070
     1
1000
160531
1002
}
1002
{
1070
     2
1000
-2000051
1002
}
1002
{
1070
     3
1000
-2000042
1002
}
  0
LINE
  5
EC
330
75
100
AcDbEntity
  8
A-----NPP
  6
Continuous
370
    18
100
AcDbLine
 10
3040.630282435679
 20
2422.547214349007
 30
0.0
 11
3025.515554801617
 21
2428.970419270488
 31
0.0
1001
REVIT
1002
{
1070
     1
1000
160531
1002
}
1002
{
1070
     2
1000
-2000051
1002
}
1002
{
1070
     3
1000
-2000042
1002
}
  0
LINE
  5
ED
330
75
100
AcDbEntity
  8
A-----NPP
  6
Continuous
370
    18
100
AcDbLine
 10
3025.515554801617
 20
2428.970419270488
 30
0.0
 11
3024.329477097446
 21
2426.179407358125
 31
0.0
1001
REVIT
1002
{
1070
     1
1000
160531
1002
}
1002
{
1070
     2
1000
-2000051
1002
}
1002
{
1070
     3
1000
-2000042
1002
}
  0
HATCH
  5
F2
330
75
100
AcDbEntity
  8
A-DETLGEM
 62
   250
100
AcDbHatch
 10
0.0
 20
0.0
 30
0.0
210
0.0
220
0.0
230
1.0
  2
SOLID
 70
     1
 71
     0
 91
        1
 92
        0
 93
        4
 72
     1
 10
3059.25264696784
 20
2425.368563595454
 11
3060.438724671977
 21
2428.15957550774
 72
     1
 10
3060.438724671977
 20
2428.15957550774
 11
2919.399378893781
 21
2488.096124935434
 72
     1
 10
2919.399378893781
 20
2488.096124935434
 11
2918.213301189646
 21
2485.305113023162
 72
     1
 10
2918.213301189646
 20
2485.305113023162
 11
3059.25264696784
 21
2425.368563595454
 97
        0
 75
     0
 76
     1
 98
        1
 10
0.0
 20
0.0
450
        0
451
        0
460
0.0
461
0.0
452
        0
462
0.0
453
        0
470

1001
REVIT
1002
{
1070
     1
1000
160539
1002
}
1002
{
1070
     2
1000
-2000059
1002
}
1002
{
1070
     3
1000
131133
1002
}
  0
HATCH
  5
F7
330
75
100
AcDbEntity
  8
A-DETLGEM
 62
   250
100
AcDbHatch
 10
0.0
 20
0.0
 30
0.0
210
0.0
220
0.0
230
1.0
  2
SOLID
 70
     1
 71
     0
 91
        1
 92
        0
 93
        4
 72
     1
 10
2756.725512107192
 20
2557.226552359438
 11
2755.539434403065
 21
2554.43554044718
 72
     1
 10
2755.539434403065
 20
2554.43554044718
 11
2772.489523363336
 21
2547.232374272763
 72
     1
 10
2772.489523363336
 20
2547.232374272763
 11
2773.675601067465
 21
2550.023386185022
 72
     1
 10
2773.675601067465
 20
2550.023386185022
 11
2756.725512107192
 21
2557.226552359438
 97
        0
 75
     0
 76
     1
 98
        1
 10
0.0
 20
0.0
450
        0
451
        0
460
0.0
461
0.0
452
        0
462
0.0
453
        0
470

1001
REVIT
1002
{
1070
     1
1000
160539
1002
}
1002
{
1070
     2
1000
-2000059
1002
}
1002
{
1070
     3
1000
131133
1002
}
  0
HATCH
  5
FC
330
75
100
AcDbEntity
  8
A-DETLGEM
 62
   250
100
AcDbHatch
 10
0.0
 20
0.0
 30
0.0
210
0.0
220
0.0
230
1.0
  2
SOLID
 70
     1
 71
     0
 91
        1
 92
        0
 93
        4
 72
     1
 10
2915.142698961877
 20
2486.610006357586
 11
2916.328776666011
 21
2489.401018269858
 72
     1
 10
2916.328776666011
 20
2489.401018269858
 11
2776.746203295235
 21
2548.718492850599
 72
     1
 10
2776.746203295235
 20
2548.718492850599
 11
2775.560125591106
 21
2545.927480938339
 72
     1
 10
2775.560125591106
 20
2545.927480938339
 11
2915.142698961877
 21
2486.610006357586
 97
        0
 75
     0
 76
     1
 98
        1
 10
0.0
 20
0.0
450
        0
451
        0
460
0.0
461
0.0
452
        0
462
0.0
453
        0
470

1001
REVIT
1002
{
1070
     1
1000
160539
1002
}
1002
{
1070
     2
1000
-2000059
1002
}
1002
{
1070
     3
1000
131133
1002
}
  0
LINE
  5
FD
330
75
100
AcDbEntity
  8
A-----NPP
  6
Continuous
370
    18
100
AcDbLine
 10
2755.539434403067
 20
2554.435540447181
 30
0.0
 11
2772.489523363338
 21
2547.232374272764
 31
0.0
1001
REVIT
1002
{
1070
     1
1000
160539
1002
}
1002
{
1070
     2
1000
-2000051
1002
}
1002
{
1070
     3
1000
-2000042
1002
}
  0
LINE
  5
FE
330
75
100
AcDbEntity
  8
A-----NPP
  6
Continuous
370
    18
100
AcDbLine
 10
2775.560125591107
 20
2545.927480938339
 30
0.0
 11
2915.142698961878
 21
2486.610006357587
 31
0.0
1001
REVIT
1002
{
1070
     1
1000
160539
1002
}
1002
{
1070
     2
1000
-2000051
1002
}
1002
{
1070
     3
1000
-2000042
1002
}
  0
LINE
  5
FF
330
75
100
AcDbEntity
  8
A-----NPP
  6
Continuous
370
    18
100
AcDbLine
 10
2918.213301189647
 20
2485.305113023163
 30
0.0
 11
3059.25264696784
 21
2425.368563595455
 31
0.0
1001
REVIT
1002
{
1070
     1
1000
160539
1002
}
1002
{
1070
     2
1000
-2000051
1002
}
1002
{
1070
     3
1000
-2000042
1002
}
  0
LINE
  5
100
330
75
100
AcDbEntity
  8
A-----NPP
  6
Continuous
370
    18
100
AcDbLine
 10
3059.25264696784
 20
2425.368563595455
 30
0.0
 11
3060.438724671978
 21
2428.15957550774
 31
0.0
1001
REVIT
1002
{
1070
     1
1000
160539
1002
}
1002
{
1070
     2
1000
-2000051
1002
}
1002
{
1070
     3
1000
-2000042
1002
}
  0
LINE
  5
101
330
75
100
AcDbEntity
  8
A-----NPP
  6
Continuous
370
    18
100
AcDbLine
 10
3060.438724671978
 20
2428.15957550774
 30
0.0
 11
2919.399378893782
 21
2488.096124935435
 31
0.0
1001
REVIT
1002
{
1070
     1
1000
160539
1002
}
1002
{
1070
     2
1000
-2000051
1002
}
1002
{
1070
     3
1000
-2000042
1002
}
  0
LINE
  5
102
330
75
100
AcDbEntity
  8
A-----NPP
  6
Continuous
370
    18
100
AcDbLine
 10
2916.328776666012
 20
2489.401018269859
 30
0.0
 11
2776.746203295236
 21
2548.718492850599
 31
0.0
1001
REVIT
1002
{
1070
     1
1000
160539
1002
}
1002
{
1070
     2
1000
-2000051
1002
}
1002
{
1070
     3
1000
-2000042
1002
}
  0
LINE
  5
103
330
75
100
AcDbEntity
  8
A-----NPP
  6
Continuous
370
    18
100
AcDbLine
 10
2773.675601067467
 20
2550.023386185023
 30
0.0
 11
2756.725512107193
 21
2557.226552359439
 31
0.0
1001
REVIT
1002
{
1070
     1
1000
160539
1002
}
1002
{
1070
     2
1000
-2000051
1002
}
1002
{
1070
     3
1000
-2000042
1002
}
  0
LINE
  5
104
330
75
100
AcDbEntity
  8
A-----NPP
  6
Continuous
370
    18
100
AcDbLine
 10
2756.725512107193
 20
2557.226552359439
 30
0.0
 11
2755.539434403067
 21
2554.435540447181
 31
0.0
1001
REVIT
1002
{
1070
     1
1000
160539
1002
}
1002
{
1070
     2
1000
-2000051
1002
}
1002
{
1070
     3
1000
-2000042
1002
}
  0
INSERT
  5
10D
330
75
100
AcDbEntity
  8
A-DETLGEM
100
AcDbBlockReference
  2
tmber 100_50 - tmber 100_50_1-6-Detail 6
 10
2701.864755278917
 20
2478.800827167678
 30
0.0
 50
115.0000000000004
1001
REVIT
1002
{
1070
     1
1000
160480
1002
}
1002
{
1070
     5
1000
113610
1002
}
1002
{
1070
     2
1000
-2002000
1002
}
  0
INSERT
  5
123
330
75
100
AcDbEntity
  8
A-DETLGEM
100
AcDbBlockReference
  2
ply2 20_ - ply 20__1-8-Detail 6
 10
2747.299855694632
 20
2537.317543905775
 30
0.0
 50
335.0000000000018
1001
REVIT
1002
{
1070
     1
1000
160481
1002
}
1002
{
1070
     5
1000
109593
1002
}
1002
{
1070
     2
1000
-2002000
1002
}
  0
INSERT
  5
138
330
75
100
AcDbEntity
  8
A-DETLGEM
100
AcDbBlockReference
  2
ply2 20_ - ply 20__1-7-Detail 6
 10
2260.144262595358
 20
2328.94271841867
 30
0.0
 50
24.99999999999801
1001
REVIT
1002
{
1070
     1
1000
160487
1002
}
1002
{
1070
     5
1000
109593
1002
}
1002
{
1070
     2
1000
-2002000
1002
}
  0
INSERT
  5
139
330
75
100
AcDbEntity
  8
A-DETLGEM
100
AcDbBlockReference
  2
tmber 100_50 - tmber 100_50_1-6-Detail 6
 10
2843.64778745705
 20
2436.482579125886
 30
0.0
 50
65.00000000001117
1001
REVIT
1002
{
1070
     1
1000
160488
1002
}
1002
{
1070
     5
1000
113610
1002
}
1002
{
1070
     2
1000
-2002000
1002
}
  0
LINE
  5
13A
330
75
100
AcDbEntity
  8
A-----NPP
100
AcDbLine
 10
3041.531041887562
 20
2416.136367994689
 30
0.0
 11
3107.760587663446
 21
2385.25302360327
 31
0.0
1001
REVIT
1002
{
1070
     1
1000
160489
1002
}
1002
{
1070
     2
1000
-2000051
1002
}
1002
{
1070
     3
1000
108841
1002
}
  0
LINE
  5
13B
330
75
100
AcDbEntity
  8
A-----NPP
100
AcDbLine
 10
2914.076065090264
 20
2475.56959974523
 30
0.0
 11
3038.505466851006
 21
2417.547216804557
 31
0.0
1001
REVIT
1002
{
1070
     1
1000
160489
1002
}
1002
{
1070
     2
1000
-2000051
1002
}
1002
{
1070
     3
1000
108841
1002
}
  0
LINE
  5
13C
330
75
100
AcDbEntity
  8
A-----NPP
100
AcDbLine
 10
2773.514750090565
 20
2541.11441736992
 30
0.0
 11
2911.050490053709
 21
2476.980448555098
 31
0.0
1001
REVIT
1002
{
1070
     1
1000
160489
1002
}
1002
{
1070
     2
1000
-2000051
1002
}
1002
{
1070
     3
1000
108841
1002
}
  0
LINE
  5
13D
330
75
100
AcDbEntity
  8
A-----NPP
100
AcDbLine
 10
2754.295075278858
 20
2550.076698921868
 30
0.0
 11
2770.489175054009
 21
2542.525266179789
 31
0.0
1001
REVIT
1002
{
1070
     1
1000
160489
1002
}
1002
{
1070
     2
1000
-2000051
1002
}
1002
{
1070
     3
1000
108841
1002
}
  0
INSERT
  5
146
330
75
100
AcDbEntity
  8
A-DETLGEM
100
AcDbBlockReference
  2
Break Line1 - M_Break Line_1-5-Detail 6
 10
2343.864152293053
 20
2303.662710247131
 30
0.0
 50
90.00000000000005
1001
REVIT
1002
{
1070
     1
1000
160490
1002
}
1002
{
1070
     5
1000
146218
1002
}
1002
{
1070
     2
1000
-2002000
1002
}
  0
INSERT
  5
14F
330
75
100
AcDbEntity
  8
A-DETLGEM
100
AcDbBlockReference
  2
Break Line1 - M_Break Line_1-4-Detail 6
 10
3107.760587663442
 20
2313.662710247163
 30
0.0
 50
89.99999999999996
1001
REVIT
1002
{
1070
     1
1000
160491
1002
}
1002
{
1070
     5
1000
145907
1002
}
1002
{
1070
     2
1000
-2002000
1002
}
  0
LINE
  5
150
330
75
100
AcDbEntity
  8
A-----NPP
  6
Continuous
370
    18
100
AcDbLine
 10
2727.023753915996
 20
2345.091479836753
 30
0.0
 11
2727.023753915996
 21
2545.203776965806
 31
0.0
1001
REVIT
1002
{
1070
     1
1000
160493
1002
}
1002
{
1070
     2
1000
-2000051
1002
}
1002
{
1070
     3
1000
-2000042
1002
}
  0
LINE
  5
151
330
75
100
AcDbEntity
  8
A-----NPP
  6
Continuous
100
AcDbLine
 10
2691.187116234312
 20
2528.492878372309
 30
0.0
 11
2727.07329697741
 21
2545.226879274752
 31
0.0
1001
REVIT
1002
{
1070
     1
1000
160494
1002
}
1002
{
1070
     2
1000
-2000051
1002
}
1002
{
1070
     3
1000
-2000043
1002
}
  0
LINE
  5
152
330
75
100
AcDbEntity
  8
A-----NPP
  6
Continuous
100
AcDbLine
 10
2554.699486722589
 20
2464.847651487561
 30
0.0
 11
2688.161847467644
 21
2527.082172378435
 31
0.0
1001
REVIT
1002
{
1070
     1
1000
160494
1002
}
1002
{
1070
     2
1000
-2000051
1002
}
1002
{
1070
     3
1000
-2000043
1002
}
  0
LINE
  5
153
330
75
100
AcDbEntity
  8
A-----NPP
  6
Continuous
100
AcDbLine
 10
2422.995456986331
 20
2403.433053811661
 30
0.0
 11
2551.673929485661
 21
2463.436810977795
 31
0.0
1001
REVIT
1002
{
1070
     1
1000
160494
1002
}
1002
{
1070
     2
1000
-2000051
1002
}
1002
{
1070
     3
1000
-2000043
1002
}
  0
LINE
  5
154
330
75
100
AcDbEntity
  8
A-----NPP
  6
Continuous
100
AcDbLine
 10
2343.864152293036
 20
2366.533520433376
 30
0.0
 11
2419.969899749404
 21
2402.022213301896
 31
0.0
1001
REVIT
1002
{
1070
     1
1000
160494
1002
}
1002
{
1070
     2
1000
-2000051
1002
}
1002
{
1070
     3
1000
-2000043
1002
}
  0
LINE
  5
155
330
75
100
AcDbEntity
  8
A-----NPP
  6
Continuous
100
AcDbLine
 10
3035.308717833195
 20
2401.494342015092
 30
0.0
 11
3107.760587663451
 21
2367.7094802656
 31
0.0
1001
REVIT
1002
{
1070
     1
1000
160495
1002
}
1002
{
1070
     2
1000
-2000051
1002
}
1002
{
1070
     3
1000
-2000043
1002
}
  0
LINE
  5
156
330
75
100
AcDbEntity
  8
A-----NPP
  6
Continuous
100
AcDbLine
 10
2907.853741035896
 20
2460.927573765631
 30
0.0
 11
3032.28314279664
 21
2402.90519082496
 31
0.0
1001
REVIT
1002
{
1070
     1
1000
160495
1002
}
1002
{
1070
     2
1000
-2000051
1002
}
1002
{
1070
     3
1000
-2000043
1002
}
  0
LINE
  5
157
330
75
100
AcDbEntity
  8
A-----NPP
  6
Continuous
100
AcDbLine
 10
2767.292426036196
 20
2526.472391390319
 30
0.0
 11
2904.828165999342
 21
2462.338422575499
 31
0.0
1001
REVIT
1002
{
1070
     1
1000
160495
1002
}
1002
{
1070
     2
1000
-2000051
1002
}
1002
{
1070
     3
1000
-2000043
1002
}
  0
LINE
  5
158
330
75
100
AcDbEntity
  8
A-----NPP
  6
Continuous
100
AcDbLine
 10
2727.07329697741
 20
2545.226879274752
 30
0.0
 11
2764.266850999641
 21
2527.883240200187
 31
0.0
1001
REVIT
1002
{
1070
     1
1000
160495
1002
}
1002
{
1070
     2
1000
-2000051
1002
}
1002
{
1070
     3
1000
-2000043
1002
}
  0
INSERT
  5
172
330
75
100
AcDbEntity
  8
A-DETLGEM
100
AcDbBlockReference
  2
nail sp - nail sp_1-3-Detail 6
 10
2271.505198746013
 20
2474.560584159848
 30
0.0
 50
293.033504939431
1001
REVIT
1002
{
1070
     1
1000
160512
1002
}
1002
{
1070
     5
1000
129817
1002
}
1002
{
1070
     2
1000
-2002000
1002
}
  0
INSERT
  5
173
330
75
100
AcDbEntity
  8
A-DETLGEM
100
AcDbBlockReference
  2
nail sp - nail sp_1-3-Detail 6
 10
2402.542203385573
 20
2537.544043111563
 30
0.0
 50
293.033504939431
1001
REVIT
1002
{
1070
     1
1000
160520
1002
}
1002
{
1070
     5
1000
129817
1002
}
1002
{
1070
     2
1000
-2002000
1002
}
  0
INSERT
  5
18D
330
75
100
AcDbEntity
  8
A-DETLGEM
100
AcDbBlockReference
  2
nail sp - nail sp_1-0-Detail 6
 10
3183.484387451917
 20
2473.407133564191
 30
0.0
 50
246.9762878232572
1001
REVIT
1002
{
1070
     1
1000
160528
1002
}
1002
{
1070
     5
1000
140160
1002
}
1002
{
1070
     2
1000
-2002000
1002
}
  0
INSERT
  5
18E
330
75
100
AcDbEntity
  8
A-DETLGEM
100
AcDbBlockReference
  2
nail sp - nail sp_1-0-Detail 6
 10
3056.743137640544
 20
2534.519867857342
 30
0.0
 50
246.9762878232572
1001
REVIT
1002
{
1070
     1
1000
160536
1002
}
1002
{
1070
     5
1000
140160
1002
}
1002
{
1070
     2
1000
-2002000
1002
}
  0
INSERT
  5
19E
330
75
100
AcDbEntity
  8
A-DETLGEM
100
AcDbBlockReference
  2
SPS RIDGE VENT - SPS RIDGE VENT_1-2-Detail 6
 10
2567.023753915963
 20
2518.858455778596
 30
0.0
1001
REVIT
1002
{
1070
     1
1000
160544
1002
}
1002
{
1070
     5
1000
140880
1002
}
1002
{
1070
     2
1000
-2002000
1002
}
  0
SPLINE
  5
19F
330
75
100
AcDbEntity
  8
A-----NPP
  6
Continuous
370
   100
100
AcDbSpline
210
0.0
220
0.0
230
1.0
 70
     8
 71
     3
 72
    10
 73
     6
 74
     0
 42
0.0000000001
 43
0.0000000001
 40
0.0
 40
0.0
 40
0.0
 40
0.0
 40
0.2527039967183778
 40
0.4452268868409143
 40
0.7106762411106839
 40
0.7106762411106839
 40
0.7106762411106839
 40
0.7106762411106839
 10
2916.550226770526
 20
2537.230759759611
 30
0.0
 10
2808.048196090986
 20
2589.513033276627
 30
0.0
 10
2755.313462616306
 20
2616.382722054283
 30
0.0
 10
2703.981913997223
 20
2619.806089792066
 30
0.0
 10
2646.292832284456
 20
2588.973141095717
 30
0.0
 10
2531.550226770491
 20
2537.230759759646
 30
0.0
1001
REVIT
1002
{
1070
     1
1000
160553
1002
}
1002
{
1070
     2
1000
-2000051
1002
}
1002
{
1070
     3
1000
-2000044
1002
}
  0
HATCH
  5
1A4
330
75
100
AcDbEntity
  8
A-DETLGEM
 62
   250
100
AcDbHatch
 10
0.0
 20
0.0
 30
0.0
210
0.0
220
0.0
230
1.0
  2
SOLID
 70
     1
 71
     0
 91
        1
 92
        0
 93
        4
 72
     1
 10
2696.474532105091
 20
2562.172267347035
 11
2695.287977389816
 21
2564.96307649897
 72
     1
 10
2695.287977389816
 20
2564.96307649897
 11
2678.597608370707
 21
2557.866913708475
 72
     1
 10
2678.597608370707
 20
2557.866913708475
 11
2679.79225524543
 21
2555.079545060503
 72
     1
 10
2679.79225524543
 20
2555.079545060503
 11
2696.474532105091
 21
2562.172267347035
 97
        0
 75
     0
 76
     1
 98
        1
 10
0.0
 20
0.0
450
        0
451
        0
460
0.0
461
0.0
452
        0
462
0.0
453
        0
470

1001
REVIT
1002
{
1070
     1
1000
160558
1002
}
1002
{
1070
     2
1000
-2000059
1002
}
1002
{
1070
     3
1000
131133
1002
}
  0
HATCH
  5
1A9
330
75
100
AcDbEntity
  8
A-DETLGEM
 62
   250
100
AcDbHatch
 10
0.0
 20
0.0
 30
0.0
210
0.0
220
0.0
230
1.0
  2
SOLID
 70
     1
 71
     0
 91
        1
 92
        0
 93
        4
 72
     1
 10
2523.445052898602
 20
2491.901458437182
 11
2524.631607613883
 21
2489.110649285232
 72
     1
 10
2524.631607613883
 20
2489.110649285232
 11
2676.721863182466
 21
2553.774121442577
 72
     1
 10
2676.721863182466
 20
2553.774121442577
 11
2675.527216307741
 21
2556.561490090548
 72
     1
 10
2675.527216307741
 20
2556.561490090548
 11
2523.445052898602
 21
2491.901458437182
 97
        0
 75
     0
 76
     1
 98
        1
 10
0.0
 20
0.0
450
        0
451
        0
460
0.0
461
0.0
452
        0
462
0.0
453
        0
470

1001
REVIT
1002
{
1070
     1
1000
160558
1002
}
1002
{
1070
     2
1000
-2000059
1002
}
1002
{
1070
     3
1000
131133
1002
}
  0
LINE
  5
1AA
330
75
100
AcDbEntity
  8
A-----NPP
  6
Continuous
370
    18
100
AcDbLine
 10
2696.474532105091
 20
2562.172267347037
 30
0.0
 11
2695.287977389816
 21
2564.963076498971
 31
0.0
1001
REVIT
1002
{
1070
     1
1000
160558
1002
}
1002
{
1070
     2
1000
-2000051
1002
}
1002
{
1070
     3
1000
-2000042
1002
}
  0
LINE
  5
1AB
330
75
100
AcDbEntity
  8
A-----NPP
  6
Continuous
370
    18
100
AcDbLine
 10
2695.287977389816
 20
2564.963076498971
 30
0.0
 11
2678.597608370707
 21
2557.866913708475
 31
0.0
1001
REVIT
1002
{
1070
     1
1000
160558
1002
}
1002
{
1070
     2
1000
-2000051
1002
}
1002
{
1070
     3
1000
-2000042
1002
}
  0
LINE
  5
1AC
330
75
100
AcDbEntity
  8
A-----NPP
  6
Continuous
370
    18
100
AcDbLine
 10
2675.527216307743
 20
2556.56149009055
 30
0.0
 11
2523.445052898603
 21
2491.901458437183
 31
0.0
1001
REVIT
1002
{
1070
     1
1000
160558
1002
}
1002
{
1070
     2
1000
-2000051
1002
}
1002
{
1070
     3
1000
-2000042
1002
}
  0
LINE
  5
1AD
330
75
100
AcDbEntity
  8
A-----NPP
  6
Continuous
370
    18
100
AcDbLine
 10
2523.445052898603
 20
2491.901458437183
 30
0.0
 11
2524.631607613885
 21
2489.110649285234
 31
0.0
1001
REVIT
1002
{
1070
     1
1000
160558
1002
}
1002
{
1070
     2
1000
-2000051
1002
}
1002
{
1070
     3
1000
-2000042
1002
}
  0
LINE
  5
1AE
330
75
100
AcDbEntity
  8
A-----NPP
  6
Continuous
370
    18
100
AcDbLine
 10
2524.631607613885
 20
2489.110649285234
 30
0.0
 11
2676.721863182467
 21
2553.774121442578
 31
0.0
1001
REVIT
1002
{
1070
     1
1000
160558
1002
}
1002
{
1070
     2
1000
-2000051
1002
}
1002
{
1070
     3
1000
-2000042
1002
}
  0
LINE
  5
1AF
330
75
100
AcDbEntity
  8
A-----NPP
  6
Continuous
370
    18
100
AcDbLine
 10
2679.792255245432
 20
2555.079545060504
 30
0.0
 11
2696.474532105091
 21
2562.172267347037
 31
0.0
1001
REVIT
1002
{
1070
     1
1000
160558
1002
}
1002
{
1070
     2
1000
-2000051
1002
}
1002
{
1070
     3
1000
-2000042
1002
}
  0
INSERT
  5
1C9
330
75
100
AcDbEntity
  8
A-DETLGEM
100
AcDbBlockReference
  2
nail sp - nail sp_1-1-Detail 6
 10
2538.117838557868
 20
2602.385333408279
 30
0.0
 50
293.1996378632106
1001
REVIT
1002
{
1070
     1
1000
160563
1002
}
1002
{
1070
     5
1000
165804
1002
}
1002
{
1070
     2
1000
-2002000
1002
}
  0
HATCH
  5
1CE
330
75
100
AcDbEntity
  8
A-DETLGEM
 62
   250
100
AcDbHatch
 10
0.0
 20
0.0
 30
0.0
210
0.0
220
0.0
230
1.0
  2
SOLID
 70
     1
 71
     0
 91
        1
 92
        0
 93
        4
 72
     1
 10
2937.804968457516
 20
2484.754284004525
 11
2938.991046161644
 21
2487.545295916786
 72
     1
 10
2938.991046161644
 20
2487.545295916786
 11
2779.544839016621
 21
2555.304086365484
 72
     1
 10
2779.544839016621
 20
2555.304086365484
 11
2778.358761312496
 21
2552.513074453237
 72
     1
 10
2778.358761312496
 20
2552.513074453237
 11
2937.804968457516
 21
2484.754284004525
 97
        0
 75
     0
 76
     1
 98
        1
 10
0.0
 20
0.0
450
        0
451
        0
460
0.0
461
0.0
452
        0
462
0.0
453
        0
470

1001
REVIT
1002
{
1070
     1
1000
160566
1002
}
1002
{
1070
     2
1000
-2000059
1002
}
1002
{
1070
     3
1000
131133
1002
}
  0
HATCH
  5
1D3
330
75
100
AcDbEntity
  8
A-DETLGEM
 62
   250
100
AcDbHatch
 10
0.0
 20
0.0
 30
0.0
210
0.0
220
0.0
230
1.0
  2
SOLID
 70
     1
 71
     0
 91
        1
 92
        0
 93
        4
 72
     1
 10
2759.414780451889
 20
2563.858622998438
 11
2758.228702747767
 21
2561.067611086191
 72
     1
 10
2758.228702747767
 20
2561.067611086191
 11
2775.288159084727
 21
2553.817967787661
 72
     1
 10
2775.288159084727
 20
2553.817967787661
 11
2776.474236788851
 21
2556.608979699908
 72
     1
 10
2776.474236788851
 20
2556.608979699908
 11
2759.414780451889
 21
2563.858622998438
 97
        0
 75
     0
 76
     1
 98
        1
 10
0.0
 20
0.0
450
        0
451
        0
460
0.0
461
0.0
452
        0
462
0.0
453
        0
470

1001
REVIT
1002
{
1070
     1
1000
160566
1002
}
1002
{
1070
     2
1000
-2000059
1002
}
1002
{
1070
     3
1000
131133
1002
}
  0
LINE
  5
1D4
330
75
100
AcDbEntity
  8
A-----NPP
  6
Continuous
370
    18
100
AcDbLine
 10
2758.228702747769
 20
2561.067611086193
 30
0.0
 11
2775.288159084729
 21
2553.817967787662
 31
0.0
1001
REVIT
1002
{
1070
     1
1000
160566
1002
}
1002
{
1070
     2
1000
-2000051
1002
}
1002
{
1070
     3
1000
-2000042
1002
}
  0
LINE
  5
1D5
330
75
100
AcDbEntity
  8
A-----NPP
  6
Continuous
370
    18
100
AcDbLine
 10
2778.358761312498
 20
2552.513074453238
 30
0.0
 11
2937.804968457517
 21
2484.754284004526
 31
0.0
1001
REVIT
1002
{
1070
     1
1000
160566
1002
}
1002
{
1070
     2
1000
-2000051
1002
}
1002
{
1070
     3
1000
-2000042
1002
}
  0
LINE
  5
1D6
330
75
100
AcDbEntity
  8
A-----NPP
  6
Continuous
370
    18
100
AcDbLine
 10
2937.804968457517
 20
2484.754284004526
 30
0.0
 11
2938.991046161645
 21
2487.545295916787
 31
0.0
1001
REVIT
1002
{
1070
     1
1000
160566
1002
}
1002
{
1070
     2
1000
-2000051
1002
}
1002
{
1070
     3
1000
-2000042
1002
}
  0
LINE
  5
1D7
330
75
100
AcDbEntity
  8
A-----NPP
  6
Continuous
370
    18
100
AcDbLine
 10
2938.991046161645
 20
2487.545295916787
 30
0.0
 11
2779.544839016622
 21
2555.304086365485
 31
0.0
1001
REVIT
1002
{
1070
     1
1000
160566
1002
}
1002
{
1070
     2
1000
-2000051
1002
}
1002
{
1070
     3
1000
-2000042
1002
}
  0
LINE
  5
1D8
330
75
100
AcDbEntity
  8
A-----NPP
  6
Continuous
370
    18
100
AcDbLine
 10
2776.474236788852
 20
2556.608979699909
 30
0.0
 11
2759.414780451891
 21
2563.858622998438
 31
0.0
1001
REVIT
1002
{
1070
     1
1000
160566
1002
}
1002
{
1070
     2
1000
-2000051
1002
}
1002
{
1070
     3
1000
-2000042
1002
}
  0
LINE
  5
1D9
330
75
100
AcDbEntity
  8
A-----NPP
  6
Continuous
370
    18
100
AcDbLine
 10
2759.414780451891
 20
2563.858622998438
 30
0.0
 11
2758.228702747769
 21
2561.067611086193
 31
0.0
1001
REVIT
1002
{
1070
     1
1000
160566
1002
}
1002
{
1070
     2
1000
-2000051
1002
}
1002
{
1070
     3
1000
-2000042
1002
}
  0
INSERT
  5
1DA
330
75
100
AcDbEntity
  8
A-DETLGEM
100
AcDbBlockReference
  2
nail sp - nail sp_1-0-Detail 6
 10
2916.899431778663
 20
2601.753323287992
 30
0.0
 50
246.9762878232572
1001
REVIT
1002
{
1070
     1
1000
160571
1002
}
1002
{
1070
     5
1000
140160
1002
}
1002
{
1070
     2
1000
-2002000
1002
}
  0
MTEXT
  5
1DC
330
75
100
AcDbEntity
  8
A-----TEP
 62
     7
100
AcDbMText
 10
2485.100355951401
 20
2076.455336012787
 30
0.0
 40
17.21182634730539
 41
570.7519118153633
 46
0.0
 71
     1
 72
     1
  1
\fArial|b1|i0|c0|p34|;TYPICAL RIDGE DETAIL- CROSS SECTION
 73
     2
 44
0.9385317878468562
1001
REVIT
1002
{
1070
     1
1000
160479
1002
}
1002
{
1070
     5
1000
1635
1002
}
1002
{
1070
     2
1000
-2000059
1002
}
1002
{
1070
     3
1000
1636
1002
}
  0
MTEXT
  5
1DD
330
75
100
AcDbEntity
  8
A-----TEP
 62
     7
100
AcDbMText
 10
2028.667544684848
 20
2498.293180860568
 30
0.0
 40
12.29416167664671
 41
158.7
 46
0.0
 71
     1
 72
     1
  1
\fArial|b0|i0|c0|p34|;ROOF FRAMING
 73
     2
 44
0.938531787846856
1001
REVIT
1002
{
1070
     1
1000
160482
1002
}
1002
{
1070
     5
1000
1631
1002
}
1002
{
1070
     2
1000
-2000059
1002
}
1002
{
1070
     3
1000
1632
1002
}
  0
MTEXT
  5
1DE
330
75
100
AcDbEntity
  8
A-----TEP
 62
     7
100
AcDbMText
 10
2027.97804518541
 20
2617.006982662488
 30
0.0
 40
12.29416167664671
 41
355.2
 46
0.0
 71
     1
 72
     1
  1
\fArial|b0|i0|c0|p34|;NOGS\P(POSITIONED TO ALLOW AIR FLOW)
 73
     2
 44
0.938531787846856
1001
REVIT
1002
{
1070
     1
1000
160483
1002
}
1002
{
1070
     5
1000
1631
1002
}
1002
{
1070
     2
1000
-2000059
1002
}
1002
{
1070
     3
1000
1632
1002
}
  0
MTEXT
  5
1DF
330
75
100
AcDbEntity
  8
A-----TEP
 62
     7
100
AcDbMText
 10
2031.222305215655
 20
2684.987527103468
 30
0.0
 40
12.29416167664671
 41
257.7
 46
0.0
 71
     1
 72
     1
  1
\fArial|b0|i0|c0|p34|;RIDGE CAPPING SHINGLE
 73
     2
 44
0.938531787846856
1001
REVIT
1002
{
1070
     1
1000
160484
1002
}
1002
{
1070
     5
1000
1631
1002
}
1002
{
1070
     2
1000
-2000059
1002
}
1002
{
1070
     3
1000
1632
1002
}
  0
MTEXT
  5
1E0
330
75
100
AcDbEntity
  8
A-----TEP
 62
     7
100
AcDbMText
 10
3248.27527484038
 20
2512.379399194991
 30
0.0
 40
12.29416167664671
 41
175.5
 46
0.0
 71
     1
 72
     1
  1
\fArial|b0|i0|c0|p34|;No15 RAG FELT\PROOF UNDERLAY\P
 73
     2
 44
0.938531787846856
1001
REVIT
1002
{
1070
     1
1000
160485
1002
}
1002
{
1070
     5
1000
1631
1002
}
1002
{
1070
     2
1000
-2000059
1002
}
1002
{
1070
     3
1000
1632
1002
}
  0
MTEXT
  5
1E1
330
75
100
AcDbEntity
  8
A-----TEP
 62
     7
100
AcDbMText
 10
3248.27527484038
 20
2422.39190590881
 30
0.0
 40
12.29416167664671
 41
104.1
 46
0.0
 71
     1
 72
     1
  1
\fArial|b0|i0|c0|p34|;PLYWOOD
 73
     2
 44
0.938531787846856
1001
REVIT
1002
{
1070
     1
1000
160486
1002
}
1002
{
1070
     5
1000
1631
1002
}
1002
{
1070
     2
1000
-2000059
1002
}
1002
{
1070
     3
1000
1632
1002
}
  0
LINE
  5
1E3
330
75
100
AcDbEntity
  8
A-----NOP
100
AcDbLine
 10
2593.132291267556
 20
2583.038117248574
 30
0.0
 11
2589.778893041033
 21
2575.732515761605
 31
0.0
1001
REVIT
1002
{
1070
     1
1000
160545
1002
}
1002
{
1070
     5
1000
142258
1002
}
1002
{
1070
     2
1000
-2000150
1002
}
  0
LINE
  5
1E4
330
75
100
AcDbEntity
  8
A-----NOP
100
AcDbLine
 10
2589.778893041033
 20
2575.732515761605
 30
0.0
 11
2605.088030118902
 21
2573.127790225391
 31
0.0
1001
REVIT
1002
{
1070
     1
1000
160545
1002
}
1002
{
1070
     5
1000
142258
1002
}
1002
{
1070
     2
1000
-2000150
1002
}
  0
LINE
  5
1E5
330
75
100
AcDbEntity
  8
A-----NOP
100
AcDbLine
 10
2605.088030118902
 20
2573.127790225391
 30
0.0
 11
2593.132291267556
 21
2583.038117248574
 31
0.0
1001
REVIT
1002
{
1070
     1
1000
160545
1002
}
1002
{
1070
     5
1000
142258
1002
}
1002
{
1070
     2
1000
-2000150
1002
}
  0
HATCH
  5
1E6
330
75
100
AcDbEntity
  8
A-----NOP
100
AcDbHatch
 10
0.0
 20
0.0
 30
0.0
210
0.0
220
0.0
230
1.0
  2
SOLID
 70
     1
 71
     0
 91
        1
 92
        0
 93
        3
 72
     1
 10
2593.132291267556
 20
2583.038117248574
 11
2589.778893041033
 21
2575.732515761605
 72
     1
 10
2589.778893041033
 20
2575.732515761605
 11
2605.088030118902
 21
2573.127790225391
 72
     1
 10
2605.088030118902
 20
2573.127790225391
 11
2593.132291267556
 21
2583.038117248574
 97
        0
 75
     0
 76
     1
 98
        1
 10
0.0
 20
0.0
450
        0
451
        0
460
0.0
461
0.0
452
        0
462
0.0
453
        0
470

1001
REVIT
1002
{
1070
     1
1000
160545
1002
}
1002
{
1070
     5
1000
142258
1002
}
1002
{
1070
     2
1000
-2000150
1002
}
  0
LINE
  5
1E7
330
75
100
AcDbEntity
  8
A-----NOP
100
AcDbLine
 10
2362.461137201505
 20
2684.497756663797
 30
0.0
 11
2258.052546600465
 21
2684.497756663855
 31
0.0
1001
REVIT
1002
{
1070
     1
1000
160545
1002
}
1002
{
1070
     5
1000
142258
1002
}
1002
{
1070
     2
1000
-2000150
1002
}
  0
LINE
  5
1E8
330
75
100
AcDbEntity
  8
A-----NOP
100
AcDbLine
 10
2605.088030118902
 20
2573.127790225391
 30
0.0
 11
2362.461137201505
 21
2684.497756663797
 31
0.0
1001
REVIT
1002
{
1070
     1
1000
160545
1002
}
1002
{
1070
     5
1000
142258
1002
}
1002
{
1070
     2
1000
-2000150
1002
}
  0
INSERT
  5
1EC
330
75
100
AcDbEntity
  8
A-----NOP
100
AcDbBlockReference
  2
M_Label Annotation - M_Label Annotation_1-142258-Detail 6
 10
2229.28387645313
 20
2689.796602366012
 30
0.0
 41
5.0
 42
5.0
 43
5.0
1001
REVIT
1002
{
1070
     1
1000
160545
1002
}
1002
{
1070
     5
1000
142258
1002
}
1002
{
1070
     2
1000
-2000150
1002
}
  0
LINE
  5
1ED
330
75
100
AcDbEntity
  8
A-----NOP
100
AcDbLine
 10
2631.266831761934
 20
2492.211621314961
 30
0.0
 11
2627.847502672274
 21
2484.936644935023
 31
0.0
1001
REVIT
1002
{
1070
     1
1000
160546
1002
}
1002
{
1070
     5
1000
142258
1002
}
1002
{
1070
     2
1000
-2000150
1002
}
  0
LINE
  5
1EE
330
75
100
AcDbEntity
  8
A-----NOP
100
AcDbLine
 10
2627.847502672274
 20
2484.936644935023
 30
0.0
 11
2643.132457954
 21
2482.193578179788
 31
0.0
1001
REVIT
1002
{
1070
     1
1000
160546
1002
}
1002
{
1070
     5
1000
142258
1002
}
1002
{
1070
     2
1000
-2000150
1002
}
  0
LINE
  5
1EF
330
75
100
AcDbEntity
  8
A-----NOP
100
AcDbLine
 10
2643.132457954
 20
2482.193578179788
 30
0.0
 11
2631.266831761934
 21
2492.211621314961
 31
0.0
1001
REVIT
1002
{
1070
     1
1000
160546
1002
}
1002
{
1070
     5
1000
142258
1002
}
1002
{
1070
     2
1000
-2000150
1002
}
  0
HATCH
  5
1F0
330
75
100
AcDbEntity
  8
A-----NOP
100
AcDbHatch
 10
0.0
 20
0.0
 30
0.0
210
0.0
220
0.0
230
1.0
  2
SOLID
 70
     1
 71
     0
 91
        1
 92
        0
 93
        3
 72
     1
 10
2631.266831761934
 20
2492.211621314961
 11
2627.847502672274
 21
2484.936644935023
 72
     1
 10
2627.847502672274
 20
2484.936644935023
 11
2643.132457954
 21
2482.193578179788
 72
     1
 10
2643.132457954
 20
2482.193578179788
 11
2631.266831761934
 21
2492.211621314961
 97
        0
 75
     0
 76
     1
 98
        1
 10
0.0
 20
0.0
450
        0
451
        0
460
0.0
461
0.0
452
        0
462
0.0
453
        0
470

1001
REVIT
1002
{
1070
     1
1000
160546
1002
}
1002
{
1070
     5
1000
142258
1002
}
1002
{
1070
     2
1000
-2000150
1002
}
  0
LINE
  5
1F1
330
75
100
AcDbEntity
  8
A-----NOP
100
AcDbLine
 10
2426.166584803239
 20
2584.170228382214
 30
0.0
 11
2321.757994202199
 21
2584.170228382272
 31
0.0
1001
REVIT
1002
{
1070
     1
1000
160546
1002
}
1002
{
1070
     5
1000
142258
1002
}
1002
{
1070
     2
1000
-2000150
1002
}
  0
LINE
  5
1F2
330
75
100
AcDbEntity
  8
A-----NOP
100
AcDbLine
 10
2643.132457954
 20
2482.193578179788
 30
0.0
 11
2426.166584803239
 21
2584.170228382214
 31
0.0
1001
REVIT
1002
{
1070
     1
1000
160546
1002
}
1002
{
1070
     5
1000
142258
1002
}
1002
{
1070
     2
1000
-2000150
1002
}
  0
INSERT
  5
1F3
330
75
100
AcDbEntity
  8
A-----NOP
100
AcDbBlockReference
  2
M_Label Annotation - M_Label Annotation_1-142258-Detail 6
 10
2292.989324054864
 20
2589.469074084429
 30
0.0
 41
5.0
 42
5.0
 43
5.0
1001
REVIT
1002
{
1070
     1
1000
160546
1002
}
1002
{
1070
     5
1000
142258
1002
}
1002
{
1070
     2
1000
-2000150
1002
}
  0
LINE
  5
1F4
330
75
100
AcDbEntity
  8
A-----NOP
100
AcDbLine
 10
2601.777978393001
 20
2376.369801094732
 30
0.0
 11
2599.124555750996
 21
2368.781886952167
 31
0.0
1001
REVIT
1002
{
1070
     1
1000
160547
1002
}
1002
{
1070
     5
1000
142258
1002
}
1002
{
1070
     2
1000
-2000150
1002
}
  0
LINE
  5
1F5
330
75
100
AcDbEntity
  8
A-----NOP
100
AcDbLine
 10
2599.124555750996
 20
2368.781886952167
 30
0.0
 11
2614.61050762376
 21
2367.624489966491
 31
0.0
1001
REVIT
1002
{
1070
     1
1000
160547
1002
}
1002
{
1070
     5
1000
142258
1002
}
1002
{
1070
     2
1000
-2000150
1002
}
  0
LINE
  5
1F6
330
75
100
AcDbEntity
  8
A-----NOP
100
AcDbLine
 10
2614.61050762376
 20
2367.624489966491
 30
0.0
 11
2601.777978393001
 21
2376.369801094732
 31
0.0
1001
REVIT
1002
{
1070
     1
1000
160547
1002
}
1002
{
1070
     5
1000
142258
1002
}
1002
{
1070
     2
1000
-2000150
1002
}
  0
HATCH
  5
1F7
330
75
100
AcDbEntity
  8
A-----NOP
100
AcDbHatch
 10
0.0
 20
0.0
 30
0.0
210
0.0
220
0.0
230
1.0
  2
SOLID
 70
     1
 71
     0
 91
        1
 92
        0
 93
        3
 72
     1
 10
2601.777978393001
 20
2376.369801094732
 11
2599.124555750996
 21
2368.781886952167
 72
     1
 10
2599.124555750996
 20
2368.781886952167
 11
2614.61050762376
 21
2367.624489966491
 72
     1
 10
2614.61050762376
 20
2367.624489966491
 11
2601.777978393001
 21
2376.369801094732
 97
        0
 75
     0
 76
     1
 98
        1
 10
0.0
 20
0.0
450
        0
451
        0
460
0.0
461
0.0
452
        0
462
0.0
453
        0
470

1001
REVIT
1002
{
1070
     1
1000
160547
1002
}
1002
{
1070
     5
1000
142258
1002
}
1002
{
1070
     2
1000
-2000150
1002
}
  0
LINE
  5
1F8
330
75
100
AcDbEntity
  8
A-----NOP
100
AcDbLine
 10
2271.166584803241
 20
2487.723619180308
 30
0.0
 11
2166.7579942022
 21
2487.723619180365
 31
0.0
1001
REVIT
1002
{
1070
     1
1000
160547
1002
}
1002
{
1070
     5
1000
142258
1002
}
1002
{
1070
     2
1000
-2000150
1002
}
  0
LINE
  5
1F9
330
75
100
AcDbEntity
  8
A-----NOP
100
AcDbLine
 10
2614.61050762376
 20
2367.624489966491
 30
0.0
 11
2271.166584803241
 21
2487.723619180308
 31
0.0
1001
REVIT
1002
{
1070
     1
1000
160547
1002
}
1002
{
1070
     5
1000
142258
1002
}
1002
{
1070
     2
1000
-2000150
1002
}
  0
INSERT
  5
1FA
330
75
100
AcDbEntity
  8
A-----NOP
100
AcDbBlockReference
  2
M_Label Annotation - M_Label Annotation_1-142258-Detail 6
 10
2137.989324054865
 20
2493.022464882523
 30
0.0
 41
5.0
 42
5.0
 43
5.0
1001
REVIT
1002
{
1070
     1
1000
160547
1002
}
1002
{
1070
     5
1000
142258
1002
}
1002
{
1070
     2
1000
-2000150
1002
}
  0
MTEXT
  5
1FB
330
75
100
AcDbEntity
  8
A-----TEP
 62
     7
100
AcDbMText
 10
3193.27527484038
 20
2661.299108481659
 30
0.0
 40
12.29416167664671
 41
266.7
 46
0.0
 71
     1
 72
     1
  1
\fArial|b0|i0|c0|p34|;SOUTH PACIFIC SHINGLES\PRIDGE VENT\P
 73
     2
 44
0.938531787846856
1001
REVIT
1002
{
1070
     1
1000
160548
1002
}
1002
{
1070
     5
1000
1631
1002
}
1002
{
1070
     2
1000
-2000059
1002
}
1002
{
1070
     3
1000
1632
1002
}
  0
LINE
  5
1FC
330
75
100
AcDbEntity
  8
A-----NOP
100
AcDbLine
 10
2848.776770216745
 20
2554.405903812465
 30
0.0
 11
2846.120456497127
 21
2561.992806354016
 31
0.0
1001
REVIT
1002
{
1070
     1
1000
160549
1002
}
1002
{
1070
     5
1000
142258
1002
}
1002
{
1070
     2
1000
-2000150
1002
}
  0
LINE
  5
1FD
330
75
100
AcDbEntity
  8
A-----NOP
100
AcDbLine
 10
2846.120456497127
 20
2561.992806354016
 30
0.0
 11
2833.291260478363
 21
2553.242606202012
 31
0.0
1001
REVIT
1002
{
1070
     1
1000
160549
1002
}
1002
{
1070
     5
1000
142258
1002
}
1002
{
1070
     2
1000
-2000150
1002
}
  0
LINE
  5
1FE
330
75
100
AcDbEntity
  8
A-----NOP
100
AcDbLine
 10
2833.291260478363
 20
2553.242606202012
 30
0.0
 11
2848.776770216745
 21
2554.405903812465
 31
0.0
1001
REVIT
1002
{
1070
     1
1000
160549
1002
}
1002
{
1070
     5
1000
142258
1002
}
1002
{
1070
     2
1000
-2000150
1002
}
  0
HATCH
  5
1FF
330
75
100
AcDbEntity
  8
A-----NOP
100
AcDbHatch
 10
0.0
 20
0.0
 30
0.0
210
0.0
220
0.0
230
1.0
  2
SOLID
 70
     1
 71
     0
 91
        1
 92
        0
 93
        3
 72
     1
 10
2848.776770216745
 20
2554.405903812465
 11
2846.120456497127
 21
2561.992806354016
 72
     1
 10
2846.120456497127
 20
2561.992806354016
 11
2833.291260478363
 21
2553.242606202012
 72
     1
 10
2833.291260478363
 20
2553.242606202012
 11
2848.776770216745
 21
2554.405903812465
 97
        0
 75
     0
 76
     1
 98
        1
 10
0.0
 20
0.0
450
        0
451
        0
460
0.0
461
0.0
452
        0
462
0.0
453
        0
470

1001
REVIT
1002
{
1070
     1
1000
160549
1002
}
1002
{
1070
     5
1000
142258
1002
}
1002
{
1070
     2
1000
-2000150
1002
}
  0
LINE
  5
200
330
75
100
AcDbEntity
  8
A-----NOP
100
AcDbLine
 10
3068.709738222804
 20
2635.666932711985
 30
0.0
 11
3183.721404542205
 21
2635.666932712042
 31
0.0
1001
REVIT
1002
{
1070
     1
1000
160549
1002
}
1002
{
1070
     5
1000
142258
1002
}
1002
{
1070
     2
1000
-2000150
1002
}
  0
LINE
  5
201
330
75
100
AcDbEntity
  8
A-----NOP
100
AcDbLine
 10
2833.291260478363
 20
2553.242606202012
 30
0.0
 11
3068.709738222804
 21
2635.666932711985
 31
0.0
1001
REVIT
1002
{
1070
     1
1000
160549
1002
}
1002
{
1070
     5
1000
142258
1002
}
1002
{
1070
     2
1000
-2000150
1002
}
  0
INSERT
  5
202
330
75
100
AcDbEntity
  8
A-----NOP
100
AcDbBlockReference
  2
M_Label Annotation - M_Label Annotation_1-142258-Detail 6
 10
3212.419226743743
 20
2640.9657784142
 30
0.0
 41
5.0
 42
5.0
 43
5.0
1001
REVIT
1002
{
1070
     1
1000
160549
1002
}
1002
{
1070
     5
1000
142258
1002
}
1002
{
1070
     2
1000
-2000150
1002
}
  0
LINE
  5
203
330
75
100
AcDbEntity
  8
A-----NOP
100
AcDbLine
 10
2919.227024173224
 20
2504.101004608588
 30
0.0
 11
2916.654371564866
 21
2511.716682602616
 31
0.0
1001
REVIT
1002
{
1070
     1
1000
160550
1002
}
1002
{
1070
     5
1000
142258
1002
}
1002
{
1070
     2
1000
-2000150
1002
}
  0
LINE
  5
204
330
75
100
AcDbEntity
  8
A-----NOP
100
AcDbLine
 10
2916.654371564866
 20
2511.716682602616
 30
0.0
 11
2903.729649265144
 21
2503.108208483292
 31
0.0
1001
REVIT
1002
{
1070
     1
1000
160550
1002
}
1002
{
1070
     5
1000
142258
1002
}
1002
{
1070
     2
1000
-2000150
1002
}
  0
LINE
  5
205
330
75
100
AcDbEntity
  8
A-----NOP
100
AcDbLine
 10
2903.729649265144
 20
2503.108208483292
 30
0.0
 11
2919.227024173224
 21
2504.101004608588
 31
0.0
1001
REVIT
1002
{
1070
     1
1000
160550
1002
}
1002
{
1070
     5
1000
142258
1002
}
1002
{
1070
     2
1000
-2000150
1002
}
  0
HATCH
  5
206
330
75
100
AcDbEntity
  8
A-----NOP
100
AcDbHatch
 10
0.0
 20
0.0
 30
0.0
210
0.0
220
0.0
230
1.0
  2
SOLID
 70
     1
 71
     0
 91
        1
 92
        0
 93
        3
 72
     1
 10
2919.227024173224
 20
2504.101004608588
 11
2916.654371564866
 21
2511.716682602616
 72
     1
 10
2916.654371564866
 20
2511.716682602616
 11
2903.729649265144
 21
2503.108208483292
 72
     1
 10
2903.729649265144
 20
2503.108208483292
 11
2919.227024173224
 21
2504.101004608588
 97
        0
 75
     0
 76
     1
 98
        1
 10
0.0
 20
0.0
450
        0
451
        0
460
0.0
461
0.0
452
        0
462
0.0
453
        0
470

1001
REVIT
1002
{
1070
     1
1000
160550
1002
}
1002
{
1070
     5
1000
142258
1002
}
1002
{
1070
     2
1000
-2000150
1002
}
  0
LINE
  5
207
330
75
100
AcDbEntity
  8
A-----NOP
100
AcDbLine
 10
3068.709738222804
 20
2558.840141545181
 30
0.0
 11
3183.721404542205
 21
2558.840141545238
 31
0.0
1001
REVIT
1002
{
1070
     1
1000
160550
1002
}
1002
{
1070
     5
1000
142258
1002
}
1002
{
1070
     2
1000
-2000150
1002
}
  0
LINE
  5
208
330
75
100
AcDbEntity
  8
A-----NOP
100
AcDbLine
 10
2903.729649265144
 20
2503.108208483292
 30
0.0
 11
3068.709738222804
 21
2558.840141545181
 31
0.0
1001
REVIT
1002
{
1070
     1
1000
160550
1002
}
1002
{
1070
     5
1000
142258
1002
}
1002
{
1070
     2
1000
-2000150
1002
}
  0
INSERT
  5
209
330
75
100
AcDbEntity
  8
A-----NOP
100
AcDbBlockReference
  2
M_Label Annotation - M_Label Annotation_1-142258-Detail 6
 10
3212.419226743743
 20
2564.138987247396
 30
0.0
 41
5.0
 42
5.0
 43
5.0
1001
REVIT
1002
{
1070
     1
1000
160550
1002
}
1002
{
1070
     5
1000
142258
1002
}
1002
{
1070
     2
1000
-2000150
1002
}
  0
LINE
  5
20A
330
75
100
AcDbEntity
  8
A-----NOP
100
AcDbLine
 10
2985.357402624038
 20
2451.390418085147
 30
0.0
 11
2982.497701628067
 21
2458.90302102725
 31
0.0
1001
REVIT
1002
{
1070
     1
1000
160551
1002
}
1002
{
1070
     5
1000
142258
1002
}
1002
{
1070
     2
1000
-2000150
1002
}
  0
LINE
  5
20B
330
75
100
AcDbEntity
  8
A-----NOP
100
AcDbLine
 10
2982.497701628067
 20
2458.90302102725
 30
0.0
 11
2969.908844187543
 21
2449.810444850491
 31
0.0
1001
REVIT
1002
{
1070
     1
1000
160551
1002
}
1002
{
1070
     5
1000
142258
1002
}
1002
{
1070
     2
1000
-2000150
1002
}
  0
LINE
  5
20C
330
75
100
AcDbEntity
  8
A-----NOP
100
AcDbLine
 10
2969.908844187543
 20
2449.810444850491
 30
0.0
 11
2985.357402624038
 21
2451.390418085147
 31
0.0
1001
REVIT
1002
{
1070
     1
1000
160551
1002
}
1002
{
1070
     5
1000
142258
1002
}
1002
{
1070
     2
1000
-2000150
1002
}
  0
HATCH
  5
20D
330
75
100
AcDbEntity
  8
A-----NOP
100
AcDbHatch
 10
0.0
 20
0.0
 30
0.0
210
0.0
220
0.0
230
1.0
  2
SOLID
 70
     1
 71
     0
 91
        1
 92
        0
 93
        3
 72
     1
 10
2985.357402624038
 20
2451.390418085147
 11
2982.497701628067
 21
2458.90302102725
 72
     1
 10
2982.497701628067
 20
2458.90302102725
 11
2969.908844187543
 21
2449.810444850491
 72
     1
 10
2969.908844187543
 20
2449.810444850491
 11
2985.357402624038
 21
2451.390418085147
 97
        0
 75
     0
 76
     1
 98
        1
 10
0.0
 20
0.0
450
        0
451
        0
460
0.0
461
0.0
452
        0
462
0.0
453
        0
470

1001
REVIT
1002
{
1070
     1
1000
160551
1002
}
1002
{
1070
     5
1000
142258
1002
}
1002
{
1070
     2
1000
-2000150
1002
}
  0
LINE
  5
20E
330
75
100
AcDbEntity
  8
A-----NOP
100
AcDbLine
 10
3056.373691614673
 20
2482.723619180257
 30
0.0
 11
3238.721404542204
 21
2482.723619180349
 31
0.0
1001
REVIT
1002
{
1070
     1
1000
160551
1002
}
1002
{
1070
     5
1000
142258
1002
}
1002
{
1070
     2
1000
-2000150
1002
}
  0
LINE
  5
20F
330
75
100
AcDbEntity
  8
A-----NOP
100
AcDbLine
 10
2969.908844187543
 20
2449.810444850491
 30
0.0
 11
3056.373691614673
 21
2482.723619180257
 31
0.0
1001
REVIT
1002
{
1070
     1
1000
160551
1002
}
1002
{
1070
     5
1000
142258
1002
}
1002
{
1070
     2
1000
-2000150
1002
}
  0
INSERT
  5
210
330
75
100
AcDbEntity
  8
A-----NOP
100
AcDbBlockReference
  2
M_Label Annotation - M_Label Annotation_1-142258-Detail 6
 10
3267.419226743743
 20
2488.022464882507
 30
0.0
 41
5.0
 42
5.0
 43
5.0
1001
REVIT
1002
{
1070
     1
1000
160551
1002
}
1002
{
1070
     5
1000
142258
1002
}
1002
{
1070
     2
1000
-2000150
1002
}
  0
LINE
  5
211
330
75
100
AcDbEntity
  8
A-----NOP
100
AcDbLine
 10
3093.209320880935
 20
2391.299577381396
 30
0.0
 11
3090.868810785927
 21
2398.989772778601
 31
0.0
1001
REVIT
1002
{
1070
     1
1000
160552
1002
}
1002
{
1070
     5
1000
142258
1002
}
1002
{
1070
     2
1000
-2000150
1002
}
  0
LINE
  5
212
330
75
100
AcDbEntity
  8
A-----NOP
100
AcDbLine
 10
3090.868810785927
 20
2398.989772778601
 30
0.0
 11
3077.688965862179
 21
2390.777223784898
 31
0.0
1001
REVIT
1002
{
1070
     1
1000
160552
1002
}
1002
{
1070
     5
1000
142258
1002
}
1002
{
1070
     2
1000
-2000150
1002
}
  0
LINE
  5
213
330
75
100
AcDbEntity
  8
A-----NOP
100
AcDbLine
 10
3077.688965862179
 20
2390.777223784898
 30
0.0
 11
3093.209320880935
 21
2391.299577381396
 31
0.0
1001
REVIT
1002
{
1070
     1
1000
160552
1002
}
1002
{
1070
     5
1000
142258
1002
}
1002
{
1070
     2
1000
-2000150
1002
}
  0
HATCH
  5
214
330
75
100
AcDbEntity
  8
A-----NOP
100
AcDbHatch
 10
0.0
 20
0.0
 30
0.0
210
0.0
220
0.0
230
1.0
  2
SOLID
 70
     1
 71
     0
 91
        1
 92
        0
 93
        3
 72
     1
 10
3093.209320880935
 20
2391.299577381396
 11
3090.868810785927
 21
2398.989772778601
 72
     1
 10
3090.868810785927
 20
2398.989772778601
 11
3077.688965862179
 21
2390.777223784898
 72
     1
 10
3077.688965862179
 20
2390.777223784898
 11
3093.209320880935
 21
2391.299577381396
 97
        0
 75
     0
 76
     1
 98
        1
 10
0.0
 20
0.0
450
        0
451
        0
460
0.0
461
0.0
452
        0
462
0.0
453
        0
470

1001
REVIT
1002
{
1070
     1
1000
160552
1002
}
1002
{
1070
     5
1000
142258
1002
}
1002
{
1070
     2
1000
-2000150
1002
}
  0
LINE
  5
215
330
75
100
AcDbEntity
  8
A-----NOP
100
AcDbLine
 10
3145.658896817796
 20
2411.463864545217
 30
0.0
 11
3240.172792654266
 21
2411.463864545217
 31
0.0
1001
REVIT
1002
{
1070
     1
1000
160552
1002
}
1002
{
1070
     5
1000
142258
1002
}
1002
{
1070
     2
1000
-2000150
1002
}
  0
LINE
  5
216
330
75
100
AcDbEntity
  8
A-----NOP
100
AcDbLine
 10
3077.688965862179
 20
2390.777223784898
 30
0.0
 11
3145.658896817796
 21
2411.463864545217
 31
0.0
1001
REVIT
1002
{
1070
     1
1000
160552
1002
}
1002
{
1070
     5
1000
142258
1002
}
1002
{
1070
     2
1000
-2000150
1002
}
  0
INSERT
  5
217
330
75
100
AcDbEntity
  8
A-----NOP
100
AcDbBlockReference
  2
M_Label Annotation - M_Label Annotation_1-142258-Detail 6
 10
3268.870614855803
 20
2416.762710247374
 30
0.0
 41
5.0
 42
5.0
 43
5.0
1001
REVIT
1002
{
1070
     1
1000
160552
1002
}
1002
{
1070
     5
1000
142258
1002
}
1002
{
1070
     2
1000
-2000150
1002
}
  0
MTEXT
  5
218
330
75
100
AcDbEntity
  8
A-----TEP
 62
     7
100
AcDbMText
 10
3248.27527484038
 20
2317.787222421022
 30
0.0
 40
12.29416167664671
 41
143.1
 46
0.0
 71
     1
 72
     1
  1
\fArial|b0|i0|c0|p34|;AIR VENT GAP
 73
     2
 44
0.938531787846856
1001
REVIT
1002
{
1070
     1
1000
160554
1002
}
1002
{
1070
     5
1000
1631
1002
}
1002
{
1070
     2
1000
-2000059
1002
}
1002
{
1070
     3
1000
1632
1002
}
  0
LINE
  5
219
330
75
100
AcDbEntity
  8
A-----NOP
100
AcDbLine
 10
2750.051684874734
 20
2497.645042210678
 30
0.0
 11
2753.5873984071
 21
2504.864171144912
 31
0.0
1001
REVIT
1002
{
1070
     1
1000
160555
1002
}
1002
{
1070
     5
1000
142258
1002
}
1002
{
1070
     2
1000
-2000150
1002
}
  0
LINE
  5
21A
330
75
100
AcDbEntity
  8
A-----NOP
100
AcDbLine
 10
2753.5873984071
 20
2504.864171144912
 30
0.0
 11
2738.348463656442
 21
2507.852337949693
 31
0.0
1001
REVIT
1002
{
1070
     1
1000
160555
1002
}
1002
{
1070
     5
1000
142258
1002
}
1002
{
1070
     2
1000
-2000150
1002
}
  0
LINE
  5
21B
330
75
100
AcDbEntity
  8
A-----NOP
100
AcDbLine
 10
2738.348463656442
 20
2507.852337949693
 30
0.0
 11
2750.051684874734
 21
2497.645042210678
 31
0.0
1001
REVIT
1002
{
1070
     1
1000
160555
1002
}
1002
{
1070
     5
1000
142258
1002
}
1002
{
1070
     2
1000
-2000150
1002
}
  0
HATCH
  5
21C
330
75
100
AcDbEntity
  8
A-----NOP
100
AcDbHatch
 10
0.0
 20
0.0
 30
0.0
210
0.0
220
0.0
230
1.0
  2
SOLID
 70
     1
 71
     0
 91
        1
 92
        0
 93
        3
 72
     1
 10
2750.051684874734
 20
2497.645042210678
 11
2753.5873984071
 21
2504.864171144912
 72
     1
 10
2753.5873984071
 20
2504.864171144912
 11
2738.348463656442
 21
2507.852337949693
 72
     1
 10
2738.348463656442
 20
2507.852337949693
 11
2750.051684874734
 21
2497.645042210678
 97
        0
 75
     0
 76
     1
 98
        1
 10
0.0
 20
0.0
450
        0
451
        0
460
0.0
461
0.0
452
        0
462
0.0
453
        0
470

1001
REVIT
1002
{
1070
     1
1000
160555
1002
}
1002
{
1070
     5
1000
142258
1002
}
1002
{
1070
     2
1000
-2000150
1002
}
  0
LINE
  5
21D
330
75
100
AcDbEntity
  8
A-----NOP
100
AcDbLine
 10
3145.658896817796
 20
2308.363864544949
 30
0.0
 11
3239.746408758415
 21
2308.363864545006
 31
0.0
1001
REVIT
1002
{
1070
     1
1000
160555
1002
}
1002
{
1070
     5
1000
142258
1002
}
1002
{
1070
     2
1000
-2000150
1002
}
  0
LINE
  5
21E
330
75
100
AcDbEntity
  8
A-----NOP
100
AcDbLine
 10
2738.348463656442
 20
2507.852337949693
 30
0.0
 11
3145.658896817796
 21
2308.363864544949
 31
0.0
1001
REVIT
1002
{
1070
     1
1000
160555
1002
}
1002
{
1070
     5
1000
142258
1002
}
1002
{
1070
     2
1000
-2000150
1002
}
  0
INSERT
  5
21F
330
75
100
AcDbEntity
  8
A-----NOP
100
AcDbBlockReference
  2
M_Label Annotation - M_Label Annotation_1-142258-Detail 6
 10
3268.444230959953
 20
2313.662710247164
 30
0.0
 41
5.0
 42
5.0
 43
5.0
1001
REVIT
1002
{
1070
     1
1000
160555
1002
}
1002
{
1070
     5
1000
142258
1002
}
1002
{
1070
     2
1000
-2000150
1002
}
  0
MTEXT
  5
220
330
75
100
AcDbEntity
  8
A-----TEP
 62
     7
100
AcDbMText
 10
3195.775274840388
 20
2587.329061554989
 30
0.0
 40
12.29416167664671
 41
292.65
 46
0.0
 71
     1
 72
     1
  1
\fArial|b0|i0|c0|p34|;SELECTED OWENS CORNING\PASPHALT SHINGLES
 73
     2
 44
0.938531787846856
1001
REVIT
1002
{
1070
     1
1000
160601
1002
}
1002
{
1070
     5
1000
1631
1002
}
1002
{
1070
     2
1000
-2000059
1002
}
1002
{
1070
     3
1000
1632
1002
}
  0
INSERT
  5
253
330
71
100
AcDbEntity
 67
     1
  8
G-----TTP
100
AcDbBlockReference
  2
A4 SPS - A4 sps_0-163380-RIDGE-CROSS SECTION
 10
0.0
 20
0.0
 30
0.0
1001
REVIT
1002
{
1070
     1
1000
164757
1002
}
1002
{
1070
     5
1000
163380
1002
}
1002
{
1070
     2
1000
-2000280
1002
}
  0
MTEXT
  5
254
330
71
100
AcDbEntity
 67
     1
  8
G-----TTP
100
AcDbMText
 10
290.2137418420322
 20
93.41593409203204
 30
0.0
 40
1.721182634730538
 41
6.383685842232174
 46
0.0
 71
     3
 72
     1
  1
\fArial|b0|i0|c0|p34|; 1 : 5
 73
     2
 44
0.9385317878468564
1001
REVIT
1002
{
1070
     1
1000
164757
1002
}
1002
{
1070
     5
1000
163380
1002
}
1002
{
1070
     2
1000
-2000059
1002
}
1002
{
1070
     3
1000
165231
1002
}
  0
MTEXT
  5
255
330
71
100
AcDbEntity
 67
     1
  8
G-----TTP
100
AcDbMText
 10
216.8973466727152
 20
111.2275978795843
 30
0.0
 40
2.95059880239521
 41
57.70799999999999
 46
0.0
 71
     1
 72
     1
  1
\fArial|b0|i0|c0|p34|;RIDGE-CROSS SECTION
 73
     2
 44
0.9385317878468562
1001
REVIT
1002
{
1070
     1
1000
164757
1002
}
1002
{
1070
     5
1000
163380
1002
}
1002
{
1070
     2
1000
-2000059
1002
}
1002
{
1070
     3
1000
165199
1002
}
  0
MTEXT
  5
256
330
71
100
AcDbEntity
 67
     1
  8
G-----TTP
100
AcDbMText
 10
273.1795488079913
 20
101.1312212254722
 30
0.0
 40
2.95059880239521
 41
8.208
 46
0.0
 71
     2
 72
     1
  1
\fArial|b0|i0|c0|p34|;006
 73
     2
 44
0.9385317878468562
1001
REVIT
1002
{
1070
     1
1000
164757
1002
}
1002
{
1070
     5
1000
163380
1002
}
1002
{
1070
     2
1000
-2000059
1002
}
1002
{
1070
     3
1000
165199
1002
}
  0
VIEWPORT
  5
257
330
71
100
AcDbEntity
 67
     1
  8
A-----NPP
  6
Continuous
100
AcDbViewport
 10
160.5175689487114
 20
214.0215676777661
 30
0.0
 40
302.3147624669618
 41
155.0112924475419
 68
    -1
 69
     2
 12
2773.604951352815
 22
2430.688663861259
 13
0.0
 23
0.0
 14
0.0
 24
0.0
 15
0.0
 25
0.0
 16
0.0
 26
0.0
 36
1.0
 17
0.0
 27
0.0
 37
0.0
 42
0.0
 43
0.0
 44
0.0
 45
775.0564622377098
 50
0.0
 51
0.0
 72
   100
 90
    32768
  1

281
     0
 71
     1
 74
     1
110
0.0
120
0.0
130
0.0
111
1.0
121
0.0
131
0.0
112
0.0
122
1.0
132
0.0
 79
     0
146
0.0
170
     0
 61
     5
292
     1
282
     1
141
0.0
142
0.0
 63
   250
421
  3355443
  0
VIEWPORT
  5
259
330
71
100
AcDbEntity
 67
     1
  8
0
100
AcDbViewport
 10
6.0
 20
4.5
 30
0.0
 40
12.0
 41
9.0
 68
    -1
 69
     1
 12
6.0
 22
4.5
 13
0.0
 23
0.0
 14
0.0
 24
0.0
 15
0.0
 25
0.0
 16
0.0
 26
0.0
 36
1.0
 17
0.0
 27
0.0
 37
0.0
 42
50.0
 43
0.0
 44
0.0
 45
12.0
 50
0.0
 51
0.0
 72
   100
 90
    32800
  1

281
     0
 71
     1
 74
     1
110
0.0
120
0.0
130
0.0
111
1.0
121
0.0
131
0.0
112
0.0
122
1.0
132
0.0
 79
     0
146
0.0
170
     0
 61
     5
292
     1
282
     1
141
0.0
142
0.0
 63
   250
421
  3355443
  0
ENDSEC
  0
SECTION
  2
OBJECTS
  0
DICTIONARY
  5
C
330
0
100
AcDbDictionary
281
     1
  3
ACAD_COLOR
350
6B
  3
ACAD_GROUP
350
D
  3
ACAD_IMAGE_DICT
350
81
  3
ACAD_LAYOUT
350
6A
  3
ACAD_MATERIAL
350
10
  3
ACAD_MLEADERSTYLE
350
6E
  3
ACAD_MLINESTYLE
350
67
  3
ACAD_PLOTSETTINGS
350
69
  3
ACAD_PLOTSTYLENAME
350
E
  3
ACAD_SCALELIST
350
3A
  3
ACAD_TABLESTYLE
350
6C
  3
ACAD_VISUALSTYLE
350
29
  3
ACDB_RECOMPOSE_DATA
350
26B
  3
AcDbVariableDictionary
350
265
  3
REVIT_DICTIONARY
350
25C
  0
DICTIONARY
  5
260
330
75
100
AcDbDictionary
280
     1
281
     1
  3
ACAD_SORTENTS
360
261
  0
DICTIONARY
  5
6B
102
{ACAD_REACTORS
330
C
102
}
330
C
100
AcDbDictionary
281
     1
  0
DICTIONARY
  5
D
102
{ACAD_REACTORS
330
C
102
}
330
C
100
AcDbDictionary
281
     1
  0
DICTIONARY
  5
81
102
{ACAD_REACTORS
330
C
102
}
330
C
100
AcDbDictionary
281
     1
  3
SPSA-rvt-SPSA-rvt-SPSBanner-165453-166201
350
82
  3
SPSA-rvt-SPSBanner-165453
350
223
  0
DICTIONARY
  5
6A
102
{ACAD_REACTORS
330
C
102
}
330
C
100
AcDbDictionary
281
     1
  3
Layout1
350
74
  3
Layout2
350
7C
  3
Model
350
78
  0
DICTIONARY
  5
10
102
{ACAD_REACTORS
330
C
102
}
330
C
100
AcDbDictionary
281
     1
  3
ByBlock
350
19
  3
ByLayer
350
11
  3
Global
350
21
  0
DICTIONARY
  5
6E
102
{ACAD_REACTORS
330
C
102
}
330
C
100
AcDbDictionary
281
     1
  3
Standard
350
6F
  0
DICTIONARY
  5
67
102
{ACAD_REACTORS
330
C
102
}
330
C
100
AcDbDictionary
281
     1
  3
Standard
350
68
  0
DICTIONARY
  5
69
102
{ACAD_REACTORS
330
C
102
}
330
C
100
AcDbDictionary
281
     1
  0
ACDBDICTIONARYWDFLT
  5
E
102
{ACAD_REACTORS
330
C
102
}
330
C
100
AcDbDictionary
281
     1
  3
Normal
350
F
100
AcDbDictionaryWithDefault
340
F
  0
DICTIONARY
  5
3A
102
{ACAD_REACTORS
330
C
102
}
330
C
100
AcDbDictionary
281
     1
  3
A0
350
3B
  3
A1
350
3C
  3
A2
350
3D
  3
A3
350
3E
  3
A4
350
3F
  3
A5
350
40
  3
A6
350
41
  3
A7
350
42
  3
A8
350
43
  3
A9
350
44
  3
B0
350
45
  3
B1
350
46
  3
B2
350
47
  3
B3
350
48
  3
B4
350
49
  3
B5
350
4A
  3
B6
350
4B
  3
B7
350
4C
  3
B8
350
4D
  3
B9
350
4E
  3
C0
350
4F
  3
C1
350
50
  3
C2
350
51
  3
C3
350
52
  3
C4
350
53
  3
C5
350
54
  3
C6
350
55
  3
C7
350
56
  3
C8
350
57
  3
C9
350
58
  3
D0
350
59
  3
D1
350
5A
  3
D2
350
5B
  0
DICTIONARY
  5
6C
102
{ACAD_REACTORS
330
C
102
}
330
C
100
AcDbDictionary
281
     1
  3
Standard
350
6D
  0
DICTIONARY
  5
29
102
{ACAD_REACTORS
330
C
102
}
330
C
100
AcDbDictionary
281
     1
  3
2dWireframe
350
2F
  3
3D Hidden
350
31
  3
3dWireframe
350
30
  3
Basic
350
2E
  3
Brighten
350
35
  3
ColorChange
350
39
  3
Conceptual
350
32
  3
Dim
350
34
  3
Facepattern
350
38
  3
Flat
350
2A
  3
FlatWithEdges
350
2B
  3
Gouraud
350
2C
  3
GouraudWithEdges
350
2D
  3
Linepattern
350
37
  3
Realistic
350
33
  3
Thicken
350
36
  0
XRECORD
  5
26B
102
{ACAD_REACTORS
330
C
102
}
330
C
100
AcDbXrecord
280
     1
 90
        1
330
6D
  0
DICTIONARY
  5
265
102
{ACAD_REACTORS
330
C
102
}
330
C
100
AcDbDictionary
281
     1
  3
CANNOSCALE
350
268
  3
CMLEADERSTYLE
350
267
  3
CTABLESTYLE
350
266
  0
DICTIONARY
  5
25C
102
{ACAD_REACTORS
330
C
102
}
330
C
100
AcDbDictionary
281
     1
  3
REVIT_CATEGORY_MAPPING
350
25E
  3
REVIT_SUB_CATEGORY_MAPPING
350
25F
  3
REVIT_TYPE_MAPPING
350
25D
  0
SORTENTSTABLE
  5
261
102
{ACAD_REACTORS
330
260
102
}
330
260
100
AcDbSortentsTable
330
75
  0
IMAGEDEF
  5
82
102
{ACAD_REACTORS
330
81
102
}
330
81
100
AcDbRasterImageDef
 90
        0
  1
C:\Documents and Settings\Edwards\Desktop\south pacific S\SPS 6\SPSA-rvt-SPSA-rvt-SPSBanner-165453-166201.jpg
 10
1217.0
 20
288.0
 11
0.2645833333333333
 21
0.2645833333333333
280
     1
281
     5
  0
IMAGEDEF
  5
223
102
{ACAD_REACTORS
330
81
102
}
330
81
100
AcDbRasterImageDef
 90
        0
  1
C:\Documents and Settings\Edwards\Desktop\south pacific S\SPS 6\SPSA-rvt-SPSBanner-165453.jpg
 10
1217.0
 20
288.0
 11
0.2645833333333333
 21
0.2645833333333333
280
     1
281
     5
  0
LAYOUT
  5
74
102
{ACAD_REACTORS
330
6A
102
}
330
6A
100
AcDbPlotSettings
  1

  2

  4

  6

 40
0.0
 41
0.0
 42
0.0
 43
0.0
 44
0.0
 45
0.0
 46
0.0
 47
0.0
 48
0.0
 49
0.0
140
0.0
141
0.0
142
1.0
143
1.0
 70
   688
 72
     0
 73
     0
 74
     5
  7

 75
    16
147
1.0
 76
     0
 77
     2
 78
   300
148
0.0
149
0.0
100
AcDbLayout
  1
Layout1
 70
     1
 71
     1
 10
0.0
 20
0.0
 11
12.0
 21
9.0
 12
0.0
 22
0.0
 32
0.0
 14
0.0
 24
0.0
 34
0.0
 15
0.0
 25
0.0
 35
0.0
146
0.0
 13
0.0
 23
0.0
 33
0.0
 16
1.0
 26
0.0
 36
0.0
 17
0.0
 27
1.0
 37
0.0
 76
     0
330
71
  0
LAYOUT
  5
7C
102
{ACAD_REACTORS
330
6A
102
}
330
6A
100
AcDbPlotSettings
  1

  2

  4

  6

 40
0.0
 41
0.0
 42
0.0
 43
0.0
 44
0.0
 45
0.0
 46
0.0
 47
0.0
 48
0.0
 49
0.0
140
0.0
141
0.0
142
1.0
143
1.0
 70
   688
 72
     0
 73
     0
 74
     5
  7

 75
    16
147
1.0
 76
     0
 77
     2
 78
   300
148
0.0
149
0.0
100
AcDbLayout
  1
Layout2
 70
     1
 71
     2
 10
0.0
 20
0.0
 11
12.0
 21
9.0
 12
0.0
 22
0.0
 32
0.0
 14
0.0
 24
0.0
 34
0.0
 15
0.0
 25
0.0
 35
0.0
146
0.0
 13
0.0
 23
0.0
 33
0.0
 16
1.0
 26
0.0
 36
0.0
 17
0.0
 27
1.0
 37
0.0
 76
     0
330
79
  0
LAYOUT
  5
78
102
{ACAD_REACTORS
330
6A
102
}
330
6A
100
AcDbPlotSettings
  1

  2

  4

  6

 40
0.0
 41
0.0
 42
0.0
 43
0.0
 44
0.0
 45
0.0
 46
0.0
 47
0.0
 48
0.0
 49
0.0
140
0.0
141
0.0
142
1.0
143
1.0
 70
  1712
 72
     0
 73
     0
 74
     0
  7

 75
     0
147
1.0
 76
     0
 77
     2
 78
   300
148
0.0
149
0.0
100
AcDbLayout
  1
Model
 70
     1
 71
     0
 10
0.0
 20
0.0
 11
12.0
 21
9.0
 12
0.0
 22
0.0
 32
0.0
 14
0.0
 24
0.0
 34
0.0
 15
0.0
 25
0.0
 35
0.0
146
0.0
 13
0.0
 23
0.0
 33
0.0
 16
1.0
 26
0.0
 36
0.0
 17
0.0
 27
1.0
 37
0.0
 76
     0
330
75
  0
MATERIAL
  5
19
102
{ACAD_XDICTIONARY
360
1A
102
}
102
{ACAD_REACTORS
330
10
102
}
330
10
100
AcDbMaterial
  1
ByBlock
 72
     0
 43
0.0208333333333333
 43
0.0
 43
0.0
 43
0.0
 43
0.0
 43
0.0208333333333333
 43
0.0
 43
0.0
 43
0.0
 43
0.0
 43
1.0
 43
0.0
 43
0.0
 43
0.0
 43
0.0
 43
1.0
 77
     0
 47
0.0208333333333333
 47
0.0
 47
0.0
 47
0.0
 47
0.0
 47
0.0208333333333333
 47
0.0
 47
0.0
 47
0.0
 47
0.0
 47
1.0
 47
0.0
 47
0.0
 47
0.0
 47
0.0
 47
1.0
171
     0
 49
0.0208333333333333
 49
0.0
 49
0.0
 49
0.0
 49
0.0
 49
0.0208333333333333
 49
0.0
 49
0.0
 49
0.0
 49
0.0
 49
1.0
 49
0.0
 49
0.0
 49
0.0
 49
0.0
 49
1.0
175
     0
142
0.0208333333333333
142
0.0
142
0.0
142
0.0
142
0.0
142
0.0208333333333333
142
0.0
142
0.0
142
0.0
142
0.0
142
1.0
142
0.0
142
0.0
142
0.0
142
0.0
142
1.0
179
     0
144
0.0208333333333333
144
0.0
144
0.0
144
0.0
144
0.0
144
0.0208333333333333
144
0.0
144
0.0
144
0.0
144
0.0
144
1.0
144
0.0
144
0.0
144
0.0
144
0.0
144
1.0
147
0.0208333333333333
147
0.0
147
0.0
147
0.0
147
0.0
147
0.0208333333333333
147
0.0
147
0.0
147
0.0
147
0.0
147
1.0
147
0.0
147
0.0
147
0.0
147
0.0
147
1.0
  0
MATERIAL
  5
11
102
{ACAD_XDICTIONARY
360
12
102
}
102
{ACAD_REACTORS
330
10
102
}
330
10
100
AcDbMaterial
  1
ByLayer
 72
     0
 43
0.0208333333333333
 43
0.0
 43
0.0
 43
0.0
 43
0.0
 43
0.0208333333333333
 43
0.0
 43
0.0
 43
0.0
 43
0.0
 43
1.0
 43
0.0
 43
0.0
 43
0.0
 43
0.0
 43
1.0
 77
     0
 47
0.0208333333333333
 47
0.0
 47
0.0
 47
0.0
 47
0.0
 47
0.0208333333333333
 47
0.0
 47
0.0
 47
0.0
 47
0.0
 47
1.0
 47
0.0
 47
0.0
 47
0.0
 47
0.0
 47
1.0
171
     0
 49
0.0208333333333333
 49
0.0
 49
0.0
 49
0.0
 49
0.0
 49
0.0208333333333333
 49
0.0
 49
0.0
 49
0.0
 49
0.0
 49
1.0
 49
0.0
 49
0.0
 49
0.0
 49
0.0
 49
1.0
175
     0
142
0.0208333333333333
142
0.0
142
0.0
142
0.0
142
0.0
142
0.0208333333333333
142
0.0
142
0.0
142
0.0
142
0.0
142
1.0
142
0.0
142
0.0
142
0.0
142
0.0
142
1.0
179
     0
144
0.0208333333333333
144
0.0
144
0.0
144
0.0
144
0.0
144
0.0208333333333333
144
0.0
144
0.0
144
0.0
144
0.0
144
1.0
144
0.0
144
0.0
144
0.0
144
0.0
144
1.0
147
0.0208333333333333
147
0.0
147
0.0
147
0.0
147
0.0
147
0.0208333333333333
147
0.0
147
0.0
147
0.0
147
0.0
147
1.0
147
0.0
147
0.0
147
0.0
147
0.0
147
1.0
  0
MATERIAL
  5
21
102
{ACAD_XDICTIONARY
360
22
102
}
102
{ACAD_REACTORS
330
10
102
}
330
10
100
AcDbMaterial
  1
Global
 72
     0
 43
0.0208333333333333
 43
0.0
 43
0.0
 43
0.0
 43
0.0
 43
0.0208333333333333
 43
0.0
 43
0.0
 43
0.0
 43
0.0
 43
1.0
 43
0.0
 43
0.0
 43
0.0
 43
0.0
 43
1.0
 77
     0
 47
0.0208333333333333
 47
0.0
 47
0.0
 47
0.0
 47
0.0
 47
0.0208333333333333
 47
0.0
 47
0.0
 47
0.0
 47
0.0
 47
1.0
 47
0.0
 47
0.0
 47
0.0
 47
0.0
 47
1.0
171
     0
 49
0.0208333333333333
 49
0.0
 49
0.0
 49
0.0
 49
0.0
 49
0.0208333333333333
 49
0.0
 49
0.0
 49
0.0
 49
0.0
 49
1.0
 49
0.0
 49
0.0
 49
0.0
 49
0.0
 49
1.0
175
     0
142
0.0208333333333333
142
0.0
142
0.0
142
0.0
142
0.0
142
0.0208333333333333
142
0.0
142
0.0
142
0.0
142
0.0
142
1.0
142
0.0
142
0.0
142
0.0
142
0.0
142
1.0
179
     0
144
0.0208333333333333
144
0.0
144
0.0
144
0.0
144
0.0
144
0.0208333333333333
144
0.0
144
0.0
144
0.0
144
0.0
144
1.0
144
0.0
144
0.0
144
0.0
144
0.0
144
1.0
147
0.0208333333333333
147
0.0
147
0.0
147
0.0
147
0.0
147
0.0208333333333333
147
0.0
147
0.0
147
0.0
147
0.0
147
1.0
147
0.0
147
0.0
147
0.0
147
0.0
147
1.0
  0
MLEADERSTYLE
  5
6F
102
{ACAD_REACTORS
330
6E
102
}
330
6E
100
AcDbMLeaderStyle
170
     2
171
     1
172
     0
 90
        2
 40
0.0
 41
0.0
173
     1
 91
-1056964608
340
63
 92
       -2
290
     1
 42
0.09
291
     1
 43
0.36
  3
Standard
 44
0.18
300

342
5D
174
     1
178
     6
175
     1
176
     0
 93
-1056964608
 45
0.18
292
     0
297
     0
 46
0.18
 94
-1056964608
 47
1.0
 49
1.0
140
1.0
293
     1
141
0.0
294
     1
177
     0
142
1.0
295
     1
296
     0
143
0.125
1001
ACAD_MLEADERVER
1070
     2
  0
MLINESTYLE
  5
68
102
{ACAD_REACTORS
330
67
102
}
330
67
100
AcDbMlineStyle
  2
STANDARD
 70
     0
  3

 62
   256
 51
90.0
 52
90.0
 71
     2
 49
0.5
 62
   256
  6
BYLAYER
 49
-0.5
 62
   256
  6
BYLAYER
  0
ACDBPLACEHOLDER
  5
F
102
{ACAD_REACTORS
330
E
102
}
330
E
  0
SCALE
  5
3B
102
{ACAD_REACTORS
330
3A
102
}
330
3A
100
AcDbScale
 70
     0
300
1:1
140
1.0
141
1.0
290
     1
  0
SCALE
  5
3C
102
{ACAD_REACTORS
330
3A
102
}
330
3A
100
AcDbScale
 70
     0
300
1:2
140
1.0
141
2.0
290
     0
  0
SCALE
  5
3D
102
{ACAD_REACTORS
330
3A
102
}
330
3A
100
AcDbScale
 70
     0
300
1:4
140
1.0
141
4.0
290
     0
  0
SCALE
  5
3E
102
{ACAD_REACTORS
330
3A
102
}
330
3A
100
AcDbScale
 70
     0
300
1:5
140
1.0
141
5.0
290
     0
  0
SCALE
  5
3F
102
{ACAD_REACTORS
330
3A
102
}
330
3A
100
AcDbScale
 70
     0
300
1:8
140
1.0
141
8.0
290
     0
  0
SCALE
  5
40
102
{ACAD_REACTORS
330
3A
102
}
330
3A
100
AcDbScale
 70
     0
300
1:10
140
1.0
141
10.0
290
     0
  0
SCALE
  5
41
102
{ACAD_REACTORS
330
3A
102
}
330
3A
100
AcDbScale
 70
     0
300
1:16
140
1.0
141
16.0
290
     0
  0
SCALE
  5
42
102
{ACAD_REACTORS
330
3A
102
}
330
3A
100
AcDbScale
 70
     0
300
1:20
140
1.0
141
20.0
290
     0
  0
SCALE
  5
43
102
{ACAD_REACTORS
330
3A
102
}
330
3A
100
AcDbScale
 70
     0
300
1:30
140
1.0
141
30.0
290
     0
  0
SCALE
  5
44
102
{ACAD_REACTORS
330
3A
102
}
330
3A
100
AcDbScale
 70
     0
300
1:40
140
1.0
141
40.0
290
     0
  0
SCALE
  5
45
102
{ACAD_REACTORS
330
3A
102
}
330
3A
100
AcDbScale
 70
     0
300
1:50
140
1.0
141
50.0
290
     0
  0
SCALE
  5
46
102
{ACAD_REACTORS
330
3A
102
}
330
3A
100
AcDbScale
 70
     0
300
1:100
140
1.0
141
100.0
290
     0
  0
SCALE
  5
47
102
{ACAD_REACTORS
330
3A
102
}
330
3A
100
AcDbScale
 70
     0
300
2:1
140
2.0
141
1.0
290
     0
  0
SCALE
  5
48
102
{ACAD_REACTORS
330
3A
102
}
330
3A
100
AcDbScale
 70
     0
300
4:1
140
4.0
141
1.0
290
     0
  0
SCALE
  5
49
102
{ACAD_REACTORS
330
3A
102
}
330
3A
100
AcDbScale
 70
     0
300
8:1
140
8.0
141
1.0
290
     0
  0
SCALE
  5
4A
102
{ACAD_REACTORS
330
3A
102
}
330
3A
100
AcDbScale
 70
     0
300
10:1
140
10.0
141
1.0
290
     0
  0
SCALE
  5
4B
102
{ACAD_REACTORS
330
3A
102
}
330
3A
100
AcDbScale
 70
     0
300
100:1
140
100.0
141
1.0
290
     0
  0
SCALE
  5
4C
102
{ACAD_REACTORS
330
3A
102
}
330
3A
100
AcDbScale
 70
     0
300
1/128" = 1'-0"
140
0.0078125
141
12.0
290
     0
  0
SCALE
  5
4D
102
{ACAD_REACTORS
330
3A
102
}
330
3A
100
AcDbScale
 70
     0
300
1/64" = 1'-0"
140
0.015625
141
12.0
290
     0
  0
SCALE
  5
4E
102
{ACAD_REACTORS
330
3A
102
}
330
3A
100
AcDbScale
 70
     0
300
1/32" = 1'-0"
140
0.03125
141
12.0
290
     0
  0
SCALE
  5
4F
102
{ACAD_REACTORS
330
3A
102
}
330
3A
100
AcDbScale
 70
     0
300
1/16" = 1'-0"
140
0.0625
141
12.0
290
     0
  0
SCALE
  5
50
102
{ACAD_REACTORS
330
3A
102
}
330
3A
100
AcDbScale
 70
     0
300
3/32" = 1'-0"
140
0.09375
141
12.0
290
     0
  0
SCALE
  5
51
102
{ACAD_REACTORS
330
3A
102
}
330
3A
100
AcDbScale
 70
     0
300
1/8" = 1'-0"
140
0.125
141
12.0
290
     0
  0
SCALE
  5
52
102
{ACAD_REACTORS
330
3A
102
}
330
3A
100
AcDbScale
 70
     0
300
3/16" = 1'-0"
140
0.1875
141
12.0
290
     0
  0
SCALE
  5
53
102
{ACAD_REACTORS
330
3A
102
}
330
3A
100
AcDbScale
 70
     0
300
1/4" = 1'-0"
140
0.25
141
12.0
290
     0
  0
SCALE
  5
54
102
{ACAD_REACTORS
330
3A
102
}
330
3A
100
AcDbScale
 70
     0
300
3/8" = 1'-0"
140
0.375
141
12.0
290
     0
  0
SCALE
  5
55
102
{ACAD_REACTORS
330
3A
102
}
330
3A
100
AcDbScale
 70
     0
300
1/2" = 1'-0"
140
0.5
141
12.0
290
     0
  0
SCALE
  5
56
102
{ACAD_REACTORS
330
3A
102
}
330
3A
100
AcDbScale
 70
     0
300
3/4" = 1'-0"
140
0.75
141
12.0
290
     0
  0
SCALE
  5
57
102
{ACAD_REACTORS
330
3A
102
}
330
3A
100
AcDbScale
 70
     0
300
1" = 1'-0"
140
1.0
141
12.0
290
     0
  0
SCALE
  5
58
102
{ACAD_REACTORS
330
3A
102
}
330
3A
100
AcDbScale
 70
     0
300
1-1/2" = 1'-0"
140
1.5
141
12.0
290
     0
  0
SCALE
  5
59
102
{ACAD_REACTORS
330
3A
102
}
330
3A
100
AcDbScale
 70
     0
300
3" = 1'-0"
140
3.0
141
12.0
290
     0
  0
SCALE
  5
5A
102
{ACAD_REACTORS
330
3A
102
}
330
3A
100
AcDbScale
 70
     0
300
6" = 1'-0"
140
6.0
141
12.0
290
     0
  0
SCALE
  5
5B
102
{ACAD_REACTORS
330
3A
102
}
330
3A
100
AcDbScale
 70
     0
300
1'-0" = 1'-0"
140
12.0
141
12.0
290
     0
  0
TABLESTYLE
  5
6D
102
{ACAD_XDICTIONARY
360
269
102
}
102
{ACAD_REACTORS
330
6C
102
}
330
6C
100
AcDbTableStyle
  3
Standard
 70
     0
 71
     0
 40
0.06
 41
0.06
280
     0
281
     0
  7
Standard
140
0.18
170
     2
 62
     0
 63
     7
283
     0
 90
      512
 91
        0
  1

274
    -2
284
     1
 64
     0
275
    -2
285
     1
 65
     0
276
    -2
286
     1
 66
     0
277
    -2
287
     1
 67
     0
278
    -2
288
     1
 68
     0
279
    -2
289
     1
 69
     0
  7
Standard
140
0.25
170
     5
 62
     0
 63
     7
283
     0
 90
      512
 91
        0
  1

274
    -2
284
     1
 64
     0
275
    -2
285
     1
 65
     0
276
    -2
286
     1
 66
     0
277
    -2
287
     1
 67
     0
278
    -2
288
     1
 68
     0
279
    -2
289
     1
 69
     0
  7
Standard
140
0.18
170
     5
 62
     0
 63
     7
283
     0
 90
      512
 91
        0
  1

274
    -2
284
     1
 64
     0
275
    -2
285
     1
 65
     0
276
    -2
286
     1
 66
     0
277
    -2
287
     1
 67
     0
278
    -2
288
     1
 68
     0
279
    -2
289
     1
 69
     0
  0
VISUALSTYLE
  5
2F
102
{ACAD_REACTORS
330
29
102
}
330
29
100
AcDbVisualStyle
  2
2dWireframe
 70
     4
 71
     0
 72
     2
 73
     0
 90
        0
 40
-0.6
 41
-30.0
 62
     5
 63
     7
421
 16777215
 74
     1
 91
        4
 64
     7
 65
   257
 75
     1
175
     1
 42
1.0
 92
        0
 66
   257
 43
1.0
 76
     1
 77
     6
 78
     2
 67
     7
 79
     5
170
     0
171
     0
290
     0
174
     0
 93
        1
 44
0.0
173
     0
291
     0
 45
0.0
  0
VISUALSTYLE
  5
31
102
{ACAD_REACTORS
330
29
102
}
330
29
100
AcDbVisualStyle
  2
3D Hidden
 70
     6
 71
     1
 72
     2
 73
     2
 90
        0
 40
-0.6
 41
-30.0
 62
     5
 63
     7
421
 16777215
 74
     2
 91
        2
 64
     7
 65
   257
 75
     2
175
     1
 42
40.0
 92
        0
 66
   257
 43
1.0
 76
     1
 77
     6
 78
     2
 67
     7
 79
     3
170
     0
171
     0
290
     0
174
     0
 93
        1
 44
0.0
173
     0
291
     0
 45
0.0
  0
VISUALSTYLE
  5
30
102
{ACAD_REACTORS
330
29
102
}
330
29
100
AcDbVisualStyle
  2
3dWireframe
 70
     5
 71
     0
 72
     2
 73
     0
 90
        0
 40
-0.6
 41
-30.0
 62
     5
 63
     7
421
 16777215
 74
     1
 91
        4
 64
     7
 65
   257
 75
     1
175
     1
 42
1.0
 92
        0
 66
   257
 43
1.0
 76
     1
 77
     6
 78
     2
 67
     7
 79
     5
170
     0
171
     0
290
     0
174
     0
 93
        1
 44
0.0
173
     0
291
     0
 45
0.0
  0
VISUALSTYLE
  5
2E
102
{ACAD_REACTORS
330
29
102
}
330
29
100
AcDbVisualStyle
  2
Basic
 70
     7
 71
     1
 72
     0
 73
     1
 90
        0
 40
-0.6
 41
-30.0
 62
     5
 63
     7
421
 16777215
 74
     0
 91
        4
 64
     7
 65
   257
 75
     1
175
     1
 42
1.0
 92
        8
 66
     7
 43
1.0
 76
     1
 77
     6
 78
     2
 67
     7
 79
     5
170
     0
171
     0
290
     0
174
     0
 93
        1
 44
0.0
173
     0
291
     1
 45
0.0
  0
VISUALSTYLE
  5
35
102
{ACAD_REACTORS
330
29
102
}
330
29
100
AcDbVisualStyle
  2
Brighten
 70
    12
 71
     2
 72
     2
 73
     0
 90
        0
 40
-0.6
 41
-30.0
 62
     5
 63
     7
421
 16777215
 74
     1
 91
        4
 64
     7
 65
   257
 75
     1
175
     1
 42
1.0
 92
        8
 66
     7
 43
1.0
 76
     1
 77
     6
 78
     2
 67
     7
 79
     5
170
     0
171
     0
290
     0
174
     0
 93
        1
 44
50.0
173
     0
291
     1
 45
0.0
  0
VISUALSTYLE
  5
39
102
{ACAD_REACTORS
330
29
102
}
330
29
100
AcDbVisualStyle
  2
ColorChange
 70
    16
 71
     2
 72
     2
 73
     3
 90
        0
 40
-0.6
 41
-30.0
 62
     5
 63
     8
421
  8421504
 74
     1
 91
        4
 64
     7
 65
   257
 75
     1
175
     1
 42
1.0
 92
        8
 66
     8
424
  8421504
 43
1.0
 76
     1
 77
     6
 78
     2
 67
     7
 79
     5
170
     0
171
     0
290
     0
174
     0
 93
        1
 44
0.0
173
     0
291
     1
 45
0.0
  0
VISUALSTYLE
  5
32
102
{ACAD_REACTORS
330
29
102
}
330
29
100
AcDbVisualStyle
  2
Conceptual
 70
     9
 71
     3
 72
     2
 73
     0
 90
        0
 40
-0.6
 41
-30.0
 62
     5
 63
     7
421
 16777215
 74
     2
 91
        2
 64
     7
 65
   257
 75
     1
175
     1
 42
40.0
 92
        8
 66
     7
 43
1.0
 76
     1
 77
     6
 78
     2
 67
     7
 79
     3
170
     0
171
     0
290
     0
174
     0
 93
        1
 44
0.0
173
     0
291
     0
 45
0.0
  0
VISUALSTYLE
  5
34
102
{ACAD_REACTORS
330
29
102
}
330
29
100
AcDbVisualStyle
  2
Dim
 70
    11
 71
     2
 72
     2
 73
     0
 90
        0
 40
-0.6
 41
-30.0
 62
     5
 63
     7
421
 16777215
 74
     1
 91
        4
 64
     7
 65
   257
 75
     1
175
     1
 42
1.0
 92
        8
 66
     7
 43
1.0
 76
     1
 77
     6
 78
     2
 67
     7
 79
     5
170
     0
171
     0
290
     0
174
     0
 93
        1
 44
-50.0
173
     0
291
     1
 45
0.0
  0
VISUALSTYLE
  5
38
102
{ACAD_REACTORS
330
29
102
}
330
29
100
AcDbVisualStyle
  2
Facepattern
 70
    15
 71
     2
 72
     2
 73
     0
 90
        0
 40
-0.6
 41
-30.0
 62
     5
 63
     7
421
 16777215
 74
     1
 91
        4
 64
     7
 65
   257
 75
     1
175
     1
 42
1.0
 92
        8
 66
     7
 43
1.0
 76
     1
 77
     6
 78
     2
 67
     7
 79
     5
170
     0
171
     0
290
     0
174
     0
 93
        1
 44
0.0
173
     0
291
     1
 45
0.0
  0
VISUALSTYLE
  5
2A
102
{ACAD_REACTORS
330
29
102
}
330
29
100
AcDbVisualStyle
  2
Flat
 70
     0
 71
     2
 72
     1
 73
     1
 90
        2
 40
-0.6
 41
30.0
 62
     5
 63
     7
421
 16777215
 74
     0
 91
        4
 64
     7
 65
   257
 75
     1
175
     1
 42
1.0
 92
        8
 66
     7
 43
1.0
 76
     1
 77
     6
 78
     2
 67
     7
 79
     5
170
     0
171
     0
290
     0
174
     0
 93
       13
 44
0.0
173
     0
291
     1
 45
0.0
  0
VISUALSTYLE
  5
2B
102
{ACAD_REACTORS
330
29
102
}
330
29
100
AcDbVisualStyle
  2
FlatWithEdges
 70
     1
 71
     2
 72
     1
 73
     1
 90
        2
 40
-0.6
 41
30.0
 62
     5
 63
     7
421
 16777215
 74
     1
 91
        4
 64
     7
 65
   257
 75
     1
175
     1
 42
1.0
 92
        0
 66
   257
 43
1.0
 76
     1
 77
     6
 78
     2
 67
     7
 79
     5
170
     0
171
     0
290
     0
174
     0
 93
       13
 44
0.0
173
     0
291
     1
 45
0.0
  0
VISUALSTYLE
  5
2C
102
{ACAD_REACTORS
330
29
102
}
330
29
100
AcDbVisualStyle
  2
Gouraud
 70
     2
 71
     2
 72
     2
 73
     1
 90
        2
 40
-0.6
 41
30.0
 62
     5
 63
     7
421
 16777215
 74
     0
 91
        4
 64
     7
 65
   257
 75
     1
175
     1
 42
1.0
 92
        0
 66
     7
 43
1.0
 76
     1
 77
     6
 78
     2
 67
     7
 79
     5
170
     0
171
     0
290
     0
174
     0
 93
       13
 44
0.0
173
     0
291
     1
 45
0.0
  0
VISUALSTYLE
  5
2D
102
{ACAD_REACTORS
330
29
102
}
330
29
100
AcDbVisualStyle
  2
GouraudWithEdges
 70
     3
 71
     2
 72
     2
 73
     1
 90
        2
 40
-0.6
 41
30.0
 62
     5
 63
     7
421
 16777215
 74
     1
 91
        4
 64
     7
 65
   257
 75
     1
175
     1
 42
1.0
 92
        0
 66
   257
 43
1.0
 76
     1
 77
     6
 78
     2
 67
     7
 79
     5
170
     0
171
     0
290
     0
174
     0
 93
       13
 44
0.0
173
     0
291
     1
 45
0.0
  0
VISUALSTYLE
  5
37
102
{ACAD_REACTORS
330
29
102
}
330
29
100
AcDbVisualStyle
  2
Linepattern
 70
    14
 71
     2
 72
     2
 73
     0
 90
        0
 40
-0.6
 41
-30.0
 62
     5
 63
     7
421
 16777215
 74
     1
 91
        4
 64
     7
 65
   257
 75
     7
175
     7
 42
1.0
 92
        8
 66
     7
 43
1.0
 76
     1
 77
     6
 78
     2
 67
     7
 79
     5
170
     0
171
     0
290
     0
174
     0
 93
        1
 44
0.0
173
     0
291
     1
 45
0.0
  0
VISUALSTYLE
  5
33
102
{ACAD_REACTORS
330
29
102
}
330
29
100
AcDbVisualStyle
  2
Realistic
 70
     8
 71
     2
 72
     2
 73
     0
 90
        0
 40
-0.6
 41
-30.0
 62
     5
 63
     7
421
 16777215
 74
     1
 91
        0
 64
     7
 65
   257
 75
     1
175
     1
 42
1.0
 92
        8
 66
     8
424
  7895160
 43
1.0
 76
     1
 77
     6
 78
     2
 67
     7
 79
     5
170
     0
171
     0
290
     0
174
     0
 93
       13
 44
0.0
173
     0
291
     0
 45
0.0
  0
VISUALSTYLE
  5
36
102
{ACAD_REACTORS
330
29
102
}
330
29
100
AcDbVisualStyle
  2
Thicken
 70
    13
 71
     2
 72
     2
 73
     0
 90
        0
 40
-0.6
 41
-30.0
 62
     5
 63
     7
421
 16777215
 74
     1
 91
        4
 64
     7
 65
   257
 75
     1
175
     1
 42
1.0
 92
       12
 66
     7
 43
1.0
 76
     1
 77
     6
 78
     2
 67
     7
 79
     5
170
     0
171
     0
290
     0
174
     0
 93
        1
 44
0.0
173
     0
291
     1
 45
0.0
  0
DICTIONARYVAR
  5
268
102
{ACAD_REACTORS
330
265
102
}
330
265
100
DictionaryVariables
280
     0
  1
1:1
  0
DICTIONARYVAR
  5
267
102
{ACAD_REACTORS
330
265
102
}
330
265
100
DictionaryVariables
280
     0
  1
STANDARD
  0
DICTIONARYVAR
  5
266
102
{ACAD_REACTORS
330
265
102
}
330
265
100
DictionaryVariables
280
     0
  1
STANDARD
  0
XRECORD
  5
25E
102
{ACAD_REACTORS
330
25C
102
}
330
25C
100
AcDbXrecord
280
     1
  1
-2000051
  1
Lines
  1
-2000059
  1
Internal Object Styles
  1
-2000150
  1
Generic Annotations
  1
-2000280
  1
Title Blocks
  1
-2000560
  1
Raster Images
  1
-2002000
  1
Detail Items
  0
XRECORD
  5
25F
102
{ACAD_REACTORS
330
25C
102
}
330
25C
100
AcDbXrecord
280
     1
  1
-2000042
  1
Thin Lines
  1
-2000043
  1
Medium Lines
  1
-2000044
  1
Wide Lines
  1
-2000281
  1
Thin Lines
  1
-2000282
  1
Medium Lines
  1
108841
  1
undrl
  1
113602
  1

  1
129614
  1

  1
131133
  1

  1
1349
  1
Medium Lines
  1
1632
  1

  1
1636
  1

  1
165199
  1

  1
165218
  1

  1
165231
  1

  1
165349
  1

  1
165465
  1

  1
25650
  1
Light Lines
  0
XRECORD
  5
25D
102
{ACAD_REACTORS
330
25C
102
}
330
25C
100
AcDbXrecord
280
     1
  1
109593
  1
ply2 20' : ply 20'
  1
113610
  1
tmber 100'50 : tmber 100'50
  1
129817
  1
nail sp : nail sp
  1
140160
  1
nail sp : nail sp
  1
140880
  1
SPS RIDGE VENT : SPS RIDGE VENT
  1
142258
  1
M_Label Annotation : M_Label Annotation
  1
145907
  1
Break Line1 : M_Break Line
  1
146218
  1
Break Line1 : M_Break Line
  1
1631
  1
Text : 2.5mm Arial
  1
163380
  1
A4 SPS : A4 sps
  1
1635
  1
Text : 3.5mm Arial
  1
165804
  1
nail sp : nail sp
  1
166201
  1
Raster image : C:\Documents and Settings\Edwards\Desktop\south pacific S\SPSA-rvt-SPSBanner-165453.jpg
  0
DICTIONARY
  5
1A
330
19
100
AcDbDictionary
280
     1
281
     1
  3
BUMPTILE
360
1C
  3
DIFFUSETILE
360
1B
  3
OPACITYTILE
360
1F
  3
REFLECTIONTILE
360
1E
  3
REFRACTIONTILE
360
20
  3
SPECULARTILE
360
1D
  0
DICTIONARY
  5
12
330
11
100
AcDbDictionary
280
     1
281
     1
  3
BUMPTILE
360
14
  3
DIFFUSETILE
360
13
  3
OPACITYTILE
360
17
  3
REFLECTIONTILE
360
16
  3
REFRACTIONTILE
360
18
  3
SPECULARTILE
360
15
  0
DICTIONARY
  5
22
330
21
100
AcDbDictionary
280
     1
281
     1
  3
BUMPTILE
360
24
  3
DIFFUSETILE
360
23
  3
OPACITYTILE
360
27
  3
REFLECTIONTILE
360
26
  3
REFRACTIONTILE
360
28
  3
SPECULARTILE
360
25
  0
DICTIONARY
  5
269
330
6D
100
AcDbDictionary
280
     1
281
     1
  3
ACAD_ROUNDTRIP_2008_TABLESTYLE_CELLSTYLEMAP
360
26A
  0
XRECORD
  5
1C
102
{ACAD_REACTORS
330
1A
102
}
330
1A
100
AcDbXrecord
280
     1
270
     1
271
     1
  0
XRECORD
  5
1B
102
{ACAD_REACTORS
330
1A
102
}
330
1A
100
AcDbXrecord
280
     1
270
     1
271
     1
  0
XRECORD
  5
1F
102
{ACAD_REACTORS
330
1A
102
}
330
1A
100
AcDbXrecord
280
     1
270
     1
271
     1
  0
XRECORD
  5
1E
102
{ACAD_REACTORS
330
1A
102
}
330
1A
100
AcDbXrecord
280
     1
270
     1
271
     1
  0
XRECORD
  5
20
102
{ACAD_REACTORS
330
1A
102
}
330
1A
100
AcDbXrecord
280
     1
270
     1
271
     1
  0
XRECORD
  5
1D
102
{ACAD_REACTORS
330
1A
102
}
330
1A
100
AcDbXrecord
280
     1
270
     1
271
     1
  0
XRECORD
  5
14
102
{ACAD_REACTORS
330
12
102
}
330
12
100
AcDbXrecord
280
     1
270
     1
271
     1
  0
XRECORD
  5
13
102
{ACAD_REACTORS
330
12
102
}
330
12
100
AcDbXrecord
280
     1
270
     1
271
     1
  0
XRECORD
  5
17
102
{ACAD_REACTORS
330
12
102
}
330
12
100
AcDbXrecord
280
     1
270
     1
271
     1
  0
XRECORD
  5
16
102
{ACAD_REACTORS
330
12
102
}
330
12
100
AcDbXrecord
280
     1
270
     1
271
     1
  0
XRECORD
  5
18
102
{ACAD_REACTORS
330
12
102
}
330
12
100
AcDbXrecord
280
     1
270
     1
271
     1
  0
XRECORD
  5
15
102
{ACAD_REACTORS
330
12
102
}
330
12
100
AcDbXrecord
280
     1
270
     1
271
     1
  0
XRECORD
  5
24
102
{ACAD_REACTORS
330
22
102
}
330
22
100
AcDbXrecord
280
     1
270
     1
271
     1
  0
XRECORD
  5
23
102
{ACAD_REACTORS
330
22
102
}
330
22
100
AcDbXrecord
280
     1
270
     1
271
     1
  0
XRECORD
  5
27
102
{ACAD_REACTORS
330
22
102
}
330
22
100
AcDbXrecord
280
     1
270
     1
271
     1
  0
XRECORD
  5
26
102
{ACAD_REACTORS
330
22
102
}
330
22
100
AcDbXrecord
280
     1
270
     1
271
     1
  0
XRECORD
  5
28
102
{ACAD_REACTORS
330
22
102
}
330
22
100
AcDbXrecord
280
     1
270
     1
271
     1
  0
XRECORD
  5
25
102
{ACAD_REACTORS
330
22
102
}
330
22
100
AcDbXrecord
280
     1
270
     1
271
     1
  0
CELLSTYLEMAP
  5
26A
102
{ACAD_REACTORS
330
269
102
}
330
269
100
AcDbCellStyleMap
 90
        3
300
CELLSTYLE
  1
TABLEFORMAT_BEGIN
 90
        5
170
     1
 91
        0
 92
    32768
 62
   257
 93
        1
300
CONTENTFORMAT
  1
CONTENTFORMAT_BEGIN
 90
        0
 91
        0
 92
      512
 93
        0
300

 40
0.0
140
1.0
 94
        5
 62
     0
340
5D
144
0.25
309
CONTENTFORMAT_END
171
     0
 94
        0
309
TABLEFORMAT_END
  1
CELLSTYLE_BEGIN
 90
        1
 91
        1
300
_TITLE
309
CELLSTYLE_END
300
CELLSTYLE
  1
TABLEFORMAT_BEGIN
 90
        5
170
     1
 91
        0
 92
        0
 62
   257
 93
        1
300
CONTENTFORMAT
  1
CONTENTFORMAT_BEGIN
 90
        0
 91
        0
 92
      512
 93
        0
300

 40
0.0
140
1.0
 94
        5
 62
     0
340
5D
144
0.18
309
CONTENTFORMAT_END
171
     0
 94
        0
309
TABLEFORMAT_END
  1
CELLSTYLE_BEGIN
 90
        2
 91
        1
300
_HEADER
309
CELLSTYLE_END
300
CELLSTYLE
  1
TABLEFORMAT_BEGIN
 90
        5
170
     1
 91
        0
 92
        0
 62
   257
 93
        1
300
CONTENTFORMAT
  1
CONTENTFORMAT_BEGIN
 90
        0
 91
        0
 92
      512
 93
        0
300

 40
0.0
140
1.0
 94
        2
 62
     0
340
5D
144
0.18
309
CONTENTFORMAT_END
171
     0
 94
        0
309
TABLEFORMAT_END
  1
CELLSTYLE_BEGIN
 90
        3
 91
        2
300
_DATA
309
CELLSTYLE_END
  0
ENDSEC
  0
EOF
