  0
SECTION
  2
HEADER
  9
$ACADVER
  1
AC1021
  9
$ACADMAINTVER
 70
    25
  9
$DWGCODEPAGE
  3
ANSI_1252
  9
$INSBASE
 10
0.0
 20
0.0
 30
0.0
  9
$EXTMIN
 10
1410.526058127455
 20
1938.512811942308
 30
-0.00000001
  9
$EXTMAX
 10
2516.880432442738
 20
2379.308919776265
 30
0.00000001
  9
$LIMMIN
 10
0.0
 20
0.0
  9
$LIMMAX
 10
12.0
 20
9.0
  9
$ORTHOMODE
 70
     0
  9
$REGENMODE
 70
     1
  9
$FILLMODE
 70
     1
  9
$QTEXTMODE
 70
     0
  9
$MIRRTEXT
 70
     0
  9
$LTSCALE
 40
1.0
  9
$ATTMODE
 70
     1
  9
$TEXTSIZE
 40
0.2
  9
$TRACEWID
 40
0.05
  9
$TEXTSTYLE
  7
Standard
  9
$CLAYER
  8
0
  9
$CELTYPE
  6
ByLayer
  9
$CECOLOR
 62
   256
  9
$CELTSCALE
 40
1.0
  9
$DISPSILH
 70
     0
  9
$DIMSCALE
 40
1.0
  9
$DIMASZ
 40
0.18
  9
$DIMEXO
 40
0.0625
  9
$DIMDLI
 40
0.38
  9
$DIMRND
 40
0.0
  9
$DIMDLE
 40
0.0
  9
$DIMEXE
 40
0.18
  9
$DIMTP
 40
0.0
  9
$DIMTM
 40
0.0
  9
$DIMTXT
 40
0.18
  9
$DIMCEN
 40
0.09
  9
$DIMTSZ
 40
0.0
  9
$DIMTOL
 70
     0
  9
$DIMLIM
 70
     0
  9
$DIMTIH
 70
     1
  9
$DIMTOH
 70
     1
  9
$DIMSE1
 70
     0
  9
$DIMSE2
 70
     0
  9
$DIMTAD
 70
     0
  9
$DIMZIN
 70
     0
  9
$DIMBLK
  1

  9
$DIMASO
 70
     1
  9
$DIMSHO
 70
     1
  9
$DIMPOST
  1

  9
$DIMAPOST
  1

  9
$DIMALT
 70
     0
  9
$DIMALTD
 70
     2
  9
$DIMALTF
 40
25.4
  9
$DIMLFAC
 40
1.0
  9
$DIMTOFL
 70
     0
  9
$DIMTVP
 40
0.0
  9
$DIMTIX
 70
     0
  9
$DIMSOXD
 70
     0
  9
$DIMSAH
 70
     0
  9
$DIMBLK1
  1

  9
$DIMBLK2
  1

  9
$DIMSTYLE
  2
Standard
  9
$DIMCLRD
 70
     0
  9
$DIMCLRE
 70
     0
  9
$DIMCLRT
 70
     0
  9
$DIMTFAC
 40
1.0
  9
$DIMGAP
 40
0.09
  9
$DIMJUST
 70
     0
  9
$DIMSD1
 70
     0
  9
$DIMSD2
 70
     0
  9
$DIMTOLJ
 70
     1
  9
$DIMTZIN
 70
     0
  9
$DIMALTZ
 70
     0
  9
$DIMALTTZ
 70
     0
  9
$DIMUPT
 70
     0
  9
$DIMDEC
 70
     4
  9
$DIMTDEC
 70
     4
  9
$DIMALTU
 70
     2
  9
$DIMALTTD
 70
     2
  9
$DIMTXSTY
  7
Standard
  9
$DIMAUNIT
 70
     0
  9
$DIMADEC
 70
     0
  9
$DIMALTRND
 40
0.0
  9
$DIMAZIN
 70
     0
  9
$DIMDSEP
 70
    46
  9
$DIMATFIT
 70
     3
  9
$DIMFRAC
 70
     0
  9
$DIMLDRBLK
  1

  9
$DIMLUNIT
 70
     2
  9
$DIMLWD
 70
    -2
  9
$DIMLWE
 70
    -2
  9
$DIMTMOVE
 70
     0
  9
$DIMFXL
 40
1.0
  9
$DIMFXLON
 70
     0
  9
$DIMJOGANG
 40
0.7853981633974483
  9
$DIMTFILL
 70
     0
  9
$DIMTFILLCLR
 70
     0
  9
$DIMARCSYM
 70
     0
  9
$DIMLTYPE
  6

  9
$DIMLTEX1
  6

  9
$DIMLTEX2
  6

  9
$LUNITS
 70
     2
  9
$LUPREC
 70
     4
  9
$SKETCHINC
 40
0.1
  9
$FILLETRAD
 40
0.0
  9
$AUNITS
 70
     0
  9
$AUPREC
 70
     0
  9
$MENU
  1
.
  9
$ELEVATION
 40
0.0
  9
$PELEVATION
 40
0.0
  9
$THICKNESS
 40
0.0
  9
$LIMCHECK
 70
     0
  9
$CHAMFERA
 40
0.0
  9
$CHAMFERB
 40
0.0
  9
$CHAMFERC
 40
0.0
  9
$CHAMFERD
 40
0.0
  9
$SKPOLY
 70
     0
  9
$TDCREATE
 40
2455036.619042778
  9
$TDUCREATE
 40
2455036.119042778
  9
$TDUPDATE
 40
2455036.619042778
  9
$TDUUPDATE
 40
2455036.119042778
  9
$TDINDWG
 40
0.0001204514
  9
$TDUSRTIMER
 40
0.0001204514
  9
$USRTIMER
 70
     1
  9
$ANGBASE
 50
0.0
  9
$ANGDIR
 70
     0
  9
$PDMODE
 70
     0
  9
$PDSIZE
 40
0.0
  9
$PLINEWID
 40
0.0
  9
$SPLFRAME
 70
     0
  9
$SPLINETYPE
 70
     6
  9
$SPLINESEGS
 70
     8
  9
$HANDSEED
  5
155
  9
$SURFTAB1
 70
     6
  9
$SURFTAB2
 70
     6
  9
$SURFTYPE
 70
     6
  9
$SURFU
 70
     6
  9
$SURFV
 70
     6
  9
$UCSBASE
  2

  9
$UCSNAME
  2

  9
$UCSORG
 10
0.0
 20
0.0
 30
0.0
  9
$UCSXDIR
 10
1.0
 20
0.0
 30
0.0
  9
$UCSYDIR
 10
0.0
 20
1.0
 30
0.0
  9
$UCSORTHOREF
  2

  9
$UCSORTHOVIEW
 70
     0
  9
$UCSORGTOP
 10
0.0
 20
0.0
 30
0.0
  9
$UCSORGBOTTOM
 10
0.0
 20
0.0
 30
0.0
  9
$UCSORGLEFT
 10
0.0
 20
0.0
 30
0.0
  9
$UCSORGRIGHT
 10
0.0
 20
0.0
 30
0.0
  9
$UCSORGFRONT
 10
0.0
 20
0.0
 30
0.0
  9
$UCSORGBACK
 10
0.0
 20
0.0
 30
0.0
  9
$PUCSBASE
  2

  9
$PUCSNAME
  2

  9
$PUCSORG
 10
0.0
 20
0.0
 30
0.0
  9
$PUCSXDIR
 10
1.0
 20
0.0
 30
0.0
  9
$PUCSYDIR
 10
0.0
 20
1.0
 30
0.0
  9
$PUCSORTHOREF
  2

  9
$PUCSORTHOVIEW
 70
     0
  9
$PUCSORGTOP
 10
0.0
 20
0.0
 30
0.0
  9
$PUCSORGBOTTOM
 10
0.0
 20
0.0
 30
0.0
  9
$PUCSORGLEFT
 10
0.0
 20
0.0
 30
0.0
  9
$PUCSORGRIGHT
 10
0.0
 20
0.0
 30
0.0
  9
$PUCSORGFRONT
 10
0.0
 20
0.0
 30
0.0
  9
$PUCSORGBACK
 10
0.0
 20
0.0
 30
0.0
  9
$USERI1
 70
     0
  9
$USERI2
 70
     0
  9
$USERI3
 70
     0
  9
$USERI4
 70
     0
  9
$USERI5
 70
     0
  9
$USERR1
 40
0.0
  9
$USERR2
 40
0.0
  9
$USERR3
 40
0.0
  9
$USERR4
 40
0.0
  9
$USERR5
 40
0.0
  9
$WORLDVIEW
 70
     1
  9
$SHADEDGE
 70
     3
  9
$SHADEDIF
 70
    70
  9
$TILEMODE
 70
     0
  9
$MAXACTVP
 70
    64
  9
$PINSBASE
 10
0.0
 20
0.0
 30
0.0
  9
$PLIMCHECK
 70
     0
  9
$PEXTMIN
 10
2.792850708836863
 20
84.97857142855746
 30
0.0
  9
$PEXTMAX
 10
299.7928507088368
 20
294.9999999999861
 30
0.0
  9
$PLIMMIN
 10
0.0
 20
0.0
  9
$PLIMMAX
 10
12.0
 20
9.0
  9
$UNITMODE
 70
     0
  9
$VISRETAIN
 70
     1
  9
$PLINEGEN
 70
     0
  9
$PSLTSCALE
 70
     1
  9
$TREEDEPTH
 70
  3020
  9
$CMLSTYLE
  2
Standard
  9
$CMLJUST
 70
     0
  9
$CMLSCALE
 40
1.0
  9
$PROXYGRAPHICS
 70
     1
  9
$MEASUREMENT
 70
     1
  9
$CELWEIGHT
370
    -1
  9
$ENDCAPS
280
     0
  9
$JOINSTYLE
280
     0
  9
$LWDISPLAY
290
     0
  9
$INSUNITS
 70
     4
  9
$HYPERLINKBASE
  1

  9
$STYLESHEET
  1

  9
$XEDIT
290
     1
  9
$CEPSNTYPE
380
     0
  9
$PSTYLEMODE
290
     1
  9
$FINGERPRINTGUID
  2
{4E93A52A-2EB4-48C5-9509-0F8539AD2B6F}
  9
$VERSIONGUID
  2
{C397A83E-DFC8-43A9-A3A6-E494E3888613}
  9
$EXTNAMES
290
     1
  9
$PSVPSCALE
 40
0.0
  9
$OLESTARTUP
290
     0
  9
$SORTENTS
280
   127
  9
$INDEXCTL
280
     0
  9
$HIDETEXT
280
     1
  9
$XCLIPFRAME
290
     0
  9
$HALOGAP
280
     0
  9
$OBSCOLOR
 70
   257
  9
$OBSLTYPE
280
     0
  9
$INTERSECTIONDISPLAY
280
     0
  9
$INTERSECTIONCOLOR
 70
   257
  9
$DIMASSOC
280
     2
  9
$PROJECTNAME
  1

  9
$CAMERADISPLAY
290
     0
  9
$LENSLENGTH
 40
50.0
  9
$CAMERAHEIGHT
 40
0.0
  9
$STEPSPERSEC
 40
2.0
  9
$STEPSIZE
 40
6.0
  9
$3DDWFPREC
 40
2.0
  9
$PSOLWIDTH
 40
0.25
  9
$PSOLHEIGHT
 40
4.0
  9
$LOFTANG1
 40
1.570796326794896
  9
$LOFTANG2
 40
1.570796326794896
  9
$LOFTMAG1
 40
0.0
  9
$LOFTMAG2
 40
0.0
  9
$LOFTPARAM
 70
     7
  9
$LOFTNORMALS
280
     1
  9
$LATITUDE
 40
37.795
  9
$LONGITUDE
 40
-122.394
  9
$NORTHDIRECTION
 40
0.0
  9
$TIMEZONE
 70
 -8000
  9
$LIGHTGLYPHDISPLAY
280
     1
  9
$TILEMODELIGHTSYNCH
280
     1
  9
$CMATERIAL
347
11
  9
$SOLIDHIST
280
     1
  9
$SHOWHIST
280
     1
  9
$DWFFRAME
280
     2
  9
$DGNFRAME
280
     0
  9
$REALWORLDSCALE
290
     1
  9
$INTERFERECOLOR
 62
     1
  9
$INTERFEREOBJVS
345
33
  9
$INTERFEREVPVS
346
30
  9
$CSHADOW
280
     0
  9
$SHADOWPLANELOCATION
 40
0.0
  0
ENDSEC
  0
SECTION
  2
CLASSES
  0
CLASS
  1
ACDBDICTIONARYWDFLT
  2
AcDbDictionaryWithDefault
  3
ObjectDBX Classes
 90
        0
 91
        1
280
     0
281
     0
  0
CLASS
  1
MATERIAL
  2
AcDbMaterial
  3
ObjectDBX Classes
 90
     1153
 91
        3
280
     0
281
     0
  0
CLASS
  1
VISUALSTYLE
  2
AcDbVisualStyle
  3
ObjectDBX Classes
 90
     4095
 91
       16
280
     0
281
     0
  0
CLASS
  1
SCALE
  2
AcDbScale
  3
ObjectDBX Classes
 90
     1153
 91
       33
280
     0
281
     0
  0
CLASS
  1
TABLESTYLE
  2
AcDbTableStyle
  3
ObjectDBX Classes
 90
     4095
 91
        1
280
     0
281
     0
  0
CLASS
  1
MLEADERSTYLE
  2
AcDbMLeaderStyle
  3
ACDB_MLEADERSTYLE_CLASS
 90
     4095
 91
        1
280
     0
281
     0
  0
CLASS
  1
SORTENTSTABLE
  2
AcDbSortentsTable
  3
ObjectDBX Classes
 90
        0
 91
        1
280
     0
281
     0
  0
CLASS
  1
DICTIONARYVAR
  2
AcDbDictionaryVar
  3
ObjectDBX Classes
 90
        0
 91
        3
280
     0
281
     0
  0
CLASS
  1
CELLSTYLEMAP
  2
AcDbCellStyleMap
  3
ObjectDBX Classes
 90
     1152
 91
        1
280
     0
281
     0
  0
ENDSEC
  0
SECTION
  2
TABLES
  0
TABLE
  2
VPORT
  5
8
330
0
100
AcDbSymbolTable
 70
     1
  0
VPORT
  5
5F
330
8
100
AcDbSymbolTableRecord
100
AcDbViewportTableRecord
  2
*Active
 70
     0
 10
0.0
 20
0.0
 11
1.0
 21
1.0
 12
1963.703245285097
 22
2158.910865859287
 13
0.0
 23
0.0
 14
1.0
 24
1.0
 15
0.0
 25
0.0
 16
0.0
 26
0.0
 36
1.0
 17
0.0
 27
0.0
 37
0.0
 40
440.7961078339574
 41
2.509900506499103
 42
50.0
 43
0.0
 44
0.0
 50
0.0
 51
0.0
 71
     0
 72
   100
 73
     1
 74
     1
 75
     0
 76
     0
 77
     0
 78
     0
281
     0
 65
     1
110
0.0
120
0.0
130
0.0
111
1.0
121
0.0
131
0.0
112
0.0
122
1.0
132
0.0
 79
     0
146
0.0
 60
     3
 61
     5
292
     1
282
     1
141
0.0
142
0.0
 63
   250
421
  3355443
  0
ENDTAB
  0
TABLE
  2
LTYPE
  5
5
330
0
100
AcDbSymbolTable
 70
     3
  0
LTYPE
  5
63
330
5
100
AcDbSymbolTableRecord
100
AcDbLinetypeTableRecord
  2
ByBlock
 70
     0
  3

 72
    65
 73
     0
 40
0.0
  0
LTYPE
  5
64
330
5
100
AcDbSymbolTableRecord
100
AcDbLinetypeTableRecord
  2
ByLayer
 70
     0
  3

 72
    65
 73
     0
 40
0.0
  0
LTYPE
  5
65
330
5
100
AcDbSymbolTableRecord
100
AcDbLinetypeTableRecord
  2
Continuous
 70
     0
  3
Solid line
 72
    65
 73
     0
 40
0.0
  0
LTYPE
  5
7F
330
5
100
AcDbSymbolTableRecord
100
AcDbLinetypeTableRecord
  2
Aligning Line
 70
     0
  3

 72
    65
 73
     2
 40
6.350000000000001
 49
3.175
 74
     0
 49
-3.175
 74
     0
  0
LTYPE
  5
BC
330
5
100
AcDbSymbolTableRecord
100
AcDbLinetypeTableRecord
  2
Dash
 70
     0
  3

 72
    65
 73
     2
 40
6.35
 49
3.175
 74
     0
 49
-3.175
 74
     0
  0
ENDTAB
  0
TABLE
  2
LAYER
  5
2
330
0
100
AcDbSymbolTable
 70
     7
  0
LAYER
  5
5C
330
2
100
AcDbSymbolTableRecord
100
AcDbLayerTableRecord
  2
0
 70
     0
 62
     7
  6
Continuous
370
    -3
390
F
347
21
  0
LAYER
  5
80
330
2
100
AcDbSymbolTableRecord
100
AcDbLayerTableRecord
  2
G-----PAP
 70
     0
 62
     8
  6
Aligning Line
370
    18
390
F
347
21
  0
LAYER
  5
81
330
2
100
AcDbSymbolTableRecord
100
AcDbLayerTableRecord
  2
A-DETLGEM
 70
     0
 62
     3
  6
Continuous
370
    18
390
F
347
21
  0
LAYER
  5
82
330
2
100
AcDbSymbolTableRecord
100
AcDbLayerTableRecord
  2
A-----NPP
 70
     0
 62
     3
  6
Continuous
370
    18
390
F
347
21
  0
LAYER
  5
C7
330
2
100
AcDbSymbolTableRecord
100
AcDbLayerTableRecord
  2
A-----TEP
 70
     0
 62
     2
  6
Continuous
370
     9
390
F
347
21
  0
LAYER
  5
D0
330
2
100
AcDbSymbolTableRecord
100
AcDbLayerTableRecord
  2
A-----NOP
 70
     0
 62
     2
  6
Continuous
370
     9
390
F
347
21
  0
LAYER
  5
10C
330
2
100
AcDbSymbolTableRecord
100
AcDbLayerTableRecord
  2
G-----TTP
 70
     0
 62
     6
  6
Continuous
370
     9
390
F
347
21
  0
ENDTAB
  0
TABLE
  2
STYLE
  5
3
330
0
100
AcDbSymbolTable
 70
     2
  0
STYLE
  5
5D
330
3
100
AcDbSymbolTableRecord
100
AcDbTextStyleTableRecord
  2
Standard
 70
     0
 40
0.0
 41
1.0
 50
0.0
 71
     0
 42
0.2
  3
txt
  4

  0
STYLE
  5
62
330
3
100
AcDbSymbolTableRecord
100
AcDbTextStyleTableRecord
  2
Annotative
 70
     0
 40
0.0
 41
1.0
 50
0.0
 71
     0
 42
0.2
  3

  4

1001
AcadAnnotative
1000
AnnotativeData
1002
{
1070
     1
1070
     1
1002
}
  0
ENDTAB
  0
TABLE
  2
VIEW
  5
6
330
0
100
AcDbSymbolTable
 70
     0
  0
ENDTAB
  0
TABLE
  2
UCS
  5
7
330
0
100
AcDbSymbolTable
 70
     0
  0
ENDTAB
  0
TABLE
  2
APPID
  5
9
330
0
100
AcDbSymbolTable
 70
     5
  0
APPID
  5
5E
330
9
100
AcDbSymbolTableRecord
100
AcDbRegAppTableRecord
  2
ACAD
 70
     0
  0
APPID
  5
66
330
9
100
AcDbSymbolTableRecord
100
AcDbRegAppTableRecord
  2
AcadAnnotative
 70
     0
  0
APPID
  5
70
330
9
100
AcDbSymbolTableRecord
100
AcDbRegAppTableRecord
  2
ACAD_MLEADERVER
 70
     0
  0
APPID
  5
7D
330
9
100
AcDbSymbolTableRecord
100
AcDbRegAppTableRecord
  2
ACCURENDER3
 70
     0
  0
APPID
  5
7E
330
9
100
AcDbSymbolTableRecord
100
AcDbRegAppTableRecord
  2
REVIT
 70
     0
  0
ENDTAB
  0
TABLE
  2
DIMSTYLE
  5
A
330
0
100
AcDbSymbolTable
 70
     2
100
AcDbDimStyleTable
 71
     0
  0
DIMSTYLE
105
60
330
A
100
AcDbSymbolTableRecord
100
AcDbDimStyleTableRecord
  2
Standard
 70
     0
340
5D
  0
DIMSTYLE
105
61
330
A
100
AcDbSymbolTableRecord
100
AcDbDimStyleTableRecord
  2
Annotative
 70
     0
340
5D
1001
AcadAnnotative
1000
AnnotativeData
1002
{
1070
     1
1070
     1
1002
}
  0
ENDTAB
  0
TABLE
  2
BLOCK_RECORD
  5
1
330
0
100
AcDbSymbolTable
 70
     7
  0
BLOCK_RECORD
  5
75
102
{ACAD_XDICTIONARY
360
149
102
}
330
1
100
AcDbSymbolTableRecord
100
AcDbBlockTableRecord
  2
*Model_Space
340
78
 70
     0
280
     1
281
     0
  0
BLOCK_RECORD
  5
71
330
1
100
AcDbSymbolTableRecord
100
AcDbBlockTableRecord
  2
*Paper_Space
340
74
 70
     0
280
     1
281
     0
  0
BLOCK_RECORD
  5
79
330
1
100
AcDbSymbolTableRecord
100
AcDbBlockTableRecord
  2
*Paper_Space0
340
7C
 70
     0
280
     1
281
     0
  0
BLOCK_RECORD
  5
99
330
1
100
AcDbSymbolTableRecord
100
AcDbBlockTableRecord
  2
tmber 100_50 - tmber 100_50_1-0-Detail 1
340
0
102
{BLKREFS
331
A1
102
}
 70
     0
280
     1
281
     0
  0
BLOCK_RECORD
  5
A2
330
1
100
AcDbSymbolTableRecord
100
AcDbBlockTableRecord
  2
barge board - barge board_1-3-Detail 1
340
0
102
{BLKREFS
331
AE
102
}
 70
     0
280
     1
281
     0
  0
BLOCK_RECORD
  5
B2
330
1
100
AcDbSymbolTableRecord
100
AcDbBlockTableRecord
  2
ply2 20_ - ply 20__1-2-Detail 1
340
0
102
{BLKREFS
331
BB
102
}
 70
     0
280
     1
281
     0
  0
BLOCK_RECORD
  5
BE
330
1
100
AcDbSymbolTableRecord
100
AcDbBlockTableRecord
  2
Break Line1 - M_Break Line_1-1-Detail 1
340
0
102
{BLKREFS
331
C6
102
}
 70
     0
280
     1
281
     0
  0
BLOCK_RECORD
  5
D6
330
1
100
AcDbSymbolTableRecord
100
AcDbBlockTableRecord
  2
M_Label Annotation - M_Label Annotation_1-142258-Detail 1
340
0
102
{BLKREFS
331
D9
331
E0
331
E7
331
EE
331
F5
331
FC
331
103
331
10A
102
}
 70
     0
280
     1
281
     0
  0
BLOCK_RECORD
  5
10D
330
1
100
AcDbSymbolTableRecord
100
AcDbBlockTableRecord
  2
A4 SPS - A4 sps_0-163380-BARGE-CROSS SECTION
340
0
102
{BLKREFS
331
13C
102
}
 70
     0
280
     1
281
     0
  0
ENDTAB
  0
ENDSEC
  0
SECTION
  2
BLOCKS
  0
BLOCK
  5
76
330
75
100
AcDbEntity
  8
0
100
AcDbBlockBegin
  2
*Model_Space
 70
     0
 10
0.0
 20
0.0
 30
0.0
  3
*Model_Space
  1

  0
ENDBLK
  5
77
330
75
100
AcDbEntity
  8
0
100
AcDbBlockEnd
  0
BLOCK
  5
72
330
71
100
AcDbEntity
 67
     1
  8
0
100
AcDbBlockBegin
  2
*Paper_Space
 70
     0
 10
0.0
 20
0.0
 30
0.0
  3
*Paper_Space
  1

  0
ENDBLK
  5
73
330
71
100
AcDbEntity
 67
     1
  8
0
100
AcDbBlockEnd
  0
BLOCK
  5
7A
330
79
100
AcDbEntity
 67
     1
  8
0
100
AcDbBlockBegin
  2
*Paper_Space0
 70
     0
 10
0.0
 20
0.0
 30
0.0
  3
*Paper_Space0
  1

  0
ENDBLK
  5
7B
330
79
100
AcDbEntity
 67
     1
  8
0
100
AcDbBlockEnd
  0
BLOCK
  5
9F
330
99
100
AcDbEntity
  8
0
100
AcDbBlockBegin
  2
tmber 100_50 - tmber 100_50_1-0-Detail 1
 70
     0
 10
0.0
 20
0.0
 30
0.0
  3
tmber 100_50 - tmber 100_50_1-0-Detail 1
  1

  0
LINE
  5
9A
330
99
100
AcDbEntity
  8
A-DETLGEM
100
AcDbLine
 10
50.0
 20
100.0
 30
0.0
 11
0.0
 21
100.0
 31
0.0
  0
LINE
  5
9B
330
99
100
AcDbEntity
  8
A-DETLGEM
100
AcDbLine
 10
0.0
 20
100.0
 30
0.0
 11
0.0
 21
0.0
 31
0.0
  0
LINE
  5
9C
330
99
100
AcDbEntity
  8
A-DETLGEM
100
AcDbLine
 10
0.0
 20
0.0
 30
0.0
 11
50.0
 21
0.0
 31
0.0
  0
LINE
  5
9D
330
99
100
AcDbEntity
  8
A-DETLGEM
100
AcDbLine
 10
50.0
 20
0.0
 30
0.0
 11
50.0
 21
100.0
 31
0.0
  0
HATCH
  5
9E
330
99
100
AcDbEntity
  8
A-DETLGEM
100
AcDbHatch
 10
0.0
 20
0.0
 30
0.0
210
0.0
220
0.0
230
1.0
  2
FP1_1
 70
     0
 71
     0
 91
        1
 92
        0
 93
        4
 72
     1
 10
50.0
 20
100.0
 11
0.0
 21
100.0
 72
     1
 10
0.0
 20
100.0
 11
0.0
 21
0.0
 72
     1
 10
0.0
 20
0.0
 11
50.0
 21
0.0
 72
     1
 10
50.0
 20
0.0
 11
50.0
 21
100.0
 97
        0
 75
     0
 76
     2
 52
0.0
 41
1.0
 77
     0
 78
     1
 53
45.0
 43
-1862.296
 44
-2183.121
 45
-17.67766952966368
 46
17.67766952966369
 79
     0
 98
        1
 10
0.0
 20
0.0
1001
REVIT
1002
{
1070
     3
1000
113602
1002
}
  0
ENDBLK
  5
A0
330
99
100
AcDbEntity
  8
0
100
AcDbBlockEnd
  0
BLOCK
  5
AC
330
A2
100
AcDbEntity
  8
0
100
AcDbBlockBegin
  2
barge board - barge board_1-3-Detail 1
 70
     0
 10
0.0
 20
0.0
 30
0.0
  3
barge board - barge board_1-3-Detail 1
  1

  0
LINE
  5
A3
330
A2
100
AcDbEntity
  8
A-DETLGEM
100
AcDbLine
 10
29.99999999999318
 20
200.0000000000142
 30
0.0
 11
0.0
 21
200.0000000000142
 31
0.0
  0
LINE
  5
A4
330
A2
100
AcDbEntity
  8
A-DETLGEM
100
AcDbLine
 10
0.0
 20
200.0000000000142
 30
0.0
 11
0.0
 21
0.0000000000141788
 31
0.0
  0
LINE
  5
A5
330
A2
100
AcDbEntity
  8
A-DETLGEM
100
AcDbLine
 10
0.0
 20
0.0000000000141788
 30
0.0
 11
29.99999999999318
 21
0.0000000000141788
 31
0.0
  0
LINE
  5
A6
330
A2
100
AcDbEntity
  8
A-DETLGEM
100
AcDbLine
 10
29.99999999999318
 20
0.0000000000142126
 30
0.0
 11
29.99999999999318
 21
90.00000000001419
 31
0.0
  0
LINE
  5
A7
330
A2
100
AcDbEntity
  8
A-DETLGEM
100
AcDbLine
 10
29.99999999999318
 20
90.00000000001419
 30
0.0
 11
19.99999999999545
 21
90.00000000001419
 31
0.0
  0
LINE
  5
A8
330
A2
100
AcDbEntity
  8
A-DETLGEM
100
AcDbLine
 10
19.99999999999545
 20
90.00000000001419
 30
0.0
 11
19.99999999999545
 21
100.0000000000142
 31
0.0
  0
LINE
  5
A9
330
A2
100
AcDbEntity
  8
A-DETLGEM
100
AcDbLine
 10
19.99999999999545
 20
100.0000000000142
 30
0.0
 11
29.99999999999318
 21
100.0000000000142
 31
0.0
  0
LINE
  5
AA
330
A2
100
AcDbEntity
  8
A-DETLGEM
100
AcDbLine
 10
29.99999999999318
 20
100.0000000000142
 30
0.0
 11
29.99999999999318
 21
200.0000000000142
 31
0.0
  0
HATCH
  5
AB
330
A2
100
AcDbEntity
  8
A-DETLGEM
100
AcDbHatch
 10
0.0
 20
0.0
 30
0.0
210
0.0
220
0.0
230
1.0
  2
FP1_2
 70
     0
 71
     0
 91
        1
 92
        0
 93
        8
 72
     1
 10
29.99999999999318
 20
200.0000000000142
 11
0.0
 21
200.0000000000142
 72
     1
 10
0.0
 20
200.0000000000142
 11
0.0
 21
0.0000000000141824
 72
     1
 10
0.0
 20
0.0000000000141788
 11
29.99999999999318
 21
0.0000000000141788
 72
     1
 10
29.99999999999318
 20
0.0000000000142126
 11
29.99999999999318
 21
90.00000000001419
 72
     1
 10
29.99999999999318
 20
90.00000000001419
 11
19.99999999999545
 21
90.00000000001419
 72
     1
 10
19.99999999999545
 20
90.00000000001419
 11
19.99999999999545
 21
100.0000000000142
 72
     1
 10
19.99999999999545
 20
100.0000000000142
 11
29.99999999999318
 21
100.0000000000142
 72
     1
 10
29.99999999999318
 20
100.0000000000142
 11
29.99999999999318
 21
200.0000000000142
 97
        0
 75
     0
 76
     2
 52
0.0
 41
1.0
 77
     0
 78
     1
 53
45.0
 43
-1831.534
 44
-2083.111
 45
-10.60660171779821
 46
10.60660171779821
 79
     0
 98
        1
 10
0.0
 20
0.0
1001
REVIT
1002
{
1070
     3
1000
111500
1002
}
  0
ENDBLK
  5
AD
330
A2
100
AcDbEntity
  8
0
100
AcDbBlockEnd
  0
BLOCK
  5
B9
330
B2
100
AcDbEntity
  8
0
100
AcDbBlockBegin
  2
ply2 20_ - ply 20__1-2-Detail 1
 70
     0
 10
0.0
 20
0.0
 30
0.0
  3
ply2 20_ - ply 20__1-2-Detail 1
  1

  0
LINE
  5
B3
330
B2
100
AcDbEntity
  8
A-DETLGEM
100
AcDbLine
 10
0.0
 20
11.94621723361908
 30
0.0
 11
360.9791603363134
 21
11.94621723361908
 31
0.0
  0
LINE
  5
B4
330
B2
100
AcDbEntity
  8
A-DETLGEM
100
AcDbLine
 10
0.0
 20
0.0
 30
0.0
 11
0.0
 21
6.071876166871061
 31
0.0
  0
LINE
  5
B5
330
B2
100
AcDbEntity
  8
A-DETLGEM
100
AcDbLine
 10
360.9791603363134
 20
0.0
 30
0.0
 11
0.0
 21
0.0
 31
0.0
  0
LINE
  5
B6
330
B2
100
AcDbEntity
  8
A-DETLGEM
100
AcDbLine
 10
0.0
 20
8.084953675937498
 30
0.0
 11
360.9791603363134
 21
8.084953675936331
 31
0.0
  0
LINE
  5
B7
330
B2
100
AcDbEntity
  8
A-DETLGEM
100
AcDbLine
 10
0.0
 20
4.015637839630641
 30
0.0
 11
360.9791603363134
 21
4.015637839629475
 31
0.0
  0
LINE
  5
B8
330
B2
100
AcDbEntity
  8
A-DETLGEM
100
AcDbLine
 10
0.0
 20
11.94621723361908
 30
0.0
 11
0.0
 21
0.0
 31
0.0
  0
ENDBLK
  5
BA
330
B2
100
AcDbEntity
  8
0
100
AcDbBlockEnd
  0
BLOCK
  5
C4
330
BE
100
AcDbEntity
  8
0
100
AcDbBlockBegin
  2
Break Line1 - M_Break Line_1-1-Detail 1
 70
     0
 10
0.0
 20
0.0
 30
0.0
  3
Break Line1 - M_Break Line_1-1-Detail 1
  1

  0
LINE
  5
BF
330
BE
100
AcDbEntity
  8
A-DETLGEM
370
    35
100
AcDbLine
 10
-18.60697444189654
 20
0.0000000000045937
 30
0.0
 11
-9.303487220949294
 21
12.12986432713319
 31
0.0
1001
REVIT
1002
{
1070
     3
1000
1349
1002
}
  0
LINE
  5
C0
330
BE
100
AcDbEntity
  8
A-DETLGEM
370
    35
100
AcDbLine
 10
-9.303487220949296
 20
12.12986432713319
 30
0.0
 11
9.215834510488308
 21
-12.01299404650817
 31
0.0
1001
REVIT
1002
{
1070
     3
1000
1349
1002
}
  0
LINE
  5
C1
330
BE
100
AcDbEntity
  8
A-DETLGEM
370
    35
100
AcDbLine
 10
9.215834510488305
 20
-12.01299404650817
 30
0.0
 11
18.43166902097825
 21
0.0000000000045937
 31
0.0
1001
REVIT
1002
{
1070
     3
1000
1349
1002
}
  0
LINE
  5
C2
330
BE
100
AcDbEntity
  8
A-DETLGEM
370
    35
100
AcDbLine
 10
18.43166902097825
 20
0.0000000000045937
 30
0.0
 11
152.3999999999996
 21
0.0000000000045937
 31
0.0
1001
REVIT
1002
{
1070
     3
1000
1349
1002
}
  0
LINE
  5
C3
330
BE
100
AcDbEntity
  8
A-DETLGEM
370
    35
100
AcDbLine
 10
-152.4000000000005
 20
0.0000000000045937
 30
0.0
 11
-18.60697444189654
 21
0.0000000000045937
 31
0.0
1001
REVIT
1002
{
1070
     3
1000
1349
1002
}
  0
ENDBLK
  5
C5
330
BE
100
AcDbEntity
  8
0
100
AcDbBlockEnd
  0
BLOCK
  5
D7
330
D6
100
AcDbEntity
  8
0
100
AcDbBlockBegin
  2
M_Label Annotation - M_Label Annotation_1-142258-Detail 1
 70
     0
 10
0.0
 20
0.0
 30
0.0
  3
M_Label Annotation - M_Label Annotation_1-142258-Detail 1
  1

  0
ENDBLK
  5
D8
330
D6
100
AcDbEntity
  8
0
100
AcDbBlockEnd
  0
BLOCK
  5
13A
330
10D
100
AcDbEntity
  8
0
100
AcDbBlockBegin
  2
A4 SPS - A4 sps_0-163380-BARGE-CROSS SECTION
 70
     0
 10
0.0
 20
0.0
 30
0.0
  3
A4 SPS - A4 sps_0-163380-BARGE-CROSS SECTION
  1

  0
LINE
  5
10E
330
10D
100
AcDbEntity
  8
G-----TTP
100
AcDbLine
 10
97.66108077792623
 20
93.39672673794749
 30
0.0
 11
152.8182236350694
 21
93.39672673794749
 31
0.0
1001
REVIT
1002
{
1070
     3
1000
-2000281
1002
}
  0
LINE
  5
10F
330
10D
100
AcDbEntity
  8
G-----TTP
100
AcDbLine
 10
97.66108077792623
 20
96.15458388080464
 30
0.0
 11
152.8182236350694
 21
96.15458388080464
 31
0.0
1001
REVIT
1002
{
1070
     3
1000
-2000281
1002
}
  0
LINE
  5
110
330
10D
100
AcDbEntity
  8
G-----TTP
100
AcDbLine
 10
95.53965220649775
 20
99.12142857141512
 30
0.0
 11
8.798463415511349
 21
99.12142857141541
 31
0.0
  0
LINE
  5
111
330
10D
100
AcDbEntity
  8
G-----TTP
100
AcDbLine
 10
141.5039379207837
 20
114.678571428557
 30
0.0
 11
141.5039379207837
 21
90.63571428570075
 31
0.0
1001
REVIT
1002
{
1070
     3
1000
-2000281
1002
}
  0
LINE
  5
112
330
10D
100
AcDbEntity
  8
G-----TTP
100
AcDbLine
 10
104.7325093493548
 20
114.678571428557
 30
0.0
 11
104.7325093493548
 21
90.63571428570075
 31
0.0
1001
REVIT
1002
{
1070
     3
1000
-2000281
1002
}
  0
LINE
  5
113
330
10D
100
AcDbEntity
  8
G-----TTP
100
AcDbLine
 10
97.66108077792623
 20
109.9438695950903
 30
0.0
 11
152.8182236350694
 21
109.9438695950903
 31
0.0
1001
REVIT
1002
{
1070
     3
1000
-2000281
1002
}
  0
LINE
  5
114
330
10D
100
AcDbEntity
  8
G-----TTP
100
AcDbLine
 10
97.66108077792623
 20
107.1860124522332
 30
0.0
 11
152.8182236350694
 21
107.1860124522332
 31
0.0
1001
REVIT
1002
{
1070
     3
1000
-2000281
1002
}
  0
LINE
  5
115
330
10D
100
AcDbEntity
  8
G-----TTP
100
AcDbLine
 10
97.66108077792623
 20
104.428155309376
 30
0.0
 11
152.8182236350694
 21
104.428155309376
 31
0.0
1001
REVIT
1002
{
1070
     3
1000
-2000281
1002
}
  0
LINE
  5
116
330
10D
100
AcDbEntity
  8
G-----TTP
100
AcDbLine
 10
97.66108077792623
 20
101.6702981665189
 30
0.0
 11
152.8182236350694
 21
101.6702981665189
 31
0.0
1001
REVIT
1002
{
1070
     3
1000
-2000281
1002
}
  0
LINE
  5
117
330
10D
100
AcDbEntity
  8
G-----TTP
100
AcDbLine
 10
97.66108077792623
 20
98.91244102366178
 30
0.0
 11
152.8182236350694
 21
98.91244102366178
 31
0.0
1001
REVIT
1002
{
1070
     3
1000
-2000281
1002
}
  0
LINE
  5
118
330
10D
100
AcDbEntity
  8
G-----TTP
370
    25
100
AcDbLine
 10
152.8182236350694
 20
114.678571428557
 30
0.0
 11
152.8182236350694
 21
90.63571428570075
 31
0.0
1001
REVIT
1002
{
1070
     3
1000
-2000282
1002
}
  0
LINE
  5
119
330
10D
100
AcDbEntity
  8
G-----TTP
370
    25
100
AcDbLine
 10
97.66108077792623
 20
90.63571428570075
 30
0.0
 11
97.66108077792623
 21
114.678571428557
 31
0.0
1001
REVIT
1002
{
1070
     3
1000
-2000282
1002
}
  0
LINE
  5
11A
330
10D
100
AcDbEntity
  8
G-----TTP
370
    25
100
AcDbLine
 10
152.8182236350694
 20
90.63571428570075
 30
0.0
 11
97.66108077792623
 21
90.63571428570075
 31
0.0
1001
REVIT
1002
{
1070
     3
1000
-2000282
1002
}
  0
LINE
  5
11B
330
10D
100
AcDbEntity
  8
G-----TTP
370
    25
100
AcDbLine
 10
97.66108077792623
 20
114.678571428557
 30
0.0
 11
152.8182236350694
 21
114.678571428557
 31
0.0
1001
REVIT
1002
{
1070
     3
1000
-2000282
1002
}
  0
LINE
  5
11C
330
10D
100
AcDbEntity
  8
G-----TTP
370
    25
100
AcDbLine
 10
154.9396522064979
 20
114.6785714285573
 30
0.0
 11
154.9396522064979
 21
90.63571428570096
 31
0.0
1001
REVIT
1002
{
1070
     3
1000
-2000282
1002
}
  0
LINE
  5
11D
330
10D
100
AcDbEntity
  8
G-----TTP
100
AcDbLine
 10
215.046795063641
 20
104.7785714285581
 30
0.0
 11
292.8325093493553
 21
104.7785714285581
 31
0.0
1001
REVIT
1002
{
1070
     3
1000
-2000281
1002
}
  0
LINE
  5
11E
330
10D
100
AcDbEntity
  8
G-----TTP
100
AcDbLine
 10
215.046795063641
 20
101.2428571428439
 30
0.0
 11
253.939652206498
 21
101.2428571428439
 31
0.0
1001
REVIT
1002
{
1070
     3
1000
-2000281
1002
}
  0
LINE
  5
11F
330
10D
100
AcDbEntity
  8
G-----TTP
100
AcDbLine
 10
215.046795063641
 20
97.70714285712955
 30
0.0
 11
253.939652206498
 21
97.70714285712955
 31
0.0
1001
REVIT
1002
{
1070
     3
1000
-2000281
1002
}
  0
LINE
  5
120
330
10D
100
AcDbEntity
  8
G-----TTP
100
AcDbLine
 10
253.939652206498
 20
104.7785714285581
 30
0.0
 11
253.939652206498
 21
90.63571428570096
 31
0.0
1001
REVIT
1002
{
1070
     3
1000
-2000281
1002
}
  0
LINE
  5
121
330
10D
100
AcDbEntity
  8
G-----TTP
100
AcDbLine
 10
292.8325093493553
 20
94.17142857141548
 30
0.0
 11
215.046795063641
 21
94.17142857141548
 31
0.0
1001
REVIT
1002
{
1070
     3
1000
-2000281
1002
}
  0
LINE
  5
122
330
10D
100
AcDbEntity
  8
G-----TTP
100
AcDbLine
 10
215.046795063641
 20
90.63571428570096
 30
0.0
 11
215.046795063641
 21
114.6785714285573
 31
0.0
1001
REVIT
1002
{
1070
     3
1000
-2000281
1002
}
  0
LINE
  5
123
330
10D
100
AcDbEntity
  8
G-----TTP
370
    25
100
AcDbLine
 10
292.8325093493553
 20
114.6785714285573
 30
0.0
 11
154.9396522064979
 21
114.6785714285573
 31
0.0
1001
REVIT
1002
{
1070
     3
1000
-2000282
1002
}
  0
LINE
  5
124
330
10D
100
AcDbEntity
  8
G-----TTP
370
    25
100
AcDbLine
 10
292.8325093493553
 20
90.63571428570096
 30
0.0
 11
154.9396522064979
 21
90.63571428570096
 31
0.0
1001
REVIT
1002
{
1070
     3
1000
-2000282
1002
}
  0
LINE
  5
125
330
10D
100
AcDbEntity
  8
G-----TTP
370
    25
100
AcDbLine
 10
292.8325093493553
 20
90.63571428570096
 30
0.0
 11
292.8325093493553
 21
114.6785714285573
 31
0.0
1001
REVIT
1002
{
1070
     3
1000
-2000282
1002
}
  0
LINE
  5
126
330
10D
100
AcDbEntity
  8
G-----TTP
370
    25
100
AcDbLine
 10
95.53965220649775
 20
90.63571428570085
 30
0.0
 11
95.53965220649775
 21
114.6785714285574
 31
0.0
1001
REVIT
1002
{
1070
     3
1000
-2000282
1002
}
  0
LINE
  5
127
330
10D
100
AcDbEntity
  8
G-----TTP
370
    25
100
AcDbLine
 10
8.798463415511349
 20
114.6785714285574
 30
0.0
 11
95.53965220649775
 21
114.6785714285574
 31
0.0
1001
REVIT
1002
{
1070
     3
1000
-2000282
1002
}
  0
LINE
  5
128
330
10D
100
AcDbEntity
  8
G-----TTP
370
    25
100
AcDbLine
 10
8.798463415511349
 20
90.63571428570085
 30
0.0
 11
95.53965220649775
 21
90.63571428570085
 31
0.0
1001
REVIT
1002
{
1070
     3
1000
-2000282
1002
}
  0
LINE
  5
129
330
10D
100
AcDbEntity
  8
G-----TTP
370
    25
100
AcDbLine
 10
8.798463415511349
 20
114.6785714285574
 30
0.0
 11
8.798463415511349
 21
90.63571428570085
 31
0.0
1001
REVIT
1002
{
1070
     3
1000
-2000282
1002
}
  0
LINE
  5
12A
330
10D
100
AcDbEntity
  8
G-----TTP
370
    25
100
AcDbLine
 10
6.677034844082778
 20
116.7999999999851
 30
0.0
 11
294.9539379207838
 21
116.7999999999851
 31
0.0
1001
REVIT
1002
{
1070
     3
1000
-2000282
1002
}
  0
LINE
  5
12B
330
10D
100
AcDbEntity
  8
G-----TTP
370
    25
100
AcDbLine
 10
294.9539379207837
 20
291.4642857142719
 30
0.0
 11
294.9539379207837
 21
88.51428571427183
 31
0.0
1001
REVIT
1002
{
1070
     3
1000
-2000282
1002
}
  0
LINE
  5
12C
330
10D
100
AcDbEntity
  8
G-----TTP
370
    25
100
AcDbLine
 10
6.677034844082778
 20
88.51428571427181
 30
0.0
 11
294.9539379207838
 21
88.51428571427181
 31
0.0
1001
REVIT
1002
{
1070
     3
1000
-2000282
1002
}
  0
LINE
  5
12D
330
10D
100
AcDbEntity
  8
G-----TTP
370
    25
100
AcDbLine
 10
6.677034844082781
 20
291.4642857142719
 30
0.0
 11
6.677034844082781
 21
88.51428571427183
 31
0.0
1001
REVIT
1002
{
1070
     3
1000
-2000282
1002
}
  0
LINE
  5
12E
330
10D
100
AcDbEntity
  8
G-----TTP
370
    25
100
AcDbLine
 10
6.677034844082778
 20
291.4642857142719
 30
0.0
 11
294.9539379207838
 21
291.4642857142719
 31
0.0
1001
REVIT
1002
{
1070
     3
1000
-2000282
1002
}
  0
LINE
  5
12F
330
10D
100
AcDbEntity
  8
G-----TTP
100
AcDbLine
 10
2.792850708836863
 20
294.999999999986
 30
0.0
 11
2.792850708836863
 21
84.97857142855746
 31
0.0
1001
REVIT
1002
{
1070
     3
1000
-2000281
1002
}
  0
LINE
  5
130
330
10D
100
AcDbEntity
  8
G-----TTP
100
AcDbLine
 10
299.7928507088368
 20
294.999999999986
 30
0.0
 11
2.792850708836863
 21
294.999999999986
 31
0.0
1001
REVIT
1002
{
1070
     3
1000
-2000281
1002
}
  0
LINE
  5
131
330
10D
100
AcDbEntity
  8
G-----TTP
100
AcDbLine
 10
299.7928507088368
 20
84.97857142855746
 30
0.0
 11
299.7928507088368
 21
294.9999999999861
 31
0.0
1001
REVIT
1002
{
1070
     3
1000
-2000281
1002
}
  0
LINE
  5
132
330
10D
100
AcDbEntity
  8
G-----TTP
100
AcDbLine
 10
2.792850708836863
 20
84.97857142855746
 30
0.0
 11
299.7928507088368
 21
84.97857142855746
 31
0.0
1001
REVIT
1002
{
1070
     3
1000
-2000281
1002
}
  0
MTEXT
  5
133
330
10D
100
AcDbEntity
  8
G-----TTP
100
AcDbMText
 10
254.998208396275
 20
93.10343409203412
 30
0.0
 40
1.721182634730538
 41
7.160647605924904
 46
0.0
 71
     1
 72
     1
  1
\fArial|b0|i0|c0|p34|;Scale
 73
     2
 44
0.9385317878468562
1001
REVIT
1002
{
1070
     3
1000
165349
1002
}
  0
MTEXT
  5
134
330
10D
100
AcDbEntity
  8
G-----TTP
100
AcDbMText
 10
216.8973466727144
 20
93.10343409203412
 30
0.0
 40
1.721182634730538
 41
15.05625904236996
 46
0.0
 71
     1
 72
     1
  1
\fArial|b0|i0|c0|p34|;Checked by
 73
     2
 44
0.9385317878468562
1001
REVIT
1002
{
1070
     3
1000
165349
1002
}
  0
MTEXT
  5
135
330
10D
100
AcDbEntity
  8
G-----TTP
100
AcDbMText
 10
216.8973466727144
 20
96.71042441791824
 30
0.0
 40
1.721182634730538
 41
11.94841198759903
 46
0.0
 71
     1
 72
     1
  1
\fArial|b0|i0|c0|p34|;Drawn by
 73
     2
 44
0.9385317878468562
1001
REVIT
1002
{
1070
     3
1000
165349
1002
}
  0
MTEXT
  5
136
330
10D
100
AcDbEntity
  8
G-----TTP
100
AcDbMText
 10
216.8973466727144
 20
100.202514490652
 30
0.0
 40
1.721182634730538
 41
6.047702376851532
 46
0.0
 71
     1
 72
     1
  1
\fArial|b0|i0|c0|p34|;Date
 73
     2
 44
0.9385317878468562
1001
REVIT
1002
{
1070
     3
1000
165349
1002
}
  0
MTEXT
  5
137
330
10D
100
AcDbEntity
  8
G-----TTP
100
AcDbMText
 10
216.8973466727144
 20
103.8301902721618
 30
0.0
 40
1.721182634730538
 41
19.403045125732
 46
0.0
 71
     1
 72
     1
  1
\fArial|b0|i0|c0|p34|;Project number
 73
     2
 44
0.9385317878468562
1001
REVIT
1002
{
1070
     3
1000
165349
1002
}
  0
MTEXT
  5
138
330
10D
100
AcDbEntity
  8
G-----TTP
100
AcDbMText
 10
20.88411674533643
 20
96.19741015798522
 30
0.0
 40
2.950598802395208
 41
72.60485385296722
 46
0.0
 71
     1
 72
     1
  1
\fArial|b0|i0|c0|p34|;South Pacific Shingles (2003) Ltd\P
 73
     2
 44
0.9385317878468562
1001
REVIT
1002
{
1070
     3
1000
165465
1002
}
  0
MTEXT
  5
139
330
10D
100
AcDbEntity
  8
G-----TTP
100
AcDbMText
 10
158.4821206429074
 20
111.5973013750055
 30
0.0
 40
1.967065868263472
 41
65.1317262646808
 46
0.0
 71
     1
 72
     1
  1
\fArial|b0|i0|c0|p34|;South Pacific Shingles (2003) Ltd\PPO Box 51885, Pakuranga, Auckland\P21b Gabador Place, Mt Wellington, Auckland\PNew Zealand\PPh: 64 9 5733017     Fax: 64 9 5733018\PWeb:  www.southpacificshingles.co.nz
 73
     2
 44
0.9385317878468564
1001
REVIT
1002
{
1070
     3
1000
165218
1002
}
  0
ENDBLK
  5
13B
330
10D
100
AcDbEntity
  8
0
100
AcDbBlockEnd
  0
ENDSEC
  0
SECTION
  2
ENTITIES
  0
ARC
  5
83
330
75
100
AcDbEntity
  8
A-----NPP
100
AcDbCircle
 10
1839.951081775471
 20
2310.150729558589
 30
0.0
 40
5.000000000016143
100
AcDbArc
 50
180.0
 51
0.0
1001
REVIT
1002
{
1070
     1
1000
159971
1002
}
1002
{
1070
     2
1000
-2000051
1002
}
1002
{
1070
     3
1000
-2000042
1002
}
  0
ARC
  5
84
330
75
100
AcDbEntity
  8
A-----NPP
100
AcDbCircle
 10
1839.951081775471
 20
2310.150729558589
 30
0.0
 40
5.00000000001637
100
AcDbArc
 50
0.0
 51
180.0
1001
REVIT
1002
{
1070
     1
1000
159971
1002
}
1002
{
1070
     2
1000
-2000051
1002
}
1002
{
1070
     3
1000
-2000042
1002
}
  0
HATCH
  5
85
330
75
100
AcDbEntity
  8
A-DETLGEM
 62
     7
100
AcDbHatch
 10
0.0
 20
0.0
 30
0.0
210
0.0
220
0.0
230
1.0
  2
SOLID
 70
     1
 71
     0
 91
        1
 92
        0
 93
        2
 72
     2
 10
1839.951081775471
 20
2310.150729558589
 40
5.000000000016143
 50
180.0
 51
360.0
 73
     1
 72
     2
 10
1839.951081775471
 20
2310.150729558589
 40
5.00000000001637
 50
0.0
 51
180.0
 73
     1
 97
        0
 75
     0
 76
     1
 98
        1
 10
0.0
 20
0.0
450
        0
451
        0
460
0.0
461
0.0
452
        0
462
0.0
453
        0
470

1001
REVIT
1002
{
1070
     1
1000
159971
1002
}
1002
{
1070
     2
1000
-2000059
1002
}
1002
{
1070
     3
1000
768
1002
}
  0
HATCH
  5
8A
330
75
100
AcDbEntity
  8
A-DETLGEM
 62
   250
100
AcDbHatch
 10
0.0
 20
0.0
 30
0.0
210
0.0
220
0.0
230
1.0
  2
SOLID
 70
     1
 71
     0
 91
        1
 92
        0
 93
        4
 72
     1
 10
1823.588181899707
 20
2324.265894809571
 11
1823.588181899706
 21
2321.233317058666
 72
     1
 10
1823.588181899706
 20
2321.233317058666
 11
2192.56244428086
 21
2321.233317058711
 72
     1
 10
2192.56244428086
 20
2321.233317058711
 11
2192.56244428086
 21
2324.265894809584
 72
     1
 10
2192.56244428086
 20
2324.265894809584
 11
1823.588181899707
 21
2324.265894809571
 97
        0
 75
     0
 76
     1
 98
        1
 10
0.0
 20
0.0
450
        0
451
        0
460
0.0
461
0.0
452
        0
462
0.0
453
        0
470

1001
REVIT
1002
{
1070
     1
1000
159989
1002
}
1002
{
1070
     2
1000
-2000059
1002
}
1002
{
1070
     3
1000
131133
1002
}
  0
LINE
  5
8B
330
75
100
AcDbEntity
  8
A-----NPP
100
AcDbLine
 10
2192.562444280861
 20
2324.265894809585
 30
0.0
 11
1823.588181899708
 21
2324.265894809571
 31
0.0
1001
REVIT
1002
{
1070
     1
1000
159989
1002
}
1002
{
1070
     2
1000
-2000051
1002
}
1002
{
1070
     3
1000
-2000042
1002
}
  0
LINE
  5
8C
330
75
100
AcDbEntity
  8
A-----NPP
100
AcDbLine
 10
1823.588181899708
 20
2324.265894809571
 30
0.0
 11
1823.588181899707
 21
2321.233317058667
 31
0.0
1001
REVIT
1002
{
1070
     1
1000
159989
1002
}
1002
{
1070
     2
1000
-2000051
1002
}
1002
{
1070
     3
1000
-2000042
1002
}
  0
LINE
  5
8D
330
75
100
AcDbEntity
  8
A-----NPP
100
AcDbLine
 10
1823.588181899707
 20
2321.233317058667
 30
0.0
 11
2192.562444280861
 21
2321.233317058712
 31
0.0
1001
REVIT
1002
{
1070
     1
1000
159989
1002
}
1002
{
1070
     2
1000
-2000051
1002
}
1002
{
1070
     3
1000
-2000042
1002
}
  0
HATCH
  5
92
330
75
100
AcDbEntity
  8
A-DETLGEM
 62
   250
100
AcDbHatch
 10
0.0
 20
0.0
 30
0.0
210
0.0
220
0.0
230
1.0
  2
SOLID
 70
     1
 71
     0
 91
        1
 92
        0
 93
        4
 72
     1
 10
1823.588181899707
 20
2318.950541943349
 11
1823.588181899706
 21
2315.917964192375
 72
     1
 10
1823.588181899706
 20
2315.917964192375
 11
2192.56244428086
 21
2315.91796419242
 72
     1
 10
2192.56244428086
 20
2315.91796419242
 11
2192.56244428086
 21
2318.950541943362
 72
     1
 10
2192.56244428086
 20
2318.950541943362
 11
1823.588181899707
 21
2318.950541943349
 97
        0
 75
     0
 76
     1
 98
        1
 10
0.0
 20
0.0
450
        0
451
        0
460
0.0
461
0.0
452
        0
462
0.0
453
        0
470

1001
REVIT
1002
{
1070
     1
1000
159996
1002
}
1002
{
1070
     2
1000
-2000059
1002
}
1002
{
1070
     3
1000
131133
1002
}
  0
LINE
  5
93
330
75
100
AcDbEntity
  8
A-----NPP
100
AcDbLine
 10
2192.562444280861
 20
2318.950541943362
 30
0.0
 11
1823.588181899707
 21
2318.950541943349
 31
0.0
1001
REVIT
1002
{
1070
     1
1000
159996
1002
}
1002
{
1070
     2
1000
-2000051
1002
}
1002
{
1070
     3
1000
-2000042
1002
}
  0
LINE
  5
94
330
75
100
AcDbEntity
  8
A-----NPP
100
AcDbLine
 10
1823.588181899707
 20
2318.950541943349
 30
0.0
 11
1823.588181899706
 21
2315.917964192376
 31
0.0
1001
REVIT
1002
{
1070
     1
1000
159996
1002
}
1002
{
1070
     2
1000
-2000051
1002
}
1002
{
1070
     3
1000
-2000042
1002
}
  0
LINE
  5
95
330
75
100
AcDbEntity
  8
A-----NPP
100
AcDbLine
 10
1823.588181899706
 20
2315.917964192376
 30
0.0
 11
2192.562444280861
 21
2315.917964192421
 31
0.0
1001
REVIT
1002
{
1070
     1
1000
159996
1002
}
1002
{
1070
     2
1000
-2000051
1002
}
1002
{
1070
     3
1000
-2000042
1002
}
  0
LINE
  5
96
330
75
100
AcDbEntity
  8
A-----NPP
370
    35
100
AcDbLine
 10
1883.588181899706
 20
2304.265894809576
 30
0.0
 11
1823.588181899706
 21
2304.265894809576
 31
0.0
1001
REVIT
1002
{
1070
     1
1000
159973
1002
}
1002
{
1070
     2
1000
-2000051
1002
}
1002
{
1070
     3
1000
-2000043
1002
}
  0
LINE
  5
97
330
75
100
AcDbEntity
  8
A-----NPP
370
    35
100
AcDbLine
 10
1823.588181899706
 20
2304.265894809576
 30
0.0
 11
1823.588181899706
 21
2264.265894809591
 31
0.0
1001
REVIT
1002
{
1070
     1
1000
159974
1002
}
1002
{
1070
     2
1000
-2000051
1002
}
1002
{
1070
     3
1000
-2000043
1002
}
  0
LINE
  5
98
330
75
100
AcDbEntity
  8
A-----NPP
370
    35
100
AcDbLine
 10
1823.588181899706
 20
2264.265894809591
 30
0.0
 11
1816.103814712483
 21
2254.265894809558
 31
0.0
1001
REVIT
1002
{
1070
     1
1000
159975
1002
}
1002
{
1070
     2
1000
-2000051
1002
}
1002
{
1070
     3
1000
-2000043
1002
}
  0
INSERT
  5
A1
330
75
100
AcDbEntity
  8
A-DETLGEM
100
AcDbBlockReference
  2
tmber 100_50 - tmber 100_50_1-0-Detail 1
 10
1862.295921614425
 20
2183.12074482506
 30
0.0
1001
REVIT
1002
{
1070
     1
1000
159980
1002
}
1002
{
1070
     5
1000
113610
1002
}
1002
{
1070
     2
1000
-2002000
1002
}
  0
INSERT
  5
AE
330
75
100
AcDbEntity
  8
A-DETLGEM
100
AcDbBlockReference
  2
barge board - barge board_1-3-Detail 1
 10
1831.533674151555
 20
2083.111045300442
 30
0.0
1001
REVIT
1002
{
1070
     1
1000
159981
1002
}
1002
{
1070
     5
1000
111509
1002
}
1002
{
1070
     2
1000
-2002000
1002
}
  0
LINE
  5
AF
330
75
100
AcDbEntity
  8
A-----NPP
100
AcDbLine
 10
1852.837229581701
 20
2181.908919776257
 30
0.0
 11
2192.562444280861
 21
2181.908919776257
 31
0.0
1001
REVIT
1002
{
1070
     1
1000
159976
1002
}
1002
{
1070
     2
1000
-2000051
1002
}
1002
{
1070
     3
1000
-2000042
1002
}
  0
LINE
  5
B0
330
75
100
AcDbEntity
  8
A-----NPP
100
AcDbLine
 10
1852.837229581701
 20
2174.530102281176
 30
0.0
 11
1852.837229581701
 21
2181.908919776257
 31
0.0
1001
REVIT
1002
{
1070
     1
1000
159977
1002
}
1002
{
1070
     2
1000
-2000051
1002
}
1002
{
1070
     3
1000
-2000042
1002
}
  0
LINE
  5
B1
330
75
100
AcDbEntity
  8
A-----NPP
100
AcDbLine
 10
2192.562444280861
 20
2174.530102281176
 30
0.0
 11
1852.837229581701
 21
2174.530102281176
 31
0.0
1001
REVIT
1002
{
1070
     1
1000
159978
1002
}
1002
{
1070
     2
1000
-2000051
1002
}
1002
{
1070
     3
1000
-2000042
1002
}
  0
INSERT
  5
BB
330
75
100
AcDbEntity
  8
A-DETLGEM
100
AcDbBlockReference
  2
ply2 20_ - ply 20__1-2-Detail 1
 10
1831.583283944547
 20
2283.981006017112
 30
0.0
1001
REVIT
1002
{
1070
     1
1000
159983
1002
}
1002
{
1070
     5
1000
109593
1002
}
1002
{
1070
     2
1000
-2002000
1002
}
  0
LINE
  5
BD
330
75
100
AcDbEntity
  8
A-----NPP
  6
Dash
370
    35
100
AcDbLine
 10
1831.637669721592
 20
2299.26589480956
 30
0.0
 11
2192.562444280861
 21
2299.26589480956
 31
0.0
1001
REVIT
1002
{
1070
     1
1000
159984
1002
}
1002
{
1070
     2
1000
-2000051
1002
}
1002
{
1070
     3
1000
108841
1002
}
  0
INSERT
  5
C6
330
75
100
AcDbEntity
  8
A-DETLGEM
100
AcDbBlockReference
  2
Break Line1 - M_Break Line_1-1-Detail 1
 10
2192.562444280856
 20
2226.908919776265
 30
0.0
 50
270.0
1001
REVIT
1002
{
1070
     1
1000
159985
1002
}
1002
{
1070
     5
1000
112305
1002
}
1002
{
1070
     2
1000
-2002000
1002
}
  0
MTEXT
  5
C8
330
75
100
AcDbEntity
  8
A-----TEP
 62
     7
100
AcDbMText
 10
1410.526058127455
 20
2109.725226541414
 30
0.0
 40
12.29416167664671
 41
314.55
 46
0.0
 71
     1
 72
     1
  1
\fArial|b0|i0|c0|p34|;SOFFIT LINING (IF APPLICABLE)
 73
     2
 44
0.938531787846856
1001
REVIT
1002
{
1070
     1
1000
159961
1002
}
1002
{
1070
     5
1000
1631
1002
}
1002
{
1070
     2
1000
-2000059
1002
}
1002
{
1070
     3
1000
1632
1002
}
  0
MTEXT
  5
C9
330
75
100
AcDbEntity
  8
A-----TEP
 62
     7
100
AcDbMText
 10
2341.380432442738
 20
2221.319217820667
 30
0.0
 40
12.29416167664671
 41
136.05
 46
0.0
 71
     1
 72
     1
  1
\fArial|b0|i0|c0|p34|;ROOF FRAME
 73
     2
 44
0.938531787846856
1001
REVIT
1002
{
1070
     1
1000
159962
1002
}
1002
{
1070
     5
1000
1631
1002
}
1002
{
1070
     2
1000
-2000059
1002
}
1002
{
1070
     3
1000
1632
1002
}
  0
MTEXT
  5
CA
330
75
100
AcDbEntity
  8
A-----TEP
 62
     7
100
AcDbMText
 10
1538.059733466358
 20
2169.840231014998
 30
0.0
 40
12.29416167664671
 41
149.85
 46
0.0
 71
     1
 72
     1
  1
\fArial|b0|i0|c0|p34|;BARGE BOARD
 73
     2
 44
0.938531787846856
1001
REVIT
1002
{
1070
     1
1000
159963
1002
}
1002
{
1070
     5
1000
1631
1002
}
1002
{
1070
     2
1000
-2000059
1002
}
1002
{
1070
     3
1000
1632
1002
}
  0
MTEXT
  5
CB
330
75
100
AcDbEntity
  8
A-----TEP
 62
     7
100
AcDbMText
 10
1508.109891047983
 20
2251.740182461114
 30
0.0
 40
12.29416167664671
 41
199.8
 46
0.0
 71
     1
 72
     1
  1
\fArial|b0|i0|c0|p34|;METAL BARGE DRIP\PEDGE FLASHING
 73
     2
 44
0.938531787846856
1001
REVIT
1002
{
1070
     1
1000
159964
1002
}
1002
{
1070
     5
1000
1631
1002
}
1002
{
1070
     2
1000
-2000059
1002
}
1002
{
1070
     3
1000
1632
1002
}
  0
MTEXT
  5
CC
330
75
100
AcDbEntity
  8
A-----TEP
 62
     7
100
AcDbMText
 10
1410.526058127455
 20
2318.4332035995
 30
0.0
 40
12.29416167664671
 41
309.75
 46
0.0
 71
     1
 72
     1
  1
\fArial|b0|i0|c0|p34|;APPLY A BEAD OF BITUMASTIC\PADHESIVE/SEALANT
 73
     2
 44
0.938531787846856
1001
REVIT
1002
{
1070
     1
1000
159965
1002
}
1002
{
1070
     5
1000
1631
1002
}
1002
{
1070
     2
1000
-2000059
1002
}
1002
{
1070
     3
1000
1632
1002
}
  0
MTEXT
  5
CD
330
75
100
AcDbEntity
  8
A-----TEP
 62
     7
100
AcDbMText
 10
1418.573997094651
 20
2378.631184970545
 30
0.0
 40
12.29416167664671
 41
292.65
 46
0.0
 71
     1
 72
     1
  1
\fArial|b0|i0|c0|p34|;SELECTED OWENS CORNING\PASPHALT SHINGLES
 73
     2
 44
0.938531787846856
1001
REVIT
1002
{
1070
     1
1000
159966
1002
}
1002
{
1070
     5
1000
1631
1002
}
1002
{
1070
     2
1000
-2000059
1002
}
1002
{
1070
     3
1000
1632
1002
}
  0
MTEXT
  5
CE
330
75
100
AcDbEntity
  8
A-----TEP
 62
     7
100
AcDbMText
 10
2341.380432442738
 20
2288.626796779215
 30
0.0
 40
12.29416167664671
 41
104.1
 46
0.0
 71
     1
 72
     1
  1
\fArial|b0|i0|c0|p34|;PLYWOOD
 73
     2
 44
0.938531787846856
1001
REVIT
1002
{
1070
     1
1000
159967
1002
}
1002
{
1070
     5
1000
1631
1002
}
1002
{
1070
     2
1000
-2000059
1002
}
1002
{
1070
     3
1000
1632
1002
}
  0
MTEXT
  5
CF
330
75
100
AcDbEntity
  8
A-----TEP
 62
     7
100
AcDbMText
 10
1768.062095227063
 20
1961.461913738714
 30
0.0
 40
17.21182634730539
 41
590.0709610747502
 46
0.0
 71
     1
 72
     1
  1
\fArial|b1|i0|c0|p34|;TYPICAL BARGE DETAIL - CROSS SECTION
 73
     2
 44
0.9385317878468562
1001
REVIT
1002
{
1070
     1
1000
159968
1002
}
1002
{
1070
     5
1000
1635
1002
}
1002
{
1070
     2
1000
-2000059
1002
}
1002
{
1070
     3
1000
1636
1002
}
  0
LINE
  5
D1
330
75
100
AcDbEntity
  8
A-----NOP
100
AcDbLine
 10
2139.980024741443
 20
2207.540288673868
 30
0.0
 11
2139.980024741441
 21
2215.578764446802
 31
0.0
1001
REVIT
1002
{
1070
     1
1000
160007
1002
}
1002
{
1070
     5
1000
142258
1002
}
1002
{
1070
     2
1000
-2000150
1002
}
  0
LINE
  5
D2
330
75
100
AcDbEntity
  8
A-----NOP
100
AcDbLine
 10
2139.980024741441
 20
2215.578764446802
 30
0.0
 11
2124.980024741442
 21
2211.559526560331
 31
0.0
1001
REVIT
1002
{
1070
     1
1000
160007
1002
}
1002
{
1070
     5
1000
142258
1002
}
1002
{
1070
     2
1000
-2000150
1002
}
  0
LINE
  5
D3
330
75
100
AcDbEntity
  8
A-----NOP
100
AcDbLine
 10
2124.980024741442
 20
2211.559526560331
 30
0.0
 11
2139.980024741443
 21
2207.540288673868
 31
0.0
1001
REVIT
1002
{
1070
     1
1000
160007
1002
}
1002
{
1070
     5
1000
142258
1002
}
1002
{
1070
     2
1000
-2000150
1002
}
  0
HATCH
  5
D4
330
75
100
AcDbEntity
  8
A-----NOP
100
AcDbHatch
 10
0.0
 20
0.0
 30
0.0
210
0.0
220
0.0
230
1.0
  2
SOLID
 70
     1
 71
     0
 91
        1
 92
        0
 93
        3
 72
     1
 10
2139.980024741443
 20
2207.540288673868
 11
2139.980024741441
 21
2215.578764446802
 72
     1
 10
2139.980024741441
 20
2215.578764446802
 11
2124.980024741442
 21
2211.559526560331
 72
     1
 10
2124.980024741442
 20
2211.559526560331
 11
2139.980024741443
 21
2207.540288673868
 97
        0
 75
     0
 76
     1
 98
        1
 10
0.0
 20
0.0
450
        0
451
        0
460
0.0
461
0.0
452
        0
462
0.0
453
        0
470

1001
REVIT
1002
{
1070
     1
1000
160007
1002
}
1002
{
1070
     5
1000
142258
1002
}
1002
{
1070
     2
1000
-2000150
1002
}
  0
LINE
  5
D5
330
75
100
AcDbEntity
  8
A-----NOP
100
AcDbLine
 10
2124.980024741442
 20
2211.559526560331
 30
0.0
 11
2339.064875216402
 21
2211.559526560388
 31
0.0
1001
REVIT
1002
{
1070
     1
1000
160007
1002
}
1002
{
1070
     5
1000
142258
1002
}
1002
{
1070
     2
1000
-2000150
1002
}
  0
INSERT
  5
D9
330
75
100
AcDbEntity
  8
A-----NOP
100
AcDbBlockReference
  2
M_Label Annotation - M_Label Annotation_1-142258-Detail 1
 10
2367.762697417939
 20
2216.858372262546
 30
0.0
 41
5.0
 42
5.0
 43
5.0
1001
REVIT
1002
{
1070
     1
1000
160007
1002
}
1002
{
1070
     5
1000
142258
1002
}
1002
{
1070
     2
1000
-2000150
1002
}
  0
LINE
  5
DA
330
75
100
AcDbEntity
  8
A-----NOP
100
AcDbLine
 10
2204.296478523479
 20
2282.112431910192
 30
0.0
 11
2205.107719025666
 21
2290.109867849269
 31
0.0
1001
REVIT
1002
{
1070
     1
1000
160008
1002
}
1002
{
1070
     5
1000
142258
1002
}
1002
{
1070
     2
1000
-2000150
1002
}
  0
LINE
  5
DB
330
75
100
AcDbEntity
  8
A-----NOP
100
AcDbLine
 10
2205.107719025666
 20
2290.109867849269
 30
0.0
 11
2189.778680147115
 21
2287.624945265392
 31
0.0
1001
REVIT
1002
{
1070
     1
1000
160008
1002
}
1002
{
1070
     5
1000
142258
1002
}
1002
{
1070
     2
1000
-2000150
1002
}
  0
LINE
  5
DC
330
75
100
AcDbEntity
  8
A-----NOP
100
AcDbLine
 10
2189.778680147115
 20
2287.624945265392
 30
0.0
 11
2204.296478523479
 21
2282.112431910192
 31
0.0
1001
REVIT
1002
{
1070
     1
1000
160008
1002
}
1002
{
1070
     5
1000
142258
1002
}
1002
{
1070
     2
1000
-2000150
1002
}
  0
HATCH
  5
DD
330
75
100
AcDbEntity
  8
A-----NOP
100
AcDbHatch
 10
0.0
 20
0.0
 30
0.0
210
0.0
220
0.0
230
1.0
  2
SOLID
 70
     1
 71
     0
 91
        1
 92
        0
 93
        3
 72
     1
 10
2204.296478523479
 20
2282.112431910192
 11
2205.107719025666
 21
2290.109867849269
 72
     1
 10
2205.107719025666
 20
2290.109867849269
 11
2189.778680147115
 21
2287.624945265392
 72
     1
 10
2189.778680147115
 20
2287.624945265392
 11
2204.296478523479
 21
2282.112431910192
 97
        0
 75
     0
 76
     1
 98
        1
 10
0.0
 20
0.0
450
        0
451
        0
460
0.0
461
0.0
452
        0
462
0.0
453
        0
470

1001
REVIT
1002
{
1070
     1
1000
160008
1002
}
1002
{
1070
     5
1000
142258
1002
}
1002
{
1070
     2
1000
-2000150
1002
}
  0
LINE
  5
DE
330
75
100
AcDbEntity
  8
A-----NOP
100
AcDbLine
 10
2288.867808621038
 20
2277.573584434636
 30
0.0
 11
2339.064875216402
 21
2277.573584434694
 31
0.0
1001
REVIT
1002
{
1070
     1
1000
160008
1002
}
1002
{
1070
     5
1000
142258
1002
}
1002
{
1070
     2
1000
-2000150
1002
}
  0
LINE
  5
DF
330
75
100
AcDbEntity
  8
A-----NOP
100
AcDbLine
 10
2189.778680147115
 20
2287.624945265392
 30
0.0
 11
2288.867808621038
 21
2277.573584434636
 31
0.0
1001
REVIT
1002
{
1070
     1
1000
160008
1002
}
1002
{
1070
     5
1000
142258
1002
}
1002
{
1070
     2
1000
-2000150
1002
}
  0
INSERT
  5
E0
330
75
100
AcDbEntity
  8
A-----NOP
100
AcDbBlockReference
  2
M_Label Annotation - M_Label Annotation_1-142258-Detail 1
 10
2367.762697417939
 20
2282.872430136851
 30
0.0
 41
5.0
 42
5.0
 43
5.0
1001
REVIT
1002
{
1070
     1
1000
160008
1002
}
1002
{
1070
     5
1000
142258
1002
}
1002
{
1070
     2
1000
-2000150
1002
}
  0
LINE
  5
E1
330
75
100
AcDbEntity
  8
A-----NOP
100
AcDbLine
 10
2173.670852842423
 20
2301.960206042547
 30
0.0
 11
2170.739580862472
 21
2309.445173466096
 31
0.0
1001
REVIT
1002
{
1070
     1
1000
160009
1002
}
1002
{
1070
     5
1000
142258
1002
}
1002
{
1070
     2
1000
-2000150
1002
}
  0
LINE
  5
E2
330
75
100
AcDbEntity
  8
A-----NOP
100
AcDbLine
 10
2170.739580862472
 20
2309.445173466096
 30
0.0
 11
2158.238077493605
 21
2300.232861774332
 31
0.0
1001
REVIT
1002
{
1070
     1
1000
160009
1002
}
1002
{
1070
     5
1000
142258
1002
}
1002
{
1070
     2
1000
-2000150
1002
}
  0
LINE
  5
E3
330
75
100
AcDbEntity
  8
A-----NOP
100
AcDbLine
 10
2158.238077493605
 20
2300.232861774332
 30
0.0
 11
2173.670852842423
 21
2301.960206042547
 31
0.0
1001
REVIT
1002
{
1070
     1
1000
160009
1002
}
1002
{
1070
     5
1000
142258
1002
}
1002
{
1070
     2
1000
-2000150
1002
}
  0
HATCH
  5
E4
330
75
100
AcDbEntity
  8
A-----NOP
100
AcDbHatch
 10
0.0
 20
0.0
 30
0.0
210
0.0
220
0.0
230
1.0
  2
SOLID
 70
     1
 71
     0
 91
        1
 92
        0
 93
        3
 72
     1
 10
2173.670852842423
 20
2301.960206042547
 11
2170.739580862472
 21
2309.445173466096
 72
     1
 10
2170.739580862472
 20
2309.445173466096
 11
2158.238077493605
 21
2300.232861774332
 72
     1
 10
2158.238077493605
 20
2300.232861774332
 11
2173.670852842423
 21
2301.960206042547
 97
        0
 75
     0
 76
     1
 98
        1
 10
0.0
 20
0.0
450
        0
451
        0
460
0.0
461
0.0
452
        0
462
0.0
453
        0
470

1001
REVIT
1002
{
1070
     1
1000
160009
1002
}
1002
{
1070
     5
1000
142258
1002
}
1002
{
1070
     2
1000
-2000150
1002
}
  0
LINE
  5
E5
330
75
100
AcDbEntity
  8
A-----NOP
100
AcDbLine
 10
2288.867808621038
 20
2351.390234804132
 30
0.0
 11
2339.064875216367
 21
2351.390234804189
 31
0.0
1001
REVIT
1002
{
1070
     1
1000
160009
1002
}
1002
{
1070
     5
1000
142258
1002
}
1002
{
1070
     2
1000
-2000150
1002
}
  0
LINE
  5
E6
330
75
100
AcDbEntity
  8
A-----NOP
100
AcDbLine
 10
2158.238077493605
 20
2300.232861774332
 30
0.0
 11
2288.867808621038
 21
2351.390234804132
 31
0.0
1001
REVIT
1002
{
1070
     1
1000
160009
1002
}
1002
{
1070
     5
1000
142258
1002
}
1002
{
1070
     2
1000
-2000150
1002
}
  0
INSERT
  5
E7
330
75
100
AcDbEntity
  8
A-----NOP
100
AcDbBlockReference
  2
M_Label Annotation - M_Label Annotation_1-142258-Detail 1
 10
2367.762697417905
 20
2356.689080506347
 30
0.0
 41
5.0
 42
5.0
 43
5.0
1001
REVIT
1002
{
1070
     1
1000
160009
1002
}
1002
{
1070
     5
1000
142258
1002
}
1002
{
1070
     2
1000
-2000150
1002
}
  0
LINE
  5
E8
330
75
100
AcDbEntity
  8
A-----NOP
100
AcDbLine
 10
1811.753714591374
 20
2335.198370087737
 30
0.0
 11
1807.954913707239
 21
2328.114147858392
 31
0.0
1001
REVIT
1002
{
1070
     1
1000
160010
1002
}
1002
{
1070
     5
1000
142258
1002
}
1002
{
1070
     2
1000
-2000150
1002
}
  0
LINE
  5
E9
330
75
100
AcDbEntity
  8
A-----NOP
100
AcDbLine
 10
1807.954913707239
 20
2328.114147858392
 30
0.0
 11
1823.073652795318
 21
2324.567600019351
 31
0.0
1001
REVIT
1002
{
1070
     1
1000
160010
1002
}
1002
{
1070
     5
1000
142258
1002
}
1002
{
1070
     2
1000
-2000150
1002
}
  0
LINE
  5
EA
330
75
100
AcDbEntity
  8
A-----NOP
100
AcDbLine
 10
1823.073652795318
 20
2324.567600019351
 30
0.0
 11
1811.753714591374
 21
2335.198370087737
 31
0.0
1001
REVIT
1002
{
1070
     1
1000
160010
1002
}
1002
{
1070
     5
1000
142258
1002
}
1002
{
1070
     2
1000
-2000150
1002
}
  0
HATCH
  5
EB
330
75
100
AcDbEntity
  8
A-----NOP
100
AcDbHatch
 10
0.0
 20
0.0
 30
0.0
210
0.0
220
0.0
230
1.0
  2
SOLID
 70
     1
 71
     0
 91
        1
 92
        0
 93
        3
 72
     1
 10
1811.753714591374
 20
2335.198370087737
 11
1807.954913707239
 21
2328.114147858392
 72
     1
 10
1807.954913707239
 20
2328.114147858392
 11
1823.073652795318
 21
2324.567600019351
 72
     1
 10
1823.073652795318
 20
2324.567600019351
 11
1811.753714591374
 21
2335.198370087737
 97
        0
 75
     0
 76
     1
 98
        1
 10
0.0
 20
0.0
450
        0
451
        0
460
0.0
461
0.0
452
        0
462
0.0
453
        0
470

1001
REVIT
1002
{
1070
     1
1000
160010
1002
}
1002
{
1070
     5
1000
142258
1002
}
1002
{
1070
     2
1000
-2000150
1002
}
  0
LINE
  5
EC
330
75
100
AcDbEntity
  8
A-----NOP
100
AcDbLine
 10
1773.053261785737
 20
2351.390234804132
 30
0.0
 11
1668.644671184696
 21
2351.390234804189
 31
0.0
1001
REVIT
1002
{
1070
     1
1000
160010
1002
}
1002
{
1070
     5
1000
142258
1002
}
1002
{
1070
     2
1000
-2000150
1002
}
  0
LINE
  5
ED
330
75
100
AcDbEntity
  8
A-----NOP
100
AcDbLine
 10
1823.073652795318
 20
2324.567600019351
 30
0.0
 11
1773.053261785737
 21
2351.390234804132
 31
0.0
1001
REVIT
1002
{
1070
     1
1000
160010
1002
}
1002
{
1070
     5
1000
142258
1002
}
1002
{
1070
     2
1000
-2000150
1002
}
  0
INSERT
  5
EE
330
75
100
AcDbEntity
  8
A-----NOP
100
AcDbBlockReference
  2
M_Label Annotation - M_Label Annotation_1-142258-Detail 1
 10
1639.876001037361
 20
2356.689080506347
 30
0.0
 41
5.0
 42
5.0
 43
5.0
1001
REVIT
1002
{
1070
     1
1000
160010
1002
}
1002
{
1070
     5
1000
142258
1002
}
1002
{
1070
     2
1000
-2000150
1002
}
  0
LINE
  5
EF
330
75
100
AcDbEntity
  8
A-----NOP
100
AcDbLine
 10
1816.326224629846
 20
2313.206284965265
 30
0.0
 11
1816.773590703679
 21
2305.180267500294
 31
0.0
1001
REVIT
1002
{
1070
     1
1000
160011
1002
}
1002
{
1070
     5
1000
142258
1002
}
1002
{
1070
     2
1000
-2000150
1002
}
  0
LINE
  5
F0
330
75
100
AcDbEntity
  8
A-----NOP
100
AcDbLine
 10
1816.773590703679
 20
2305.180267500294
 30
0.0
 11
1831.526660147617
 21
2310.028072691344
 31
0.0
1001
REVIT
1002
{
1070
     1
1000
160011
1002
}
1002
{
1070
     5
1000
142258
1002
}
1002
{
1070
     2
1000
-2000150
1002
}
  0
LINE
  5
F1
330
75
100
AcDbEntity
  8
A-----NOP
100
AcDbLine
 10
1831.526660147617
 20
2310.028072691344
 30
0.0
 11
1816.326224629846
 21
2313.206284965265
 31
0.0
1001
REVIT
1002
{
1070
     1
1000
160011
1002
}
1002
{
1070
     5
1000
142258
1002
}
1002
{
1070
     2
1000
-2000150
1002
}
  0
HATCH
  5
F2
330
75
100
AcDbEntity
  8
A-----NOP
100
AcDbHatch
 10
0.0
 20
0.0
 30
0.0
210
0.0
220
0.0
230
1.0
  2
SOLID
 70
     1
 71
     0
 91
        1
 92
        0
 93
        3
 72
     1
 10
1816.326224629846
 20
2313.206284965265
 11
1816.773590703679
 21
2305.180267500294
 72
     1
 10
1816.773590703679
 20
2305.180267500294
 11
1831.526660147617
 21
2310.028072691344
 72
     1
 10
1831.526660147617
 20
2310.028072691344
 11
1816.326224629846
 21
2313.206284965265
 97
        0
 75
     0
 76
     1
 98
        1
 10
0.0
 20
0.0
450
        0
451
        0
460
0.0
461
0.0
452
        0
462
0.0
453
        0
470

1001
REVIT
1002
{
1070
     1
1000
160011
1002
}
1002
{
1070
     5
1000
142258
1002
}
1002
{
1070
     2
1000
-2000150
1002
}
  0
LINE
  5
F3
330
75
100
AcDbEntity
  8
A-----NOP
100
AcDbLine
 10
1752.658049272546
 20
2305.63197700007
 30
0.0
 11
1668.644671184662
 21
2305.631977000127
 31
0.0
1001
REVIT
1002
{
1070
     1
1000
160011
1002
}
1002
{
1070
     5
1000
142258
1002
}
1002
{
1070
     2
1000
-2000150
1002
}
  0
LINE
  5
F4
330
75
100
AcDbEntity
  8
A-----NOP
100
AcDbLine
 10
1831.526660147617
 20
2310.028072691344
 30
0.0
 11
1752.658049272546
 21
2305.63197700007
 31
0.0
1001
REVIT
1002
{
1070
     1
1000
160011
1002
}
1002
{
1070
     5
1000
142258
1002
}
1002
{
1070
     2
1000
-2000150
1002
}
  0
INSERT
  5
F5
330
75
100
AcDbEntity
  8
A-----NOP
100
AcDbBlockReference
  2
M_Label Annotation - M_Label Annotation_1-142258-Detail 1
 10
1639.876001037327
 20
2310.930822702285
 30
0.0
 41
5.0
 42
5.0
 43
5.0
1001
REVIT
1002
{
1070
     1
1000
160011
1002
}
1002
{
1070
     5
1000
142258
1002
}
1002
{
1070
     2
1000
-2000150
1002
}
  0
LINE
  5
F6
330
75
100
AcDbEntity
  8
A-----NOP
100
AcDbLine
 10
1800.068679481262
 20
2247.547291088488
 30
0.0
 11
1804.950622166384
 21
2241.161077157587
 31
0.0
1001
REVIT
1002
{
1070
     1
1000
160012
1002
}
1002
{
1070
     5
1000
142258
1002
}
1002
{
1070
     2
1000
-2000150
1002
}
  0
LINE
  5
F7
330
75
100
AcDbEntity
  8
A-----NOP
100
AcDbLine
 10
1804.950622166384
 20
2241.161077157587
 30
0.0
 11
1814.426488252886
 21
2253.464013193294
 31
0.0
1001
REVIT
1002
{
1070
     1
1000
160012
1002
}
1002
{
1070
     5
1000
142258
1002
}
1002
{
1070
     2
1000
-2000150
1002
}
  0
LINE
  5
F8
330
75
100
AcDbEntity
  8
A-----NOP
100
AcDbLine
 10
1814.426488252886
 20
2253.464013193294
 30
0.0
 11
1800.068679481262
 21
2247.547291088488
 31
0.0
1001
REVIT
1002
{
1070
     1
1000
160012
1002
}
1002
{
1070
     5
1000
142258
1002
}
1002
{
1070
     2
1000
-2000150
1002
}
  0
HATCH
  5
F9
330
75
100
AcDbEntity
  8
A-----NOP
100
AcDbHatch
 10
0.0
 20
0.0
 30
0.0
210
0.0
220
0.0
230
1.0
  2
SOLID
 70
     1
 71
     0
 91
        1
 92
        0
 93
        3
 72
     1
 10
1800.068679481262
 20
2247.547291088488
 11
1804.950622166384
 21
2241.161077157587
 72
     1
 10
1804.950622166384
 20
2241.161077157587
 11
1814.426488252886
 21
2253.464013193294
 72
     1
 10
1814.426488252886
 20
2253.464013193294
 11
1800.068679481262
 21
2247.547291088488
 97
        0
 75
     0
 76
     1
 98
        1
 10
0.0
 20
0.0
450
        0
451
        0
460
0.0
461
0.0
452
        0
462
0.0
453
        0
470

1001
REVIT
1002
{
1070
     1
1000
160012
1002
}
1002
{
1070
     5
1000
142258
1002
}
1002
{
1070
     2
1000
-2000150
1002
}
  0
LINE
  5
FA
330
75
100
AcDbEntity
  8
A-----NOP
100
AcDbLine
 10
1773.053261785702
 20
2221.836240854816
 30
0.0
 11
1668.644671184662
 21
2221.836240854873
 31
0.0
1001
REVIT
1002
{
1070
     1
1000
160012
1002
}
1002
{
1070
     5
1000
142258
1002
}
1002
{
1070
     2
1000
-2000150
1002
}
  0
LINE
  5
FB
330
75
100
AcDbEntity
  8
A-----NOP
100
AcDbLine
 10
1814.426488252886
 20
2253.464013193294
 30
0.0
 11
1773.053261785702
 21
2221.836240854816
 31
0.0
1001
REVIT
1002
{
1070
     1
1000
160012
1002
}
1002
{
1070
     5
1000
142258
1002
}
1002
{
1070
     2
1000
-2000150
1002
}
  0
INSERT
  5
FC
330
75
100
AcDbEntity
  8
A-----NOP
100
AcDbBlockReference
  2
M_Label Annotation - M_Label Annotation_1-142258-Detail 1
 10
1639.876001037327
 20
2227.135086557031
 30
0.0
 41
5.0
 42
5.0
 43
5.0
1001
REVIT
1002
{
1070
     1
1000
160012
1002
}
1002
{
1070
     5
1000
142258
1002
}
1002
{
1070
     2
1000
-2000150
1002
}
  0
LINE
  5
FD
330
75
100
AcDbEntity
  8
A-----NOP
100
AcDbLine
 10
1819.28727849294
 20
2151.291854743202
 30
0.0
 11
1818.671336580272
 21
2143.277011743351
 31
0.0
1001
REVIT
1002
{
1070
     1
1000
160013
1002
}
1002
{
1070
     5
1000
142258
1002
}
1002
{
1070
     2
1000
-2000150
1002
}
  0
LINE
  5
FE
330
75
100
AcDbEntity
  8
A-----NOP
100
AcDbLine
 10
1818.671336580272
 20
2143.277011743351
 30
0.0
 11
1833.935208181672
 21
2146.135069986982
 31
0.0
1001
REVIT
1002
{
1070
     1
1000
160013
1002
}
1002
{
1070
     5
1000
142258
1002
}
1002
{
1070
     2
1000
-2000150
1002
}
  0
LINE
  5
FF
330
75
100
AcDbEntity
  8
A-----NOP
100
AcDbLine
 10
1833.935208181672
 20
2146.135069986982
 30
0.0
 11
1819.28727849294
 21
2151.291854743202
 31
0.0
1001
REVIT
1002
{
1070
     1
1000
160013
1002
}
1002
{
1070
     5
1000
142258
1002
}
1002
{
1070
     2
1000
-2000150
1002
}
  0
HATCH
  5
100
330
75
100
AcDbEntity
  8
A-----NOP
100
AcDbHatch
 10
0.0
 20
0.0
 30
0.0
210
0.0
220
0.0
230
1.0
  2
SOLID
 70
     1
 71
     0
 91
        1
 92
        0
 93
        3
 72
     1
 10
1819.28727849294
 20
2151.291854743202
 11
1818.671336580272
 21
2143.277011743351
 72
     1
 10
1818.671336580272
 20
2143.277011743351
 11
1833.935208181672
 21
2146.135069986982
 72
     1
 10
1833.935208181672
 20
2146.135069986982
 11
1819.28727849294
 21
2151.291854743202
 97
        0
 75
     0
 76
     1
 98
        1
 10
0.0
 20
0.0
450
        0
451
        0
460
0.0
461
0.0
452
        0
462
0.0
453
        0
470

1001
REVIT
1002
{
1070
     1
1000
160013
1002
}
1002
{
1070
     5
1000
142258
1002
}
1002
{
1070
     2
1000
-2000150
1002
}
  0
LINE
  5
101
330
75
100
AcDbEntity
  8
A-----NOP
100
AcDbLine
 10
1773.053261785737
 20
2150.813856896569
 30
0.0
 11
1668.644671184696
 21
2150.813856896625
 31
0.0
1001
REVIT
1002
{
1070
     1
1000
160013
1002
}
1002
{
1070
     5
1000
142258
1002
}
1002
{
1070
     2
1000
-2000150
1002
}
  0
LINE
  5
102
330
75
100
AcDbEntity
  8
A-----NOP
100
AcDbLine
 10
1833.935208181672
 20
2146.135069986982
 30
0.0
 11
1773.053261785737
 21
2150.813856896569
 31
0.0
1001
REVIT
1002
{
1070
     1
1000
160013
1002
}
1002
{
1070
     5
1000
142258
1002
}
1002
{
1070
     2
1000
-2000150
1002
}
  0
INSERT
  5
103
330
75
100
AcDbEntity
  8
A-----NOP
100
AcDbBlockReference
  2
M_Label Annotation - M_Label Annotation_1-142258-Detail 1
 10
1639.876001037361
 20
2156.112702598784
 30
0.0
 41
5.0
 42
5.0
 43
5.0
1001
REVIT
1002
{
1070
     1
1000
160013
1002
}
1002
{
1070
     5
1000
142258
1002
}
1002
{
1070
     2
1000
-2000150
1002
}
  0
LINE
  5
104
330
75
100
AcDbEntity
  8
A-----NOP
100
AcDbLine
 10
1981.601909509513
 20
2176.524361207594
 30
0.0
 11
1984.414192217957
 21
2168.99387923631
 31
0.0
1001
REVIT
1002
{
1070
     1
1000
160014
1002
}
1002
{
1070
     5
1000
142258
1002
}
1002
{
1070
     2
1000
-2000150
1002
}
  0
LINE
  5
105
330
75
100
AcDbEntity
  8
A-----NOP
100
AcDbLine
 10
1984.414192217957
 20
2168.99387923631
 30
0.0
 11
1997.060121524891
 21
2178.006911198532
 31
0.0
1001
REVIT
1002
{
1070
     1
1000
160014
1002
}
1002
{
1070
     5
1000
142258
1002
}
1002
{
1070
     2
1000
-2000150
1002
}
  0
LINE
  5
106
330
75
100
AcDbEntity
  8
A-----NOP
100
AcDbLine
 10
1997.060121524891
 20
2178.006911198532
 30
0.0
 11
1981.601909509513
 21
2176.524361207594
 31
0.0
1001
REVIT
1002
{
1070
     1
1000
160014
1002
}
1002
{
1070
     5
1000
142258
1002
}
1002
{
1070
     2
1000
-2000150
1002
}
  0
HATCH
  5
107
330
75
100
AcDbEntity
  8
A-----NOP
100
AcDbHatch
 10
0.0
 20
0.0
 30
0.0
210
0.0
220
0.0
230
1.0
  2
SOLID
 70
     1
 71
     0
 91
        1
 92
        0
 93
        3
 72
     1
 10
1981.601909509513
 20
2176.524361207594
 11
1984.414192217957
 21
2168.99387923631
 72
     1
 10
1984.414192217957
 20
2168.99387923631
 11
1997.060121524891
 21
2178.006911198532
 72
     1
 10
1997.060121524891
 20
2178.006911198532
 11
1981.601909509513
 21
2176.524361207594
 97
        0
 75
     0
 76
     1
 98
        1
 10
0.0
 20
0.0
450
        0
451
        0
460
0.0
461
0.0
452
        0
462
0.0
453
        0
470

1001
REVIT
1002
{
1070
     1
1000
160014
1002
}
1002
{
1070
     5
1000
142258
1002
}
1002
{
1070
     2
1000
-2000150
1002
}
  0
LINE
  5
108
330
75
100
AcDbEntity
  8
A-----NOP
100
AcDbLine
 10
1773.053261785702
 20
2094.350829075287
 30
0.0
 11
1668.644671184662
 21
2094.350829075345
 31
0.0
1001
REVIT
1002
{
1070
     1
1000
160014
1002
}
1002
{
1070
     5
1000
142258
1002
}
1002
{
1070
     2
1000
-2000150
1002
}
  0
LINE
  5
109
330
75
100
AcDbEntity
  8
A-----NOP
100
AcDbLine
 10
1997.060121524891
 20
2178.006911198532
 30
0.0
 11
1773.053261785702
 21
2094.350829075287
 31
0.0
1001
REVIT
1002
{
1070
     1
1000
160014
1002
}
1002
{
1070
     5
1000
142258
1002
}
1002
{
1070
     2
1000
-2000150
1002
}
  0
INSERT
  5
10A
330
75
100
AcDbEntity
  8
A-----NOP
100
AcDbBlockReference
  2
M_Label Annotation - M_Label Annotation_1-142258-Detail 1
 10
1639.876001037327
 20
2099.649674777503
 30
0.0
 41
5.0
 42
5.0
 43
5.0
1001
REVIT
1002
{
1070
     1
1000
160014
1002
}
1002
{
1070
     5
1000
142258
1002
}
1002
{
1070
     2
1000
-2000150
1002
}
  0
MTEXT
  5
10B
330
75
100
AcDbEntity
  8
A-----TEP
 62
     7
100
AcDbMText
 10
2341.380432442738
 20
2378.631184970545
 30
0.0
 40
12.29416167664671
 41
175.5
 46
0.0
 71
     1
 72
     1
  1
\fArial|b0|i0|c0|p34|;No15 RAG FELT\PROOF UNDERLAY\P
 73
     2
 44
0.938531787846856
1001
REVIT
1002
{
1070
     1
1000
160015
1002
}
1002
{
1070
     5
1000
1631
1002
}
1002
{
1070
     2
1000
-2000059
1002
}
1002
{
1070
     3
1000
1632
1002
}
  0
INSERT
  5
13C
330
71
100
AcDbEntity
 67
     1
  8
G-----TTP
100
AcDbBlockReference
  2
A4 SPS - A4 sps_0-163380-BARGE-CROSS SECTION
 10
0.0
 20
0.0
 30
0.0
1001
REVIT
1002
{
1070
     1
1000
164719
1002
}
1002
{
1070
     5
1000
163380
1002
}
1002
{
1070
     2
1000
-2000280
1002
}
  0
MTEXT
  5
13D
330
71
100
AcDbEntity
 67
     1
  8
G-----TTP
100
AcDbMText
 10
290.2137418420315
 20
93.41593409203412
 30
0.0
 40
1.721182634730538
 41
6.383685842232174
 46
0.0
 71
     3
 72
     1
  1
\fArial|b0|i0|c0|p34|; 1 : 5
 73
     2
 44
0.9385317878468564
1001
REVIT
1002
{
1070
     1
1000
164719
1002
}
1002
{
1070
     5
1000
163380
1002
}
1002
{
1070
     2
1000
-2000059
1002
}
1002
{
1070
     3
1000
165231
1002
}
  0
MTEXT
  5
13E
330
71
100
AcDbEntity
 67
     1
  8
G-----TTP
100
AcDbMText
 10
216.8973466727144
 20
111.2275978795859
 30
0.0
 40
2.95059880239521
 41
59.36399999999999
 46
0.0
 71
     1
 72
     1
  1
\fArial|b0|i0|c0|p34|;BARGE-CROSS SECTION
 73
     2
 44
0.9385317878468562
1001
REVIT
1002
{
1070
     1
1000
164719
1002
}
1002
{
1070
     5
1000
163380
1002
}
1002
{
1070
     2
1000
-2000059
1002
}
1002
{
1070
     3
1000
165199
1002
}
  0
MTEXT
  5
13F
330
71
100
AcDbEntity
 67
     1
  8
G-----TTP
100
AcDbMText
 10
273.1795488079906
 20
101.1312212254742
 30
0.0
 40
2.95059880239521
 41
8.208
 46
0.0
 71
     2
 72
     1
  1
\fArial|b0|i0|c0|p34|;001
 73
     2
 44
0.9385317878468562
1001
REVIT
1002
{
1070
     1
1000
164719
1002
}
1002
{
1070
     5
1000
163380
1002
}
1002
{
1070
     2
1000
-2000059
1002
}
1002
{
1070
     3
1000
165199
1002
}
  0
VIEWPORT
  5
140
330
71
100
AcDbEntity
 67
     1
  8
A-----NPP
100
AcDbViewport
 10
166.536455672621
 20
224.819407170026
 30
0.0
 40
258.0693683595601
 41
132.3077729491492
 68
    -1
 69
     2
 12
2045.539479026356
 22
2258.936442841205
 13
0.0
 23
0.0
 14
0.0
 24
0.0
 15
0.0
 25
0.0
 16
0.0
 26
0.0
 36
1.0
 17
0.0
 27
0.0
 37
0.0
 42
0.0
 43
0.0
 44
0.0
 45
661.5388647457457
 50
0.0
 51
0.0
 72
   100
 90
    32768
  1

281
     0
 71
     1
 74
     1
110
0.0
120
0.0
130
0.0
111
1.0
121
0.0
131
0.0
112
0.0
122
1.0
132
0.0
 79
     0
146
0.0
170
     0
 61
     5
292
     1
282
     1
141
0.0
142
0.0
 63
   250
421
  3355443
  0
VIEWPORT
  5
142
330
71
100
AcDbEntity
 67
     1
  8
0
100
AcDbViewport
 10
6.0
 20
4.5
 30
0.0
 40
12.0
 41
9.0
 68
    -1
 69
     1
 12
6.0
 22
4.5
 13
0.0
 23
0.0
 14
0.0
 24
0.0
 15
0.0
 25
0.0
 16
0.0
 26
0.0
 36
1.0
 17
0.0
 27
0.0
 37
0.0
 42
50.0
 43
0.0
 44
0.0
 45
12.0
 50
0.0
 51
0.0
 72
   100
 90
    32800
  1

281
     0
 71
     1
 74
     1
110
0.0
120
0.0
130
0.0
111
1.0
121
0.0
131
0.0
112
0.0
122
1.0
132
0.0
 79
     0
146
0.0
170
     0
 61
     5
292
     1
282
     1
141
0.0
142
0.0
 63
   250
421
  3355443
  0
ENDSEC
  0
SECTION
  2
OBJECTS
  0
DICTIONARY
  5
C
330
0
100
AcDbDictionary
281
     1
  3
ACAD_COLOR
350
6B
  3
ACAD_GROUP
350
D
  3
ACAD_LAYOUT
350
6A
  3
ACAD_MATERIAL
350
10
  3
ACAD_MLEADERSTYLE
350
6E
  3
ACAD_MLINESTYLE
350
67
  3
ACAD_PLOTSETTINGS
350
69
  3
ACAD_PLOTSTYLENAME
350
E
  3
ACAD_SCALELIST
350
3A
  3
ACAD_TABLESTYLE
350
6C
  3
ACAD_VISUALSTYLE
350
29
  3
ACDB_RECOMPOSE_DATA
350
154
  3
AcDbVariableDictionary
350
14E
  3
REVIT_DICTIONARY
350
145
  0
DICTIONARY
  5
149
330
75
100
AcDbDictionary
280
     1
281
     1
  3
ACAD_SORTENTS
360
14A
  0
DICTIONARY
  5
6B
102
{ACAD_REACTORS
330
C
102
}
330
C
100
AcDbDictionary
281
     1
  0
DICTIONARY
  5
D
102
{ACAD_REACTORS
330
C
102
}
330
C
100
AcDbDictionary
281
     1
  0
DICTIONARY
  5
6A
102
{ACAD_REACTORS
330
C
102
}
330
C
100
AcDbDictionary
281
     1
  3
Layout1
350
74
  3
Layout2
350
7C
  3
Model
350
78
  0
DICTIONARY
  5
10
102
{ACAD_REACTORS
330
C
102
}
330
C
100
AcDbDictionary
281
     1
  3
ByBlock
350
19
  3
ByLayer
350
11
  3
Global
350
21
  0
DICTIONARY
  5
6E
102
{ACAD_REACTORS
330
C
102
}
330
C
100
AcDbDictionary
281
     1
  3
Standard
350
6F
  0
DICTIONARY
  5
67
102
{ACAD_REACTORS
330
C
102
}
330
C
100
AcDbDictionary
281
     1
  3
Standard
350
68
  0
DICTIONARY
  5
69
102
{ACAD_REACTORS
330
C
102
}
330
C
100
AcDbDictionary
281
     1
  0
ACDBDICTIONARYWDFLT
  5
E
102
{ACAD_REACTORS
330
C
102
}
330
C
100
AcDbDictionary
281
     1
  3
Normal
350
F
100
AcDbDictionaryWithDefault
340
F
  0
DICTIONARY
  5
3A
102
{ACAD_REACTORS
330
C
102
}
330
C
100
AcDbDictionary
281
     1
  3
A0
350
3B
  3
A1
350
3C
  3
A2
350
3D
  3
A3
350
3E
  3
A4
350
3F
  3
A5
350
40
  3
A6
350
41
  3
A7
350
42
  3
A8
350
43
  3
A9
350
44
  3
B0
350
45
  3
B1
350
46
  3
B2
350
47
  3
B3
350
48
  3
B4
350
49
  3
B5
350
4A
  3
B6
350
4B
  3
B7
350
4C
  3
B8
350
4D
  3
B9
350
4E
  3
C0
350
4F
  3
C1
350
50
  3
C2
350
51
  3
C3
350
52
  3
C4
350
53
  3
C5
350
54
  3
C6
350
55
  3
C7
350
56
  3
C8
350
57
  3
C9
350
58
  3
D0
350
59
  3
D1
350
5A
  3
D2
350
5B
  0
DICTIONARY
  5
6C
102
{ACAD_REACTORS
330
C
102
}
330
C
100
AcDbDictionary
281
     1
  3
Standard
350
6D
  0
DICTIONARY
  5
29
102
{ACAD_REACTORS
330
C
102
}
330
C
100
AcDbDictionary
281
     1
  3
2dWireframe
350
2F
  3
3D Hidden
350
31
  3
3dWireframe
350
30
  3
Basic
350
2E
  3
Brighten
350
35
  3
ColorChange
350
39
  3
Conceptual
350
32
  3
Dim
350
34
  3
Facepattern
350
38
  3
Flat
350
2A
  3
FlatWithEdges
350
2B
  3
Gouraud
350
2C
  3
GouraudWithEdges
350
2D
  3
Linepattern
350
37
  3
Realistic
350
33
  3
Thicken
350
36
  0
XRECORD
  5
154
102
{ACAD_REACTORS
330
C
102
}
330
C
100
AcDbXrecord
280
     1
 90
        1
330
6D
  0
DICTIONARY
  5
14E
102
{ACAD_REACTORS
330
C
102
}
330
C
100
AcDbDictionary
281
     1
  3
CANNOSCALE
350
151
  3
CMLEADERSTYLE
350
150
  3
CTABLESTYLE
350
14F
  0
DICTIONARY
  5
145
102
{ACAD_REACTORS
330
C
102
}
330
C
100
AcDbDictionary
281
     1
  3
REVIT_CATEGORY_MAPPING
350
147
  3
REVIT_SUB_CATEGORY_MAPPING
350
148
  3
REVIT_TYPE_MAPPING
350
146
  0
SORTENTSTABLE
  5
14A
102
{ACAD_REACTORS
330
149
102
}
330
149
100
AcDbSortentsTable
330
75
  0
LAYOUT
  5
74
102
{ACAD_REACTORS
330
6A
102
}
330
6A
100
AcDbPlotSettings
  1

  2

  4

  6

 40
0.0
 41
0.0
 42
0.0
 43
0.0
 44
0.0
 45
0.0
 46
0.0
 47
0.0
 48
0.0
 49
0.0
140
0.0
141
0.0
142
1.0
143
1.0
 70
   688
 72
     0
 73
     0
 74
     5
  7

 75
    16
147
1.0
 76
     0
 77
     2
 78
   300
148
0.0
149
0.0
100
AcDbLayout
  1
Layout1
 70
     1
 71
     1
 10
0.0
 20
0.0
 11
12.0
 21
9.0
 12
0.0
 22
0.0
 32
0.0
 14
0.0
 24
0.0
 34
0.0
 15
0.0
 25
0.0
 35
0.0
146
0.0
 13
0.0
 23
0.0
 33
0.0
 16
1.0
 26
0.0
 36
0.0
 17
0.0
 27
1.0
 37
0.0
 76
     0
330
71
  0
LAYOUT
  5
7C
102
{ACAD_REACTORS
330
6A
102
}
330
6A
100
AcDbPlotSettings
  1

  2

  4

  6

 40
0.0
 41
0.0
 42
0.0
 43
0.0
 44
0.0
 45
0.0
 46
0.0
 47
0.0
 48
0.0
 49
0.0
140
0.0
141
0.0
142
1.0
143
1.0
 70
   688
 72
     0
 73
     0
 74
     5
  7

 75
    16
147
1.0
 76
     0
 77
     2
 78
   300
148
0.0
149
0.0
100
AcDbLayout
  1
Layout2
 70
     1
 71
     2
 10
0.0
 20
0.0
 11
12.0
 21
9.0
 12
0.0
 22
0.0
 32
0.0
 14
0.0
 24
0.0
 34
0.0
 15
0.0
 25
0.0
 35
0.0
146
0.0
 13
0.0
 23
0.0
 33
0.0
 16
1.0
 26
0.0
 36
0.0
 17
0.0
 27
1.0
 37
0.0
 76
     0
330
79
  0
LAYOUT
  5
78
102
{ACAD_REACTORS
330
6A
102
}
330
6A
100
AcDbPlotSettings
  1

  2

  4

  6

 40
0.0
 41
0.0
 42
0.0
 43
0.0
 44
0.0
 45
0.0
 46
0.0
 47
0.0
 48
0.0
 49
0.0
140
0.0
141
0.0
142
1.0
143
1.0
 70
  1712
 72
     0
 73
     0
 74
     0
  7

 75
     0
147
1.0
 76
     0
 77
     2
 78
   300
148
0.0
149
0.0
100
AcDbLayout
  1
Model
 70
     1
 71
     0
 10
0.0
 20
0.0
 11
12.0
 21
9.0
 12
0.0
 22
0.0
 32
0.0
 14
0.0
 24
0.0
 34
0.0
 15
0.0
 25
0.0
 35
0.0
146
0.0
 13
0.0
 23
0.0
 33
0.0
 16
1.0
 26
0.0
 36
0.0
 17
0.0
 27
1.0
 37
0.0
 76
     0
330
75
  0
MATERIAL
  5
19
102
{ACAD_XDICTIONARY
360
1A
102
}
102
{ACAD_REACTORS
330
10
102
}
330
10
100
AcDbMaterial
  1
ByBlock
 72
     0
 43
0.0208333333333333
 43
0.0
 43
0.0
 43
0.0
 43
0.0
 43
0.0208333333333333
 43
0.0
 43
0.0
 43
0.0
 43
0.0
 43
1.0
 43
0.0
 43
0.0
 43
0.0
 43
0.0
 43
1.0
 77
     0
 47
0.0208333333333333
 47
0.0
 47
0.0
 47
0.0
 47
0.0
 47
0.0208333333333333
 47
0.0
 47
0.0
 47
0.0
 47
0.0
 47
1.0
 47
0.0
 47
0.0
 47
0.0
 47
0.0
 47
1.0
171
     0
 49
0.0208333333333333
 49
0.0
 49
0.0
 49
0.0
 49
0.0
 49
0.0208333333333333
 49
0.0
 49
0.0
 49
0.0
 49
0.0
 49
1.0
 49
0.0
 49
0.0
 49
0.0
 49
0.0
 49
1.0
175
     0
142
0.0208333333333333
142
0.0
142
0.0
142
0.0
142
0.0
142
0.0208333333333333
142
0.0
142
0.0
142
0.0
142
0.0
142
1.0
142
0.0
142
0.0
142
0.0
142
0.0
142
1.0
179
     0
144
0.0208333333333333
144
0.0
144
0.0
144
0.0
144
0.0
144
0.0208333333333333
144
0.0
144
0.0
144
0.0
144
0.0
144
1.0
144
0.0
144
0.0
144
0.0
144
0.0
144
1.0
147
0.0208333333333333
147
0.0
147
0.0
147
0.0
147
0.0
147
0.0208333333333333
147
0.0
147
0.0
147
0.0
147
0.0
147
1.0
147
0.0
147
0.0
147
0.0
147
0.0
147
1.0
  0
MATERIAL
  5
11
102
{ACAD_XDICTIONARY
360
12
102
}
102
{ACAD_REACTORS
330
10
102
}
330
10
100
AcDbMaterial
  1
ByLayer
 72
     0
 43
0.0208333333333333
 43
0.0
 43
0.0
 43
0.0
 43
0.0
 43
0.0208333333333333
 43
0.0
 43
0.0
 43
0.0
 43
0.0
 43
1.0
 43
0.0
 43
0.0
 43
0.0
 43
0.0
 43
1.0
 77
     0
 47
0.0208333333333333
 47
0.0
 47
0.0
 47
0.0
 47
0.0
 47
0.0208333333333333
 47
0.0
 47
0.0
 47
0.0
 47
0.0
 47
1.0
 47
0.0
 47
0.0
 47
0.0
 47
0.0
 47
1.0
171
     0
 49
0.0208333333333333
 49
0.0
 49
0.0
 49
0.0
 49
0.0
 49
0.0208333333333333
 49
0.0
 49
0.0
 49
0.0
 49
0.0
 49
1.0
 49
0.0
 49
0.0
 49
0.0
 49
0.0
 49
1.0
175
     0
142
0.0208333333333333
142
0.0
142
0.0
142
0.0
142
0.0
142
0.0208333333333333
142
0.0
142
0.0
142
0.0
142
0.0
142
1.0
142
0.0
142
0.0
142
0.0
142
0.0
142
1.0
179
     0
144
0.0208333333333333
144
0.0
144
0.0
144
0.0
144
0.0
144
0.0208333333333333
144
0.0
144
0.0
144
0.0
144
0.0
144
1.0
144
0.0
144
0.0
144
0.0
144
0.0
144
1.0
147
0.0208333333333333
147
0.0
147
0.0
147
0.0
147
0.0
147
0.0208333333333333
147
0.0
147
0.0
147
0.0
147
0.0
147
1.0
147
0.0
147
0.0
147
0.0
147
0.0
147
1.0
  0
MATERIAL
  5
21
102
{ACAD_XDICTIONARY
360
22
102
}
102
{ACAD_REACTORS
330
10
102
}
330
10
100
AcDbMaterial
  1
Global
 72
     0
 43
0.0208333333333333
 43
0.0
 43
0.0
 43
0.0
 43
0.0
 43
0.0208333333333333
 43
0.0
 43
0.0
 43
0.0
 43
0.0
 43
1.0
 43
0.0
 43
0.0
 43
0.0
 43
0.0
 43
1.0
 77
     0
 47
0.0208333333333333
 47
0.0
 47
0.0
 47
0.0
 47
0.0
 47
0.0208333333333333
 47
0.0
 47
0.0
 47
0.0
 47
0.0
 47
1.0
 47
0.0
 47
0.0
 47
0.0
 47
0.0
 47
1.0
171
     0
 49
0.0208333333333333
 49
0.0
 49
0.0
 49
0.0
 49
0.0
 49
0.0208333333333333
 49
0.0
 49
0.0
 49
0.0
 49
0.0
 49
1.0
 49
0.0
 49
0.0
 49
0.0
 49
0.0
 49
1.0
175
     0
142
0.0208333333333333
142
0.0
142
0.0
142
0.0
142
0.0
142
0.0208333333333333
142
0.0
142
0.0
142
0.0
142
0.0
142
1.0
142
0.0
142
0.0
142
0.0
142
0.0
142
1.0
179
     0
144
0.0208333333333333
144
0.0
144
0.0
144
0.0
144
0.0
144
0.0208333333333333
144
0.0
144
0.0
144
0.0
144
0.0
144
1.0
144
0.0
144
0.0
144
0.0
144
0.0
144
1.0
147
0.0208333333333333
147
0.0
147
0.0
147
0.0
147
0.0
147
0.0208333333333333
147
0.0
147
0.0
147
0.0
147
0.0
147
1.0
147
0.0
147
0.0
147
0.0
147
0.0
147
1.0
  0
MLEADERSTYLE
  5
6F
102
{ACAD_REACTORS
330
6E
102
}
330
6E
100
AcDbMLeaderStyle
170
     2
171
     1
172
     0
 90
        2
 40
0.0
 41
0.0
173
     1
 91
-1056964608
340
63
 92
       -2
290
     1
 42
0.09
291
     1
 43
0.36
  3
Standard
 44
0.18
300

342
5D
174
     1
178
     6
175
     1
176
     0
 93
-1056964608
 45
0.18
292
     0
297
     0
 46
0.18
 94
-1056964608
 47
1.0
 49
1.0
140
1.0
293
     1
141
0.0
294
     1
177
     0
142
1.0
295
     1
296
     0
143
0.125
1001
ACAD_MLEADERVER
1070
     2
  0
MLINESTYLE
  5
68
102
{ACAD_REACTORS
330
67
102
}
330
67
100
AcDbMlineStyle
  2
STANDARD
 70
     0
  3

 62
   256
 51
90.0
 52
90.0
 71
     2
 49
0.5
 62
   256
  6
BYLAYER
 49
-0.5
 62
   256
  6
BYLAYER
  0
ACDBPLACEHOLDER
  5
F
102
{ACAD_REACTORS
330
E
102
}
330
E
  0
SCALE
  5
3B
102
{ACAD_REACTORS
330
3A
102
}
330
3A
100
AcDbScale
 70
     0
300
1:1
140
1.0
141
1.0
290
     1
  0
SCALE
  5
3C
102
{ACAD_REACTORS
330
3A
102
}
330
3A
100
AcDbScale
 70
     0
300
1:2
140
1.0
141
2.0
290
     0
  0
SCALE
  5
3D
102
{ACAD_REACTORS
330
3A
102
}
330
3A
100
AcDbScale
 70
     0
300
1:4
140
1.0
141
4.0
290
     0
  0
SCALE
  5
3E
102
{ACAD_REACTORS
330
3A
102
}
330
3A
100
AcDbScale
 70
     0
300
1:5
140
1.0
141
5.0
290
     0
  0
SCALE
  5
3F
102
{ACAD_REACTORS
330
3A
102
}
330
3A
100
AcDbScale
 70
     0
300
1:8
140
1.0
141
8.0
290
     0
  0
SCALE
  5
40
102
{ACAD_REACTORS
330
3A
102
}
330
3A
100
AcDbScale
 70
     0
300
1:10
140
1.0
141
10.0
290
     0
  0
SCALE
  5
41
102
{ACAD_REACTORS
330
3A
102
}
330
3A
100
AcDbScale
 70
     0
300
1:16
140
1.0
141
16.0
290
     0
  0
SCALE
  5
42
102
{ACAD_REACTORS
330
3A
102
}
330
3A
100
AcDbScale
 70
     0
300
1:20
140
1.0
141
20.0
290
     0
  0
SCALE
  5
43
102
{ACAD_REACTORS
330
3A
102
}
330
3A
100
AcDbScale
 70
     0
300
1:30
140
1.0
141
30.0
290
     0
  0
SCALE
  5
44
102
{ACAD_REACTORS
330
3A
102
}
330
3A
100
AcDbScale
 70
     0
300
1:40
140
1.0
141
40.0
290
     0
  0
SCALE
  5
45
102
{ACAD_REACTORS
330
3A
102
}
330
3A
100
AcDbScale
 70
     0
300
1:50
140
1.0
141
50.0
290
     0
  0
SCALE
  5
46
102
{ACAD_REACTORS
330
3A
102
}
330
3A
100
AcDbScale
 70
     0
300
1:100
140
1.0
141
100.0
290
     0
  0
SCALE
  5
47
102
{ACAD_REACTORS
330
3A
102
}
330
3A
100
AcDbScale
 70
     0
300
2:1
140
2.0
141
1.0
290
     0
  0
SCALE
  5
48
102
{ACAD_REACTORS
330
3A
102
}
330
3A
100
AcDbScale
 70
     0
300
4:1
140
4.0
141
1.0
290
     0
  0
SCALE
  5
49
102
{ACAD_REACTORS
330
3A
102
}
330
3A
100
AcDbScale
 70
     0
300
8:1
140
8.0
141
1.0
290
     0
  0
SCALE
  5
4A
102
{ACAD_REACTORS
330
3A
102
}
330
3A
100
AcDbScale
 70
     0
300
10:1
140
10.0
141
1.0
290
     0
  0
SCALE
  5
4B
102
{ACAD_REACTORS
330
3A
102
}
330
3A
100
AcDbScale
 70
     0
300
100:1
140
100.0
141
1.0
290
     0
  0
SCALE
  5
4C
102
{ACAD_REACTORS
330
3A
102
}
330
3A
100
AcDbScale
 70
     0
300
1/128" = 1'-0"
140
0.0078125
141
12.0
290
     0
  0
SCALE
  5
4D
102
{ACAD_REACTORS
330
3A
102
}
330
3A
100
AcDbScale
 70
     0
300
1/64" = 1'-0"
140
0.015625
141
12.0
290
     0
  0
SCALE
  5
4E
102
{ACAD_REACTORS
330
3A
102
}
330
3A
100
AcDbScale
 70
     0
300
1/32" = 1'-0"
140
0.03125
141
12.0
290
     0
  0
SCALE
  5
4F
102
{ACAD_REACTORS
330
3A
102
}
330
3A
100
AcDbScale
 70
     0
300
1/16" = 1'-0"
140
0.0625
141
12.0
290
     0
  0
SCALE
  5
50
102
{ACAD_REACTORS
330
3A
102
}
330
3A
100
AcDbScale
 70
     0
300
3/32" = 1'-0"
140
0.09375
141
12.0
290
     0
  0
SCALE
  5
51
102
{ACAD_REACTORS
330
3A
102
}
330
3A
100
AcDbScale
 70
     0
300
1/8" = 1'-0"
140
0.125
141
12.0
290
     0
  0
SCALE
  5
52
102
{ACAD_REACTORS
330
3A
102
}
330
3A
100
AcDbScale
 70
     0
300
3/16" = 1'-0"
140
0.1875
141
12.0
290
     0
  0
SCALE
  5
53
102
{ACAD_REACTORS
330
3A
102
}
330
3A
100
AcDbScale
 70
     0
300
1/4" = 1'-0"
140
0.25
141
12.0
290
     0
  0
SCALE
  5
54
102
{ACAD_REACTORS
330
3A
102
}
330
3A
100
AcDbScale
 70
     0
300
3/8" = 1'-0"
140
0.375
141
12.0
290
     0
  0
SCALE
  5
55
102
{ACAD_REACTORS
330
3A
102
}
330
3A
100
AcDbScale
 70
     0
300
1/2" = 1'-0"
140
0.5
141
12.0
290
     0
  0
SCALE
  5
56
102
{ACAD_REACTORS
330
3A
102
}
330
3A
100
AcDbScale
 70
     0
300
3/4" = 1'-0"
140
0.75
141
12.0
290
     0
  0
SCALE
  5
57
102
{ACAD_REACTORS
330
3A
102
}
330
3A
100
AcDbScale
 70
     0
300
1" = 1'-0"
140
1.0
141
12.0
290
     0
  0
SCALE
  5
58
102
{ACAD_REACTORS
330
3A
102
}
330
3A
100
AcDbScale
 70
     0
300
1-1/2" = 1'-0"
140
1.5
141
12.0
290
     0
  0
SCALE
  5
59
102
{ACAD_REACTORS
330
3A
102
}
330
3A
100
AcDbScale
 70
     0
300
3" = 1'-0"
140
3.0
141
12.0
290
     0
  0
SCALE
  5
5A
102
{ACAD_REACTORS
330
3A
102
}
330
3A
100
AcDbScale
 70
     0
300
6" = 1'-0"
140
6.0
141
12.0
290
     0
  0
SCALE
  5
5B
102
{ACAD_REACTORS
330
3A
102
}
330
3A
100
AcDbScale
 70
     0
300
1'-0" = 1'-0"
140
12.0
141
12.0
290
     0
  0
TABLESTYLE
  5
6D
102
{ACAD_XDICTIONARY
360
152
102
}
102
{ACAD_REACTORS
330
6C
102
}
330
6C
100
AcDbTableStyle
  3
Standard
 70
     0
 71
     0
 40
0.06
 41
0.06
280
     0
281
     0
  7
Standard
140
0.18
170
     2
 62
     0
 63
     7
283
     0
 90
      512
 91
        0
  1

274
    -2
284
     1
 64
     0
275
    -2
285
     1
 65
     0
276
    -2
286
     1
 66
     0
277
    -2
287
     1
 67
     0
278
    -2
288
     1
 68
     0
279
    -2
289
     1
 69
     0
  7
Standard
140
0.25
170
     5
 62
     0
 63
     7
283
     0
 90
      512
 91
        0
  1

274
    -2
284
     1
 64
     0
275
    -2
285
     1
 65
     0
276
    -2
286
     1
 66
     0
277
    -2
287
     1
 67
     0
278
    -2
288
     1
 68
     0
279
    -2
289
     1
 69
     0
  7
Standard
140
0.18
170
     5
 62
     0
 63
     7
283
     0
 90
      512
 91
        0
  1

274
    -2
284
     1
 64
     0
275
    -2
285
     1
 65
     0
276
    -2
286
     1
 66
     0
277
    -2
287
     1
 67
     0
278
    -2
288
     1
 68
     0
279
    -2
289
     1
 69
     0
  0
VISUALSTYLE
  5
2F
102
{ACAD_REACTORS
330
29
102
}
330
29
100
AcDbVisualStyle
  2
2dWireframe
 70
     4
 71
     0
 72
     2
 73
     0
 90
        0
 40
-0.6
 41
-30.0
 62
     5
 63
     7
421
 16777215
 74
     1
 91
        4
 64
     7
 65
   257
 75
     1
175
     1
 42
1.0
 92
        0
 66
   257
 43
1.0
 76
     1
 77
     6
 78
     2
 67
     7
 79
     5
170
     0
171
     0
290
     0
174
     0
 93
        1
 44
0.0
173
     0
291
     0
 45
0.0
  0
VISUALSTYLE
  5
31
102
{ACAD_REACTORS
330
29
102
}
330
29
100
AcDbVisualStyle
  2
3D Hidden
 70
     6
 71
     1
 72
     2
 73
     2
 90
        0
 40
-0.6
 41
-30.0
 62
     5
 63
     7
421
 16777215
 74
     2
 91
        2
 64
     7
 65
   257
 75
     2
175
     1
 42
40.0
 92
        0
 66
   257
 43
1.0
 76
     1
 77
     6
 78
     2
 67
     7
 79
     3
170
     0
171
     0
290
     0
174
     0
 93
        1
 44
0.0
173
     0
291
     0
 45
0.0
  0
VISUALSTYLE
  5
30
102
{ACAD_REACTORS
330
29
102
}
330
29
100
AcDbVisualStyle
  2
3dWireframe
 70
     5
 71
     0
 72
     2
 73
     0
 90
        0
 40
-0.6
 41
-30.0
 62
     5
 63
     7
421
 16777215
 74
     1
 91
        4
 64
     7
 65
   257
 75
     1
175
     1
 42
1.0
 92
        0
 66
   257
 43
1.0
 76
     1
 77
     6
 78
     2
 67
     7
 79
     5
170
     0
171
     0
290
     0
174
     0
 93
        1
 44
0.0
173
     0
291
     0
 45
0.0
  0
VISUALSTYLE
  5
2E
102
{ACAD_REACTORS
330
29
102
}
330
29
100
AcDbVisualStyle
  2
Basic
 70
     7
 71
     1
 72
     0
 73
     1
 90
        0
 40
-0.6
 41
-30.0
 62
     5
 63
     7
421
 16777215
 74
     0
 91
        4
 64
     7
 65
   257
 75
     1
175
     1
 42
1.0
 92
        8
 66
     7
 43
1.0
 76
     1
 77
     6
 78
     2
 67
     7
 79
     5
170
     0
171
     0
290
     0
174
     0
 93
        1
 44
0.0
173
     0
291
     1
 45
0.0
  0
VISUALSTYLE
  5
35
102
{ACAD_REACTORS
330
29
102
}
330
29
100
AcDbVisualStyle
  2
Brighten
 70
    12
 71
     2
 72
     2
 73
     0
 90
        0
 40
-0.6
 41
-30.0
 62
     5
 63
     7
421
 16777215
 74
     1
 91
        4
 64
     7
 65
   257
 75
     1
175
     1
 42
1.0
 92
        8
 66
     7
 43
1.0
 76
     1
 77
     6
 78
     2
 67
     7
 79
     5
170
     0
171
     0
290
     0
174
     0
 93
        1
 44
50.0
173
     0
291
     1
 45
0.0
  0
VISUALSTYLE
  5
39
102
{ACAD_REACTORS
330
29
102
}
330
29
100
AcDbVisualStyle
  2
ColorChange
 70
    16
 71
     2
 72
     2
 73
     3
 90
        0
 40
-0.6
 41
-30.0
 62
     5
 63
     8
421
  8421504
 74
     1
 91
        4
 64
     7
 65
   257
 75
     1
175
     1
 42
1.0
 92
        8
 66
     8
424
  8421504
 43
1.0
 76
     1
 77
     6
 78
     2
 67
     7
 79
     5
170
     0
171
     0
290
     0
174
     0
 93
        1
 44
0.0
173
     0
291
     1
 45
0.0
  0
VISUALSTYLE
  5
32
102
{ACAD_REACTORS
330
29
102
}
330
29
100
AcDbVisualStyle
  2
Conceptual
 70
     9
 71
     3
 72
     2
 73
     0
 90
        0
 40
-0.6
 41
-30.0
 62
     5
 63
     7
421
 16777215
 74
     2
 91
        2
 64
     7
 65
   257
 75
     1
175
     1
 42
40.0
 92
        8
 66
     7
 43
1.0
 76
     1
 77
     6
 78
     2
 67
     7
 79
     3
170
     0
171
     0
290
     0
174
     0
 93
        1
 44
0.0
173
     0
291
     0
 45
0.0
  0
VISUALSTYLE
  5
34
102
{ACAD_REACTORS
330
29
102
}
330
29
100
AcDbVisualStyle
  2
Dim
 70
    11
 71
     2
 72
     2
 73
     0
 90
        0
 40
-0.6
 41
-30.0
 62
     5
 63
     7
421
 16777215
 74
     1
 91
        4
 64
     7
 65
   257
 75
     1
175
     1
 42
1.0
 92
        8
 66
     7
 43
1.0
 76
     1
 77
     6
 78
     2
 67
     7
 79
     5
170
     0
171
     0
290
     0
174
     0
 93
        1
 44
-50.0
173
     0
291
     1
 45
0.0
  0
VISUALSTYLE
  5
38
102
{ACAD_REACTORS
330
29
102
}
330
29
100
AcDbVisualStyle
  2
Facepattern
 70
    15
 71
     2
 72
     2
 73
     0
 90
        0
 40
-0.6
 41
-30.0
 62
     5
 63
     7
421
 16777215
 74
     1
 91
        4
 64
     7
 65
   257
 75
     1
175
     1
 42
1.0
 92
        8
 66
     7
 43
1.0
 76
     1
 77
     6
 78
     2
 67
     7
 79
     5
170
     0
171
     0
290
     0
174
     0
 93
        1
 44
0.0
173
     0
291
     1
 45
0.0
  0
VISUALSTYLE
  5
2A
102
{ACAD_REACTORS
330
29
102
}
330
29
100
AcDbVisualStyle
  2
Flat
 70
     0
 71
     2
 72
     1
 73
     1
 90
        2
 40
-0.6
 41
30.0
 62
     5
 63
     7
421
 16777215
 74
     0
 91
        4
 64
     7
 65
   257
 75
     1
175
     1
 42
1.0
 92
        8
 66
     7
 43
1.0
 76
     1
 77
     6
 78
     2
 67
     7
 79
     5
170
     0
171
     0
290
     0
174
     0
 93
       13
 44
0.0
173
     0
291
     1
 45
0.0
  0
VISUALSTYLE
  5
2B
102
{ACAD_REACTORS
330
29
102
}
330
29
100
AcDbVisualStyle
  2
FlatWithEdges
 70
     1
 71
     2
 72
     1
 73
     1
 90
        2
 40
-0.6
 41
30.0
 62
     5
 63
     7
421
 16777215
 74
     1
 91
        4
 64
     7
 65
   257
 75
     1
175
     1
 42
1.0
 92
        0
 66
   257
 43
1.0
 76
     1
 77
     6
 78
     2
 67
     7
 79
     5
170
     0
171
     0
290
     0
174
     0
 93
       13
 44
0.0
173
     0
291
     1
 45
0.0
  0
VISUALSTYLE
  5
2C
102
{ACAD_REACTORS
330
29
102
}
330
29
100
AcDbVisualStyle
  2
Gouraud
 70
     2
 71
     2
 72
     2
 73
     1
 90
        2
 40
-0.6
 41
30.0
 62
     5
 63
     7
421
 16777215
 74
     0
 91
        4
 64
     7
 65
   257
 75
     1
175
     1
 42
1.0
 92
        0
 66
     7
 43
1.0
 76
     1
 77
     6
 78
     2
 67
     7
 79
     5
170
     0
171
     0
290
     0
174
     0
 93
       13
 44
0.0
173
     0
291
     1
 45
0.0
  0
VISUALSTYLE
  5
2D
102
{ACAD_REACTORS
330
29
102
}
330
29
100
AcDbVisualStyle
  2
GouraudWithEdges
 70
     3
 71
     2
 72
     2
 73
     1
 90
        2
 40
-0.6
 41
30.0
 62
     5
 63
     7
421
 16777215
 74
     1
 91
        4
 64
     7
 65
   257
 75
     1
175
     1
 42
1.0
 92
        0
 66
   257
 43
1.0
 76
     1
 77
     6
 78
     2
 67
     7
 79
     5
170
     0
171
     0
290
     0
174
     0
 93
       13
 44
0.0
173
     0
291
     1
 45
0.0
  0
VISUALSTYLE
  5
37
102
{ACAD_REACTORS
330
29
102
}
330
29
100
AcDbVisualStyle
  2
Linepattern
 70
    14
 71
     2
 72
     2
 73
     0
 90
        0
 40
-0.6
 41
-30.0
 62
     5
 63
     7
421
 16777215
 74
     1
 91
        4
 64
     7
 65
   257
 75
     7
175
     7
 42
1.0
 92
        8
 66
     7
 43
1.0
 76
     1
 77
     6
 78
     2
 67
     7
 79
     5
170
     0
171
     0
290
     0
174
     0
 93
        1
 44
0.0
173
     0
291
     1
 45
0.0
  0
VISUALSTYLE
  5
33
102
{ACAD_REACTORS
330
29
102
}
330
29
100
AcDbVisualStyle
  2
Realistic
 70
     8
 71
     2
 72
     2
 73
     0
 90
        0
 40
-0.6
 41
-30.0
 62
     5
 63
     7
421
 16777215
 74
     1
 91
        0
 64
     7
 65
   257
 75
     1
175
     1
 42
1.0
 92
        8
 66
     8
424
  7895160
 43
1.0
 76
     1
 77
     6
 78
     2
 67
     7
 79
     5
170
     0
171
     0
290
     0
174
     0
 93
       13
 44
0.0
173
     0
291
     0
 45
0.0
  0
VISUALSTYLE
  5
36
102
{ACAD_REACTORS
330
29
102
}
330
29
100
AcDbVisualStyle
  2
Thicken
 70
    13
 71
     2
 72
     2
 73
     0
 90
        0
 40
-0.6
 41
-30.0
 62
     5
 63
     7
421
 16777215
 74
     1
 91
        4
 64
     7
 65
   257
 75
     1
175
     1
 42
1.0
 92
       12
 66
     7
 43
1.0
 76
     1
 77
     6
 78
     2
 67
     7
 79
     5
170
     0
171
     0
290
     0
174
     0
 93
        1
 44
0.0
173
     0
291
     1
 45
0.0
  0
DICTIONARYVAR
  5
151
102
{ACAD_REACTORS
330
14E
102
}
330
14E
100
DictionaryVariables
280
     0
  1
1:1
  0
DICTIONARYVAR
  5
150
102
{ACAD_REACTORS
330
14E
102
}
330
14E
100
DictionaryVariables
280
     0
  1
STANDARD
  0
DICTIONARYVAR
  5
14F
102
{ACAD_REACTORS
330
14E
102
}
330
14E
100
DictionaryVariables
280
     0
  1
STANDARD
  0
XRECORD
  5
147
102
{ACAD_REACTORS
330
145
102
}
330
145
100
AcDbXrecord
280
     1
  1
-2000051
  1
Lines
  1
-2000059
  1
Internal Object Styles
  1
-2000150
  1
Generic Annotations
  1
-2000280
  1
Title Blocks
  1
-2002000
  1
Detail Items
  0
XRECORD
  5
148
102
{ACAD_REACTORS
330
145
102
}
330
145
100
AcDbXrecord
280
     1
  1
-2000042
  1
Thin Lines
  1
-2000043
  1
Medium Lines
  1
-2000281
  1
Thin Lines
  1
-2000282
  1
Medium Lines
  1
108841
  1
undrl
  1
111500
  1

  1
113602
  1

  1
131133
  1

  1
1349
  1
Medium Lines
  1
1632
  1

  1
1636
  1

  1
165199
  1

  1
165218
  1

  1
165231
  1

  1
165349
  1

  1
165465
  1

  1
768
  1

  0
XRECORD
  5
146
102
{ACAD_REACTORS
330
145
102
}
330
145
100
AcDbXrecord
280
     1
  1
109593
  1
ply2 20' : ply 20'
  1
111509
  1
barge board : barge board
  1
112305
  1
Break Line1 : M_Break Line
  1
113610
  1
tmber 100'50 : tmber 100'50
  1
142258
  1
M_Label Annotation : M_Label Annotation
  1
1631
  1
Text : 2.5mm Arial
  1
163380
  1
A4 SPS : A4 sps
  1
1635
  1
Text : 3.5mm Arial
  0
DICTIONARY
  5
1A
330
19
100
AcDbDictionary
280
     1
281
     1
  3
BUMPTILE
360
1C
  3
DIFFUSETILE
360
1B
  3
OPACITYTILE
360
1F
  3
REFLECTIONTILE
360
1E
  3
REFRACTIONTILE
360
20
  3
SPECULARTILE
360
1D
  0
DICTIONARY
  5
12
330
11
100
AcDbDictionary
280
     1
281
     1
  3
BUMPTILE
360
14
  3
DIFFUSETILE
360
13
  3
OPACITYTILE
360
17
  3
REFLECTIONTILE
360
16
  3
REFRACTIONTILE
360
18
  3
SPECULARTILE
360
15
  0
DICTIONARY
  5
22
330
21
100
AcDbDictionary
280
     1
281
     1
  3
BUMPTILE
360
24
  3
DIFFUSETILE
360
23
  3
OPACITYTILE
360
27
  3
REFLECTIONTILE
360
26
  3
REFRACTIONTILE
360
28
  3
SPECULARTILE
360
25
  0
DICTIONARY
  5
152
330
6D
100
AcDbDictionary
280
     1
281
     1
  3
ACAD_ROUNDTRIP_2008_TABLESTYLE_CELLSTYLEMAP
360
153
  0
XRECORD
  5
1C
102
{ACAD_REACTORS
330
1A
102
}
330
1A
100
AcDbXrecord
280
     1
270
     1
271
     1
  0
XRECORD
  5
1B
102
{ACAD_REACTORS
330
1A
102
}
330
1A
100
AcDbXrecord
280
     1
270
     1
271
     1
  0
XRECORD
  5
1F
102
{ACAD_REACTORS
330
1A
102
}
330
1A
100
AcDbXrecord
280
     1
270
     1
271
     1
  0
XRECORD
  5
1E
102
{ACAD_REACTORS
330
1A
102
}
330
1A
100
AcDbXrecord
280
     1
270
     1
271
     1
  0
XRECORD
  5
20
102
{ACAD_REACTORS
330
1A
102
}
330
1A
100
AcDbXrecord
280
     1
270
     1
271
     1
  0
XRECORD
  5
1D
102
{ACAD_REACTORS
330
1A
102
}
330
1A
100
AcDbXrecord
280
     1
270
     1
271
     1
  0
XRECORD
  5
14
102
{ACAD_REACTORS
330
12
102
}
330
12
100
AcDbXrecord
280
     1
270
     1
271
     1
  0
XRECORD
  5
13
102
{ACAD_REACTORS
330
12
102
}
330
12
100
AcDbXrecord
280
     1
270
     1
271
     1
  0
XRECORD
  5
17
102
{ACAD_REACTORS
330
12
102
}
330
12
100
AcDbXrecord
280
     1
270
     1
271
     1
  0
XRECORD
  5
16
102
{ACAD_REACTORS
330
12
102
}
330
12
100
AcDbXrecord
280
     1
270
     1
271
     1
  0
XRECORD
  5
18
102
{ACAD_REACTORS
330
12
102
}
330
12
100
AcDbXrecord
280
     1
270
     1
271
     1
  0
XRECORD
  5
15
102
{ACAD_REACTORS
330
12
102
}
330
12
100
AcDbXrecord
280
     1
270
     1
271
     1
  0
XRECORD
  5
24
102
{ACAD_REACTORS
330
22
102
}
330
22
100
AcDbXrecord
280
     1
270
     1
271
     1
  0
XRECORD
  5
23
102
{ACAD_REACTORS
330
22
102
}
330
22
100
AcDbXrecord
280
     1
270
     1
271
     1
  0
XRECORD
  5
27
102
{ACAD_REACTORS
330
22
102
}
330
22
100
AcDbXrecord
280
     1
270
     1
271
     1
  0
XRECORD
  5
26
102
{ACAD_REACTORS
330
22
102
}
330
22
100
AcDbXrecord
280
     1
270
     1
271
     1
  0
XRECORD
  5
28
102
{ACAD_REACTORS
330
22
102
}
330
22
100
AcDbXrecord
280
     1
270
     1
271
     1
  0
XRECORD
  5
25
102
{ACAD_REACTORS
330
22
102
}
330
22
100
AcDbXrecord
280
     1
270
     1
271
     1
  0
CELLSTYLEMAP
  5
153
102
{ACAD_REACTORS
330
152
102
}
330
152
100
AcDbCellStyleMap
 90
        3
300
CELLSTYLE
  1
TABLEFORMAT_BEGIN
 90
        5
170
     1
 91
        0
 92
    32768
 62
   257
 93
        1
300
CONTENTFORMAT
  1
CONTENTFORMAT_BEGIN
 90
        0
 91
        0
 92
      512
 93
        0
300

 40
0.0
140
1.0
 94
        5
 62
     0
340
5D
144
0.25
309
CONTENTFORMAT_END
171
     0
 94
        0
309
TABLEFORMAT_END
  1
CELLSTYLE_BEGIN
 90
        1
 91
        1
300
_TITLE
309
CELLSTYLE_END
300
CELLSTYLE
  1
TABLEFORMAT_BEGIN
 90
        5
170
     1
 91
        0
 92
        0
 62
   257
 93
        1
300
CONTENTFORMAT
  1
CONTENTFORMAT_BEGIN
 90
        0
 91
        0
 92
      512
 93
        0
300

 40
0.0
140
1.0
 94
        5
 62
     0
340
5D
144
0.18
309
CONTENTFORMAT_END
171
     0
 94
        0
309
TABLEFORMAT_END
  1
CELLSTYLE_BEGIN
 90
        2
 91
        1
300
_HEADER
309
CELLSTYLE_END
300
CELLSTYLE
  1
TABLEFORMAT_BEGIN
 90
        5
170
     1
 91
        0
 92
        0
 62
   257
 93
        1
300
CONTENTFORMAT
  1
CONTENTFORMAT_BEGIN
 90
        0
 91
        0
 92
      512
 93
        0
300

 40
0.0
140
1.0
 94
        2
 62
     0
340
5D
144
0.18
309
CONTENTFORMAT_END
171
     0
 94
        0
309
TABLEFORMAT_END
  1
CELLSTYLE_BEGIN
 90
        3
 91
        2
300
_DATA
309
CELLSTYLE_END
  0
ENDSEC
  0
EOF
