  0
SECTION
  2
HEADER
  9
$ACADVER
  1
AC1009
999
I-DEAS 8 Not Encoded
  9
$EXTMIN
 10
0.0
 20
0.0
  9
$EXTMAX
 10
5.94E+002
 20
4.2E+002
  9
$TEXTSIZE
 40
1.25E-001
  9
$LTSCALE
 40
1.0
  9
$CLAYER
  8
104
  9
$CECOLOR
 62
40
  9
$DIMASZ
 40
1.25E-001
  9
$DIMEXO
 40
6.25E-002
  9
$DIMDLI
 40
2.5E-001
  9
$DIMEXE
 40
1.25E-001
  9
$DIMTP
 40
5.0E-003
  9
$DIMTM
 40
-5.0E-003
  9
$DIMTXT
 40
3.0
  9
$DIMLIM
 70
0
  9
$DIMTIH
 70
1
  9
$DIMTOH
 70
1
  9
$DIMSE1
 70
0
  9
$DIMSE2
 70
0
  9
$DIMTAD
 70
0
  9
$DIMASO
 70
1
  9
$DIMALT
 70
0
  9
$DIMALTD
 70
0
  9
$DIMTOFL
 70
1
  9
$DIMTIX
 70
0
  9
$DIMSAH
 70
0
  9
$DIMTFAC
 40
1.0
  9
$DIMGAP
 40
6.25E-002
  9
$LUNITS
 70
2
  9
$LUPREC
 70
3
  9
$FILLETRAD
 40
2.0
  9
$AUNITS
 70
0
  9
$AUPREC
 70
1
  9
$CHAMFERA
 40
1.0E+001
  9
$CHAMFERB
 40
1.0E+001
  9
$ANGBASE
 50
0.0
  9
$ANGDIR
 70
0
  9
$PDMODE
 70
2
  9
$PDSIZE
 40
-1.0E-002
  9
$SPLINETYPE
 70
6
  0
ENDSEC
  0
SECTION
  2
TABLES
  0
TABLE
  2
LTYPE
 70
7
  0
LTYPE
  2
HIDDENNEW00
  3
_ 
 70
64
 72
65
 73
3
 40
4.5
 49
1.5
 49
-1.5
 49
1.5
  0
LTYPE
  2
HIDDENNEW01
  3
_ 
 70
64
 72
65
 73
3
 40
4.5
 49
1.5
 49
-1.5
 49
1.5
  0
LTYPE
  2
HIDDEN
  3
_ 
 70
64
 72
65
 73
3
 40
4.5
 49
1.5
 49
-1.5
 49
1.5
  0
LTYPE
  2
CENTERLINE
  3
_ 
 70
64
 72
65
 73
5
 40
3.0E+001
 49
1.2E+001
 49
-1.5
 49
3.0
 49
-1.5
 49
1.2E+001
  0
LTYPE
  2
PHANTOM
  3
_ 
 70
64
 72
65
 73
7
 40
2.95E+001
 49
9.5
 49
-1.5
 49
3.0
 49
-1.5
 49
3.0
 49
-1.5
 49
9.5
  0
LTYPE
  2
SHORT_DASH
  3
_ 
 70
64
 72
65
 73
3
 40
3.0
 49
7.5E-001
 49
-1.5
 49
7.5E-001
  0
LTYPE
  2
LONG_DASH
  3
_ 
 70
64
 72
65
 73
3
 40
9.0
 49
2.25
 49
-4.5
 49
2.25
  0
ENDTAB
  0
TABLE
  2
LAYER
 70
258
  0
LAYER
  2
MED-1
 70
0
 62
3
  6
HIDDENNEW00
  0
LAYER
  2
2
 70
0
 62
7
  6
CONTINUOUS
  0
LAYER
  2
3
 70
0
 62
7
  6
CONTINUOUS
  0
LAYER
  2
MED-4
 70
0
 62
2
  6
HIDDENNEW00
  0
LAYER
  2
MED-5
 70
0
 62
5
  6
HIDDENNEW00
  0
LAYER
  2
MED-6
 70
0
 62
6
  6
HIDDENNEW00
  0
LAYER
  2
7
 70
0
 62
7
  6
CONTINUOUS
  0
LAYER
  2
8
 70
0
 62
7
  6
CONTINUOUS
  0
LAYER
  2
9
 70
0
 62
7
  6
CONTINUOUS
  0
LAYER
  2
10
 70
0
 62
7
  6
CONTINUOUS
  0
LAYER
  2
MED-11
 70
0
 62
70
  6
HIDDENNEW00
  0
LAYER
  2
12
 70
0
 62
7
  6
CONTINUOUS
  0
LAYER
  2
13
 70
0
 62
7
  6
CONTINUOUS
  0
LAYER
  2
14
 70
0
 62
7
  6
CONTINUOUS
  0
LAYER
  2
15
 70
0
 62
7
  6
CONTINUOUS
  0
LAYER
  2
16
 70
0
 62
7
  6
CONTINUOUS
  0
LAYER
  2
17
 70
0
 62
7
  6
CONTINUOUS
  0
LAYER
  2
18
 70
0
 62
7
  6
CONTINUOUS
  0
LAYER
  2
19
 70
0
 62
7
  6
CONTINUOUS
  0
LAYER
  2
20
 70
0
 62
7
  6
CONTINUOUS
  0
LAYER
  2
21
 70
0
 62
7
  6
CONTINUOUS
  0
LAYER
  2
22
 70
0
 62
7
  6
CONTINUOUS
  0
LAYER
  2
23
 70
0
 62
7
  6
CONTINUOUS
  0
LAYER
  2
24
 70
0
 62
7
  6
CONTINUOUS
  0
LAYER
  2
25
 70
0
 62
7
  6
CONTINUOUS
  0
LAYER
  2
26
 70
0
 62
7
  6
CONTINUOUS
  0
LAYER
  2
27
 70
0
 62
7
  6
CONTINUOUS
  0
LAYER
  2
28
 70
0
 62
7
  6
CONTINUOUS
  0
LAYER
  2
29
 70
0
 62
7
  6
CONTINUOUS
  0
LAYER
  2
30
 70
0
 62
7
  6
CONTINUOUS
  0
LAYER
  2
31
 70
0
 62
7
  6
CONTINUOUS
  0
LAYER
  2
32
 70
0
 62
7
  6
CONTINUOUS
  0
LAYER
  2
33
 70
0
 62
7
  6
CONTINUOUS
  0
LAYER
  2
34
 70
0
 62
7
  6
CONTINUOUS
  0
LAYER
  2
35
 70
0
 62
7
  6
CONTINUOUS
  0
LAYER
  2
36
 70
0
 62
7
  6
CONTINUOUS
  0
LAYER
  2
37
 70
0
 62
7
  6
CONTINUOUS
  0
LAYER
  2
38
 70
0
 62
7
  6
CONTINUOUS
  0
LAYER
  2
39
 70
0
 62
7
  6
CONTINUOUS
  0
LAYER
  2
40
 70
0
 62
7
  6
CONTINUOUS
  0
LAYER
  2
41
 70
0
 62
7
  6
CONTINUOUS
  0
LAYER
  2
42
 70
0
 62
7
  6
CONTINUOUS
  0
LAYER
  2
43
 70
0
 62
7
  6
CONTINUOUS
  0
LAYER
  2
44
 70
0
 62
7
  6
CONTINUOUS
  0
LAYER
  2
45
 70
0
 62
7
  6
CONTINUOUS
  0
LAYER
  2
46
 70
0
 62
7
  6
CONTINUOUS
  0
LAYER
  2
47
 70
0
 62
7
  6
CONTINUOUS
  0
LAYER
  2
48
 70
0
 62
7
  6
CONTINUOUS
  0
LAYER
  2
49
 70
0
 62
7
  6
CONTINUOUS
  0
LAYER
  2
50
 70
0
 62
7
  6
CONTINUOUS
  0
LAYER
  2
51
 70
0
 62
7
  6
CONTINUOUS
  0
LAYER
  2
52
 70
0
 62
7
  6
CONTINUOUS
  0
LAYER
  2
53
 70
0
 62
7
  6
CONTINUOUS
  0
LAYER
  2
54
 70
0
 62
7
  6
CONTINUOUS
  0
LAYER
  2
55
 70
0
 62
7
  6
CONTINUOUS
  0
LAYER
  2
56
 70
0
 62
7
  6
CONTINUOUS
  0
LAYER
  2
57
 70
0
 62
7
  6
CONTINUOUS
  0
LAYER
  2
58
 70
0
 62
7
  6
CONTINUOUS
  0
LAYER
  2
59
 70
0
 62
7
  6
CONTINUOUS
  0
LAYER
  2
60
 70
0
 62
7
  6
CONTINUOUS
  0
LAYER
  2
61
 70
0
 62
7
  6
CONTINUOUS
  0
LAYER
  2
62
 70
0
 62
7
  6
CONTINUOUS
  0
LAYER
  2
63
 70
0
 62
7
  6
CONTINUOUS
  0
LAYER
  2
64
 70
0
 62
7
  6
CONTINUOUS
  0
LAYER
  2
65
 70
0
 62
7
  6
CONTINUOUS
  0
LAYER
  2
66
 70
0
 62
7
  6
CONTINUOUS
  0
LAYER
  2
67
 70
0
 62
7
  6
CONTINUOUS
  0
LAYER
  2
68
 70
0
 62
7
  6
CONTINUOUS
  0
LAYER
  2
69
 70
0
 62
7
  6
CONTINUOUS
  0
LAYER
  2
70
 70
0
 62
7
  6
CONTINUOUS
  0
LAYER
  2
71
 70
0
 62
7
  6
CONTINUOUS
  0
LAYER
  2
72
 70
0
 62
7
  6
CONTINUOUS
  0
LAYER
  2
73
 70
0
 62
7
  6
CONTINUOUS
  0
LAYER
  2
74
 70
0
 62
7
  6
CONTINUOUS
  0
LAYER
  2
75
 70
0
 62
7
  6
CONTINUOUS
  0
LAYER
  2
76
 70
0
 62
7
  6
CONTINUOUS
  0
LAYER
  2
77
 70
0
 62
7
  6
CONTINUOUS
  0
LAYER
  2
78
 70
0
 62
7
  6
CONTINUOUS
  0
LAYER
  2
79
 70
0
 62
7
  6
CONTINUOUS
  0
LAYER
  2
80
 70
0
 62
7
  6
CONTINUOUS
  0
LAYER
  2
81
 70
0
 62
7
  6
CONTINUOUS
  0
LAYER
  2
82
 70
0
 62
7
  6
CONTINUOUS
  0
LAYER
  2
83
 70
0
 62
7
  6
CONTINUOUS
  0
LAYER
  2
84
 70
0
 62
7
  6
CONTINUOUS
  0
LAYER
  2
85
 70
0
 62
7
  6
CONTINUOUS
  0
LAYER
  2
86
 70
0
 62
7
  6
CONTINUOUS
  0
LAYER
  2
87
 70
0
 62
7
  6
CONTINUOUS
  0
LAYER
  2
88
 70
0
 62
7
  6
CONTINUOUS
  0
LAYER
  2
89
 70
0
 62
7
  6
CONTINUOUS
  0
LAYER
  2
90
 70
0
 62
7
  6
CONTINUOUS
  0
LAYER
  2
91
 70
0
 62
7
  6
CONTINUOUS
  0
LAYER
  2
92
 70
0
 62
7
  6
CONTINUOUS
  0
LAYER
  2
93
 70
0
 62
7
  6
CONTINUOUS
  0
LAYER
  2
94
 70
0
 62
7
  6
CONTINUOUS
  0
LAYER
  2
95
 70
0
 62
7
  6
CONTINUOUS
  0
LAYER
  2
96
 70
0
 62
7
  6
CONTINUOUS
  0
LAYER
  2
97
 70
0
 62
7
  6
CONTINUOUS
  0
LAYER
  2
98
 70
0
 62
7
  6
CONTINUOUS
  0
LAYER
  2
99
 70
0
 62
7
  6
CONTINUOUS
  0
LAYER
  2
MED-0
 70
0
 62
230
  6
HIDDENNEW00
  0
LAYER
  2
M_ERR
 70
0
 62
1
  6
HIDDENNEW00
  0
LAYER
  2
102
 70
0
 62
7
  6
CONTINUOUS
  0
LAYER
  2
103
 70
0
 62
7
  6
CONTINUOUS
  0
LAYER
  2
104
 70
0
 62
7
  6
CONTINUOUS
  0
LAYER
  2
105
 70
0
 62
7
  6
CONTINUOUS
  0
LAYER
  2
106
 70
0
 62
7
  6
CONTINUOUS
  0
LAYER
  2
107
 70
0
 62
7
  6
CONTINUOUS
  0
LAYER
  2
108
 70
0
 62
7
  6
CONTINUOUS
  0
LAYER
  2
Drafting_Hidden_Entities
 70
1
 62
7
  6
CONTINUOUS
  0
ENDTAB
  0
TABLE
  2
STYLE
 70
1
  0
STYLE
  2
STANDARD
 70
64
 40
0.0
 41
1.0
 50
0.0
 71
0
 42
1.0
  3
monotxt.shx
  4

  0
ENDTAB
  0
TABLE
  2
VIEW
 70
0
  0
ENDTAB
  0
TABLE
  2
DIMSTYLE
 70
0
  0
ENDTAB
  0
ENDSEC
  0
SECTION
  2
BLOCKS
  0
BLOCK
  2
*XH26
  3
*XH
 10
0.0
 20
0.0
 70
65
  0
LINE
  8
108
  6
CONTINUOUS
 62
1
 10
2.2183952
 20
1.3171389
 11
1.1668672
 21
2.3686669
  0
LINE
  8
108
  6
CONTINUOUS
 62
1
 10
-2.4734675E-001
 20
2.3686669
 11
2.2183952
 21
-9.70747E-002
  0
LINE
  8
108
  6
CONTINUOUS
 62
1
 10
2.2183952
 20
-1.5112882
 11
-9.7158275E-001
 21
1.6786893
  0
LINE
  8
108
  6
CONTINUOUS
 62
1
 10
-1.6786898
 20
9.715825E-001
 11
1.6244813
 21
-2.3315885
  0
LINE
  8
108
  6
CONTINUOUS
 62
1
 10
8.098925E-002
 20
-2.2023095
 11
-2.3857958
 21
2.644758E-001
  0
LINE
  8
108
  6
CONTINUOUS
 62
1
 10
-2.7816048
 20
-7.539289E-001
 11
-1.4625038
 21
-2.0730305
  0
ENDBLK
  0
BLOCK
  2
*XH27
  3
*XH
 10
0.0
 20
0.0
 70
65
  0
LINE
  8
108
  6
CONTINUOUS
 62
1
 10
1.3823946
 20
7.3892563E-001
 11
1.0661476
 21
1.0551726
  0
LINE
  8
108
  6
CONTINUOUS
 62
1
 10
-3.4806538E-001
 20
1.0551726
 11
1.3823946
 21
-6.7528738E-001
  0
LINE
  8
108
  6
CONTINUOUS
 62
1
 10
1.3823946
 20
-2.0895014
 11
-1.7622794
 21
1.0551726
  0
LINE
  8
108
  6
CONTINUOUS
 62
1
 10
-3.1764934
 20
1.0551726
 11
7.3506625E-002
 21
-2.1948274
  0
ENDBLK
  0
BLOCK
  2
*XH29
  3
*XH
 10
0.0
 20
0.0
 70
65
  0
LINE
  8
108
  6
CONTINUOUS
 62
1
 10
2.2183952
 20
1.3171388
 11
1.1668672
 21
2.3686668
  0
LINE
  8
108
  6
CONTINUOUS
 62
1
 10
-2.4734675E-001
 20
2.3686668
 11
2.2183952
 21
-9.7075167E-002
  0
LINE
  8
108
  6
CONTINUOUS
 62
1
 10
2.2183952
 20
-1.5112882
 11
-9.7158275E-001
 21
1.6786888
  0
LINE
  8
108
  6
CONTINUOUS
 62
1
 10
-1.6786898
 20
9.7158283E-001
 11
1.6244813
 21
-2.3315882
  0
LINE
  8
108
  6
CONTINUOUS
 62
1
 10
8.098925E-002
 20
-2.2023092
 11
-2.3857958
 21
2.6447583E-001
  0
LINE
  8
108
  6
CONTINUOUS
 62
1
 10
-2.7816048
 20
-7.5392917E-001
 11
-1.4625038
 21
-2.0730302
  0
ENDBLK
  0
BLOCK
  2
*XH30
  3
*XH
 10
0.0
 20
0.0
 70
65
  0
LINE
  8
108
  6
CONTINUOUS
 62
1
 10
1.3823946
 20
7.3892563E-001
 11
1.0661476
 21
1.0551726
  0
LINE
  8
108
  6
CONTINUOUS
 62
1
 10
-3.4806538E-001
 20
1.0551726
 11
1.3823946
 21
-6.7528738E-001
  0
LINE
  8
108
  6
CONTINUOUS
 62
1
 10
1.3823946
 20
-2.0895014
 11
-1.7622794
 21
1.0551726
  0
LINE
  8
108
  6
CONTINUOUS
 62
1
 10
-3.1764934
 20
1.0551726
 11
7.3506625E-002
 21
-2.1948274
  0
ENDBLK
  0
BLOCK
  2
_D0
 10
0.0
 20
0.0
 70
0
  0
LINE
  8
MED-4
  6
CONTINUOUS
 62
2
 10
4.4851555E+002
 20
3.0850366E+002
 11
4.4851555E+002
 21
3.1005253E+002
  0
ENDBLK
  0
BLOCK
  2
_D1
 10
0.0
 20
0.0
 70
0
  0
LINE
  8
MED-4
  6
CONTINUOUS
 62
2
 10
4.4851555E+002
 20
3.0850366E+002
 11
4.4851555E+002
 21
3.1005253E+002
  0
ENDBLK
  0
ENDSEC
  0
SECTION
  2
ENTITIES
  0
TEXT
  8
103
  6
CONTINUOUS
 62
40
 10
5.8219774E+002
 20
1.9146762E+001
 40
7.0
  1
Elekromagnete
 41
6.5769231E-001
 72
1
 11
5.5227274E+002
 21
1.5646762E+001
 73
2
  0
LINE
  8
MED-1
  6
CONTINUOUS
 62
40
 10
3.7996633E+002
 20
4.15E+002
 11
3.7996633E+002
 21
5.0
  0
LINE
  8
MED-1
  6
CONTINUOUS
 62
40
 10
5.89E+002
 20
2.4536271E+002
 11
5.0
 21
2.4536271E+002
  0
LINE
  8
MED-1
  6
CONTINUOUS
 62
40
 10
3.7996633E+002
 20
1.2567358E+002
 11
5.0
 21
1.2567358E+002
  0
LINE
  8
99
  6
CONTINUOUS
 62
1
 10
2.5685068E+002
 20
7.3386012E+001
 11
2.5175321E+002
 21
7.3386012E+001
  0
LINE
  8
99
  6
CONTINUOUS
 62
1
 10
2.5617743E+002
 20
7.4386012E+001
 11
2.522341E+002
 21
7.4386012E+001
  0
LINE
  8
99
  6
CONTINUOUS
 62
1
 10
2.5521564E+002
 20
7.5386012E+001
 11
2.5338825E+002
 21
7.5386012E+001
  0
LINE
  8
99
  6
CONTINUOUS
 62
1
 10
2.5550418E+002
 20
8.2386012E+001
 11
2.5300353E+002
 21
8.2386012E+001
  0
LINE
  8
99
  6
CONTINUOUS
 62
1
 10
2.5617743E+002
 20
8.3386012E+001
 11
2.5204174E+002
 21
8.3386012E+001
  0
LINE
  8
99
  6
CONTINUOUS
 62
1
 10
2.5694686E+002
 20
8.4386012E+001
 11
2.5146467E+002
 21
8.4386012E+001
  0
LINE
  8
104
  6
CONTINUOUS
 62
40
 10
2.7861682E+002
 20
7.4146317E+001
 11
2.7019809E+002
 21
8.2565046E+001
  0
LINE
  8
104
  6
CONTINUOUS
 62
40
 10
2.7967748E+002
 20
7.5206977E+001
 11
2.7125875E+002
 21
8.3625707E+001
  0
CIRCLE
  8
104
  6
CONTINUOUS
 62
40
 10
2.7493779E+002
 20
7.8886012E+001
 40
6.0
  0
LINE
  8
106
  6
CENTERLINE
 62
1
 10
2.7493779E+002
 20
6.5210794E+001
 11
2.7493779E+002
 21
9.1756124E+001
  0
LINE
  8
104
  6
CONTINUOUS
 62
40
 10
2.5743779E+002
 20
7.2386012E+001
 11
2.5743779E+002
 21
8.5386012E+001
  0
LINE
  8
104
  6
CONTINUOUS
 62
40
 10
2.5093779E+002
 20
7.2386012E+001
 11
2.5093779E+002
 21
8.5386012E+001
  0
LINE
  8
104
  6
CONTINUOUS
 62
40
 10
2.5093779E+002
 20
5.5386012E+001
 11
2.4393779E+002
 21
5.5386012E+001
  0
LINE
  8
104
  6
CONTINUOUS
 62
40
 10
2.4393779E+002
 20
5.5386012E+001
 11
2.4393779E+002
 21
1.0238601E+002
  0
LINE
  8
104
  6
CONTINUOUS
 62
40
 10
2.4393779E+002
 20
1.0238601E+002
 11
2.5093779E+002
 21
1.0238601E+002
  0
LINE
  8
104
  6
CONTINUOUS
 62
40
 10
2.5093779E+002
 20
1.0238601E+002
 11
2.5093779E+002
 21
8.5386012E+001
  0
LINE
  8
104
  6
CONTINUOUS
 62
40
 10
2.5093779E+002
 20
8.5386012E+001
 11
2.5743779E+002
 21
8.5386012E+001
  0
LINE
  8
104
  6
CONTINUOUS
 62
40
 10
2.5743779E+002
 20
8.5386012E+001
 11
2.5743779E+002
 21
8.9636012E+001
  0
LINE
  8
104
  6
CONTINUOUS
 62
40
 10
2.5743779E+002
 20
8.9636012E+001
 11
2.7493779E+002
 21
8.9636012E+001
  0
ARC
  8
104
  6
CONTINUOUS
 62
40
 10
2.7493779E+002
 20
7.8886012E+001
 40
1.075E+001
 50
2.7E+002
 51
4.5E+002
  0
LINE
  8
104
  6
CONTINUOUS
 62
40
 10
2.7493779E+002
 20
6.8136012E+001
 11
2.5743779E+002
 21
6.8136012E+001
  0
LINE
  8
104
  6
CONTINUOUS
 62
40
 10
2.5743779E+002
 20
6.8136012E+001
 11
2.5743779E+002
 21
7.2386012E+001
  0
LINE
  8
104
  6
CONTINUOUS
 62
40
 10
2.5743779E+002
 20
7.2386012E+001
 11
2.5093779E+002
 21
7.2386012E+001
  0
LINE
  8
104
  6
CONTINUOUS
 62
40
 10
2.5093779E+002
 20
7.2386012E+001
 11
2.5093779E+002
 21
5.5386012E+001
  0
LINE
  8
104
  6
CONTINUOUS
 62
40
 10
2.9093779E+002
 20
9.6136012E+001
 11
2.9345492E+002
 21
9.8653141E+001
  0
LINE
  8
104
  6
CONTINUOUS
 62
40
 10
2.9345492E+002
 20
9.8653141E+001
 11
2.9593779E+002
 21
9.8636012E+001
  0
LINE
  8
104
  6
CONTINUOUS
 62
40
 10
2.9093779E+002
 20
1.0563601E+002
 11
2.9343779E+002
 21
1.0313601E+002
  0
LINE
  8
104
  6
CONTINUOUS
 62
40
 10
2.9343779E+002
 20
1.0313601E+002
 11
2.9593779E+002
 21
1.0313601E+002
  0
LINE
  8
104
  6
CONTINUOUS
 62
40
 10
2.9345492E+002
 20
9.8653141E+001
 11
2.9343779E+002
 21
1.0313601E+002
  0
LINE
  8
106
  6
CENTERLINE
 62
1
 10
2.972839E+002
 20
1.0088601E+002
 11
2.8882017E+002
 21
1.0088601E+002
  0
LINE
  8
99
  6
CONTINUOUS
 62
1
 10
2.9093779E+002
 20
9.4304799E+001
 11
2.9593779E+002
 21
9.3886012E+001
  0
LINE
  8
99
  6
CONTINUOUS
 62
1
 10
2.9593779E+002
 20
9.3886012E+001
 11
2.9593779E+002
 21
9.8636012E+001
  0
LINE
  8
99
  6
CONTINUOUS
 62
1
 10
2.9593779E+002
 20
9.8636012E+001
 11
2.9343779E+002
 21
9.8636012E+001
  0
LINE
  8
99
  6
CONTINUOUS
 62
1
 10
2.9343779E+002
 20
9.8636012E+001
 11
2.9093779E+002
 21
9.6136012E+001
  0
LINE
  8
99
  6
CONTINUOUS
 62
1
 10
2.9093779E+002
 20
9.6136012E+001
 11
2.9093779E+002
 21
9.4304799E+001
  0
INSERT
  2
*XH26
  8
108
 10
2.9371939E+002
 20
9.6267345E+001
  0
LINE
  8
99
  6
CONTINUOUS
 62
1
 10
2.9093779E+002
 20
1.0563601E+002
 11
2.9093779E+002
 21
1.0638601E+002
  0
LINE
  8
99
  6
CONTINUOUS
 62
1
 10
2.9093779E+002
 20
1.0638601E+002
 11
2.9593779E+002
 21
1.0638601E+002
  0
LINE
  8
99
  6
CONTINUOUS
 62
1
 10
2.9593779E+002
 20
1.0638601E+002
 11
2.9593779E+002
 21
1.0313601E+002
  0
LINE
  8
99
  6
CONTINUOUS
 62
1
 10
2.9593779E+002
 20
1.0313601E+002
 11
2.9343779E+002
 21
1.0313601E+002
  0
LINE
  8
99
  6
CONTINUOUS
 62
1
 10
2.9343779E+002
 20
1.0313601E+002
 11
2.9093779E+002
 21
1.0563601E+002
  0
INSERT
  2
*XH27
  8
108
 10
2.9455539E+002
 20
1.0533084E+002
  0
LINE
  8
104
  6
CONTINUOUS
 62
40
 10
2.9093779E+002
 20
5.2886012E+001
 11
2.9093779E+002
 21
1.0488601E+002
  0
LINE
  8
106
  6
CENTERLINE
 62
1
 10
2.9959224E+002
 20
7.8886012E+001
 11
2.3867292E+002
 21
7.8886012E+001
  0
LINE
  8
104
  6
CONTINUOUS
 62
40
 10
2.7664837E+002
 20
6.8136012E+001
 11
2.9093779E+002
 21
5.9886012E+001
  0
LINE
  8
104
  6
CONTINUOUS
 62
40
 10
2.9093779E+002
 20
5.9886012E+001
 11
2.9093779E+002
 21
5.1386012E+001
  0
LINE
  8
104
  6
CONTINUOUS
 62
40
 10
2.9093779E+002
 20
5.1386012E+001
 11
2.9593779E+002
 21
5.1386012E+001
  0
LINE
  8
104
  6
CONTINUOUS
 62
40
 10
2.9593779E+002
 20
5.1386012E+001
 11
2.9593779E+002
 21
6.3886012E+001
  0
LINE
  8
104
  6
CONTINUOUS
 62
40
 10
2.9593779E+002
 20
6.3886012E+001
 11
2.9543779E+002
 21
6.3886012E+001
  0
LINE
  8
104
  6
CONTINUOUS
 62
40
 10
2.9543779E+002
 20
6.3886012E+001
 11
2.9543779E+002
 21
9.3886012E+001
  0
LINE
  8
104
  6
CONTINUOUS
 62
40
 10
2.9543779E+002
 20
9.3886012E+001
 11
2.9593779E+002
 21
9.3886012E+001
  0
LINE
  8
104
  6
CONTINUOUS
 62
40
 10
2.9593779E+002
 20
9.3886012E+001
 11
2.9593779E+002
 21
1.0638601E+002
  0
LINE
  8
104
  6
CONTINUOUS
 62
40
 10
2.9593779E+002
 20
1.0638601E+002
 11
2.9093779E+002
 21
1.0638601E+002
  0
LINE
  8
104
  6
CONTINUOUS
 62
40
 10
2.9093779E+002
 20
1.0638601E+002
 11
2.9093779E+002
 21
9.7886012E+001
  0
LINE
  8
104
  6
CONTINUOUS
 62
40
 10
2.9093779E+002
 20
9.7886012E+001
 11
2.764606E+002
 21
8.9527606E+001
  0
TEXT
  8
103
  6
CONTINUOUS
 62
40
 10
2.7685489E+002
 20
2.5987061E+001
 40
5.0
  1
MAW
 41
6.0E-001
 72
1
 11
2.7235489E+002
 21
2.3487061E+001
 73
2
  0
LINE
  8
106
  6
CENTERLINE
 62
1
 10
1.6912296E+002
 20
9.8386012E+001
 11
1.8118567E+002
 21
9.8386012E+001
  0
LINE
  8
106
  6
CENTERLINE
 62
1
 10
1.8130876E+002
 20
5.9386012E+001
 11
1.6961531E+002
 21
5.9386012E+001
  0
CIRCLE
  8
104
  6
CONTINUOUS
 62
40
 10
1.9490673E+002
 20
7.8886012E+001
 40
4.5
  0
CIRCLE
  8
104
  6
CONTINUOUS
 62
40
 10
1.5590673E+002
 20
7.8886012E+001
 40
4.5
  0
CIRCLE
  8
104
  6
CONTINUOUS
 62
40
 10
1.7540673E+002
 20
7.8886012E+001
 40
2.45E+001
  0
CIRCLE
  8
104
  6
CONTINUOUS
 62
40
 10
1.5590673E+002
 20
7.8886012E+001
 40
4.0
  0
CIRCLE
  8
105
  6
HIDDEN
 62
1
 10
1.7540673E+002
 20
5.9386012E+001
 40
4.0
  0
CIRCLE
  8
105
  6
HIDDEN
 62
1
 10
1.7540673E+002
 20
5.9386012E+001
 40
2.5
  0
CIRCLE
  8
105
  6
HIDDEN
 62
1
 10
1.7540673E+002
 20
9.8386012E+001
 40
2.5
  0
CIRCLE
  8
105
  6
HIDDEN
 62
1
 10
1.7540673E+002
 20
9.8386012E+001
 40
4.0
  0
CIRCLE
  8
104
  6
CONTINUOUS
 62
40
 10
1.5590673E+002
 20
7.8886012E+001
 40
2.5
  0
CIRCLE
  8
104
  6
CONTINUOUS
 62
40
 10
1.9490673E+002
 20
7.8886012E+001
 40
2.5
  0
CIRCLE
  8
104
  6
CONTINUOUS
 62
40
 10
1.5590673E+002
 20
7.8886012E+001
 40
4.0
  0
CIRCLE
  8
104
  6
CONTINUOUS
 62
40
 10
1.9490673E+002
 20
7.8886012E+001
 40
4.0
  0
LINE
  8
106
  6
CENTERLINE
 62
1
 10
1.5590673E+002
 20
8.500211E+001
 11
1.5590673E+002
 21
7.3062487E+001
  0
LINE
  8
106
  6
CENTERLINE
 62
1
 10
1.9490673E+002
 20
8.4755933E+001
 11
1.9490673E+002
 21
7.4386012E+001
  0
CIRCLE
  8
104
  6
CONTINUOUS
 62
40
 10
1.7540673E+002
 20
7.8886012E+001
 40
2.5E+001
  0
LINE
  8
106
  6
CENTERLINE
 62
1
 10
1.7540673E+002
 20
1.061734E+002
 11
1.7540673E+002
 21
5.2137374E+001
  0
LINE
  8
106
  6
CENTERLINE
 62
1
 10
1.4844402E+002
 20
7.8886012E+001
 11
2.0260314E+002
 21
7.8886012E+001
  0
TEXT
  8
103
  6
CONTINUOUS
 62
40
 10
1.4066581E+002
 20
2.6756491E+001
 40
5.0
  1
MAG
 41
6.0E-001
 72
1
 11
1.3616581E+002
 21
2.4256491E+001
 73
2
  0
LINE
  8
106
  6
CENTERLINE
 62
1
 10
1.1186015E+002
 20
5.9386012E+001
 11
1.1883686E+002
 21
5.9386012E+001
  0
LINE
  8
105
  6
HIDDEN
 62
1
 10
1.1269949E+002
 20
5.5386012E+001
 11
1.1419949E+002
 21
5.6886012E+001
  0
LINE
  8
105
  6
HIDDEN
 62
1
 10
1.1419949E+002
 20
5.6886012E+001
 11
1.1419949E+002
 21
6.1886012E+001
  0
LINE
  8
105
  6
HIDDEN
 62
1
 10
1.1419949E+002
 20
6.1886012E+001
 11
1.1269949E+002
 21
6.3386012E+001
  0
LINE
  8
105
  6
HIDDEN
 62
1
 10
1.1419949E+002
 20
6.1886012E+001
 11
1.1769949E+002
 21
6.1886012E+001
  0
LINE
  8
105
  6
HIDDEN
 62
1
 10
1.1419949E+002
 20
5.6886012E+001
 11
1.1769949E+002
 21
5.6886012E+001
  0
LINE
  8
105
  6
HIDDEN
 62
1
 10
1.1269949E+002
 20
9.4386012E+001
 11
1.1419949E+002
 21
9.5886012E+001
  0
LINE
  8
105
  6
HIDDEN
 62
1
 10
1.1419949E+002
 20
9.5886012E+001
 11
1.1419949E+002
 21
1.0088601E+002
  0
LINE
  8
105
  6
HIDDEN
 62
1
 10
1.1419949E+002
 20
1.0088601E+002
 11
1.1269949E+002
 21
1.0238601E+002
  0
LINE
  8
105
  6
HIDDEN
 62
1
 10
1.1419949E+002
 20
1.0088601E+002
 11
1.1769949E+002
 21
1.0088601E+002
  0
LINE
  8
105
  6
HIDDEN
 62
1
 10
1.1419949E+002
 20
9.5886012E+001
 11
1.1769949E+002
 21
9.5886012E+001
  0
LINE
  8
106
  6
CENTERLINE
 62
1
 10
1.1167079E+002
 20
9.8386012E+001
 11
1.1941642E+002
 21
9.8386012E+001
  0
LINE
  8
104
  6
CONTINUOUS
 62
40
 10
1.1269949E+002
 20
9.4886012E+001
 11
1.0487323E+002
 21
9.3506031E+001
  0
ARC
  8
104
  6
CONTINUOUS
 62
40
 10
1.0522052E+002
 20
9.1536415E+001
 40
2.0000001
 50
1.0000002E+002
 51
1.5745893E+002
  0
ARC
  8
104
  6
CONTINUOUS
 62
40
 10
1.3569949E+002
 20
7.8886012E+001
 40
3.4999999E+001
 50
1.5745893E+002
 51
1.7244787E+002
  0
LINE
  8
104
  6
CONTINUOUS
 62
40
 10
1.0100637E+002
 20
8.2886012E+001
 11
1.010125E+002
 21
7.4215609E+001
  0
ARC
  8
104
  6
CONTINUOUS
 62
40
 10
1.3569948E+002
 20
7.8886009E+001
 40
3.4999991E+001
 50
1.8766843E+002
 51
2.0254107E+002
  0
ARC
  8
104
  6
CONTINUOUS
 62
40
 10
1.0522052E+002
 20
6.6235608E+001
 40
2.0
 50
2.0254107E+002
 51
2.5999998E+002
  0
LINE
  8
104
  6
CONTINUOUS
 62
40
 10
1.0487323E+002
 20
6.4265993E+001
 11
1.1269949E+002
 21
6.2886012E+001
  0
LINE
  8
104
  6
CONTINUOUS
 62
40
 10
1.1769949E+002
 20
5.3886012E+001
 11
1.1769949E+002
 21
1.0388601E+002
  0
LINE
  8
104
  6
CONTINUOUS
 62
40
 10
1.1769949E+002
 20
1.0388601E+002
 11
1.1369949E+002
 21
1.0388601E+002
  0
ARC
  8
104
  6
CONTINUOUS
 62
40
 10
1.1369949E+002
 20
1.0288601E+002
 40
9.9999975E-001
 50
8.9999986E+001
 51
1.8000001E+002
  0
LINE
  8
104
  6
CONTINUOUS
 62
40
 10
1.1269949E+002
 20
1.0288601E+002
 11
1.1269949E+002
 21
5.4886012E+001
  0
ARC
  8
104
  6
CONTINUOUS
 62
40
 10
1.1369949E+002
 20
5.4886012E+001
 40
9.9999981E-001
 50
1.7999999E+002
 51
2.7000001E+002
  0
LINE
  8
104
  6
CONTINUOUS
 62
40
 10
1.1369949E+002
 20
5.3886012E+001
 11
1.1769949E+002
 21
5.3886012E+001
  0
LINE
  8
104
  6
CONTINUOUS
 62
40
 10
1.010125E+002
 20
1.0338601E+002
 11
1.005125E+002
 21
1.0388601E+002
  0
LINE
  8
104
  6
CONTINUOUS
 62
40
 10
1.005125E+002
 20
1.0388601E+002
 11
9.4312499E+001
 21
1.0388601E+002
  0
LINE
  8
104
  6
CONTINUOUS
 62
40
 10
9.4312499E+001
 20
1.0388601E+002
 11
9.3812499E+001
 21
1.0338601E+002
  0
LINE
  8
104
  6
CONTINUOUS
 62
40
 10
9.3812499E+001
 20
1.0338601E+002
 11
9.3812499E+001
 21
5.4386012E+001
  0
LINE
  8
104
  6
CONTINUOUS
 62
40
 10
9.3812499E+001
 20
5.4386012E+001
 11
9.4312499E+001
 21
5.3886012E+001
  0
LINE
  8
104
  6
CONTINUOUS
 62
40
 10
9.4312499E+001
 20
5.3886012E+001
 11
1.005125E+002
 21
5.3886012E+001
  0
LINE
  8
104
  6
CONTINUOUS
 62
40
 10
1.005125E+002
 20
5.3886012E+001
 11
1.010125E+002
 21
5.4386012E+001
  0
LINE
  8
104
  6
CONTINUOUS
 62
40
 10
1.010125E+002
 20
5.4386012E+001
 11
1.010125E+002
 21
1.0338601E+002
  0
LINE
  8
104
  6
CONTINUOUS
 62
40
 10
9.4312499E+001
 20
1.0388601E+002
 11
9.4312499E+001
 21
5.3886012E+001
  0
LINE
  8
104
  6
CONTINUOUS
 62
40
 10
1.005125E+002
 20
1.0388601E+002
 11
1.005125E+002
 21
8.0684377E+001
  0
LINE
  8
104
  6
CONTINUOUS
 62
40
 10
1.005125E+002
 20
8.0684377E+001
 11
1.005125E+002
 21
5.3886012E+001
  0
LINE
  8
MED-11
  6
SHORT_DASH
 62
40
 10
9.3812499E+001
 20
1.0238601E+002
 11
1.010125E+002
 21
1.0238601E+002
  0
LINE
  8
MED-11
  6
SHORT_DASH
 62
40
 10
9.3812499E+001
 20
9.4386012E+001
 11
1.010125E+002
 21
9.4386012E+001
  0
LINE
  8
MED-11
  6
SHORT_DASH
 62
40
 10
9.3812499E+001
 20
6.3386012E+001
 11
1.010125E+002
 21
6.3386012E+001
  0
LINE
  8
MED-11
  6
SHORT_DASH
 62
40
 10
9.3812499E+001
 20
5.5386012E+001
 11
1.010125E+002
 21
5.5386012E+001
  0
LINE
  8
106
  6
CENTERLINE
 62
1
 10
8.8811204E+001
 20
9.8386012E+001
 11
1.0458452E+002
 21
9.8386012E+001
  0
LINE
  8
106
  6
CENTERLINE
 62
1
 10
8.9195919E+001
 20
5.9386012E+001
 11
1.0535395E+002
 21
5.9386012E+001
  0
LINE
  8
106
  6
CENTERLINE
 62
1
 10
8.5348769E+001
 20
7.8886012E+001
 11
1.2255643E+002
 21
7.8886012E+001
  0
TEXT
  8
103
  6
CONTINUOUS
 62
6
 10
6.9027581E+001
 20
9.7230552E+001
 40
7.0
  1
Anker
 41
6.3E-001
 72
1
 11
5.8002581E+001
 21
9.3730552E+001
 73
2
  0
TEXT
  8
103
  6
CONTINUOUS
 62
40
 10
1.6547891E+002
 20
2.8650521E+002
 40
5.0
  1
EM 100 G
 41
6.46875E-001
 72
1
 11
1.5254141E+002
 21
2.8400521E+002
 73
2
  0
TEXT
  8
103
  6
CONTINUOUS
 62
40
 10
2.6165764E+002
 20
2.8650521E+002
 40
5.0
  1
EM 100 U
 41
6.46875E-001
 72
1
 11
2.4872014E+002
 21
2.8400521E+002
 73
2
  0
TEXT
  8
103
  6
CONTINUOUS
 62
40
 10
3.6014466E+002
 20
2.8650521E+002
 40
5.0
  1
EM 100 A
 41
6.46875E-001
 72
1
 11
3.4720716E+002
 21
2.8400521E+002
 73
2
  0
TEXT
  8
103
  6
CONTINUOUS
 62
40
 10
3.586058E+002
 20
2.734249E+002
 40
5.0
  1
EM 500 A
 41
6.46875E-001
 72
1
 11
3.456683E+002
 21
2.709249E+002
 73
2
  0
TEXT
  8
103
  6
CONTINUOUS
 62
40
 10
1.6394005E+002
 20
2.734249E+002
 40
5.0
  1
EM 500 G
 41
6.46875E-001
 72
1
 11
1.5100255E+002
 21
2.709249E+002
 73
2
  0
TEXT
  8
103
  6
CONTINUOUS
 62
40
 10
2.6088821E+002
 20
2.734249E+002
 40
5.0
  1
EM 500 U
 41
6.46875E-001
 72
1
 11
2.4795071E+002
 21
2.709249E+002
 73
2
  0
TEXT
  8
103
  6
CONTINUOUS
 62
6
 10
2.2542221E+002
 20
4.0734458E+002
 40
7.0
  1
Elektromagnete
 41
6.5892857E-001
 72
1
 11
1.9313471E+002
 21
4.0384458E+002
 73
2
  0
LINE
  8
106
  6
CENTERLINE
 62
1
 10
4.0646029E+002
 20
1.3694305E+002
 11
4.1679377E+002
 21
1.3694305E+002
  0
LINE
  8
106
  6
CENTERLINE
 62
1
 10
4.1181607E+002
 20
1.3198535E+002
 11
4.1181607E+002
 21
1.4155338E+002
  0
LINE
  8
106
  6
CENTERLINE
 62
1
 10
4.7228838E+002
 20
1.3694305E+002
 11
4.8300459E+002
 21
1.3694305E+002
  0
LINE
  8
106
  6
CENTERLINE
 62
1
 10
4.7781607E+002
 20
1.3236807E+002
 11
4.7781607E+002
 21
1.4155338E+002
  0
LINE
  8
106
  6
CENTERLINE
 62
1
 10
4.8223914E+002
 20
2.0294305E+002
 11
4.7305383E+002
 21
2.0294305E+002
  0
LINE
  8
106
  6
CENTERLINE
 62
1
 10
4.7781607E+002
 20
1.9877025E+002
 11
4.7781607E+002
 21
2.0534305E+002
  0
LINE
  8
106
  6
CENTERLINE
 62
1
 10
4.0722573E+002
 20
2.0294305E+002
 11
4.1641104E+002
 21
2.0294305E+002
  0
LINE
  8
106
  6
CENTERLINE
 62
1
 10
4.1181607E+002
 20
2.0738148E+002
 11
4.1181607E+002
 21
1.9857889E+002
  0
LINE
  8
106
  6
CENTERLINE
 62
1
 10
4.4481607E+002
 20
9.9454021E+001
 11
4.4481607E+002
 21
2.1541863E+002
  0
LINE
  8
MED-11
  6
SHORT_DASH
 62
40
 10
4.374456E+002
 20
1.0794305E+002
 11
4.374456E+002
 21
1.0394305E+002
  0
LINE
  8
MED-11
  6
SHORT_DASH
 62
40
 10
4.5237474E+002
 20
1.0794305E+002
 11
4.5237474E+002
 21
1.0394305E+002
  0
LINE
  8
MED-11
  6
SHORT_DASH
 62
40
 10
4.3281607E+002
 20
1.0794305E+002
 11
4.3281607E+002
 21
1.0594305E+002
  0
LINE
  8
MED-11
  6
SHORT_DASH
 62
40
 10
4.3281607E+002
 20
1.0594305E+002
 11
4.3281607E+002
 21
1.0394305E+002
  0
LINE
  8
MED-11
  6
SHORT_DASH
 62
40
 10
4.5681607E+002
 20
1.0794305E+002
 11
4.5681607E+002
 21
1.0594305E+002
  0
LINE
  8
MED-11
  6
SHORT_DASH
 62
40
 10
4.5681607E+002
 20
1.0594305E+002
 11
4.5681607E+002
 21
1.0394305E+002
  0
CIRCLE
  8
MED-11
  6
SHORT_DASH
 62
40
 10
4.1181607E+002
 20
2.0294305E+002
 40
2.5
  0
LINE
  8
104
  6
CONTINUOUS
 62
40
 10
4.2781607E+002
 20
1.0794305E+002
 11
4.2781607E+002
 21
1.2194305E+002
  0
ARC
  8
104
  6
CONTINUOUS
 62
40
 10
4.3381607E+002
 20
1.2194305E+002
 40
5.9999997
 50
8.9999997E+001
 51
1.8E+002
  0
LINE
  8
104
  6
CONTINUOUS
 62
40
 10
4.3381607E+002
 20
1.2794305E+002
 11
4.5581607E+002
 21
1.2794305E+002
  0
ARC
  8
104
  6
CONTINUOUS
 62
40
 10
4.5581607E+002
 20
1.2194305E+002
 40
5.9999998
 50
3.6E+002
 51
4.5E+002
  0
LINE
  8
104
  6
CONTINUOUS
 62
40
 10
4.6181607E+002
 20
1.2194305E+002
 11
4.6181607E+002
 21
1.0794305E+002
  0
CIRCLE
  8
104
  6
CONTINUOUS
 62
40
 10
4.1181607E+002
 20
2.0294305E+002
 40
2.5
  0
CIRCLE
  8
104
  6
CONTINUOUS
 62
40
 10
4.7781607E+002
 20
2.0294305E+002
 40
2.4
  0
CIRCLE
  8
104
  6
CONTINUOUS
 62
40
 10
4.7781607E+002
 20
1.36929E+002
 40
2.4
  0
CIRCLE
  8
104
  6
CONTINUOUS
 62
40
 10
4.1181607E+002
 20
1.3694305E+002
 40
2.4
  0
LINE
  8
104
  6
CONTINUOUS
 62
40
 10
4.0281607E+002
 20
1.0394305E+002
 11
4.0281607E+002
 21
1.1994305E+002
  0
LINE
  8
104
  6
CONTINUOUS
 62
40
 10
4.0281607E+002
 20
1.1994305E+002
 11
4.0281607E+002
 21
2.0394305E+002
  0
ARC
  8
104
  6
CONTINUOUS
 62
40
 10
4.1081607E+002
 20
2.0394305E+002
 40
8.0000004
 50
9.0000003E+001
 51
1.8E+002
  0
LINE
  8
104
  6
CONTINUOUS
 62
40
 10
4.1081607E+002
 20
2.1194305E+002
 11
4.7881607E+002
 21
2.1194305E+002
  0
ARC
  8
104
  6
CONTINUOUS
 62
40
 10
4.7881607E+002
 20
2.0394305E+002
 40
7.9999999
 50
0.0
 51
8.9999999E+001
  0
LINE
  8
104
  6
CONTINUOUS
 62
40
 10
4.8681607E+002
 20
2.0394305E+002
 11
4.8681607E+002
 21
1.1994305E+002
  0
LINE
  8
104
  6
CONTINUOUS
 62
40
 10
4.8681607E+002
 20
1.1994305E+002
 11
4.8681607E+002
 21
1.0394305E+002
  0
LINE
  8
104
  6
CONTINUOUS
 62
40
 10
4.8681607E+002
 20
1.0394305E+002
 11
4.0281607E+002
 21
1.0394305E+002
  0
LINE
  8
104
  6
CONTINUOUS
 62
40
 10
4.0281607E+002
 20
1.0794305E+002
 11
4.8681607E+002
 21
1.0794305E+002
  0
TEXT
  8
103
  6
CONTINUOUS
 62
40
 10
5.3591191E+002
 20
8.028243E+001
 40
5.0
  1
Bodenwinkel
 41
6.5454545E-001
 72
1
 11
5.1791191E+002
 21
7.778243E+001
 73
2
  0
LINE
  8
106
  6
CENTERLINE
 62
1
 10
4.1181607E+002
 20
5.668077E+001
 11
4.1181607E+002
 21
4.8313213E+001
  0
LINE
  8
106
  6
CENTERLINE
 62
1
 10
4.7781607E+002
 20
5.6103697E+001
 11
4.7781607E+002
 21
4.7062888E+001
  0
LINE
  8
104
  6
CONTINUOUS
 62
40
 10
4.7381607E+002
 20
3.3956024E+001
 11
4.7381607E+002
 21
3.9956024E+001
  0
ARC
  8
104
  6
CONTINUOUS
 62
40
 10
4.7681607E+002
 20
3.9956024E+001
 40
3.0
 50
0.0
 51
1.8E+002
  0
LINE
  8
104
  6
CONTINUOUS
 62
40
 10
4.7981607E+002
 20
3.9956024E+001
 11
4.7981607E+002
 21
3.3956024E+001
  0
ARC
  8
104
  6
CONTINUOUS
 62
40
 10
4.7681607E+002
 20
3.3956024E+001
 40
3.0
 50
1.8E+002
 51
3.6E+002
  0
LINE
  8
104
  6
CONTINUOUS
 62
40
 10
4.0981607E+002
 20
3.3956024E+001
 11
4.0981607E+002
 21
3.9956024E+001
  0
ARC
  8
104
  6
CONTINUOUS
 62
40
 10
4.1281607E+002
 20
3.9956024E+001
 40
3.0
 50
0.0
 51
1.8E+002
  0
LINE
  8
104
  6
CONTINUOUS
 62
40
 10
4.1581607E+002
 20
3.9956024E+001
 11
4.1581607E+002
 21
3.3956024E+001
  0
ARC
  8
104
  6
CONTINUOUS
 62
40
 10
4.1281607E+002
 20
3.3956024E+001
 40
3.0
 50
1.8E+002
 51
3.6E+002
  0
LINE
  8
104
  6
CONTINUOUS
 62
40
 10
4.4481607E+002
 20
5.9956024E+001
 11
4.4781607E+002
 21
5.9956024E+001
  0
ARC
  8
104
  6
CONTINUOUS
 62
40
 10
4.4781607E+002
 20
6.2956024E+001
 40
3.0
 50
2.7E+002
 51
4.5E+002
  0
LINE
  8
104
  6
CONTINUOUS
 62
40
 10
4.4781607E+002
 20
6.5956024E+001
 11
4.4181607E+002
 21
6.5956024E+001
  0
ARC
  8
104
  6
CONTINUOUS
 62
40
 10
4.4181607E+002
 20
6.2956024E+001
 40
3.0
 50
9.0E+001
 51
2.7E+002
  0
LINE
  8
104
  6
CONTINUOUS
 62
40
 10
4.4181607E+002
 20
5.9956024E+001
 11
4.4481607E+002
 21
5.9956024E+001
  0
LINE
  8
106
  6
CENTERLINE
 62
1
 10
4.4481607E+002
 20
5.8700529E+001
 11
4.4481607E+002
 21
3.1481935E+001
  0
LINE
  8
106
  6
CENTERLINE
 62
1
 10
4.3205959E+002
 20
3.9956024E+001
 11
4.5668135E+002
 21
3.9956024E+001
  0
CIRCLE
  8
104
  6
CONTINUOUS
 62
40
 10
4.4481607E+002
 20
3.9956024E+001
 40
7.6
  0
LINE
  8
MED-11
  6
SHORT_DASH
 62
40
 10
4.3281607E+002
 20
5.4956024E+001
 11
4.3281607E+002
 21
5.2956024E+001
  0
LINE
  8
MED-11
  6
SHORT_DASH
 62
40
 10
4.3281607E+002
 20
5.2956024E+001
 11
4.3281607E+002
 21
5.0956024E+001
  0
LINE
  8
MED-11
  6
SHORT_DASH
 62
40
 10
4.5681607E+002
 20
5.4956024E+001
 11
4.5681607E+002
 21
5.2956024E+001
  0
LINE
  8
MED-11
  6
SHORT_DASH
 62
40
 10
4.5681607E+002
 20
5.2956024E+001
 11
4.5681607E+002
 21
5.0956024E+001
  0
LINE
  8
104
  6
CONTINUOUS
 62
40
 10
4.5681607E+002
 20
5.0956024E+001
 11
4.5681607E+002
 21
4.9556024E+001
  0
ARC
  8
104
  6
CONTINUOUS
 62
40
 10
4.5881607E+002
 20
4.9556024E+001
 40
1.9999996
 50
1.7999999E+002
 51
2.7000001E+002
  0
LINE
  8
104
  6
CONTINUOUS
 62
40
 10
4.5881607E+002
 20
4.7556024E+001
 11
4.5981607E+002
 21
4.7556024E+001
  0
ARC
  8
104
  6
CONTINUOUS
 62
40
 10
4.5981607E+002
 20
4.9556024E+001
 40
1.9999998
 50
2.6999999E+002
 51
3.6000001E+002
  0
LINE
  8
104
  6
CONTINUOUS
 62
40
 10
4.6181607E+002
 20
4.9556024E+001
 11
4.6181607E+002
 21
5.0956024E+001
  0
LINE
  8
104
  6
CONTINUOUS
 62
40
 10
4.2781607E+002
 20
5.0956024E+001
 11
4.2781607E+002
 21
4.9556024E+001
  0
ARC
  8
104
  6
CONTINUOUS
 62
40
 10
4.2981607E+002
 20
4.9556024E+001
 40
1.9999999
 50
1.8E+002
 51
2.7E+002
  0
LINE
  8
104
  6
CONTINUOUS
 62
40
 10
4.2981607E+002
 20
4.7556024E+001
 11
4.3081607E+002
 21
4.7556024E+001
  0
ARC
  8
104
  6
CONTINUOUS
 62
40
 10
4.3081607E+002
 20
4.9556025E+001
 40
2.0000002
 50
2.7000001E+002
 51
3.5999999E+002
  0
LINE
  8
104
  6
CONTINUOUS
 62
40
 10
4.3281607E+002
 20
4.9556024E+001
 11
4.3281607E+002
 21
5.0956024E+001
  0
LINE
  8
MED-11
  6
SHORT_DASH
 62
40
 10
4.6181607E+002
 20
5.4956024E+001
 11
4.6181607E+002
 21
5.0956024E+001
  0
LINE
  8
MED-11
  6
SHORT_DASH
 62
40
 10
4.2781607E+002
 20
5.4956024E+001
 11
4.2781607E+002
 21
5.0956024E+001
  0
LINE
  8
106
  6
CENTERLINE
 62
1
 10
4.4481607E+002
 20
6.8510771E+001
 11
4.4481607E+002
 21
5.8219637E+001
  0
LINE
  8
106
  6
CENTERLINE
 62
1
 10
4.0738974E+002
 20
3.3956024E+001
 11
4.1931591E+002
 21
3.3956024E+001
  0
LINE
  8
106
  6
CENTERLINE
 62
1
 10
4.7038686E+002
 20
3.3956024E+001
 11
4.8212068E+002
 21
3.3956024E+001
  0
LINE
  8
106
  6
CENTERLINE
 62
1
 10
4.7681607E+002
 20
4.0330377E+001
 11
4.7681607E+002
 21
4.5330377E+001
  0
LINE
  8
106
  6
CENTERLINE
 62
1
 10
4.7681607E+002
 20
4.5330377E+001
 11
4.7681607E+002
 21
2.8788919E+001
  0
LINE
  8
106
  6
CENTERLINE
 62
1
 10
4.1281607E+002
 20
3.9560947E+001
 11
4.1281607E+002
 21
4.4560947E+001
  0
LINE
  8
106
  6
CENTERLINE
 62
1
 10
4.1281607E+002
 20
4.4560947E+001
 11
4.1281607E+002
 21
2.8019489E+001
  0
LINE
  8
106
  6
CENTERLINE
 62
1
 10
4.3767402E+002
 20
6.2956024E+001
 11
4.5166803E+002
 21
6.2956024E+001
  0
LINE
  8
106
  6
CENTERLINE
 62
1
 10
4.4181607E+002
 20
6.7741355E+001
 11
4.4181607E+002
 21
5.9741355E+001
  0
LINE
  8
106
  6
CENTERLINE
 62
1
 10
4.4781607E+002
 20
6.8318428E+001
 11
4.4781607E+002
 21
6.0318428E+001
  0
LINE
  8
106
  6
CENTERLINE
 62
1
 10
4.0801488E+002
 20
3.9956024E+001
 11
4.174404E+002
 21
3.9956024E+001
  0
LINE
  8
106
  6
CENTERLINE
 62
1
 10
4.7187759E+002
 20
3.9956024E+001
 11
4.8207255E+002
 21
3.9956024E+001
  0
LINE
  8
104
  6
CONTINUOUS
 62
40
 10
4.5681607E+002
 20
5.4956024E+001
 11
4.5681607E+002
 21
6.3956024E+001
  0
ARC
  8
104
  6
CONTINUOUS
 62
40
 10
4.5081607E+002
 20
6.3956024E+001
 40
6.0000004
 50
3.7427E-006
 51
8.9999996E+001
  0
LINE
  8
104
  6
CONTINUOUS
 62
40
 10
4.5081607E+002
 20
6.9956024E+001
 11
4.3881607E+002
 21
6.9956024E+001
  0
ARC
  8
104
  6
CONTINUOUS
 62
40
 10
4.3881607E+002
 20
6.3956025E+001
 40
6.0
 50
8.9999996E+001
 51
1.8E+002
  0
LINE
  8
104
  6
CONTINUOUS
 62
40
 10
4.3281607E+002
 20
6.3956024E+001
 11
4.3281607E+002
 21
5.4956024E+001
  0
LINE
  8
104
  6
CONTINUOUS
 62
40
 10
4.0281607E+002
 20
5.4956024E+001
 11
4.8681607E+002
 21
5.4956024E+001
  0
LINE
  8
104
  6
CONTINUOUS
 62
40
 10
4.8681607E+002
 20
5.4956024E+001
 11
4.8681607E+002
 21
5.0956024E+001
  0
LINE
  8
104
  6
CONTINUOUS
 62
40
 10
4.8681607E+002
 20
5.0956024E+001
 11
4.8681607E+002
 21
4.8956024E+001
  0
LINE
  8
104
  6
CONTINUOUS
 62
40
 10
4.8681607E+002
 20
4.8956024E+001
 11
4.8681607E+002
 21
3.3956024E+001
  0
ARC
  8
104
  6
CONTINUOUS
 62
40
 10
4.7881607E+002
 20
3.3956025E+001
 40
8.0000002
 50
2.7E+002
 51
3.6E+002
  0
LINE
  8
104
  6
CONTINUOUS
 62
40
 10
4.7881607E+002
 20
2.5956025E+001
 11
4.1081607E+002
 21
2.5956025E+001
  0
ARC
  8
104
  6
CONTINUOUS
 62
40
 10
4.1081607E+002
 20
3.3956025E+001
 40
8.0000001
 50
1.8E+002
 51
2.7E+002
  0
LINE
  8
104
  6
CONTINUOUS
 62
40
 10
4.0281607E+002
 20
3.3956024E+001
 11
4.0281607E+002
 21
4.8956024E+001
  0
LINE
  8
104
  6
CONTINUOUS
 62
40
 10
4.0281607E+002
 20
4.8956024E+001
 11
4.0281607E+002
 21
5.4956024E+001
  0
LINE
  8
104
  6
CONTINUOUS
 62
40
 10
4.867487E+002
 20
5.0956024E+001
 11
4.0281607E+002
 21
5.0956024E+001
  0
LINE
  8
106
  6
CENTERLINE
 62
1
 10
5.5292832E+002
 20
1.3694305E+002
 11
5.4042508E+002
 21
1.3694305E+002
  0
LINE
  8
106
  6
CENTERLINE
 62
1
 10
5.5241446E+002
 20
1.6994305E+002
 11
5.3894943E+002
 21
1.6994305E+002
  0
LINE
  8
106
  6
CENTERLINE
 62
1
 10
5.5312068E+002
 20
2.0294305E+002
 11
5.4080979E+002
 21
2.0294305E+002
  0
LINE
  8
106
  6
CENTERLINE
 62
1
 10
5.6000774E+002
 20
1.1139732E+002
 11
5.6000774E+002
 21
9.9998493E+001
  0
LINE
  8
MED-11
  6
SHORT_DASH
 62
40
 10
5.4400774E+002
 20
1.2794305E+002
 11
5.4800774E+002
 21
1.2794305E+002
  0
LINE
  8
104
  6
CONTINUOUS
 62
40
 10
5.7300774E+002
 20
1.0394305E+002
 11
5.5200774E+002
 21
1.0394305E+002
  0
ARC
  8
104
  6
CONTINUOUS
 62
40
 10
5.5200774E+002
 20
1.1194305E+002
 40
8.0000001
 50
1.8E+002
 51
2.7E+002
  0
LINE
  8
104
  6
CONTINUOUS
 62
40
 10
5.4400774E+002
 20
1.1194305E+002
 11
5.4400774E+002
 21
2.1194305E+002
  0
LINE
  8
104
  6
CONTINUOUS
 62
40
 10
5.4400774E+002
 20
2.1194305E+002
 11
5.4800774E+002
 21
2.1194305E+002
  0
LINE
  8
104
  6
CONTINUOUS
 62
40
 10
5.4800774E+002
 20
2.1194305E+002
 11
5.4800774E+002
 21
1.1194305E+002
  0
ARC
  8
104
  6
CONTINUOUS
 62
40
 10
5.5200774E+002
 20
1.1194305E+002
 40
4.0000003
 50
1.8E+002
 51
2.7E+002
  0
LINE
  8
104
  6
CONTINUOUS
 62
40
 10
5.5200774E+002
 20
1.0794305E+002
 11
5.7300774E+002
 21
1.0794305E+002
  0
LINE
  8
104
  6
CONTINUOUS
 62
40
 10
5.7300774E+002
 20
1.0794305E+002
 11
5.7300774E+002
 21
1.0394305E+002
  0
LINE
  8
104
  6
CONTINUOUS
 62
40
 10
5.5130839E+002
 20
1.0394305E+002
 11
5.2900774E+002
 21
1.0394305E+002
  0
LINE
  8
104
  6
CONTINUOUS
 62
40
 10
5.2900774E+002
 20
1.0394305E+002
 11
5.2900774E+002
 21
1.0794305E+002
  0
LINE
  8
104
  6
CONTINUOUS
 62
40
 10
5.2900774E+002
 20
1.0794305E+002
 11
5.4507954E+002
 21
1.0794305E+002
  0
LINE
  8
104
  6
CONTINUOUS
 62
40
 10
5.5150075E+002
 20
1.0794305E+002
 11
5.7300774E+002
 21
1.0794305E+002
  0
LINE
  8
104
  6
CONTINUOUS
 62
40
 10
2.260337E+002
 20
2.1059327E+002
 11
2.2855083E+002
 21
2.131104E+002
  0
LINE
  8
104
  6
CONTINUOUS
 62
40
 10
2.2855083E+002
 20
2.131104E+002
 11
2.310337E+002
 21
2.1309327E+002
  0
LINE
  8
104
  6
CONTINUOUS
 62
40
 10
2.260337E+002
 20
2.2009327E+002
 11
2.285337E+002
 21
2.1759327E+002
  0
LINE
  8
104
  6
CONTINUOUS
 62
40
 10
2.285337E+002
 20
2.1759327E+002
 11
2.310337E+002
 21
2.1759327E+002
  0
LINE
  8
104
  6
CONTINUOUS
 62
40
 10
2.2855083E+002
 20
2.131104E+002
 11
2.285337E+002
 21
2.1759327E+002
  0
LINE
  8
106
  6
CENTERLINE
 62
1
 10
2.3237981E+002
 20
2.1534327E+002
 11
2.2391608E+002
 21
2.1534327E+002
  0
LINE
  8
99
  6
CONTINUOUS
 62
1
 10
2.260337E+002
 20
2.0876206E+002
 11
2.310337E+002
 21
2.0834327E+002
  0
LINE
  8
99
  6
CONTINUOUS
 62
1
 10
2.310337E+002
 20
2.0834327E+002
 11
2.310337E+002
 21
2.1309327E+002
  0
LINE
  8
99
  6
CONTINUOUS
 62
1
 10
2.310337E+002
 20
2.1309327E+002
 11
2.285337E+002
 21
2.1309327E+002
  0
LINE
  8
99
  6
CONTINUOUS
 62
1
 10
2.285337E+002
 20
2.1309327E+002
 11
2.260337E+002
 21
2.1059327E+002
  0
LINE
  8
99
  6
CONTINUOUS
 62
1
 10
2.260337E+002
 20
2.1059327E+002
 11
2.260337E+002
 21
2.0876206E+002
  0
INSERT
  2
*XH29
  8
108
 10
2.288153E+002
 20
2.107246E+002
  0
LINE
  8
99
  6
CONTINUOUS
 62
1
 10
2.260337E+002
 20
2.2009327E+002
 11
2.260337E+002
 21
2.2084327E+002
  0
LINE
  8
99
  6
CONTINUOUS
 62
1
 10
2.260337E+002
 20
2.2084327E+002
 11
2.310337E+002
 21
2.2084327E+002
  0
LINE
  8
99
  6
CONTINUOUS
 62
1
 10
2.310337E+002
 20
2.2084327E+002
 11
2.310337E+002
 21
2.1759327E+002
  0
LINE
  8
99
  6
CONTINUOUS
 62
1
 10
2.310337E+002
 20
2.1759327E+002
 11
2.285337E+002
 21
2.1759327E+002
  0
LINE
  8
99
  6
CONTINUOUS
 62
1
 10
2.285337E+002
 20
2.1759327E+002
 11
2.260337E+002
 21
2.2009327E+002
  0
INSERT
  2
*XH30
  8
108
 10
2.296513E+002
 20
2.197881E+002
  0
LINE
  8
104
  6
CONTINUOUS
 62
40
 10
2.260337E+002
 20
1.7134327E+002
 11
1.860337E+002
 21
1.7134327E+002
  0
LINE
  8
104
  6
CONTINUOUS
 62
40
 10
1.860337E+002
 20
1.8046384E+002
 11
2.260337E+002
 21
1.8046384E+002
  0
LINE
  8
104
  6
CONTINUOUS
 62
40
 10
2.260337E+002
 20
1.8709327E+002
 11
1.860337E+002
 21
1.8709327E+002
  0
LINE
  8
104
  6
CONTINUOUS
 62
40
 10
1.860337E+002
 20
1.9959327E+002
 11
2.260337E+002
 21
1.9959327E+002
  0
LINE
  8
104
  6
CONTINUOUS
 62
40
 10
2.260337E+002
 20
2.062227E+002
 11
1.860337E+002
 21
2.062227E+002
  0
LINE
  8
104
  6
CONTINUOUS
 62
40
 10
1.860337E+002
 20
2.1560838E+002
 11
2.260337E+002
 21
2.1560838E+002
  0
LINE
  8
104
  6
CONTINUOUS
 62
40
 10
2.260337E+002
 20
1.6810565E+002
 11
1.855337E+002
 21
1.6810565E+002
  0
LINE
  8
104
  6
CONTINUOUS
 62
40
 10
1.855337E+002
 20
1.6810565E+002
 11
1.855337E+002
 21
1.7134327E+002
  0
LINE
  8
104
  6
CONTINUOUS
 62
40
 10
1.855337E+002
 20
1.7134327E+002
 11
1.860337E+002
 21
1.7134327E+002
  0
LINE
  8
104
  6
CONTINUOUS
 62
40
 10
1.860337E+002
 20
1.7134327E+002
 11
1.860337E+002
 21
1.8046384E+002
  0
LINE
  8
104
  6
CONTINUOUS
 62
40
 10
1.860337E+002
 20
1.8046384E+002
 11
1.855337E+002
 21
1.8046384E+002
  0
LINE
  8
104
  6
CONTINUOUS
 62
40
 10
1.855337E+002
 20
1.8046384E+002
 11
1.855337E+002
 21
1.8709327E+002
  0
LINE
  8
104
  6
CONTINUOUS
 62
40
 10
1.855337E+002
 20
1.8709327E+002
 11
1.860337E+002
 21
1.8709327E+002
  0
LINE
  8
104
  6
CONTINUOUS
 62
40
 10
1.860337E+002
 20
1.8709327E+002
 11
1.860337E+002
 21
1.9959327E+002
  0
LINE
  8
104
  6
CONTINUOUS
 62
40
 10
1.860337E+002
 20
1.9959327E+002
 11
1.855337E+002
 21
1.9959327E+002
  0
LINE
  8
104
  6
CONTINUOUS
 62
40
 10
1.855337E+002
 20
1.9959327E+002
 11
1.855337E+002
 21
2.062227E+002
  0
LINE
  8
104
  6
CONTINUOUS
 62
40
 10
1.855337E+002
 20
2.062227E+002
 11
1.860337E+002
 21
2.062227E+002
  0
LINE
  8
104
  6
CONTINUOUS
 62
40
 10
1.860337E+002
 20
2.062227E+002
 11
1.860337E+002
 21
2.1560838E+002
  0
LINE
  8
104
  6
CONTINUOUS
 62
40
 10
1.860337E+002
 20
2.1560838E+002
 11
1.855337E+002
 21
2.1560838E+002
  0
LINE
  8
104
  6
CONTINUOUS
 62
40
 10
1.855337E+002
 20
2.1560838E+002
 11
1.855337E+002
 21
2.1858089E+002
  0
LINE
  8
104
  6
CONTINUOUS
 62
40
 10
1.855337E+002
 20
2.1858089E+002
 11
2.260337E+002
 21
2.1858089E+002
  0
LINE
  8
104
  6
CONTINUOUS
 62
40
 10
1.660337E+002
 20
1.7734327E+002
 11
1.660337E+002
 21
2.0934327E+002
  0
LINE
  8
104
  6
CONTINUOUS
 62
40
 10
1.680337E+002
 20
2.1259327E+002
 11
1.680337E+002
 21
1.7409327E+002
  0
LINE
  8
104
  6
CONTINUOUS
 62
40
 10
1.850337E+002
 20
1.7409327E+002
 11
1.850337E+002
 21
2.1259327E+002
  0
LINE
  8
104
  6
CONTINUOUS
 62
40
 10
2.260337E+002
 20
1.6734327E+002
 11
2.260337E+002
 21
2.1934327E+002
  0
LINE
  8
106
  6
CENTERLINE
 62
1
 10
2.3468815E+002
 20
1.9334327E+002
 11
1.4751199E+002
 21
1.9334327E+002
  0
LINE
  8
104
  6
CONTINUOUS
 62
40
 10
1.570337E+002
 20
2.1684327E+002
 11
1.570337E+002
 21
1.6984327E+002
  0
LINE
  8
104
  6
CONTINUOUS
 62
40
 10
1.570337E+002
 20
1.6984327E+002
 11
1.500337E+002
 21
1.6984327E+002
  0
LINE
  8
104
  6
CONTINUOUS
 62
40
 10
1.500337E+002
 20
1.6984327E+002
 11
1.500337E+002
 21
2.1684327E+002
  0
LINE
  8
104
  6
CONTINUOUS
 62
40
 10
1.500337E+002
 20
2.1684327E+002
 11
1.570337E+002
 21
2.1684327E+002
  0
LINE
  8
104
  6
CONTINUOUS
 62
40
 10
1.570337E+002
 20
1.9334327E+002
 11
1.570337E+002
 21
1.8178479E+002
  0
ARC
  8
104
  6
CONTINUOUS
 62
40
 10
1.590337E+002
 20
1.8178479E+002
 40
1.9999998
 50
1.8000001E+002
 51
2.5156504E+002
  0
LINE
  8
104
  6
CONTINUOUS
 62
40
 10
1.5840124E+002
 20
1.7988742E+002
 11
1.660337E+002
 21
1.7734327E+002
  0
LINE
  8
104
  6
CONTINUOUS
 62
40
 10
1.660337E+002
 20
1.7734327E+002
 11
1.660337E+002
 21
1.7609327E+002
  0
LINE
  8
104
  6
CONTINUOUS
 62
40
 10
1.660337E+002
 20
1.7609327E+002
 11
1.680337E+002
 21
1.7409327E+002
  0
LINE
  8
104
  6
CONTINUOUS
 62
40
 10
1.680337E+002
 20
1.7409327E+002
 11
1.850337E+002
 21
1.7409327E+002
  0
LINE
  8
104
  6
CONTINUOUS
 62
40
 10
1.850337E+002
 20
1.7409327E+002
 11
1.850337E+002
 21
1.6834327E+002
  0
LINE
  8
104
  6
CONTINUOUS
 62
40
 10
1.850337E+002
 20
1.6834327E+002
 11
1.860337E+002
 21
1.6734327E+002
  0
LINE
  8
104
  6
CONTINUOUS
 62
40
 10
1.860337E+002
 20
1.6734327E+002
 11
2.260337E+002
 21
1.6734327E+002
  0
LINE
  8
104
  6
CONTINUOUS
 62
40
 10
2.260337E+002
 20
1.6734327E+002
 11
2.260337E+002
 21
1.6584327E+002
  0
LINE
  8
104
  6
CONTINUOUS
 62
40
 10
2.260337E+002
 20
1.6584327E+002
 11
2.310337E+002
 21
1.6584327E+002
  0
LINE
  8
104
  6
CONTINUOUS
 62
40
 10
2.310337E+002
 20
1.6584327E+002
 11
2.310337E+002
 21
1.7834327E+002
  0
LINE
  8
104
  6
CONTINUOUS
 62
40
 10
2.310337E+002
 20
1.7834327E+002
 11
2.305337E+002
 21
1.7834327E+002
  0
LINE
  8
104
  6
CONTINUOUS
 62
40
 10
2.305337E+002
 20
1.7834327E+002
 11
2.305337E+002
 21
2.0834327E+002
  0
LINE
  8
104
  6
CONTINUOUS
 62
40
 10
2.305337E+002
 20
2.0834327E+002
 11
2.310337E+002
 21
2.0834327E+002
  0
LINE
  8
104
  6
CONTINUOUS
 62
40
 10
2.310337E+002
 20
2.0834327E+002
 11
2.310337E+002
 21
2.2084327E+002
  0
LINE
  8
104
  6
CONTINUOUS
 62
40
 10
2.310337E+002
 20
2.2084327E+002
 11
2.260337E+002
 21
2.2084327E+002
  0
LINE
  8
104
  6
CONTINUOUS
 62
40
 10
2.260337E+002
 20
2.2084327E+002
 11
2.260337E+002
 21
2.1934327E+002
  0
LINE
  8
104
  6
CONTINUOUS
 62
40
 10
2.260337E+002
 20
2.1934327E+002
 11
1.860337E+002
 21
2.1934327E+002
  0
LINE
  8
104
  6
CONTINUOUS
 62
40
 10
1.860337E+002
 20
2.1934327E+002
 11
1.850337E+002
 21
2.1834327E+002
  0
LINE
  8
104
  6
CONTINUOUS
 62
40
 10
1.850337E+002
 20
2.1834327E+002
 11
1.850337E+002
 21
2.1259327E+002
  0
LINE
  8
104
  6
CONTINUOUS
 62
40
 10
1.850337E+002
 20
2.1259327E+002
 11
1.680337E+002
 21
2.1259327E+002
  0
LINE
  8
104
  6
CONTINUOUS
 62
40
 10
1.680337E+002
 20
2.1259327E+002
 11
1.660337E+002
 21
2.1059327E+002
  0
LINE
  8
104
  6
CONTINUOUS
 62
40
 10
1.660337E+002
 20
2.1059327E+002
 11
1.660337E+002
 21
2.0934327E+002
  0
LINE
  8
104
  6
CONTINUOUS
 62
40
 10
1.660337E+002
 20
2.0934327E+002
 11
1.5840124E+002
 21
2.0679912E+002
  0
ARC
  8
104
  6
CONTINUOUS
 62
40
 10
1.590337E+002
 20
2.0490175E+002
 40
2.0000002
 50
1.0843497E+002
 51
1.8000001E+002
  0
LINE
  8
104
  6
CONTINUOUS
 62
40
 10
1.570337E+002
 20
2.0490175E+002
 11
1.570337E+002
 21
1.9334327E+002
  0
TEXT
  8
103
  6
CONTINUOUS
 62
40
 10
2.1581347E+002
 20
1.4775907E+002
 40
5.0
  1
MAT
 41
6.0E-001
 72
1
 11
2.1131347E+002
 21
1.4525907E+002
 73
2
  0
CIRCLE
  8
104
  6
CONTINUOUS
 62
40
 10
2.8778497E+002
 20
2.1534327E+002
 40
2.25
  0
CIRCLE
  8
104
  6
CONTINUOUS
 62
40
 10
3.3178497E+002
 20
2.1534327E+002
 40
2.25
  0
CIRCLE
  8
104
  6
CONTINUOUS
 62
40
 10
3.3178497E+002
 20
1.7134327E+002
 40
2.25
  0
CIRCLE
  8
104
  6
CONTINUOUS
 62
40
 10
2.8778497E+002
 20
1.7134327E+002
 40
2.25
  0
LINE
  8
104
  6
CONTINUOUS
 62
40
 10
2.9003497E+002
 20
1.7134327E+002
 11
2.8778497E+002
 21
1.7134327E+002
  0
CIRCLE
  8
104
  6
CONTINUOUS
 62
40
 10
2.8778497E+002
 20
1.7134327E+002
 40
4.0
  0
CIRCLE
  8
104
  6
CONTINUOUS
 62
40
 10
2.8778497E+002
 20
2.1534327E+002
 40
4.0
  0
CIRCLE
  8
104
  6
CONTINUOUS
 62
40
 10
3.3178497E+002
 20
2.1534327E+002
 40
4.0
  0
CIRCLE
  8
104
  6
CONTINUOUS
 62
40
 10
3.3178497E+002
 20
1.7134327E+002
 40
4.0
  0
LINE
  8
106
  6
CENTERLINE
 62
1
 10
2.8228497E+002
 20
1.7134327E+002
 11
2.9341677E+002
 21
1.7134327E+002
  0
LINE
  8
106
  6
CENTERLINE
 62
1
 10
3.2592518E+002
 20
1.7134327E+002
 11
3.3728497E+002
 21
1.7134327E+002
  0
LINE
  8
106
  6
CENTERLINE
 62
1
 10
3.3178497E+002
 20
1.6584327E+002
 11
3.3178497E+002
 21
1.7737759E+002
  0
LINE
  8
106
  6
CENTERLINE
 62
1
 10
2.8778497E+002
 20
1.6584327E+002
 11
2.8778497E+002
 21
1.7699288E+002
  0
LINE
  8
106
  6
CENTERLINE
 62
1
 10
2.8778497E+002
 20
2.1007836E+002
 11
2.8778497E+002
 21
2.2084327E+002
  0
LINE
  8
106
  6
CENTERLINE
 62
1
 10
3.3178497E+002
 20
2.0969364E+002
 11
3.3178497E+002
 21
2.2084327E+002
  0
LINE
  8
106
  6
CENTERLINE
 62
1
 10
2.8228497E+002
 20
2.1534327E+002
 11
2.9360913E+002
 21
2.1534327E+002
  0
LINE
  8
106
  6
CENTERLINE
 62
1
 10
3.2592518E+002
 20
2.1534327E+002
 11
3.3728497E+002
 21
2.1534327E+002
  0
CIRCLE
  8
104
  6
CONTINUOUS
 62
40
 10
3.0978497E+002
 20
1.9334327E+002
 40
2.35E+001
  0
LINE
  8
104
  6
CONTINUOUS
 62
40
 10
2.8228497E+002
 20
1.6584327E+002
 11
3.3728497E+002
 21
1.6584327E+002
  0
LINE
  8
104
  6
CONTINUOUS
 62
40
 10
3.3728497E+002
 20
1.6584327E+002
 11
3.3728497E+002
 21
2.2084327E+002
  0
LINE
  8
104
  6
CONTINUOUS
 62
40
 10
3.3728497E+002
 20
2.2084327E+002
 11
2.8228497E+002
 21
2.2084327E+002
  0
LINE
  8
104
  6
CONTINUOUS
 62
40
 10
2.8228497E+002
 20
2.2084327E+002
 11
2.8228497E+002
 21
1.6584327E+002
  0
LINE
  8
106
  6
CENTERLINE
 62
1
 10
2.7639313E+002
 20
1.9334327E+002
 11
3.4448769E+002
 21
1.9334327E+002
  0
LINE
  8
106
  6
CENTERLINE
 62
1
 10
3.0978497E+002
 20
1.6256607E+002
 11
3.0978497E+002
 21
2.2642876E+002
  0
CIRCLE
  8
104
  6
CONTINUOUS
 62
40
 10
5.519606E+002
 20
3.5502592E+002
 40
7.3
  0
LINE
  8
106
  6
CENTERLINE
 62
1
 10
5.519606E+002
 20
3.4425779E+002
 11
5.519606E+002
 21
3.6541711E+002
  0
LINE
  8
106
  6
CENTERLINE
 62
1
 10
5.6124609E+002
 20
3.5502592E+002
 11
5.431606E+002
 21
3.5502592E+002
  0
LINE
  8
104
  6
CONTINUOUS
 62
40
 10
5.411606E+002
 20
2.9802592E+002
 11
5.431606E+002
 21
2.9802592E+002
  0
LINE
  8
104
  6
CONTINUOUS
 62
40
 10
5.431606E+002
 20
2.9802592E+002
 11
5.431606E+002
 21
2.9752592E+002
  0
LINE
  8
104
  6
CONTINUOUS
 62
40
 10
5.431606E+002
 20
2.9752592E+002
 11
5.631606E+002
 21
2.9752592E+002
  0
LINE
  8
104
  6
CONTINUOUS
 62
40
 10
5.631606E+002
 20
2.9752592E+002
 11
5.631606E+002
 21
3.8272929E+002
  0
LINE
  8
104
  6
CONTINUOUS
 62
40
 10
5.631606E+002
 20
3.8272929E+002
 11
5.431606E+002
 21
3.8272929E+002
  0
LINE
  8
104
  6
CONTINUOUS
 62
40
 10
5.431606E+002
 20
3.8272929E+002
 11
5.431606E+002
 21
3.8222929E+002
  0
LINE
  8
104
  6
CONTINUOUS
 62
40
 10
5.431606E+002
 20
3.8222929E+002
 11
5.411606E+002
 21
3.8222929E+002
  0
LINE
  8
104
  6
CONTINUOUS
 62
40
 10
5.411606E+002
 20
3.8222929E+002
 11
5.411606E+002
 21
2.9802592E+002
  0
LINE
  8
104
  6
CONTINUOUS
 62
40
 10
5.431606E+002
 20
2.9802592E+002
 11
5.431606E+002
 21
3.8222929E+002
  0
LINE
  8
106
  6
CENTERLINE
 62
1
 10
5.358549E+002
 20
3.4002592E+002
 11
5.6693651E+002
 21
3.4002592E+002
  0
TEXT
  8
103
  6
CONTINUOUS
 62
40
 10
5.0803854E+002
 20
2.7943267E+002
 40
5.0
  1
Ausgleichsrahmen
 41
6.609375E-001
 72
1
 11
4.8160104E+002
 21
2.7693267E+002
 73
2
  0
LINE
  8
106
  6
CENTERLINE
 62
1
 10
4.4851555E+002
 20
3.7662012E+002
 11
4.4851555E+002
 21
3.8291983E+002
  0
LINE
  8
104
  6
CONTINUOUS
 62
40
 10
4.5626555E+002
 20
3.7703998E+002
 11
4.4076555E+002
 21
3.7703998E+002
  0
LINE
  8
104
  6
CONTINUOUS
 62
40
 10
4.4076555E+002
 20
3.7703998E+002
 11
4.4076555E+002
 21
3.7902592E+002
  0
LINE
  8
104
  6
CONTINUOUS
 62
40
 10
4.4076555E+002
 20
3.7902592E+002
 11
4.5626555E+002
 21
3.7902592E+002
  0
LINE
  8
104
  6
CONTINUOUS
 62
40
 10
4.5626555E+002
 20
3.7902592E+002
 11
4.5626555E+002
 21
3.7703998E+002
  0
LINE
  8
105
  6
HIDDEN
 62
1
 10
4.5671555E+002
 20
3.8252592E+002
 11
4.5671555E+002
 21
3.8152592E+002
  0
ARC
  8
105
  6
HIDDEN
 62
1
 10
4.5621555E+002
 20
3.8152592E+002
 40
4.9999904E-001
 50
2.6999989E+002
 51
3.6000011E+002
  0
LINE
  8
105
  6
HIDDEN
 62
1
 10
4.5621555E+002
 20
3.8102592E+002
 11
4.5601555E+002
 21
3.8102592E+002
  0
LINE
  8
105
  6
HIDDEN
 62
1
 10
4.5601555E+002
 20
3.8102592E+002
 11
4.5601555E+002
 21
3.7903998E+002
  0
LINE
  8
105
  6
HIDDEN
 62
1
 10
4.5601555E+002
 20
3.7903998E+002
 11
4.4101555E+002
 21
3.7903998E+002
  0
LINE
  8
105
  6
HIDDEN
 62
1
 10
4.4101555E+002
 20
3.7903998E+002
 11
4.4101555E+002
 21
3.8103998E+002
  0
LINE
  8
105
  6
HIDDEN
 62
1
 10
4.4101555E+002
 20
3.8103998E+002
 11
4.4081555E+002
 21
3.8103998E+002
  0
ARC
  8
105
  6
HIDDEN
 62
1
 10
4.4081555E+002
 20
3.8153998E+002
 40
5.000001E-001
 50
1.8000001E+002
 51
2.6999999E+002
  0
LINE
  8
105
  6
HIDDEN
 62
1
 10
4.4031555E+002
 20
3.8153998E+002
 11
4.4031555E+002
 21
3.8252592E+002
  0
LINE
  8
105
  6
HIDDEN
 62
1
 10
4.4031555E+002
 20
3.8252592E+002
 11
4.5671555E+002
 21
3.8252592E+002
  0
LINE
  8
105
  6
HIDDEN
 62
1
 10
4.4226555E+002
 20
3.7903998E+002
 11
4.4226555E+002
 21
3.7703998E+002
  0
LINE
  8
105
  6
HIDDEN
 62
1
 10
4.4226555E+002
 20
3.7703998E+002
 11
4.4226555E+002
 21
3.8053998E+002
  0
LINE
  8
105
  6
HIDDEN
 62
1
 10
4.4226555E+002
 20
3.8053998E+002
 11
4.5476555E+002
 21
3.8053998E+002
  0
LINE
  8
105
  6
HIDDEN
 62
1
 10
4.5476555E+002
 20
3.8053998E+002
 11
4.5476555E+002
 21
3.7903998E+002
  0
LINE
  8
105
  6
HIDDEN
 62
1
 10
4.5476555E+002
 20
3.7903998E+002
 11
4.5476555E+002
 21
3.7703998E+002
  0
LINE
  8
105
  6
HIDDEN
 62
1
 10
4.5601555E+002
 20
3.8102592E+002
 11
4.4101555E+002
 21
3.8103998E+002
  0
LINE
  8
106
  6
CENTERLINE
 62
1
 10
4.1192135E+002
 20
3.5502592E+002
 11
4.0562165E+002
 21
3.5502592E+002
  0
LINE
  8
104
  6
CONTINUOUS
 62
40
 10
4.1150149E+002
 20
3.6277592E+002
 11
4.1150149E+002
 21
3.4727592E+002
  0
LINE
  8
104
  6
CONTINUOUS
 62
40
 10
4.1150149E+002
 20
3.4727592E+002
 11
4.0951555E+002
 21
3.4727592E+002
  0
LINE
  8
104
  6
CONTINUOUS
 62
40
 10
4.0951555E+002
 20
3.4727592E+002
 11
4.0951555E+002
 21
3.6277592E+002
  0
LINE
  8
104
  6
CONTINUOUS
 62
40
 10
4.0951555E+002
 20
3.6277592E+002
 11
4.1150149E+002
 21
3.6277592E+002
  0
LINE
  8
105
  6
HIDDEN
 62
1
 10
4.0601555E+002
 20
3.6322592E+002
 11
4.0701555E+002
 21
3.6322592E+002
  0
ARC
  8
105
  6
HIDDEN
 62
1
 10
4.0701555E+002
 20
3.6272592E+002
 40
5.0000028E-001
 50
3.25561E-005
 51
8.9999967E+001
  0
LINE
  8
105
  6
HIDDEN
 62
1
 10
4.0751555E+002
 20
3.6272592E+002
 11
4.0751555E+002
 21
3.6252592E+002
  0
LINE
  8
105
  6
HIDDEN
 62
1
 10
4.0751555E+002
 20
3.6252592E+002
 11
4.0950149E+002
 21
3.6252592E+002
  0
LINE
  8
105
  6
HIDDEN
 62
1
 10
4.0950149E+002
 20
3.6252592E+002
 11
4.0950149E+002
 21
3.4752592E+002
  0
LINE
  8
105
  6
HIDDEN
 62
1
 10
4.0950149E+002
 20
3.4752592E+002
 11
4.0750149E+002
 21
3.4752592E+002
  0
LINE
  8
105
  6
HIDDEN
 62
1
 10
4.0750149E+002
 20
3.4752592E+002
 11
4.0750149E+002
 21
3.4732592E+002
  0
ARC
  8
105
  6
HIDDEN
 62
1
 10
4.070015E+002
 20
3.4732592E+002
 40
4.9999921E-001
 50
2.6999991E+002
 51
3.6000009E+002
  0
LINE
  8
105
  6
HIDDEN
 62
1
 10
4.0700149E+002
 20
3.4682592E+002
 11
4.0601555E+002
 21
3.4682592E+002
  0
LINE
  8
105
  6
HIDDEN
 62
1
 10
4.0601555E+002
 20
3.4682592E+002
 11
4.0601555E+002
 21
3.6322592E+002
  0
LINE
  8
105
  6
HIDDEN
 62
1
 10
4.0950149E+002
 20
3.4877592E+002
 11
4.1150149E+002
 21
3.4877592E+002
  0
LINE
  8
105
  6
HIDDEN
 62
1
 10
4.1150149E+002
 20
3.4877592E+002
 11
4.0800149E+002
 21
3.4877592E+002
  0
LINE
  8
105
  6
HIDDEN
 62
1
 10
4.0800149E+002
 20
3.4877592E+002
 11
4.0800149E+002
 21
3.6127592E+002
  0
LINE
  8
105
  6
HIDDEN
 62
1
 10
4.0800149E+002
 20
3.6127592E+002
 11
4.0950149E+002
 21
3.6127592E+002
  0
LINE
  8
105
  6
HIDDEN
 62
1
 10
4.0950149E+002
 20
3.6127592E+002
 11
4.1150149E+002
 21
3.6127592E+002
  0
LINE
  8
105
  6
HIDDEN
 62
1
 10
4.0751555E+002
 20
3.6252592E+002
 11
4.0750149E+002
 21
3.4752592E+002
  0
LINE
  8
106
  6
CENTERLINE
 62
1
 10
4.4851555E+002
 20
3.0343172E+002
 11
4.4851555E+002
 21
2.9713202E+002
  0
LINE
  8
104
  6
CONTINUOUS
 62
40
 10
4.5626555E+002
 20
3.0301187E+002
 11
4.4076555E+002
 21
3.0301187E+002
  0
LINE
  8
104
  6
CONTINUOUS
 62
40
 10
4.4076555E+002
 20
3.0301187E+002
 11
4.4076555E+002
 21
3.0102592E+002
  0
LINE
  8
104
  6
CONTINUOUS
 62
40
 10
4.4076555E+002
 20
3.0102592E+002
 11
4.5626555E+002
 21
3.0102592E+002
  0
LINE
  8
104
  6
CONTINUOUS
 62
40
 10
4.5626555E+002
 20
3.0102592E+002
 11
4.5626555E+002
 21
3.0301187E+002
  0
LINE
  8
105
  6
HIDDEN
 62
1
 10
4.5671555E+002
 20
2.9752592E+002
 11
4.5671555E+002
 21
2.9852592E+002
  0
ARC
  8
105
  6
HIDDEN
 62
1
 10
4.5621555E+002
 20
2.9852592E+002
 40
5.0000009E-001
 50
0.0
 51
9.0E+001
  0
LINE
  8
105
  6
HIDDEN
 62
1
 10
4.5621555E+002
 20
2.9902592E+002
 11
4.5601555E+002
 21
2.9902592E+002
  0
LINE
  8
105
  6
HIDDEN
 62
1
 10
4.5601555E+002
 20
2.9902592E+002
 11
4.5601555E+002
 21
3.0101187E+002
  0
LINE
  8
105
  6
HIDDEN
 62
1
 10
4.5601555E+002
 20
3.0101187E+002
 11
4.4101555E+002
 21
3.0101187E+002
  0
LINE
  8
105
  6
HIDDEN
 62
1
 10
4.4101555E+002
 20
3.0101187E+002
 11
4.4101555E+002
 21
2.9901187E+002
  0
LINE
  8
105
  6
HIDDEN
 62
1
 10
4.4101555E+002
 20
2.9901187E+002
 11
4.4081555E+002
 21
2.9901187E+002
  0
ARC
  8
105
  6
HIDDEN
 62
1
 10
4.4081555E+002
 20
2.9851187E+002
 40
4.9999999E-001
 50
9.0E+001
 51
1.8E+002
  0
LINE
  8
105
  6
HIDDEN
 62
1
 10
4.4031555E+002
 20
2.9851187E+002
 11
4.4031555E+002
 21
2.9752592E+002
  0
LINE
  8
105
  6
HIDDEN
 62
1
 10
4.4031555E+002
 20
2.9752592E+002
 11
4.5671555E+002
 21
2.9752592E+002
  0
LINE
  8
105
  6
HIDDEN
 62
1
 10
4.4226555E+002
 20
3.0101187E+002
 11
4.4226555E+002
 21
2.9951187E+002
  0
LINE
  8
105
  6
HIDDEN
 62
1
 10
4.4226555E+002
 20
2.9951187E+002
 11
4.5476555E+002
 21
2.9951187E+002
  0
LINE
  8
105
  6
HIDDEN
 62
1
 10
4.5476555E+002
 20
2.9951187E+002
 11
4.5476555E+002
 21
3.0101187E+002
  0
LINE
  8
105
  6
HIDDEN
 62
1
 10
4.5601555E+002
 20
2.9902592E+002
 11
4.4101555E+002
 21
2.9901187E+002
  0
LINE
  8
106
  6
CENTERLINE
 62
1
 10
4.8510975E+002
 20
3.5502592E+002
 11
4.9140946E+002
 21
3.5502592E+002
  0
LINE
  8
104
  6
CONTINUOUS
 62
40
 10
4.8552961E+002
 20
3.6277592E+002
 11
4.8552961E+002
 21
3.4727592E+002
  0
LINE
  8
104
  6
CONTINUOUS
 62
40
 10
4.8552961E+002
 20
3.4727592E+002
 11
4.8751555E+002
 21
3.4727592E+002
  0
LINE
  8
104
  6
CONTINUOUS
 62
40
 10
4.8751555E+002
 20
3.4727592E+002
 11
4.8751555E+002
 21
3.6277592E+002
  0
LINE
  8
104
  6
CONTINUOUS
 62
40
 10
4.8751555E+002
 20
3.6277592E+002
 11
4.8552961E+002
 21
3.6277592E+002
  0
LINE
  8
105
  6
HIDDEN
 62
1
 10
4.8752961E+002
 20
3.4877592E+002
 11
4.8552961E+002
 21
3.4877592E+002
  0
LINE
  8
105
  6
HIDDEN
 62
1
 10
4.8552961E+002
 20
3.4877592E+002
 11
4.8902961E+002
 21
3.4877592E+002
  0
LINE
  8
105
  6
HIDDEN
 62
1
 10
4.8902961E+002
 20
3.4877592E+002
 11
4.8902961E+002
 21
3.6127592E+002
  0
LINE
  8
105
  6
HIDDEN
 62
1
 10
4.8902961E+002
 20
3.6127592E+002
 11
4.8752961E+002
 21
3.6127592E+002
  0
LINE
  8
105
  6
HIDDEN
 62
1
 10
4.8752961E+002
 20
3.6127592E+002
 11
4.8552961E+002
 21
3.6127592E+002
  0
LINE
  8
105
  6
HIDDEN
 62
1
 10
4.8951555E+002
 20
3.6252592E+002
 11
4.8951555E+002
 21
3.6322592E+002
  0
LINE
  8
105
  6
HIDDEN
 62
1
 10
4.8951555E+002
 20
3.6322592E+002
 11
4.8952961E+002
 21
3.4752592E+002
  0
LINE
  8
105
  6
HIDDEN
 62
1
 10
4.8952961E+002
 20
3.4752592E+002
 11
4.8952961E+002
 21
3.4682592E+002
  0
LINE
  8
104
  6
CONTINUOUS
 62
40
 10
4.4101555E+002
 20
3.8252592E+002
 11
4.5601555E+002
 21
3.8252592E+002
  0
LINE
  8
104
  6
CONTINUOUS
 62
40
 10
4.4121555E+002
 20
3.0422592E+002
 11
4.4121555E+002
 21
3.0592592E+002
  0
LINE
  8
104
  6
CONTINUOUS
 62
40
 10
4.5581555E+002
 20
3.0422592E+002
 11
4.5581555E+002
 21
3.0592592E+002
  0
LINE
  8
104
  6
CONTINUOUS
 62
40
 10
4.3951555E+002
 20
3.7412592E+002
 11
4.3951555E+002
 21
3.7582592E+002
  0
LINE
  8
104
  6
CONTINUOUS
 62
40
 10
4.5751555E+002
 20
3.7412592E+002
 11
4.5751555E+002
 21
3.7582592E+002
  0
LINE
  8
104
  6
CONTINUOUS
 62
40
 10
4.7181555E+002
 20
3.7532592E+002
 11
4.7181555E+002
 21
3.7582592E+002
  0
LINE
  8
104
  6
CONTINUOUS
 62
40
 10
4.7181555E+002
 20
3.7582592E+002
 11
4.7181555E+002
 21
3.7702592E+002
  0
LINE
  8
104
  6
CONTINUOUS
 62
40
 10
4.8261555E+002
 20
3.6293819E+002
 11
4.8431555E+002
 21
3.6293819E+002
  0
LINE
  8
104
  6
CONTINUOUS
 62
40
 10
4.8751555E+002
 20
3.4402592E+002
 11
4.8431555E+002
 21
3.4402592E+002
  0
LINE
  8
104
  6
CONTINUOUS
 62
40
 10
4.8431555E+002
 20
3.4402592E+002
 11
4.8431555E+002
 21
3.6602592E+002
  0
LINE
  8
104
  6
CONTINUOUS
 62
40
 10
4.8431555E+002
 20
3.6602592E+002
 11
4.8751555E+002
 21
3.6602592E+002
  0
LINE
  8
104
  6
CONTINUOUS
 62
40
 10
4.8751555E+002
 20
3.6722592E+002
 11
4.8551555E+002
 21
3.6722592E+002
  0
LINE
  8
104
  6
CONTINUOUS
 62
40
 10
4.8551555E+002
 20
3.6722592E+002
 11
4.8551555E+002
 21
3.6802592E+002
  0
LINE
  8
104
  6
CONTINUOUS
 62
40
 10
4.8551555E+002
 20
3.6802592E+002
 11
4.8551555E+002
 21
3.7002592E+002
  0
LINE
  8
104
  6
CONTINUOUS
 62
40
 10
4.8551555E+002
 20
3.7002592E+002
 11
4.8551555E+002
 21
3.7302592E+002
  0
ARC
  8
104
  6
CONTINUOUS
 62
40
 10
4.8151555E+002
 20
3.7302592E+002
 40
4.0000001
 50
3.6E+002
 51
4.5E+002
  0
LINE
  8
104
  6
CONTINUOUS
 62
40
 10
4.8151555E+002
 20
3.7702592E+002
 11
4.7951555E+002
 21
3.7702592E+002
  0
LINE
  8
104
  6
CONTINUOUS
 62
40
 10
4.7951555E+002
 20
3.7702592E+002
 11
4.7571555E+002
 21
3.7702592E+002
  0
LINE
  8
104
  6
CONTINUOUS
 62
40
 10
4.7571555E+002
 20
3.7702592E+002
 11
4.7571555E+002
 21
3.7902592E+002
  0
LINE
  8
104
  6
CONTINUOUS
 62
40
 10
4.7571555E+002
 20
3.7902592E+002
 11
4.7451555E+002
 21
3.7902592E+002
  0
LINE
  8
104
  6
CONTINUOUS
 62
40
 10
4.7451555E+002
 20
3.7902592E+002
 11
4.7451555E+002
 21
3.7702592E+002
  0
LINE
  8
104
  6
CONTINUOUS
 62
40
 10
4.7451555E+002
 20
3.7702592E+002
 11
4.6071555E+002
 21
3.7702592E+002
  0
LINE
  8
104
  6
CONTINUOUS
 62
40
 10
4.6071555E+002
 20
3.7702592E+002
 11
4.6071555E+002
 21
3.7902592E+002
  0
LINE
  8
104
  6
CONTINUOUS
 62
40
 10
4.5951555E+002
 20
3.7902592E+002
 11
4.5951555E+002
 21
3.7582592E+002
  0
LINE
  8
104
  6
CONTINUOUS
 62
40
 10
4.5951555E+002
 20
3.7582592E+002
 11
4.5726555E+002
 21
3.7582592E+002
  0
LINE
  8
104
  6
CONTINUOUS
 62
40
 10
4.5601555E+002
 20
3.7412592E+002
 11
4.6071555E+002
 21
3.7412592E+002
  0
LINE
  8
104
  6
CONTINUOUS
 62
40
 10
4.6071555E+002
 20
3.7412592E+002
 11
4.6071555E+002
 21
3.7532592E+002
  0
LINE
  8
104
  6
CONTINUOUS
 62
40
 10
4.6071555E+002
 20
3.7532592E+002
 11
4.6151555E+002
 21
3.7532592E+002
  0
LINE
  8
104
  6
CONTINUOUS
 62
40
 10
4.6151555E+002
 20
3.7532592E+002
 11
4.8181353E+002
 21
3.7532592E+002
  0
ARC
  8
104
  6
CONTINUOUS
 62
40
 10
4.8181353E+002
 20
3.7332592E+002
 40
2.0000002
 50
3.5994537E+002
 51
4.4999999E+002
  0
LINE
  8
104
  6
CONTINUOUS
 62
40
 10
4.8381353E+002
 20
3.7332401E+002
 11
4.8381038E+002
 21
3.7002592E+002
  0
LINE
  8
104
  6
CONTINUOUS
 62
40
 10
4.8381038E+002
 20
3.7002592E+002
 11
4.8381543E+002
 21
3.6802592E+002
  0
LINE
  8
104
  6
CONTINUOUS
 62
40
 10
4.8381543E+002
 20
3.6802592E+002
 11
4.8381543E+002
 21
3.6722592E+002
  0
LINE
  8
104
  6
CONTINUOUS
 62
40
 10
4.8381543E+002
 20
3.6722592E+002
 11
4.8261555E+002
 21
3.6722592E+002
  0
LINE
  8
104
  6
CONTINUOUS
 62
40
 10
4.8261555E+002
 20
3.6722592E+002
 11
4.8261555E+002
 21
3.4802592E+002
  0
ARC
  8
104
  6
CONTINUOUS
 62
40
 10
4.8061555E+002
 20
3.4802592E+002
 40
1.9999998
 50
2.6999999E+002
 51
3.6000001E+002
  0
LINE
  8
104
  6
CONTINUOUS
 62
40
 10
4.8061555E+002
 20
3.4602592E+002
 11
4.7601555E+002
 21
3.4602592E+002
  0
ARC
  8
104
  6
CONTINUOUS
 62
40
 10
4.7601555E+002
 20
3.4302592E+002
 40
3.0000001
 50
9.0000004E+001
 51
1.8E+002
  0
LINE
  8
104
  6
CONTINUOUS
 62
40
 10
4.7301555E+002
 20
3.4302592E+002
 11
4.7301555E+002
 21
3.4002592E+002
  0
LINE
  8
104
  6
CONTINUOUS
 62
40
 10
4.2521555E+002
 20
3.7532592E+002
 11
4.2521555E+002
 21
3.7582592E+002
  0
LINE
  8
104
  6
CONTINUOUS
 62
40
 10
4.2521555E+002
 20
3.7582592E+002
 11
4.2521555E+002
 21
3.7702592E+002
  0
LINE
  8
104
  6
CONTINUOUS
 62
40
 10
4.1441555E+002
 20
3.6293819E+002
 11
4.1271555E+002
 21
3.6293819E+002
  0
LINE
  8
104
  6
CONTINUOUS
 62
40
 10
4.0951555E+002
 20
3.4402592E+002
 11
4.1271555E+002
 21
3.4402592E+002
  0
LINE
  8
104
  6
CONTINUOUS
 62
40
 10
4.1271555E+002
 20
3.4402592E+002
 11
4.1271555E+002
 21
3.6602592E+002
  0
LINE
  8
104
  6
CONTINUOUS
 62
40
 10
4.1271555E+002
 20
3.6602592E+002
 11
4.0951555E+002
 21
3.6602592E+002
  0
LINE
  8
104
  6
CONTINUOUS
 62
40
 10
4.0951555E+002
 20
3.6722592E+002
 11
4.1151555E+002
 21
3.6722592E+002
  0
LINE
  8
104
  6
CONTINUOUS
 62
40
 10
4.1151555E+002
 20
3.6722592E+002
 11
4.1151555E+002
 21
3.6802592E+002
  0
LINE
  8
104
  6
CONTINUOUS
 62
40
 10
4.1151555E+002
 20
3.6802592E+002
 11
4.1151555E+002
 21
3.7002592E+002
  0
LINE
  8
104
  6
CONTINUOUS
 62
40
 10
4.1151555E+002
 20
3.7002592E+002
 11
4.1151555E+002
 21
3.7302592E+002
  0
ARC
  8
104
  6
CONTINUOUS
 62
40
 10
4.1551555E+002
 20
3.7302592E+002
 40
4.0000001
 50
9.0000002E+001
 51
1.8E+002
  0
LINE
  8
104
  6
CONTINUOUS
 62
40
 10
4.1551555E+002
 20
3.7702592E+002
 11
4.1751555E+002
 21
3.7702592E+002
  0
LINE
  8
104
  6
CONTINUOUS
 62
40
 10
4.1751555E+002
 20
3.7702592E+002
 11
4.2131555E+002
 21
3.7702592E+002
  0
LINE
  8
104
  6
CONTINUOUS
 62
40
 10
4.2131555E+002
 20
3.7702592E+002
 11
4.2131555E+002
 21
3.7902592E+002
  0
LINE
  8
104
  6
CONTINUOUS
 62
40
 10
4.2131555E+002
 20
3.7902592E+002
 11
4.2251555E+002
 21
3.7902592E+002
  0
LINE
  8
104
  6
CONTINUOUS
 62
40
 10
4.2251555E+002
 20
3.7902592E+002
 11
4.2251555E+002
 21
3.7702592E+002
  0
LINE
  8
104
  6
CONTINUOUS
 62
40
 10
4.2251555E+002
 20
3.7702592E+002
 11
4.3631555E+002
 21
3.7702592E+002
  0
LINE
  8
104
  6
CONTINUOUS
 62
40
 10
4.3631555E+002
 20
3.7702592E+002
 11
4.3631555E+002
 21
3.7902592E+002
  0
LINE
  8
104
  6
CONTINUOUS
 62
40
 10
4.3751555E+002
 20
3.7902592E+002
 11
4.3751555E+002
 21
3.7582592E+002
  0
LINE
  8
104
  6
CONTINUOUS
 62
40
 10
4.3751555E+002
 20
3.7582592E+002
 11
4.3976555E+002
 21
3.7582592E+002
  0
LINE
  8
104
  6
CONTINUOUS
 62
40
 10
4.3976555E+002
 20
3.7582592E+002
 11
4.5951555E+002
 21
3.7582592E+002
  0
LINE
  8
104
  6
CONTINUOUS
 62
40
 10
4.4101555E+002
 20
3.7412592E+002
 11
4.5951555E+002
 21
3.7412592E+002
  0
LINE
  8
104
  6
CONTINUOUS
 62
40
 10
4.5951555E+002
 20
3.7412592E+002
 11
4.3631555E+002
 21
3.7412592E+002
  0
LINE
  8
104
  6
CONTINUOUS
 62
40
 10
4.3631555E+002
 20
3.7412592E+002
 11
4.3631555E+002
 21
3.7532592E+002
  0
LINE
  8
104
  6
CONTINUOUS
 62
40
 10
4.3631555E+002
 20
3.7532592E+002
 11
4.3551555E+002
 21
3.7532592E+002
  0
LINE
  8
104
  6
CONTINUOUS
 62
40
 10
4.3551555E+002
 20
3.7532592E+002
 11
4.1521758E+002
 21
3.7532592E+002
  0
ARC
  8
104
  6
CONTINUOUS
 62
40
 10
4.1521758E+002
 20
3.7332592E+002
 40
2.0000002
 50
9.0000008E+001
 51
1.8005463E+002
  0
LINE
  8
104
  6
CONTINUOUS
 62
40
 10
4.1321758E+002
 20
3.7332401E+002
 11
4.1322073E+002
 21
3.7002592E+002
  0
LINE
  8
104
  6
CONTINUOUS
 62
40
 10
4.1322073E+002
 20
3.7002592E+002
 11
4.1321567E+002
 21
3.6802592E+002
  0
LINE
  8
104
  6
CONTINUOUS
 62
40
 10
4.1321567E+002
 20
3.6802592E+002
 11
4.1321567E+002
 21
3.6722592E+002
  0
LINE
  8
104
  6
CONTINUOUS
 62
40
 10
4.1321567E+002
 20
3.6722592E+002
 11
4.1441555E+002
 21
3.6722592E+002
  0
LINE
  8
104
  6
CONTINUOUS
 62
40
 10
4.1441555E+002
 20
3.6722592E+002
 11
4.1441555E+002
 21
3.4802592E+002
  0
ARC
  8
104
  6
CONTINUOUS
 62
40
 10
4.1641555E+002
 20
3.4802592E+002
 40
2.0000005
 50
1.8000001E+002
 51
2.6999999E+002
  0
LINE
  8
104
  6
CONTINUOUS
 62
40
 10
4.1641555E+002
 20
3.4602592E+002
 11
4.2101555E+002
 21
3.4602592E+002
  0
ARC
  8
104
  6
CONTINUOUS
 62
40
 10
4.2101555E+002
 20
3.4302592E+002
 40
3.0000001
 50
2.3782E-006
 51
8.9999996E+001
  0
LINE
  8
104
  6
CONTINUOUS
 62
40
 10
4.2401555E+002
 20
3.4302592E+002
 11
4.2401555E+002
 21
3.4002592E+002
  0
LINE
  8
104
  6
CONTINUOUS
 62
40
 10
4.7181555E+002
 20
3.0472592E+002
 11
4.7181555E+002
 21
3.0422592E+002
  0
LINE
  8
104
  6
CONTINUOUS
 62
40
 10
4.7181555E+002
 20
3.0422592E+002
 11
4.7181555E+002
 21
3.0302592E+002
  0
LINE
  8
104
  6
CONTINUOUS
 62
40
 10
4.8261555E+002
 20
3.1711365E+002
 11
4.8431555E+002
 21
3.1711365E+002
  0
LINE
  8
104
  6
CONTINUOUS
 62
40
 10
4.8751555E+002
 20
3.3602592E+002
 11
4.8431555E+002
 21
3.3602592E+002
  0
LINE
  8
104
  6
CONTINUOUS
 62
40
 10
4.8431555E+002
 20
3.3602592E+002
 11
4.8431555E+002
 21
3.1402592E+002
  0
LINE
  8
104
  6
CONTINUOUS
 62
40
 10
4.8431555E+002
 20
3.1402592E+002
 11
4.8751555E+002
 21
3.1402592E+002
  0
LINE
  8
104
  6
CONTINUOUS
 62
40
 10
4.8751555E+002
 20
3.1282592E+002
 11
4.8551555E+002
 21
3.1282592E+002
  0
LINE
  8
104
  6
CONTINUOUS
 62
40
 10
4.8551555E+002
 20
3.1282592E+002
 11
4.8551555E+002
 21
3.1202592E+002
  0
LINE
  8
104
  6
CONTINUOUS
 62
40
 10
4.8551555E+002
 20
3.1202592E+002
 11
4.8551555E+002
 21
3.1002592E+002
  0
LINE
  8
104
  6
CONTINUOUS
 62
40
 10
4.8551555E+002
 20
3.1002592E+002
 11
4.8551555E+002
 21
3.0702592E+002
  0
ARC
  8
104
  6
CONTINUOUS
 62
40
 10
4.8151555E+002
 20
3.0702592E+002
 40
3.9999996
 50
2.6999999E+002
 51
3.6000001E+002
  0
LINE
  8
104
  6
CONTINUOUS
 62
40
 10
4.8151555E+002
 20
3.0302592E+002
 11
4.7951555E+002
 21
3.0302592E+002
  0
LINE
  8
104
  6
CONTINUOUS
 62
40
 10
4.7951555E+002
 20
3.0302592E+002
 11
4.7571555E+002
 21
3.0302592E+002
  0
LINE
  8
104
  6
CONTINUOUS
 62
40
 10
4.7571555E+002
 20
3.0302592E+002
 11
4.7571555E+002
 21
3.0102592E+002
  0
LINE
  8
104
  6
CONTINUOUS
 62
40
 10
4.7571555E+002
 20
3.0102592E+002
 11
4.7451555E+002
 21
3.0102592E+002
  0
LINE
  8
104
  6
CONTINUOUS
 62
40
 10
4.7451555E+002
 20
3.0102592E+002
 11
4.7451555E+002
 21
3.0302592E+002
  0
LINE
  8
104
  6
CONTINUOUS
 62
40
 10
4.7451555E+002
 20
3.0302592E+002
 11
4.6071555E+002
 21
3.0302592E+002
  0
LINE
  8
104
  6
CONTINUOUS
 62
40
 10
4.6071555E+002
 20
3.0302592E+002
 11
4.6071555E+002
 21
3.0102592E+002
  0
LINE
  8
104
  6
CONTINUOUS
 62
40
 10
4.5951555E+002
 20
3.0102592E+002
 11
4.5951555E+002
 21
3.0422592E+002
  0
LINE
  8
104
  6
CONTINUOUS
 62
40
 10
4.5951555E+002
 20
3.0422592E+002
 11
4.4851555E+002
 21
3.0422592E+002
  0
LINE
  8
104
  6
CONTINUOUS
 62
40
 10
4.4851555E+002
 20
3.0592592E+002
 11
4.6071555E+002
 21
3.0592592E+002
  0
LINE
  8
104
  6
CONTINUOUS
 62
40
 10
4.6071555E+002
 20
3.0592592E+002
 11
4.6071555E+002
 21
3.0472592E+002
  0
LINE
  8
104
  6
CONTINUOUS
 62
40
 10
4.6071555E+002
 20
3.0472592E+002
 11
4.6151555E+002
 21
3.0472592E+002
  0
LINE
  8
104
  6
CONTINUOUS
 62
40
 10
4.6151555E+002
 20
3.0472592E+002
 11
4.8181353E+002
 21
3.0472592E+002
  0
ARC
  8
104
  6
CONTINUOUS
 62
40
 10
4.8181353E+002
 20
3.0672592E+002
 40
1.9999999
 50
2.7E+002
 51
3.6005466E+002
  0
LINE
  8
104
  6
CONTINUOUS
 62
40
 10
4.8381353E+002
 20
3.0672783E+002
 11
4.8381038E+002
 21
3.1002592E+002
  0
LINE
  8
104
  6
CONTINUOUS
 62
40
 10
4.8381038E+002
 20
3.1002592E+002
 11
4.8381543E+002
 21
3.1202592E+002
  0
LINE
  8
104
  6
CONTINUOUS
 62
40
 10
4.8381543E+002
 20
3.1202592E+002
 11
4.8381543E+002
 21
3.1282592E+002
  0
LINE
  8
104
  6
CONTINUOUS
 62
40
 10
4.8381543E+002
 20
3.1282592E+002
 11
4.8261555E+002
 21
3.1282592E+002
  0
LINE
  8
104
  6
CONTINUOUS
 62
40
 10
4.8261555E+002
 20
3.1282592E+002
 11
4.8261555E+002
 21
3.3202592E+002
  0
ARC
  8
104
  6
CONTINUOUS
 62
40
 10
4.8061555E+002
 20
3.3202592E+002
 40
2.0000002
 50
4.6731E-006
 51
8.9999995E+001
  0
LINE
  8
104
  6
CONTINUOUS
 62
40
 10
4.8061555E+002
 20
3.3402592E+002
 11
4.7601555E+002
 21
3.3402592E+002
  0
ARC
  8
104
  6
CONTINUOUS
 62
40
 10
4.7601555E+002
 20
3.3702592E+002
 40
2.9999998
 50
1.8E+002
 51
2.7E+002
  0
LINE
  8
104
  6
CONTINUOUS
 62
40
 10
4.7301555E+002
 20
3.3702592E+002
 11
4.7301555E+002
 21
3.4002592E+002
  0
LINE
  8
104
  6
CONTINUOUS
 62
40
 10
4.5726555E+002
 20
3.7902592E+002
 11
4.5951555E+002
 21
3.7902592E+002
  0
LINE
  8
104
  6
CONTINUOUS
 62
40
 10
4.6071555E+002
 20
3.7902592E+002
 11
4.7571555E+002
 21
3.7902592E+002
  0
LINE
  8
104
  6
CONTINUOUS
 62
40
 10
4.7571555E+002
 20
3.7902592E+002
 11
4.8419624E+002
 21
3.8022864E+002
  0
ARC
  8
104
  6
CONTINUOUS
 62
40
 10
4.847579E+002
 20
3.7626827E+002
 40
4.0
 50
3.5192824E+002
 51
4.5807176E+002
  0
LINE
  8
104
  6
CONTINUOUS
 62
40
 10
4.8871827E+002
 20
3.7570661E+002
 11
4.8751555E+002
 21
3.6722592E+002
  0
LINE
  8
104
  6
CONTINUOUS
 62
40
 10
4.8751555E+002
 20
3.6722592E+002
 11
4.8751555E+002
 21
3.4002592E+002
  0
LINE
  8
104
  6
CONTINUOUS
 62
40
 10
4.3976555E+002
 20
3.7902592E+002
 11
4.5951555E+002
 21
3.7902592E+002
  0
LINE
  8
104
  6
CONTINUOUS
 62
40
 10
4.5951555E+002
 20
3.7902592E+002
 11
4.3751555E+002
 21
3.7902592E+002
  0
LINE
  8
104
  6
CONTINUOUS
 62
40
 10
4.3631555E+002
 20
3.7902592E+002
 11
4.2131555E+002
 21
3.7902592E+002
  0
LINE
  8
104
  6
CONTINUOUS
 62
40
 10
4.2131555E+002
 20
3.7902592E+002
 11
4.1283486E+002
 21
3.8022864E+002
  0
ARC
  8
104
  6
CONTINUOUS
 62
40
 10
4.1227321E+002
 20
3.7626827E+002
 40
4.0000002
 50
8.1928243E+001
 51
1.8807176E+002
  0
LINE
  8
104
  6
CONTINUOUS
 62
40
 10
4.0831284E+002
 20
3.7570661E+002
 11
4.0951555E+002
 21
3.6722592E+002
  0
LINE
  8
104
  6
CONTINUOUS
 62
40
 10
4.0951555E+002
 20
3.6722592E+002
 11
4.0951555E+002
 21
3.4002592E+002
  0
LINE
  8
104
  6
CONTINUOUS
 62
40
 10
4.4851555E+002
 20
3.0102592E+002
 11
4.5951555E+002
 21
3.0102592E+002
  0
LINE
  8
104
  6
CONTINUOUS
 62
40
 10
4.6071555E+002
 20
3.0102592E+002
 11
4.7571555E+002
 21
3.0102592E+002
  0
LINE
  8
104
  6
CONTINUOUS
 62
40
 10
4.7571555E+002
 20
3.0102592E+002
 11
4.8419624E+002
 21
2.9982321E+002
  0
ARC
  8
104
  6
CONTINUOUS
 62
40
 10
4.847579E+002
 20
3.0378358E+002
 40
4.0
 50
2.6192824E+002
 51
3.6807176E+002
  0
LINE
  8
104
  6
CONTINUOUS
 62
40
 10
4.8871827E+002
 20
3.0434523E+002
 11
4.8751555E+002
 21
3.1282592E+002
  0
LINE
  8
104
  6
CONTINUOUS
 62
40
 10
4.8751555E+002
 20
3.1282592E+002
 11
4.8751555E+002
 21
3.4002592E+002
  0
LINE
  8
105
  6
HIDDEN
 62
1
 10
4.8751555E+002
 20
3.3722592E+002
 11
4.8431555E+002
 21
3.3722592E+002
  0
LINE
  8
105
  6
HIDDEN
 62
1
 10
4.1271555E+002
 20
3.3722592E+002
 11
4.0951555E+002
 21
3.3722592E+002
  0
LINE
  8
MED-11
  6
SHORT_DASH
 62
40
 10
4.7851555E+002
 20
3.3402592E+002
 11
4.8131555E+002
 21
3.3402592E+002
  0
ARC
  8
MED-11
  6
SHORT_DASH
 62
40
 10
4.8131555E+002
 20
3.3702592E+002
 40
2.9999991
 50
2.6999998E+002
 51
3.6000002E+002
  0
LINE
  8
MED-11
  6
SHORT_DASH
 62
40
 10
4.8431555E+002
 20
3.3702592E+002
 11
4.8431555E+002
 21
3.4002592E+002
  0
LINE
  8
MED-11
  6
SHORT_DASH
 62
40
 10
4.7851555E+002
 20
3.4602592E+002
 11
4.8131555E+002
 21
3.4602592E+002
  0
ARC
  8
MED-11
  6
SHORT_DASH
 62
40
 10
4.8131555E+002
 20
3.4302592E+002
 40
2.9999995
 50
3.5999999E+002
 51
4.5000001E+002
  0
LINE
  8
MED-11
  6
SHORT_DASH
 62
40
 10
4.8431555E+002
 20
3.4302592E+002
 11
4.8431555E+002
 21
3.4002592E+002
  0
LINE
  8
MED-11
  6
SHORT_DASH
 62
40
 10
4.1851555E+002
 20
3.3402592E+002
 11
4.1571555E+002
 21
3.3402592E+002
  0
ARC
  8
MED-11
  6
SHORT_DASH
 62
40
 10
4.1571555E+002
 20
3.3702592E+002
 40
2.9999998
 50
1.8E+002
 51
2.7E+002
  0
LINE
  8
MED-11
  6
SHORT_DASH
 62
40
 10
4.1271555E+002
 20
3.3702592E+002
 11
4.1271555E+002
 21
3.4002592E+002
  0
LINE
  8
MED-11
  6
SHORT_DASH
 62
40
 10
4.1851555E+002
 20
3.4602592E+002
 11
4.1571555E+002
 21
3.4602592E+002
  0
ARC
  8
MED-11
  6
SHORT_DASH
 62
40
 10
4.1571555E+002
 20
3.4302592E+002
 40
3.0000001
 50
9.0000006E+001
 51
1.8E+002
  0
LINE
  8
MED-11
  6
SHORT_DASH
 62
40
 10
4.1271555E+002
 20
3.4302592E+002
 11
4.1271555E+002
 21
3.4002592E+002
  0
CIRCLE
  8
MED-11
  6
SHORT_DASH
 62
40
 10
4.7851555E+002
 20
3.4002592E+002
 40
4.5
  0
LINE
  8
104
  6
CONTINUOUS
 62
40
 10
4.2521555E+002
 20
3.0472592E+002
 11
4.2521555E+002
 21
3.0422592E+002
  0
LINE
  8
104
  6
CONTINUOUS
 62
40
 10
4.2521555E+002
 20
3.0422592E+002
 11
4.2521555E+002
 21
3.0302592E+002
  0
LINE
  8
104
  6
CONTINUOUS
 62
40
 10
4.1441555E+002
 20
3.1711365E+002
 11
4.1271555E+002
 21
3.1711365E+002
  0
LINE
  8
104
  6
CONTINUOUS
 62
40
 10
4.0951555E+002
 20
3.3602592E+002
 11
4.1271555E+002
 21
3.3602592E+002
  0
LINE
  8
104
  6
CONTINUOUS
 62
40
 10
4.1271555E+002
 20
3.3602592E+002
 11
4.1271555E+002
 21
3.1402592E+002
  0
LINE
  8
104
  6
CONTINUOUS
 62
40
 10
4.1271555E+002
 20
3.1402592E+002
 11
4.0951555E+002
 21
3.1402592E+002
  0
LINE
  8
104
  6
CONTINUOUS
 62
40
 10
4.0951555E+002
 20
3.1282592E+002
 11
4.1151555E+002
 21
3.1282592E+002
  0
LINE
  8
104
  6
CONTINUOUS
 62
40
 10
4.1151555E+002
 20
3.1282592E+002
 11
4.1151555E+002
 21
3.1202592E+002
  0
LINE
  8
104
  6
CONTINUOUS
 62
40
 10
4.1151555E+002
 20
3.1202592E+002
 11
4.1151555E+002
 21
3.1002592E+002
  0
LINE
  8
104
  6
CONTINUOUS
 62
40
 10
4.1151555E+002
 20
3.1002592E+002
 11
4.1151555E+002
 21
3.0702592E+002
  0
ARC
  8
104
  6
CONTINUOUS
 62
40
 10
4.1551555E+002
 20
3.0702592E+002
 40
3.9999996
 50
1.7999999E+002
 51
2.7000001E+002
  0
LINE
  8
104
  6
CONTINUOUS
 62
40
 10
4.1551555E+002
 20
3.0302592E+002
 11
4.1751555E+002
 21
3.0302592E+002
  0
LINE
  8
104
  6
CONTINUOUS
 62
40
 10
4.1751555E+002
 20
3.0302592E+002
 11
4.2131555E+002
 21
3.0302592E+002
  0
LINE
  8
104
  6
CONTINUOUS
 62
40
 10
4.2131555E+002
 20
3.0302592E+002
 11
4.2131555E+002
 21
3.0102592E+002
  0
LINE
  8
104
  6
CONTINUOUS
 62
40
 10
4.2131555E+002
 20
3.0102592E+002
 11
4.2251555E+002
 21
3.0102592E+002
  0
LINE
  8
104
  6
CONTINUOUS
 62
40
 10
4.2251555E+002
 20
3.0102592E+002
 11
4.2251555E+002
 21
3.0302592E+002
  0
LINE
  8
104
  6
CONTINUOUS
 62
40
 10
4.2251555E+002
 20
3.0302592E+002
 11
4.3631555E+002
 21
3.0302592E+002
  0
LINE
  8
104
  6
CONTINUOUS
 62
40
 10
4.3631555E+002
 20
3.0302592E+002
 11
4.3631555E+002
 21
3.0102592E+002
  0
LINE
  8
104
  6
CONTINUOUS
 62
40
 10
4.3751555E+002
 20
3.0102592E+002
 11
4.3751555E+002
 21
3.0422592E+002
  0
LINE
  8
104
  6
CONTINUOUS
 62
40
 10
4.3751555E+002
 20
3.0422592E+002
 11
4.4851555E+002
 21
3.0422592E+002
  0
LINE
  8
104
  6
CONTINUOUS
 62
40
 10
4.4851555E+002
 20
3.0592592E+002
 11
4.3631555E+002
 21
3.0592592E+002
  0
LINE
  8
104
  6
CONTINUOUS
 62
40
 10
4.3631555E+002
 20
3.0592592E+002
 11
4.3631555E+002
 21
3.0472592E+002
  0
LINE
  8
104
  6
CONTINUOUS
 62
40
 10
4.3631555E+002
 20
3.0472592E+002
 11
4.3551555E+002
 21
3.0472592E+002
  0
LINE
  8
104
  6
CONTINUOUS
 62
40
 10
4.3551555E+002
 20
3.0472592E+002
 11
4.1521758E+002
 21
3.0472592E+002
  0
ARC
  8
104
  6
CONTINUOUS
 62
40
 10
4.1521758E+002
 20
3.0672592E+002
 40
2.0
 50
1.7994534E+002
 51
2.7E+002
  0
LINE
  8
104
  6
CONTINUOUS
 62
40
 10
4.1321758E+002
 20
3.0672783E+002
 11
4.1322073E+002
 21
3.1002592E+002
  0
LINE
  8
104
  6
CONTINUOUS
 62
40
 10
4.1322073E+002
 20
3.1002592E+002
 11
4.1321567E+002
 21
3.1202592E+002
  0
LINE
  8
104
  6
CONTINUOUS
 62
40
 10
4.1321567E+002
 20
3.1202592E+002
 11
4.1321567E+002
 21
3.1282592E+002
  0
LINE
  8
104
  6
CONTINUOUS
 62
40
 10
4.1321567E+002
 20
3.1282592E+002
 11
4.1441555E+002
 21
3.1282592E+002
  0
LINE
  8
104
  6
CONTINUOUS
 62
40
 10
4.1441555E+002
 20
3.1282592E+002
 11
4.1441555E+002
 21
3.3202592E+002
  0
ARC
  8
104
  6
CONTINUOUS
 62
40
 10
4.1641555E+002
 20
3.3202592E+002
 40
2.0000009
 50
9.0000025E+001
 51
1.7999998E+002
  0
LINE
  8
104
  6
CONTINUOUS
 62
40
 10
4.1641555E+002
 20
3.3402592E+002
 11
4.2101555E+002
 21
3.3402592E+002
  0
ARC
  8
104
  6
CONTINUOUS
 62
40
 10
4.2101555E+002
 20
3.3702592E+002
 40
2.9999998
 50
2.7E+002
 51
3.6E+002
  0
LINE
  8
104
  6
CONTINUOUS
 62
40
 10
4.2401555E+002
 20
3.3702592E+002
 11
4.2401555E+002
 21
3.4002592E+002
  0
CIRCLE
  8
MED-11
  6
SHORT_DASH
 62
40
 10
4.1851555E+002
 20
3.4002592E+002
 40
4.5
  0
LINE
  8
104
  6
CONTINUOUS
 62
40
 10
4.8751555E+002
 20
3.4402592E+002
 11
4.8751555E+002
 21
3.3602592E+002
  0
LINE
  8
104
  6
CONTINUOUS
 62
40
 10
4.8261555E+002
 20
3.5102592E+002
 11
4.8431555E+002
 21
3.5102592E+002
  0
LINE
  8
104
  6
CONTINUOUS
 62
40
 10
4.8261555E+002
 20
3.2902592E+002
 11
4.8431555E+002
 21
3.2902592E+002
  0
LINE
  8
104
  6
CONTINUOUS
 62
40
 10
4.4351555E+002
 20
3.0422592E+002
 11
4.4351555E+002
 21
3.0301187E+002
  0
LINE
  8
104
  6
CONTINUOUS
 62
40
 10
4.5351555E+002
 20
3.0422592E+002
 11
4.5351555E+002
 21
3.0301187E+002
  0
LINE
  8
104
  6
CONTINUOUS
 62
40
 10
4.1150149E+002
 20
3.599334E+002
 11
4.1271555E+002
 21
3.599334E+002
  0
LINE
  8
104
  6
CONTINUOUS
 62
40
 10
4.1150149E+002
 20
3.5011845E+002
 11
4.1271555E+002
 21
3.5011845E+002
  0
LINE
  8
104
  6
CONTINUOUS
 62
40
 10
4.8431555E+002
 20
3.599334E+002
 11
4.8552961E+002
 21
3.599334E+002
  0
LINE
  8
104
  6
CONTINUOUS
 62
40
 10
4.8431555E+002
 20
3.5011845E+002
 11
4.8552961E+002
 21
3.5011845E+002
  0
LINE
  8
105
  6
HIDDEN
 62
1
 10
4.9101555E+002
 20
3.6322592E+002
 11
4.8951555E+002
 21
3.6322592E+002
  0
ARC
  8
105
  6
HIDDEN
 62
1
 10
4.8951555E+002
 20
3.6272592E+002
 40
5.0000077E-001
 50
9.0000088E+001
 51
1.7999991E+002
  0
LINE
  8
105
  6
HIDDEN
 62
1
 10
4.8901555E+002
 20
3.6272592E+002
 11
4.8901555E+002
 21
3.6252592E+002
  0
LINE
  8
105
  6
HIDDEN
 62
1
 10
4.8901555E+002
 20
3.6252592E+002
 11
4.8751555E+002
 21
3.6252592E+002
  0
LINE
  8
105
  6
HIDDEN
 62
1
 10
4.8751555E+002
 20
3.4752592E+002
 11
4.8901555E+002
 21
3.4752592E+002
  0
LINE
  8
105
  6
HIDDEN
 62
1
 10
4.8901555E+002
 20
3.4752592E+002
 11
4.8901555E+002
 21
3.4732592E+002
  0
ARC
  8
105
  6
HIDDEN
 62
1
 10
4.8951555E+002
 20
3.4732592E+002
 40
4.9999998E-001
 50
1.8E+002
 51
2.7E+002
  0
LINE
  8
105
  6
HIDDEN
 62
1
 10
4.8951555E+002
 20
3.4682592E+002
 11
4.9101555E+002
 21
3.4682592E+002
  0
LINE
  8
105
  6
HIDDEN
 62
1
 10
4.8431555E+002
 20
3.4772592E+002
 11
4.8261555E+002
 21
3.4772592E+002
  0
LINE
  8
105
  6
HIDDEN
 62
1
 10
4.8431555E+002
 20
3.6232592E+002
 11
4.8261555E+002
 21
3.6232592E+002
  0
LINE
  8
105
  6
HIDDEN
 62
1
 10
4.1271555E+002
 20
3.4772592E+002
 11
4.1441555E+002
 21
3.4772592E+002
  0
LINE
  8
105
  6
HIDDEN
 62
1
 10
4.1271555E+002
 20
3.6232592E+002
 11
4.1441555E+002
 21
3.6232592E+002
  0
LINE
  8
104
  6
CONTINUOUS
 62
40
 10
4.4851555E+002
 20
3.0102592E+002
 11
4.3751555E+002
 21
3.0102592E+002
  0
LINE
  8
104
  6
CONTINUOUS
 62
40
 10
4.3631555E+002
 20
3.0102592E+002
 11
4.2131555E+002
 21
3.0102592E+002
  0
LINE
  8
104
  6
CONTINUOUS
 62
40
 10
4.2131555E+002
 20
3.0102592E+002
 11
4.1283486E+002
 21
2.9982321E+002
  0
ARC
  8
104
  6
CONTINUOUS
 62
40
 10
4.1227321E+002
 20
3.0378358E+002
 40
4.0000002
 50
1.7192824E+002
 51
2.7807176E+002
  0
LINE
  8
104
  6
CONTINUOUS
 62
40
 10
4.0831284E+002
 20
3.0434523E+002
 11
4.0951555E+002
 21
3.1282592E+002
  0
LINE
  8
104
  6
CONTINUOUS
 62
40
 10
4.0951555E+002
 20
3.1282592E+002
 11
4.0951555E+002
 21
3.4002592E+002
  0
LINE
  8
104
  6
CONTINUOUS
 62
40
 10
4.3551555E+002
 20
3.0102592E+002
 11
4.2131555E+002
 21
3.0102592E+002
  0
LINE
  8
104
  6
CONTINUOUS
 62
40
 10
4.2131555E+002
 20
3.0102592E+002
 11
4.1283486E+002
 21
2.9982321E+002
  0
ARC
  8
104
  6
CONTINUOUS
 62
40
 10
4.1227321E+002
 20
3.0378358E+002
 40
4.0000002
 50
1.7192824E+002
 51
2.7807176E+002
  0
LINE
  8
104
  6
CONTINUOUS
 62
40
 10
4.0831284E+002
 20
3.0434523E+002
 11
4.0951555E+002
 21
3.1282592E+002
  0
LINE
  8
105
  6
HIDDEN
 62
1
 10
4.4121555E+002
 20
3.0422592E+002
 11
4.4121555E+002
 21
3.0592592E+002
  0
LINE
  8
105
  6
HIDDEN
 62
1
 10
4.5581555E+002
 20
3.0422592E+002
 11
4.5581555E+002
 21
3.0592592E+002
  0
LINE
  8
104
  6
CONTINUOUS
 62
40
 10
4.1441555E+002
 20
3.2902592E+002
 11
4.1271555E+002
 21
3.2902592E+002
  0
LINE
  8
104
  6
CONTINUOUS
 62
40
 10
4.1441555E+002
 20
3.5102592E+002
 11
4.1271555E+002
 21
3.5102592E+002
  0
LINE
  8
104
  6
CONTINUOUS
 62
40
 10
4.3751555E+002
 20
3.0422592E+002
 11
4.3751555E+002
 21
3.0592592E+002
  0
LINE
  8
104
  6
CONTINUOUS
 62
40
 10
4.5951555E+002
 20
3.0592592E+002
 11
4.5951555E+002
 21
3.0422592E+002
  0
LINE
  8
104
  6
CONTINUOUS
 62
40
 10
4.5951555E+002
 20
3.7582592E+002
 11
4.5951555E+002
 21
3.7412592E+002
  0
LINE
  8
104
  6
CONTINUOUS
 62
40
 10
4.3751555E+002
 20
3.7582592E+002
 11
4.3751555E+002
 21
3.7412592E+002
  0
LINE
  8
104
  6
CONTINUOUS
 62
40
 10
4.1271555E+002
 20
3.6293819E+002
 11
4.1441555E+002
 21
3.6293819E+002
  0
LINE
  8
104
  6
CONTINUOUS
 62
40
 10
4.2521555E+002
 20
3.7702592E+002
 11
4.2521555E+002
 21
3.7532592E+002
  0
ARC
  8
104
  6
CONTINUOUS
 62
40
 10
4.1356555E+002
 20
3.7497592E+002
 40
6.0000004
 50
9.0000004E+001
 51
1.8E+002
  0
LINE
  8
104
  6
CONTINUOUS
 62
40
 10
4.1356555E+002
 20
3.8097592E+002
 11
4.8341555E+002
 21
3.8097592E+002
  0
ARC
  8
104
  6
CONTINUOUS
 62
40
 10
4.8341555E+002
 20
3.7497592E+002
 40
5.9999998
 50
3.6E+002
 51
4.5E+002
  0
LINE
  8
104
  6
CONTINUOUS
 62
40
 10
4.8941555E+002
 20
3.7497592E+002
 11
4.8941555E+002
 21
3.0507592E+002
  0
ARC
  8
104
  6
CONTINUOUS
 62
40
 10
4.8341555E+002
 20
3.0507592E+002
 40
5.9999995
 50
2.7E+002
 51
3.6000001E+002
  0
LINE
  8
104
  6
CONTINUOUS
 62
40
 10
4.8341555E+002
 20
2.9907592E+002
 11
4.1356555E+002
 21
2.9907592E+002
  0
ARC
  8
104
  6
CONTINUOUS
 62
40
 10
4.1356555E+002
 20
3.0507592E+002
 40
5.9999999
 50
1.8E+002
 51
2.7E+002
  0
LINE
  8
104
  6
CONTINUOUS
 62
40
 10
4.0756555E+002
 20
3.0507592E+002
 11
4.0756555E+002
 21
3.7497592E+002
  0
LINE
  8
106
  6
CENTERLINE
 62
1
 10
4.1851555E+002
 20
3.4772369E+002
 11
4.1851555E+002
 21
3.3202592E+002
  0
LINE
  8
106
  6
CENTERLINE
 62
1
 10
4.7851555E+002
 20
3.4864162E+002
 11
4.7851555E+002
 21
3.3211882E+002
  0
ARC
  8
104
  6
CONTINUOUS
 62
40
 10
4.1401555E+002
 20
3.7452592E+002
 40
8.0000011
 50
9.0000008E+001
 51
1.7999999E+002
  0
LINE
  8
104
  6
CONTINUOUS
 62
40
 10
4.1401555E+002
 20
3.8252592E+002
 11
4.8301555E+002
 21
3.8252592E+002
  0
ARC
  8
104
  6
CONTINUOUS
 62
40
 10
4.8301555E+002
 20
3.7452592E+002
 40
8.0000003
 50
1.9307E-006
 51
8.9999998E+001
  0
LINE
  8
104
  6
CONTINUOUS
 62
40
 10
4.9101555E+002
 20
3.7452592E+002
 11
4.9101555E+002
 21
3.0552592E+002
  0
ARC
  8
104
  6
CONTINUOUS
 62
40
 10
4.8301555E+002
 20
3.0552592E+002
 40
7.9999997
 50
2.7E+002
 51
3.6E+002
  0
LINE
  8
104
  6
CONTINUOUS
 62
40
 10
4.8301555E+002
 20
2.9752592E+002
 11
4.1401555E+002
 21
2.9752592E+002
  0
ARC
  8
104
  6
CONTINUOUS
 62
40
 10
4.1401555E+002
 20
3.0552592E+002
 40
8.0000006
 50
1.8E+002
 51
2.7E+002
  0
LINE
  8
104
  6
CONTINUOUS
 62
40
 10
4.0601555E+002
 20
3.0552592E+002
 11
4.0601555E+002
 21
3.7452592E+002
  0
LINE
  8
106
  6
CENTERLINE
 62
1
 10
4.4851555E+002
 20
3.834767E+002
 11
4.4851555E+002
 21
2.9730054E+002
  0
LINE
  8
106
  6
CENTERLINE
 62
1
 10
4.0561594E+002
 20
3.4002592E+002
 11
4.9063795E+002
 21
3.4002592E+002
  0
LINE
  8
106
  6
CENTERLINE
 62
1
 10
4.0360011E+002
 20
3.5502592E+002
 11
4.1687278E+002
 21
3.5502592E+002
  0
LINE
  8
106
  6
CENTERLINE
 62
1
 10
4.7900425E+002
 20
3.5502592E+002
 11
4.9477756E+002
 21
3.5502592E+002
  0
CIRCLE
  8
104
  6
CONTINUOUS
 62
40
 10
4.1851555E+002
 20
3.4002592E+002
 40
3.25
  0
LINE
  8
104
  6
CONTINUOUS
 62
40
 10
4.2176555E+002
 20
3.4002592E+002
 11
4.1851555E+002
 21
3.4002592E+002
  0
CIRCLE
  8
104
  6
CONTINUOUS
 62
40
 10
4.1851555E+002
 20
3.4002592E+002
 40
2.2
  0
CIRCLE
  8
104
  6
CONTINUOUS
 62
40
 10
4.7851555E+002
 20
3.4002592E+002
 40
3.25
  0
CIRCLE
  8
104
  6
CONTINUOUS
 62
40
 10
4.7851555E+002
 20
3.4002592E+002
 40
2.25
  0
INSERT
  2
_D0
  8
MED-0
 10
0.0
 20
0.0
  0
LINE
  8
105
  6
HIDDEN
 62
1
 10
4.4851555E+002
 20
3.1005253E+002
 11
4.4851555E+002
 21
3.0187733E+002
  0
LINE
  8
105
  6
HIDDEN
 62
1
 10
4.4851555E+002
 20
3.0187733E+002
 11
4.4851555E+002
 21
3.1005253E+002
  0
LINE
  8
106
  6
CENTERLINE
 62
1
 10
4.4851555E+002
 20
3.0187733E+002
 11
4.4851555E+002
 21
3.1005253E+002
  0
LINE
  8
106
  6
CENTERLINE
 62
1
 10
4.4851555E+002
 20
3.1005253E+002
 11
4.4851555E+002
 21
3.0187733E+002
  0
LINE
  8
106
  6
CENTERLINE
 62
1
 10
4.4851555E+002
 20
3.1005253E+002
 11
4.4851555E+002
 21
3.0187733E+002
  0
INSERT
  2
_D1
  8
MED-0
 10
0.0
 20
0.0
  0
LINE
  8
105
  6
HIDDEN
 62
1
 10
4.4851555E+002
 20
3.1005253E+002
 11
4.4851555E+002
 21
3.0187733E+002
  0
LINE
  8
105
  6
HIDDEN
 62
1
 10
4.4851555E+002
 20
3.0187733E+002
 11
4.4851555E+002
 21
3.1005253E+002
  0
LINE
  8
106
  6
CENTERLINE
 62
1
 10
4.4851555E+002
 20
3.0187733E+002
 11
4.4851555E+002
 21
3.1005253E+002
  0
LINE
  8
106
  6
CENTERLINE
 62
1
 10
4.4851555E+002
 20
3.1005253E+002
 11
4.4851555E+002
 21
3.0187733E+002
  0
LINE
  8
106
  6
CENTERLINE
 62
1
 10
4.4851555E+002
 20
3.1005253E+002
 11
4.4851555E+002
 21
3.0187733E+002
  0
LINE
  8
106
  6
CENTERLINE
 62
1
 10
4.1851555E+002
 20
3.3202592E+002
 11
4.1851555E+002
 21
3.3176398E+002
  0
TEXT
  8
103
  6
CONTINUOUS
 62
6
 10
5.0879902E+002
 20
4.0001943E+002
 40
7.0
  1
Zubehoer
 41
6.46875E-001
 72
1
 11
4.9068652E+002
 21
3.9651943E+002
 73
2
  0
CIRCLE
  8
104
  6
CONTINUOUS
 62
40
 10
3.3841105E+002
 20
3.6209846E+002
 40
7.3
  0
LINE
  8
106
  6
CENTERLINE
 62
1
 10
3.3841105E+002
 20
3.5133033E+002
 11
3.3841105E+002
 21
3.7248965E+002
  0
LINE
  8
106
  6
CENTERLINE
 62
1
 10
3.2912556E+002
 20
3.6209846E+002
 11
3.4721105E+002
 21
3.6209846E+002
  0
LINE
  8
106
  6
CENTERLINE
 62
1
 10
3.3841105E+002
 20
3.8980183E+002
 11
3.3841105E+002
 21
4.0020013E+002
  0
LINE
  8
104
  6
CONTINUOUS
 62
40
 10
3.4341105E+002
 20
3.9480183E+002
 11
3.4341105E+002
 21
3.9780183E+002
  0
LINE
  8
104
  6
CONTINUOUS
 62
40
 10
3.4341105E+002
 20
3.9780183E+002
 11
3.3341105E+002
 21
3.9780183E+002
  0
LINE
  8
104
  6
CONTINUOUS
 62
40
 10
3.3341105E+002
 20
3.9780183E+002
 11
3.3341105E+002
 21
3.9480183E+002
  0
LINE
  8
104
  6
CONTINUOUS
 62
40
 10
3.4766105E+002
 20
3.8980183E+002
 11
3.4691105E+002
 21
3.9480183E+002
  0
LINE
  8
104
  6
CONTINUOUS
 62
40
 10
3.4691105E+002
 20
3.9480183E+002
 11
3.2991105E+002
 21
3.9480183E+002
  0
LINE
  8
104
  6
CONTINUOUS
 62
40
 10
3.2991105E+002
 20
3.9480183E+002
 11
3.2916105E+002
 21
3.8980183E+002
  0
LINE
  8
104
  6
CONTINUOUS
 62
40
 10
3.5418437E+002
 20
3.8980183E+002
 11
3.2610017E+002
 21
3.8980183E+002
  0
LINE
  8
104
  6
CONTINUOUS
 62
40
 10
3.4921105E+002
 20
3.0509846E+002
 11
3.4721105E+002
 21
3.0509846E+002
  0
LINE
  8
104
  6
CONTINUOUS
 62
40
 10
3.4721105E+002
 20
3.0509846E+002
 11
3.4721105E+002
 21
3.0459846E+002
  0
LINE
  8
104
  6
CONTINUOUS
 62
40
 10
3.4721105E+002
 20
3.0459846E+002
 11
3.2721105E+002
 21
3.0459846E+002
  0
LINE
  8
104
  6
CONTINUOUS
 62
40
 10
3.2721105E+002
 20
3.0459846E+002
 11
3.2721105E+002
 21
3.8980183E+002
  0
LINE
  8
104
  6
CONTINUOUS
 62
40
 10
3.2721105E+002
 20
3.8980183E+002
 11
3.4721105E+002
 21
3.8980183E+002
  0
LINE
  8
104
  6
CONTINUOUS
 62
40
 10
3.4721105E+002
 20
3.8980183E+002
 11
3.4721105E+002
 21
3.8930183E+002
  0
LINE
  8
104
  6
CONTINUOUS
 62
40
 10
3.4721105E+002
 20
3.8930183E+002
 11
3.4921105E+002
 21
3.8930183E+002
  0
LINE
  8
104
  6
CONTINUOUS
 62
40
 10
3.4721105E+002
 20
3.0509846E+002
 11
3.4721105E+002
 21
3.8930183E+002
  0
LINE
  8
104
  6
CONTINUOUS
 62
40
 10
3.5921105E+002
 20
3.2609846E+002
 11
3.6231105E+002
 21
3.2609846E+002
  0
LINE
  8
104
  6
CONTINUOUS
 62
40
 10
3.6231105E+002
 20
3.2609846E+002
 11
3.6221105E+002
 21
3.2609846E+002
  0
LINE
  8
104
  6
CONTINUOUS
 62
40
 10
3.6221105E+002
 20
3.2609846E+002
 11
3.6221105E+002
 21
3.6809846E+002
  0
LINE
  8
104
  6
CONTINUOUS
 62
40
 10
3.6221105E+002
 20
3.6809846E+002
 11
3.5921105E+002
 21
3.6809846E+002
  0
LINE
  8
106
  6
CENTERLINE
 62
1
 10
3.6637167E+002
 20
3.4709846E+002
 11
3.2343515E+002
 21
3.4709846E+002
  0
LINE
  8
99
  6
CONTINUOUS
 62
1
 10
3.5421105E+002
 20
3.0459846E+002
 11
3.5421105E+002
 21
3.8959846E+002
  0
ARC
  8
104
  6
CONTINUOUS
 62
40
 10
3.5421105E+002
 20
3.8459846E+002
 40
4.9999997
 50
3.6E+002
 51
4.5E+002
  0
LINE
  8
104
  6
CONTINUOUS
 62
40
 10
3.5921105E+002
 20
3.8459846E+002
 11
3.5921105E+002
 21
3.0959846E+002
  0
ARC
  8
104
  6
CONTINUOUS
 62
40
 10
3.5421105E+002
 20
3.0959846E+002
 40
4.9999999
 50
2.7E+002
 51
3.6E+002
  0
LINE
  8
104
  6
CONTINUOUS
 62
40
 10
3.5421105E+002
 20
3.0459846E+002
 11
3.4921105E+002
 21
3.0459846E+002
  0
LINE
  8
104
  6
CONTINUOUS
 62
40
 10
3.4921105E+002
 20
3.0459846E+002
 11
3.4921105E+002
 21
3.8959846E+002
  0
LINE
  8
104
  6
CONTINUOUS
 62
40
 10
3.4921105E+002
 20
3.8959846E+002
 11
3.5421105E+002
 21
3.8959846E+002
  0
LINE
  8
104
  6
CONTINUOUS
 62
40
 10
2.4410356E+002
 20
3.5509846E+002
 11
2.2210356E+002
 21
3.5509846E+002
  0
LINE
  8
104
  6
CONTINUOUS
 62
40
 10
2.2210356E+002
 20
3.5509846E+002
 11
2.2210356E+002
 21
3.3909846E+002
  0
LINE
  8
104
  6
CONTINUOUS
 62
40
 10
2.2210356E+002
 20
3.3909846E+002
 11
2.4410356E+002
 21
3.3909846E+002
  0
LINE
  8
104
  6
CONTINUOUS
 62
40
 10
2.4410356E+002
 20
3.2609846E+002
 11
2.2690356E+002
 21
3.2609846E+002
  0
LINE
  8
104
  6
CONTINUOUS
 62
40
 10
2.2690356E+002
 20
3.2609846E+002
 11
2.2690356E+002
 21
3.3909846E+002
  0
LINE
  8
104
  6
CONTINUOUS
 62
40
 10
2.2690356E+002
 20
3.5509846E+002
 11
2.2690356E+002
 21
3.6809846E+002
  0
LINE
  8
104
  6
CONTINUOUS
 62
40
 10
2.2690356E+002
 20
3.6809846E+002
 11
2.4410356E+002
 21
3.6809846E+002
  0
LINE
  8
104
  6
CONTINUOUS
 62
40
 10
2.5410356E+002
 20
3.2609846E+002
 11
2.5720356E+002
 21
3.2609846E+002
  0
LINE
  8
104
  6
CONTINUOUS
 62
40
 10
2.5720356E+002
 20
3.2609846E+002
 11
2.5710356E+002
 21
3.2609846E+002
  0
LINE
  8
104
  6
CONTINUOUS
 62
40
 10
2.5710356E+002
 20
3.2609846E+002
 11
2.5710356E+002
 21
3.6809846E+002
  0
LINE
  8
104
  6
CONTINUOUS
 62
40
 10
2.5710356E+002
 20
3.6809846E+002
 11
2.5410356E+002
 21
3.6809846E+002
  0
LINE
  8
106
  6
CENTERLINE
 62
1
 10
2.6126418E+002
 20
3.4709846E+002
 11
2.1593906E+002
 21
3.4709846E+002
  0
LINE
  8
99
  6
CONTINUOUS
 62
1
 10
2.4910356E+002
 20
3.0459846E+002
 11
2.4910356E+002
 21
3.8959846E+002
  0
ARC
  8
104
  6
CONTINUOUS
 62
40
 10
2.4910356E+002
 20
3.8459846E+002
 40
4.9999998
 50
3.6E+002
 51
4.5E+002
  0
LINE
  8
104
  6
CONTINUOUS
 62
40
 10
2.5410356E+002
 20
3.8459846E+002
 11
2.5410356E+002
 21
3.0959846E+002
  0
ARC
  8
104
  6
CONTINUOUS
 62
40
 10
2.4910356E+002
 20
3.0959846E+002
 40
5.0000003
 50
2.7E+002
 51
3.6E+002
  0
LINE
  8
104
  6
CONTINUOUS
 62
40
 10
2.4910356E+002
 20
3.0459846E+002
 11
2.4410356E+002
 21
3.0459846E+002
  0
LINE
  8
104
  6
CONTINUOUS
 62
40
 10
2.4410356E+002
 20
3.0459846E+002
 11
2.4410356E+002
 21
3.8959846E+002
  0
LINE
  8
104
  6
CONTINUOUS
 62
40
 10
2.4410356E+002
 20
3.8959846E+002
 11
2.4910356E+002
 21
3.8959846E+002
  0
LINE
  8
104
  6
CONTINUOUS
 62
40
 10
1.4869426E+002
 20
3.2609846E+002
 11
1.7079426E+002
 21
3.2609846E+002
  0
LINE
  8
104
  6
CONTINUOUS
 62
40
 10
1.7079426E+002
 20
3.2609846E+002
 11
1.7069426E+002
 21
3.2609846E+002
  0
LINE
  8
104
  6
CONTINUOUS
 62
40
 10
1.7069426E+002
 20
3.2609846E+002
 11
1.7069426E+002
 21
3.6809846E+002
  0
LINE
  8
104
  6
CONTINUOUS
 62
40
 10
1.7069426E+002
 20
3.6809846E+002
 11
1.4869426E+002
 21
3.6809846E+002
  0
LINE
  8
106
  6
CENTERLINE
 62
1
 10
1.7485488E+002
 20
3.4709846E+002
 11
1.344598E+002
 21
3.4709846E+002
  0
LINE
  8
99
  6
CONTINUOUS
 62
1
 10
1.4369426E+002
 20
3.0459846E+002
 11
1.4369426E+002
 21
3.8959846E+002
  0
ARC
  8
104
  6
CONTINUOUS
 62
40
 10
1.4369426E+002
 20
3.8459846E+002
 40
4.9999998
 50
3.6E+002
 51
4.5E+002
  0
LINE
  8
104
  6
CONTINUOUS
 62
40
 10
1.4869426E+002
 20
3.8459846E+002
 11
1.4869426E+002
 21
3.0959846E+002
  0
ARC
  8
104
  6
CONTINUOUS
 62
40
 10
1.4369426E+002
 20
3.0959846E+002
 40
5.0000002
 50
2.7E+002
 51
3.6E+002
  0
LINE
  8
104
  6
CONTINUOUS
 62
40
 10
1.4369426E+002
 20
3.0459846E+002
 11
1.3869426E+002
 21
3.0459846E+002
  0
LINE
  8
104
  6
CONTINUOUS
 62
40
 10
1.3869426E+002
 20
3.0459846E+002
 11
1.3869426E+002
 21
3.8959846E+002
  0
LINE
  8
104
  6
CONTINUOUS
 62
40
 10
1.3869426E+002
 20
3.8959846E+002
 11
1.4369426E+002
 21
3.8959846E+002
  0
LINE
  8
106
  6
CENTERLINE
 62
1
 10
3.4834184E+001
 20
3.5280439E+002
 11
3.4834184E+001
 21
3.4082741E+002
  0
CIRCLE
  8
99
  6
CONTINUOUS
 62
1
 10
3.4834184E+001
 20
3.4709846E+002
 40
3.5
  0
CIRCLE
  8
99
  6
CONTINUOUS
 62
1
 10
3.4834184E+001
 20
3.4709846E+002
 40
4.5
  0
CIRCLE
  8
99
  6
CONTINUOUS
 62
1
 10
3.4834184E+001
 20
3.4709846E+002
 40
2.0
  0
ARC
  8
99
  6
CONTINUOUS
 62
1
 10
9.9334184E+001
 20
3.1259846E+002
 40
3.0
 50
2.7000001E+002
 51
3.6E+002
  0
LINE
  8
99
  6
CONTINUOUS
 62
1
 10
9.9334185E+001
 20
3.0959846E+002
 11
3.0334184E+001
 21
3.0959846E+002
  0
ARC
  8
99
  6
CONTINUOUS
 62
1
 10
3.0334185E+001
 20
3.1259846E+002
 40
2.9999999
 50
1.8E+002
 51
2.7E+002
  0
LINE
  8
99
  6
CONTINUOUS
 62
1
 10
2.7334184E+001
 20
3.1259846E+002
 11
2.7334184E+001
 21
3.8159846E+002
  0
ARC
  8
99
  6
CONTINUOUS
 62
1
 10
3.0334184E+001
 20
3.8159846E+002
 40
2.9999996
 50
8.9999993E+001
 51
1.8000001E+002
  0
LINE
  8
99
  6
CONTINUOUS
 62
1
 10
3.0334184E+001
 20
3.8459846E+002
 11
9.9334185E+001
 21
3.8459846E+002
  0
ARC
  8
99
  6
CONTINUOUS
 62
1
 10
9.9334184E+001
 20
3.8159846E+002
 40
2.9999996
 50
3.5999999E+002
 51
4.5E+002
  0
LINE
  8
99
  6
CONTINUOUS
 62
1
 10
1.0233418E+002
 20
3.8159846E+002
 11
1.0233418E+002
 21
3.1259846E+002
  0
LINE
  8
106
  6
CENTERLINE
 62
1
 10
2.8916333E+001
 20
3.4709846E+002
 11
3.7693898E+001
 21
3.4709846E+002
  0
LINE
  8
106
  6
CENTERLINE
 62
1
 10
3.7693898E+001
 20
3.4709846E+002
 11
4.1541049E+001
 21
3.4709846E+002
  0
LINE
  8
106
  6
CENTERLINE
 62
1
 10
4.1541049E+001
 20
3.4709846E+002
 11
8.8091578E+001
 21
3.4709846E+002
  0
LINE
  8
106
  6
CENTERLINE
 62
1
 10
6.4834185E+001
 20
3.2324615E+002
 11
6.4834185E+001
 21
3.7191261E+002
  0
CIRCLE
  8
104
  6
CONTINUOUS
 62
40
 10
6.4834185E+001
 20
3.4709846E+002
 40
1.5
  0
ARC
  8
104
  6
CONTINUOUS
 62
40
 10
9.9334184E+001
 20
3.1259846E+002
 40
8.0
 50
2.7E+002
 51
3.6E+002
  0
LINE
  8
104
  6
CONTINUOUS
 62
40
 10
9.9334185E+001
 20
3.0459846E+002
 11
3.0334184E+001
 21
3.0459846E+002
  0
ARC
  8
104
  6
CONTINUOUS
 62
40
 10
3.0334185E+001
 20
3.1259846E+002
 40
8.0
 50
1.8E+002
 51
2.7E+002
  0
LINE
  8
104
  6
CONTINUOUS
 62
40
 10
2.2334184E+001
 20
3.1259846E+002
 11
2.2334184E+001
 21
3.8159846E+002
  0
ARC
  8
104
  6
CONTINUOUS
 62
40
 10
3.0334185E+001
 20
3.8159846E+002
 40
8.0
 50
9.0E+001
 51
1.8E+002
  0
LINE
  8
104
  6
CONTINUOUS
 62
40
 10
3.0334184E+001
 20
3.8959846E+002
 11
9.9334185E+001
 21
3.8959846E+002
  0
ARC
  8
104
  6
CONTINUOUS
 62
40
 10
9.9334184E+001
 20
3.8159846E+002
 40
7.9999994
 50
3.6E+002
 51
4.5E+002
  0
LINE
  8
104
  6
CONTINUOUS
 62
40
 10
1.0733418E+002
 20
3.8159846E+002
 11
1.0733418E+002
 21
3.1259846E+002
  0
CIRCLE
  8
104
  6
CONTINUOUS
 62
40
 10
6.4834185E+001
 20
3.4709846E+002
 40
2.1E+001
  0
CIRCLE
  8
104
  6
CONTINUOUS
 62
40
 10
6.4834185E+001
 20
3.4709846E+002
 40
1.75E+001
  0
CIRCLE
  8
104
  6
CONTINUOUS
 62
40
 10
6.4834185E+001
 20
3.4709846E+002
 40
1.05E+001
  0
CIRCLE
  8
99
  6
CONTINUOUS
 62
1
 10
9.4834185E+001
 20
3.4709846E+002
 40
3.5
  0
CIRCLE
  8
99
  6
CONTINUOUS
 62
1
 10
9.4834185E+001
 20
3.4709846E+002
 40
4.5
  0
CIRCLE
  8
99
  6
CONTINUOUS
 62
1
 10
9.4834185E+001
 20
3.4709846E+002
 40
2.0
  0
LINE
  8
106
  6
CENTERLINE
 62
1
 10
8.9163787E+001
 20
3.4709846E+002
 11
1.0038557E+002
 21
3.4701224E+002
  0
LINE
  8
106
  6
CENTERLINE
 62
1
 10
9.4834185E+001
 20
3.4055833E+002
 11
9.4834185E+001
 21
3.53831E+002
  0
LINE
  8
98
  6
CONTINUOUS
 62
1
 10
5.0
 20
5.0
 11
5.89E+002
 21
5.0
  0
LINE
  8
98
  6
CONTINUOUS
 62
1
 10
5.89E+002
 20
5.0
 11
5.89E+002
 21
4.15E+002
  0
LINE
  8
98
  6
CONTINUOUS
 62
1
 10
5.89E+002
 20
4.15E+002
 11
5.0
 21
4.15E+002
  0
LINE
  8
98
  6
CONTINUOUS
 62
1
 10
5.0
 20
4.15E+002
 11
5.0
 21
5.0
  0
ENDSEC
  0
EOF
