  0
SECTION
  2
HEADER
  9
$ACADVER
  1
AC1021
  9
$ACADMAINTVER
 70
    25
  9
$DWGCODEPAGE
  3
ANSI_1252
  9
$INSBASE
 10
0.0
 20
0.0
 30
0.0
  9
$EXTMIN
 10
1795.948112477035
 20
2533.208322862665
 30
0.0
  9
$EXTMAX
 10
3203.833373442017
 20
3279.744485191672
 30
0.0
  9
$LIMMIN
 10
0.0
 20
0.0
  9
$LIMMAX
 10
12.0
 20
9.0
  9
$ORTHOMODE
 70
     0
  9
$REGENMODE
 70
     1
  9
$FILLMODE
 70
     1
  9
$QTEXTMODE
 70
     0
  9
$MIRRTEXT
 70
     0
  9
$LTSCALE
 40
1.0
  9
$ATTMODE
 70
     1
  9
$TEXTSIZE
 40
0.2
  9
$TRACEWID
 40
0.05
  9
$TEXTSTYLE
  7
Standard
  9
$CLAYER
  8
0
  9
$CELTYPE
  6
ByLayer
  9
$CECOLOR
 62
   256
  9
$CELTSCALE
 40
1.0
  9
$DISPSILH
 70
     0
  9
$DIMSCALE
 40
1.0
  9
$DIMASZ
 40
0.18
  9
$DIMEXO
 40
0.0625
  9
$DIMDLI
 40
0.38
  9
$DIMRND
 40
0.0
  9
$DIMDLE
 40
0.0
  9
$DIMEXE
 40
0.18
  9
$DIMTP
 40
0.0
  9
$DIMTM
 40
0.0
  9
$DIMTXT
 40
0.18
  9
$DIMCEN
 40
0.09
  9
$DIMTSZ
 40
0.0
  9
$DIMTOL
 70
     0
  9
$DIMLIM
 70
     0
  9
$DIMTIH
 70
     1
  9
$DIMTOH
 70
     1
  9
$DIMSE1
 70
     0
  9
$DIMSE2
 70
     0
  9
$DIMTAD
 70
     0
  9
$DIMZIN
 70
     0
  9
$DIMBLK
  1

  9
$DIMASO
 70
     1
  9
$DIMSHO
 70
     1
  9
$DIMPOST
  1

  9
$DIMAPOST
  1

  9
$DIMALT
 70
     0
  9
$DIMALTD
 70
     2
  9
$DIMALTF
 40
25.4
  9
$DIMLFAC
 40
1.0
  9
$DIMTOFL
 70
     0
  9
$DIMTVP
 40
0.0
  9
$DIMTIX
 70
     0
  9
$DIMSOXD
 70
     0
  9
$DIMSAH
 70
     0
  9
$DIMBLK1
  1

  9
$DIMBLK2
  1

  9
$DIMSTYLE
  2
Standard
  9
$DIMCLRD
 70
     0
  9
$DIMCLRE
 70
     0
  9
$DIMCLRT
 70
     0
  9
$DIMTFAC
 40
1.0
  9
$DIMGAP
 40
0.09
  9
$DIMJUST
 70
     0
  9
$DIMSD1
 70
     0
  9
$DIMSD2
 70
     0
  9
$DIMTOLJ
 70
     1
  9
$DIMTZIN
 70
     0
  9
$DIMALTZ
 70
     0
  9
$DIMALTTZ
 70
     0
  9
$DIMUPT
 70
     0
  9
$DIMDEC
 70
     4
  9
$DIMTDEC
 70
     4
  9
$DIMALTU
 70
     2
  9
$DIMALTTD
 70
     2
  9
$DIMTXSTY
  7
Standard
  9
$DIMAUNIT
 70
     0
  9
$DIMADEC
 70
     0
  9
$DIMALTRND
 40
0.0
  9
$DIMAZIN
 70
     0
  9
$DIMDSEP
 70
    46
  9
$DIMATFIT
 70
     3
  9
$DIMFRAC
 70
     0
  9
$DIMLDRBLK
  1

  9
$DIMLUNIT
 70
     2
  9
$DIMLWD
 70
    -2
  9
$DIMLWE
 70
    -2
  9
$DIMTMOVE
 70
     0
  9
$DIMFXL
 40
1.0
  9
$DIMFXLON
 70
     0
  9
$DIMJOGANG
 40
0.7853981633974483
  9
$DIMTFILL
 70
     0
  9
$DIMTFILLCLR
 70
     0
  9
$DIMARCSYM
 70
     0
  9
$DIMLTYPE
  6

  9
$DIMLTEX1
  6

  9
$DIMLTEX2
  6

  9
$LUNITS
 70
     2
  9
$LUPREC
 70
     4
  9
$SKETCHINC
 40
0.1
  9
$FILLETRAD
 40
0.0
  9
$AUNITS
 70
     0
  9
$AUPREC
 70
     0
  9
$MENU
  1
.
  9
$ELEVATION
 40
0.0
  9
$PELEVATION
 40
0.0
  9
$THICKNESS
 40
0.0
  9
$LIMCHECK
 70
     0
  9
$CHAMFERA
 40
0.0
  9
$CHAMFERB
 40
0.0
  9
$CHAMFERC
 40
0.0
  9
$CHAMFERD
 40
0.0
  9
$SKPOLY
 70
     0
  9
$TDCREATE
 40
2455036.648841505
  9
$TDUCREATE
 40
2455036.148841505
  9
$TDUPDATE
 40
2455036.648841505
  9
$TDUUPDATE
 40
2455036.148841505
  9
$TDINDWG
 40
0.0000093981
  9
$TDUSRTIMER
 40
0.0000093981
  9
$USRTIMER
 70
     1
  9
$ANGBASE
 50
0.0
  9
$ANGDIR
 70
     0
  9
$PDMODE
 70
     0
  9
$PDSIZE
 40
0.0
  9
$PLINEWID
 40
0.0
  9
$SPLFRAME
 70
     0
  9
$SPLINETYPE
 70
     6
  9
$SPLINESEGS
 70
     8
  9
$HANDSEED
  5
15E
  9
$SURFTAB1
 70
     6
  9
$SURFTAB2
 70
     6
  9
$SURFTYPE
 70
     6
  9
$SURFU
 70
     6
  9
$SURFV
 70
     6
  9
$UCSBASE
  2

  9
$UCSNAME
  2

  9
$UCSORG
 10
0.0
 20
0.0
 30
0.0
  9
$UCSXDIR
 10
1.0
 20
0.0
 30
0.0
  9
$UCSYDIR
 10
0.0
 20
1.0
 30
0.0
  9
$UCSORTHOREF
  2

  9
$UCSORTHOVIEW
 70
     0
  9
$UCSORGTOP
 10
0.0
 20
0.0
 30
0.0
  9
$UCSORGBOTTOM
 10
0.0
 20
0.0
 30
0.0
  9
$UCSORGLEFT
 10
0.0
 20
0.0
 30
0.0
  9
$UCSORGRIGHT
 10
0.0
 20
0.0
 30
0.0
  9
$UCSORGFRONT
 10
0.0
 20
0.0
 30
0.0
  9
$UCSORGBACK
 10
0.0
 20
0.0
 30
0.0
  9
$PUCSBASE
  2

  9
$PUCSNAME
  2

  9
$PUCSORG
 10
0.0
 20
0.0
 30
0.0
  9
$PUCSXDIR
 10
1.0
 20
0.0
 30
0.0
  9
$PUCSYDIR
 10
0.0
 20
1.0
 30
0.0
  9
$PUCSORTHOREF
  2

  9
$PUCSORTHOVIEW
 70
     0
  9
$PUCSORGTOP
 10
0.0
 20
0.0
 30
0.0
  9
$PUCSORGBOTTOM
 10
0.0
 20
0.0
 30
0.0
  9
$PUCSORGLEFT
 10
0.0
 20
0.0
 30
0.0
  9
$PUCSORGRIGHT
 10
0.0
 20
0.0
 30
0.0
  9
$PUCSORGFRONT
 10
0.0
 20
0.0
 30
0.0
  9
$PUCSORGBACK
 10
0.0
 20
0.0
 30
0.0
  9
$USERI1
 70
     0
  9
$USERI2
 70
     0
  9
$USERI3
 70
     0
  9
$USERI4
 70
     0
  9
$USERI5
 70
     0
  9
$USERR1
 40
0.0
  9
$USERR2
 40
0.0
  9
$USERR3
 40
0.0
  9
$USERR4
 40
0.0
  9
$USERR5
 40
0.0
  9
$WORLDVIEW
 70
     1
  9
$SHADEDGE
 70
     3
  9
$SHADEDIF
 70
    70
  9
$TILEMODE
 70
     0
  9
$MAXACTVP
 70
    64
  9
$PINSBASE
 10
0.0
 20
0.0
 30
0.0
  9
$PLIMCHECK
 70
     0
  9
$PEXTMIN
 10
2.792850708836863
 20
84.97857142855746
 30
0.0
  9
$PEXTMAX
 10
299.7928507088368
 20
294.9999999999861
 30
0.0
  9
$PLIMMIN
 10
0.0
 20
0.0
  9
$PLIMMAX
 10
12.0
 20
9.0
  9
$UNITMODE
 70
     0
  9
$VISRETAIN
 70
     1
  9
$PLINEGEN
 70
     0
  9
$PSLTSCALE
 70
     1
  9
$TREEDEPTH
 70
  3020
  9
$CMLSTYLE
  2
Standard
  9
$CMLJUST
 70
     0
  9
$CMLSCALE
 40
1.0
  9
$PROXYGRAPHICS
 70
     1
  9
$MEASUREMENT
 70
     1
  9
$CELWEIGHT
370
    -1
  9
$ENDCAPS
280
     0
  9
$JOINSTYLE
280
     0
  9
$LWDISPLAY
290
     0
  9
$INSUNITS
 70
     4
  9
$HYPERLINKBASE
  1

  9
$STYLESHEET
  1

  9
$XEDIT
290
     1
  9
$CEPSNTYPE
380
     0
  9
$PSTYLEMODE
290
     1
  9
$FINGERPRINTGUID
  2
{30666B95-C1BB-4232-A316-34D106F82733}
  9
$VERSIONGUID
  2
{607382D0-0D0F-4F47-AC43-A9746305AFF9}
  9
$EXTNAMES
290
     1
  9
$PSVPSCALE
 40
0.0
  9
$OLESTARTUP
290
     0
  9
$SORTENTS
280
   127
  9
$INDEXCTL
280
     0
  9
$HIDETEXT
280
     1
  9
$XCLIPFRAME
290
     0
  9
$HALOGAP
280
     0
  9
$OBSCOLOR
 70
   257
  9
$OBSLTYPE
280
     0
  9
$INTERSECTIONDISPLAY
280
     0
  9
$INTERSECTIONCOLOR
 70
   257
  9
$DIMASSOC
280
     2
  9
$PROJECTNAME
  1

  9
$CAMERADISPLAY
290
     0
  9
$LENSLENGTH
 40
50.0
  9
$CAMERAHEIGHT
 40
0.0
  9
$STEPSPERSEC
 40
2.0
  9
$STEPSIZE
 40
6.0
  9
$3DDWFPREC
 40
2.0
  9
$PSOLWIDTH
 40
0.25
  9
$PSOLHEIGHT
 40
4.0
  9
$LOFTANG1
 40
1.570796326794896
  9
$LOFTANG2
 40
1.570796326794896
  9
$LOFTMAG1
 40
0.0
  9
$LOFTMAG2
 40
0.0
  9
$LOFTPARAM
 70
     7
  9
$LOFTNORMALS
280
     1
  9
$LATITUDE
 40
37.795
  9
$LONGITUDE
 40
-122.394
  9
$NORTHDIRECTION
 40
0.0
  9
$TIMEZONE
 70
 -8000
  9
$LIGHTGLYPHDISPLAY
280
     1
  9
$TILEMODELIGHTSYNCH
280
     1
  9
$CMATERIAL
347
11
  9
$SOLIDHIST
280
     1
  9
$SHOWHIST
280
     1
  9
$DWFFRAME
280
     2
  9
$DGNFRAME
280
     0
  9
$REALWORLDSCALE
290
     1
  9
$INTERFERECOLOR
 62
     1
  9
$INTERFEREOBJVS
345
33
  9
$INTERFEREVPVS
346
30
  9
$CSHADOW
280
     0
  9
$SHADOWPLANELOCATION
 40
0.0
  0
ENDSEC
  0
SECTION
  2
CLASSES
  0
CLASS
  1
ACDBDICTIONARYWDFLT
  2
AcDbDictionaryWithDefault
  3
ObjectDBX Classes
 90
        0
 91
        1
280
     0
281
     0
  0
CLASS
  1
MATERIAL
  2
AcDbMaterial
  3
ObjectDBX Classes
 90
     1153
 91
        3
280
     0
281
     0
  0
CLASS
  1
VISUALSTYLE
  2
AcDbVisualStyle
  3
ObjectDBX Classes
 90
     4095
 91
       16
280
     0
281
     0
  0
CLASS
  1
SCALE
  2
AcDbScale
  3
ObjectDBX Classes
 90
     1153
 91
       33
280
     0
281
     0
  0
CLASS
  1
TABLESTYLE
  2
AcDbTableStyle
  3
ObjectDBX Classes
 90
     4095
 91
        1
280
     0
281
     0
  0
CLASS
  1
MLEADERSTYLE
  2
AcDbMLeaderStyle
  3
ACDB_MLEADERSTYLE_CLASS
 90
     4095
 91
        1
280
     0
281
     0
  0
CLASS
  1
IMAGEDEF
  2
AcDbRasterImageDef
  3
ISM
 90
        0
 91
        2
280
     0
281
     0
  0
CLASS
  1
IMAGE
  2
AcDbRasterImage
  3
ISM
 90
     2175
 91
        2
280
     0
281
     1
  0
CLASS
  1
SORTENTSTABLE
  2
AcDbSortentsTable
  3
ObjectDBX Classes
 90
        0
 91
        1
280
     0
281
     0
  0
CLASS
  1
DICTIONARYVAR
  2
AcDbDictionaryVar
  3
ObjectDBX Classes
 90
        0
 91
        3
280
     0
281
     0
  0
CLASS
  1
CELLSTYLEMAP
  2
AcDbCellStyleMap
  3
ObjectDBX Classes
 90
     1152
 91
        1
280
     0
281
     0
  0
ENDSEC
  0
SECTION
  2
TABLES
  0
TABLE
  2
VPORT
  5
8
330
0
100
AcDbSymbolTable
 70
     1
  0
VPORT
  5
5F
330
8
100
AcDbSymbolTableRecord
100
AcDbViewportTableRecord
  2
*Active
 70
     0
 10
0.0
 20
0.0
 11
1.0
 21
1.0
 12
2499.890742959526
 22
2906.476404027168
 13
0.0
 23
0.0
 14
1.0
 24
1.0
 15
0.0
 25
0.0
 16
0.0
 26
0.0
 36
1.0
 17
0.0
 27
0.0
 37
0.0
 40
746.5361623290064
 41
1.885890238153676
 42
50.0
 43
0.0
 44
0.0
 50
0.0
 51
0.0
 71
     0
 72
   100
 73
     1
 74
     1
 75
     0
 76
     0
 77
     0
 78
     0
281
     0
 65
     1
110
0.0
120
0.0
130
0.0
111
1.0
121
0.0
131
0.0
112
0.0
122
1.0
132
0.0
 79
     0
146
0.0
 60
     3
 61
     5
292
     1
282
     1
141
0.0
142
0.0
 63
   250
421
  3355443
  0
ENDTAB
  0
TABLE
  2
LTYPE
  5
5
330
0
100
AcDbSymbolTable
 70
     4
  0
LTYPE
  5
63
330
5
100
AcDbSymbolTableRecord
100
AcDbLinetypeTableRecord
  2
ByBlock
 70
     0
  3

 72
    65
 73
     0
 40
0.0
  0
LTYPE
  5
64
330
5
100
AcDbSymbolTableRecord
100
AcDbLinetypeTableRecord
  2
ByLayer
 70
     0
  3

 72
    65
 73
     0
 40
0.0
  0
LTYPE
  5
65
330
5
100
AcDbSymbolTableRecord
100
AcDbLinetypeTableRecord
  2
Continuous
 70
     0
  3
Solid line
 72
    65
 73
     0
 40
0.0
  0
LTYPE
  5
7F
330
5
100
AcDbSymbolTableRecord
100
AcDbLinetypeTableRecord
  2
Aligning Line
 70
     0
  3

 72
    65
 73
     2
 40
6.350000000000001
 49
3.175
 74
     0
 49
-3.175
 74
     0
  0
LTYPE
  5
BB
330
5
100
AcDbSymbolTableRecord
100
AcDbLinetypeTableRecord
  2
Overhead
 70
     0
  3

 72
    65
 73
     2
 40
3.96875
 49
2.38125
 74
     0
 49
-1.5875
 74
     0
  0
LTYPE
  5
BD
330
5
100
AcDbSymbolTableRecord
100
AcDbLinetypeTableRecord
  2
Dash
 70
     0
  3

 72
    65
 73
     2
 40
6.35
 49
3.175
 74
     0
 49
-3.175
 74
     0
  0
ENDTAB
  0
TABLE
  2
LAYER
  5
2
330
0
100
AcDbSymbolTable
 70
     7
  0
LAYER
  5
5C
330
2
100
AcDbSymbolTableRecord
100
AcDbLayerTableRecord
  2
0
 70
     0
 62
     7
  6
Continuous
370
    -3
390
F
347
21
  0
LAYER
  5
80
330
2
100
AcDbSymbolTableRecord
100
AcDbLayerTableRecord
  2
G-----PAP
 70
     0
 62
     8
  6
Aligning Line
370
    18
390
F
347
21
  0
LAYER
  5
84
330
2
100
AcDbSymbolTableRecord
100
AcDbLayerTableRecord
  2
A-----NPP
 70
     0
 62
     3
  6
Continuous
370
    35
390
F
347
21
  0
LAYER
  5
87
330
2
100
AcDbSymbolTableRecord
100
AcDbLayerTableRecord
  2
A-DETLGEM
 70
     0
 62
     3
  6
Continuous
370
    18
390
F
347
21
  0
LAYER
  5
DD
330
2
100
AcDbSymbolTableRecord
100
AcDbLayerTableRecord
  2
A-----TEP
 70
     0
 62
     2
  6
Continuous
370
     9
390
F
347
21
  0
LAYER
  5
E2
330
2
100
AcDbSymbolTableRecord
100
AcDbLayerTableRecord
  2
A-----NOP
 70
     0
 62
     2
  6
Continuous
370
     9
390
F
347
21
  0
LAYER
  5
113
330
2
100
AcDbSymbolTableRecord
100
AcDbLayerTableRecord
  2
G-----TTP
 70
     0
 62
     6
  6
Continuous
370
     9
390
F
347
21
  0
ENDTAB
  0
TABLE
  2
STYLE
  5
3
330
0
100
AcDbSymbolTable
 70
     2
  0
STYLE
  5
5D
330
3
100
AcDbSymbolTableRecord
100
AcDbTextStyleTableRecord
  2
Standard
 70
     0
 40
0.0
 41
1.0
 50
0.0
 71
     0
 42
0.2
  3
txt
  4

  0
STYLE
  5
62
330
3
100
AcDbSymbolTableRecord
100
AcDbTextStyleTableRecord
  2
Annotative
 70
     0
 40
0.0
 41
1.0
 50
0.0
 71
     0
 42
0.2
  3

  4

1001
AcadAnnotative
1000
AnnotativeData
1002
{
1070
     1
1070
     1
1002
}
  0
ENDTAB
  0
TABLE
  2
VIEW
  5
6
330
0
100
AcDbSymbolTable
 70
     0
  0
ENDTAB
  0
TABLE
  2
UCS
  5
7
330
0
100
AcDbSymbolTable
 70
     0
  0
ENDTAB
  0
TABLE
  2
APPID
  5
9
330
0
100
AcDbSymbolTable
 70
     5
  0
APPID
  5
5E
330
9
100
AcDbSymbolTableRecord
100
AcDbRegAppTableRecord
  2
ACAD
 70
     0
  0
APPID
  5
66
330
9
100
AcDbSymbolTableRecord
100
AcDbRegAppTableRecord
  2
AcadAnnotative
 70
     0
  0
APPID
  5
70
330
9
100
AcDbSymbolTableRecord
100
AcDbRegAppTableRecord
  2
ACAD_MLEADERVER
 70
     0
  0
APPID
  5
7D
330
9
100
AcDbSymbolTableRecord
100
AcDbRegAppTableRecord
  2
ACCURENDER3
 70
     0
  0
APPID
  5
7E
330
9
100
AcDbSymbolTableRecord
100
AcDbRegAppTableRecord
  2
REVIT
 70
     0
  0
ENDTAB
  0
TABLE
  2
DIMSTYLE
  5
A
330
0
100
AcDbSymbolTable
 70
     2
100
AcDbDimStyleTable
 71
     0
  0
DIMSTYLE
105
60
330
A
100
AcDbSymbolTableRecord
100
AcDbDimStyleTableRecord
  2
Standard
 70
     0
340
5D
  0
DIMSTYLE
105
61
330
A
100
AcDbSymbolTableRecord
100
AcDbDimStyleTableRecord
  2
Annotative
 70
     0
340
5D
1001
AcadAnnotative
1000
AnnotativeData
1002
{
1070
     1
1070
     1
1002
}
  0
ENDTAB
  0
TABLE
  2
BLOCK_RECORD
  5
1
330
0
100
AcDbSymbolTable
 70
     8
  0
BLOCK_RECORD
  5
75
102
{ACAD_XDICTIONARY
360
152
102
}
330
1
100
AcDbSymbolTableRecord
100
AcDbBlockTableRecord
  2
*Model_Space
340
78
 70
     0
280
     1
281
     0
  0
BLOCK_RECORD
  5
71
330
1
100
AcDbSymbolTableRecord
100
AcDbBlockTableRecord
  2
*Paper_Space
340
74
 70
     0
280
     1
281
     0
  0
BLOCK_RECORD
  5
79
330
1
100
AcDbSymbolTableRecord
100
AcDbBlockTableRecord
  2
*Paper_Space0
340
7C
 70
     0
280
     1
281
     0
  0
BLOCK_RECORD
  5
A8
330
1
100
AcDbSymbolTableRecord
100
AcDbBlockTableRecord
  2
ply2 20_ - ply 20__1-0-Detail 5
340
0
102
{BLKREFS
331
B1
102
}
 70
     0
280
     1
281
     0
  0
BLOCK_RECORD
  5
B2
330
1
100
AcDbSymbolTableRecord
100
AcDbBlockTableRecord
  2
ply2 20_ - ply 20__1-4-Detail 5
340
0
102
{BLKREFS
331
BA
102
}
 70
     0
280
     1
281
     0
  0
BLOCK_RECORD
  5
BF
330
1
100
AcDbSymbolTableRecord
100
AcDbBlockTableRecord
  2
Break Line1 - M_Break Line_1-3-Detail 5
340
0
102
{BLKREFS
331
C7
102
}
 70
     0
280
     1
281
     0
  0
BLOCK_RECORD
  5
C8
330
1
100
AcDbSymbolTableRecord
100
AcDbBlockTableRecord
  2
Break Line1 - M_Break Line_1-2-Detail 5
340
0
102
{BLKREFS
331
D0
102
}
 70
     0
280
     1
281
     0
  0
BLOCK_RECORD
  5
D1
330
1
100
AcDbSymbolTableRecord
100
AcDbBlockTableRecord
  2
tmber 200_50 - tmber 100_50_1-1-Detail 5
340
0
102
{BLKREFS
331
D9
102
}
 70
     0
280
     1
281
     0
  0
BLOCK_RECORD
  5
E9
330
1
100
AcDbSymbolTableRecord
100
AcDbBlockTableRecord
  2
M_Label Annotation - M_Label Annotation_1-142258-Detail 5
340
0
102
{BLKREFS
331
EC
331
F3
331
FA
331
101
331
108
331
110
102
}
 70
     0
280
     1
281
     0
  0
BLOCK_RECORD
  5
114
330
1
100
AcDbSymbolTableRecord
100
AcDbBlockTableRecord
  2
A4 SPS - A4 sps_0-163380-HIP-CROSS SECTION
340
0
102
{BLKREFS
331
145
102
}
 70
     0
280
     1
281
     0
  0
ENDTAB
  0
ENDSEC
  0
SECTION
  2
BLOCKS
  0
BLOCK
  5
76
330
75
100
AcDbEntity
  8
0
100
AcDbBlockBegin
  2
*Model_Space
 70
     0
 10
0.0
 20
0.0
 30
0.0
  3
*Model_Space
  1

  0
ENDBLK
  5
77
330
75
100
AcDbEntity
  8
0
100
AcDbBlockEnd
  0
BLOCK
  5
72
330
71
100
AcDbEntity
 67
     1
  8
0
100
AcDbBlockBegin
  2
*Paper_Space
 70
     0
 10
0.0
 20
0.0
 30
0.0
  3
*Paper_Space
  1

  0
ENDBLK
  5
73
330
71
100
AcDbEntity
 67
     1
  8
0
100
AcDbBlockEnd
  0
BLOCK
  5
7A
330
79
100
AcDbEntity
 67
     1
  8
0
100
AcDbBlockBegin
  2
*Paper_Space0
 70
     0
 10
0.0
 20
0.0
 30
0.0
  3
*Paper_Space0
  1

  0
ENDBLK
  5
7B
330
79
100
AcDbEntity
 67
     1
  8
0
100
AcDbBlockEnd
  0
BLOCK
  5
AF
330
A8
100
AcDbEntity
  8
0
100
AcDbBlockBegin
  2
ply2 20_ - ply 20__1-0-Detail 5
 70
     0
 10
0.0
 20
0.0
 30
0.0
  3
ply2 20_ - ply 20__1-0-Detail 5
  1

  0
LINE
  5
A9
330
A8
100
AcDbEntity
  8
A-DETLGEM
100
AcDbLine
 10
0.0
 20
11.94621723361908
 30
0.0
 11
377.2674383720835
 21
11.94621723361908
 31
0.0
  0
LINE
  5
AA
330
A8
100
AcDbEntity
  8
A-DETLGEM
100
AcDbLine
 10
0.0
 20
0.0
 30
0.0
 11
0.0
 21
6.071876166871061
 31
0.0
  0
LINE
  5
AB
330
A8
100
AcDbEntity
  8
A-DETLGEM
100
AcDbLine
 10
380.4684176324384
 20
0.0
 30
0.0
 11
0.0
 21
0.0
 31
0.0
  0
LINE
  5
AC
330
A8
100
AcDbEntity
  8
A-DETLGEM
100
AcDbLine
 10
0.0
 20
8.084953675937498
 30
0.0
 11
378.3020608241283
 21
8.084953675936276
 31
0.0
  0
LINE
  5
AD
330
A8
100
AcDbEntity
  8
A-DETLGEM
100
AcDbLine
 10
0.0
 20
4.015637839630641
 30
0.0
 11
379.3924307162139
 21
4.015637839629414
 31
0.0
  0
LINE
  5
AE
330
A8
100
AcDbEntity
  8
A-DETLGEM
100
AcDbLine
 10
0.0
 20
11.94621723361908
 30
0.0
 11
0.0
 21
0.0
 31
0.0
  0
ENDBLK
  5
B0
330
A8
100
AcDbEntity
  8
0
100
AcDbBlockEnd
  0
BLOCK
  5
B8
330
B2
100
AcDbEntity
  8
0
100
AcDbBlockBegin
  2
ply2 20_ - ply 20__1-4-Detail 5
 70
     0
 10
0.0
 20
0.0
 30
0.0
  3
ply2 20_ - ply 20__1-4-Detail 5
  1

  0
LINE
  5
B3
330
B2
100
AcDbEntity
  8
A-DETLGEM
100
AcDbLine
 10
111.7079944937353
 20
11.94621723361908
 30
0.0
 11
492.2295054757212
 21
11.94621723361908
 31
0.0
  0
LINE
  5
B4
330
B2
100
AcDbEntity
  8
A-DETLGEM
100
AcDbLine
 10
492.2295054757212
 20
0.0
 30
0.0
 11
108.5070152333815
 21
0.0
 31
0.0
  0
LINE
  5
B5
330
B2
100
AcDbEntity
  8
A-DETLGEM
100
AcDbLine
 10
492.2295054757212
 20
11.94621723361908
 30
0.0
 11
492.2295054757212
 21
0.0
 31
0.0
  0
LINE
  5
B6
330
B2
100
AcDbEntity
  8
A-DETLGEM
100
AcDbLine
 10
110.6733720416911
 20
8.084953675937141
 30
0.0
 11
492.2295054757212
 21
8.084953675935908
 31
0.0
  0
LINE
  5
B7
330
B2
100
AcDbEntity
  8
A-DETLGEM
100
AcDbLine
 10
109.5830021496061
 20
4.015637839630286
 30
0.0
 11
492.2295054757212
 21
4.01563783962905
 31
0.0
  0
ENDBLK
  5
B9
330
B2
100
AcDbEntity
  8
0
100
AcDbBlockEnd
  0
BLOCK
  5
C5
330
BF
100
AcDbEntity
  8
0
100
AcDbBlockBegin
  2
Break Line1 - M_Break Line_1-3-Detail 5
 70
     0
 10
0.0
 20
0.0
 30
0.0
  3
Break Line1 - M_Break Line_1-3-Detail 5
  1

  0
LINE
  5
C0
330
BF
100
AcDbEntity
  8
A-DETLGEM
370
    35
100
AcDbLine
 10
-18.60697444189654
 20
0.0000000000045937
 30
0.0
 11
-9.303487220949293
 21
12.12986432713317
 31
0.0
1001
REVIT
1002
{
1070
     3
1000
1349
1002
}
  0
LINE
  5
C1
330
BF
100
AcDbEntity
  8
A-DETLGEM
370
    35
100
AcDbLine
 10
-9.303487220949296
 20
12.12986432713317
 30
0.0
 11
9.215834510488308
 21
-12.01299404650819
 31
0.0
1001
REVIT
1002
{
1070
     3
1000
1349
1002
}
  0
LINE
  5
C2
330
BF
100
AcDbEntity
  8
A-DETLGEM
370
    35
100
AcDbLine
 10
9.215834510488308
 20
-12.01299404650819
 30
0.0
 11
18.43166902097825
 21
0.0000000000045937
 31
0.0
1001
REVIT
1002
{
1070
     3
1000
1349
1002
}
  0
LINE
  5
C3
330
BF
100
AcDbEntity
  8
A-DETLGEM
370
    35
100
AcDbLine
 10
18.43166902097825
 20
0.0000000000045937
 30
0.0
 11
190.4762770000382
 21
0.0000000000045937
 31
0.0
1001
REVIT
1002
{
1070
     3
1000
1349
1002
}
  0
LINE
  5
C4
330
BF
100
AcDbEntity
  8
A-DETLGEM
370
    35
100
AcDbLine
 10
-142.8966750722907
 20
0.0000000000045937
 30
0.0
 11
-18.60697444189654
 21
0.0000000000045937
 31
0.0
1001
REVIT
1002
{
1070
     3
1000
1349
1002
}
  0
ENDBLK
  5
C6
330
BF
100
AcDbEntity
  8
0
100
AcDbBlockEnd
  0
BLOCK
  5
CE
330
C8
100
AcDbEntity
  8
0
100
AcDbBlockBegin
  2
Break Line1 - M_Break Line_1-2-Detail 5
 70
     0
 10
0.0
 20
0.0
 30
0.0
  3
Break Line1 - M_Break Line_1-2-Detail 5
  1

  0
LINE
  5
C9
330
C8
100
AcDbEntity
  8
A-DETLGEM
370
    35
100
AcDbLine
 10
-18.60697444189654
 20
-0.0000000000045937
 30
0.0
 11
-132.8252283789445
 21
-0.0000000000045937
 31
0.0
1001
REVIT
1002
{
1070
     3
1000
1349
1002
}
  0
LINE
  5
CA
330
C8
100
AcDbEntity
  8
A-DETLGEM
370
    35
100
AcDbLine
 10
190.4762770000382
 20
-0.0000000000045937
 30
0.0
 11
18.43166902097825
 21
-0.0000000000045937
 31
0.0
1001
REVIT
1002
{
1070
     3
1000
1349
1002
}
  0
LINE
  5
CB
330
C8
100
AcDbEntity
  8
A-DETLGEM
370
    35
100
AcDbLine
 10
18.43166902097825
 20
-0.0000000000045937
 30
0.0
 11
9.215834510488308
 21
12.01299404650819
 31
0.0
1001
REVIT
1002
{
1070
     3
1000
1349
1002
}
  0
LINE
  5
CC
330
C8
100
AcDbEntity
  8
A-DETLGEM
370
    35
100
AcDbLine
 10
9.215834510488308
 20
12.01299404650819
 30
0.0
 11
-9.303487220949296
 21
-12.12986432713317
 31
0.0
1001
REVIT
1002
{
1070
     3
1000
1349
1002
}
  0
LINE
  5
CD
330
C8
100
AcDbEntity
  8
A-DETLGEM
370
    35
100
AcDbLine
 10
-9.303487220949293
 20
-12.12986432713317
 30
0.0
 11
-18.60697444189654
 21
-0.0000000000045937
 31
0.0
1001
REVIT
1002
{
1070
     3
1000
1349
1002
}
  0
ENDBLK
  5
CF
330
C8
100
AcDbEntity
  8
0
100
AcDbBlockEnd
  0
BLOCK
  5
D7
330
D1
100
AcDbEntity
  8
0
100
AcDbBlockBegin
  2
tmber 200_50 - tmber 100_50_1-1-Detail 5
 70
     0
 10
0.0
 20
0.0
 30
0.0
  3
tmber 200_50 - tmber 100_50_1-1-Detail 5
  1

  0
LINE
  5
D2
330
D1
100
AcDbEntity
  8
A-DETLGEM
100
AcDbLine
 10
50.0
 20
200.0
 30
0.0
 11
0.0
 21
200.0
 31
0.0
  0
LINE
  5
D3
330
D1
100
AcDbEntity
  8
A-DETLGEM
100
AcDbLine
 10
0.0
 20
200.0
 30
0.0
 11
0.0
 21
0.0
 31
0.0
  0
LINE
  5
D4
330
D1
100
AcDbEntity
  8
A-DETLGEM
100
AcDbLine
 10
0.0
 20
0.0
 30
0.0
 11
50.0
 21
0.0
 31
0.0
  0
LINE
  5
D5
330
D1
100
AcDbEntity
  8
A-DETLGEM
100
AcDbLine
 10
50.0
 20
0.0
 30
0.0
 11
50.0
 21
200.0
 31
0.0
  0
HATCH
  5
D6
330
D1
100
AcDbEntity
  8
A-DETLGEM
100
AcDbHatch
 10
0.0
 20
0.0
 30
0.0
210
0.0
220
0.0
230
1.0
  2
FP1_1
 70
     0
 71
     0
 91
        1
 92
        0
 93
        4
 72
     1
 10
50.0
 20
200.0
 11
0.0
 21
200.0
 72
     1
 10
0.0
 20
200.0
 11
0.0
 21
0.0
 72
     1
 10
0.0
 20
0.0
 11
50.0
 21
0.0
 72
     1
 10
50.0
 20
0.0
 11
50.0
 21
200.0
 97
        0
 75
     0
 76
     2
 52
0.0
 41
1.0
 77
     0
 78
     1
 53
45.0
 43
-2438.329
 44
-2760.771
 45
-17.67766952966368
 46
17.67766952966369
 79
     0
 98
        1
 10
0.0
 20
0.0
1001
REVIT
1002
{
1070
     3
1000
136727
1002
}
  0
ENDBLK
  5
D8
330
D1
100
AcDbEntity
  8
0
100
AcDbBlockEnd
  0
BLOCK
  5
EA
330
E9
100
AcDbEntity
  8
0
100
AcDbBlockBegin
  2
M_Label Annotation - M_Label Annotation_1-142258-Detail 5
 70
     0
 10
0.0
 20
0.0
 30
0.0
  3
M_Label Annotation - M_Label Annotation_1-142258-Detail 5
  1

  0
ENDBLK
  5
EB
330
E9
100
AcDbEntity
  8
0
100
AcDbBlockEnd
  0
BLOCK
  5
143
330
114
100
AcDbEntity
  8
0
100
AcDbBlockBegin
  2
A4 SPS - A4 sps_0-163380-HIP-CROSS SECTION
 70
     0
 10
0.0
 20
0.0
 30
0.0
  3
A4 SPS - A4 sps_0-163380-HIP-CROSS SECTION
  1

  0
IMAGE
  5
116
330
114
100
AcDbEntity
  8
G-----TTP
 92
      140
310
8C00000001000000840000000600000005000000C168BED14A7B22406AAAC3784E8A58400000000000000000C168BED14A7B2240D44C002E3CEE5C400000000000000000F73E2E47CADC5440D44C002E3CEE5C400000000000000000F73E2E47CADC54406AAAC3784E8A58400000000000000000C168BED14A7B22406AAAC3
310
784E8A58400000000000000000
100
AcDbRasterImage
 90
        0
 10
9.240805201047239
 20
98.16103953464486
 30
0.0
 11
0.0609770261884177
 21
0.0
 31
0.0
 12
0.0
 22
0.0609770261884177
 32
0.0
 13
1217.0
 23
288.0
340
115
 70
     7
280
     0
281
    50
282
    50
283
     0
360
0
 71
     1
 91
        2
 14
-0.5
 24
-0.5
 14
1216.5
 24
287.5
  0
LINE
  5
117
330
114
100
AcDbEntity
  8
G-----TTP
100
AcDbLine
 10
97.66108077792623
 20
93.39672673794749
 30
0.0
 11
152.8182236350694
 21
93.39672673794749
 31
0.0
1001
REVIT
1002
{
1070
     3
1000
-2000281
1002
}
  0
LINE
  5
118
330
114
100
AcDbEntity
  8
G-----TTP
100
AcDbLine
 10
97.66108077792623
 20
96.15458388080464
 30
0.0
 11
152.8182236350694
 21
96.15458388080464
 31
0.0
1001
REVIT
1002
{
1070
     3
1000
-2000281
1002
}
  0
LINE
  5
119
330
114
100
AcDbEntity
  8
G-----TTP
100
AcDbLine
 10
95.53965220649775
 20
99.12142857141512
 30
0.0
 11
8.798463415511349
 21
99.12142857141541
 31
0.0
  0
LINE
  5
11A
330
114
100
AcDbEntity
  8
G-----TTP
100
AcDbLine
 10
141.5039379207837
 20
114.678571428557
 30
0.0
 11
141.5039379207837
 21
90.63571428570075
 31
0.0
1001
REVIT
1002
{
1070
     3
1000
-2000281
1002
}
  0
LINE
  5
11B
330
114
100
AcDbEntity
  8
G-----TTP
100
AcDbLine
 10
104.7325093493548
 20
114.678571428557
 30
0.0
 11
104.7325093493548
 21
90.63571428570075
 31
0.0
1001
REVIT
1002
{
1070
     3
1000
-2000281
1002
}
  0
LINE
  5
11C
330
114
100
AcDbEntity
  8
G-----TTP
100
AcDbLine
 10
97.66108077792623
 20
109.9438695950903
 30
0.0
 11
152.8182236350694
 21
109.9438695950903
 31
0.0
1001
REVIT
1002
{
1070
     3
1000
-2000281
1002
}
  0
LINE
  5
11D
330
114
100
AcDbEntity
  8
G-----TTP
100
AcDbLine
 10
97.66108077792623
 20
107.1860124522332
 30
0.0
 11
152.8182236350694
 21
107.1860124522332
 31
0.0
1001
REVIT
1002
{
1070
     3
1000
-2000281
1002
}
  0
LINE
  5
11E
330
114
100
AcDbEntity
  8
G-----TTP
100
AcDbLine
 10
97.66108077792623
 20
104.428155309376
 30
0.0
 11
152.8182236350694
 21
104.428155309376
 31
0.0
1001
REVIT
1002
{
1070
     3
1000
-2000281
1002
}
  0
LINE
  5
11F
330
114
100
AcDbEntity
  8
G-----TTP
100
AcDbLine
 10
97.66108077792623
 20
101.6702981665189
 30
0.0
 11
152.8182236350694
 21
101.6702981665189
 31
0.0
1001
REVIT
1002
{
1070
     3
1000
-2000281
1002
}
  0
LINE
  5
120
330
114
100
AcDbEntity
  8
G-----TTP
100
AcDbLine
 10
97.66108077792623
 20
98.91244102366178
 30
0.0
 11
152.8182236350694
 21
98.91244102366178
 31
0.0
1001
REVIT
1002
{
1070
     3
1000
-2000281
1002
}
  0
LINE
  5
121
330
114
100
AcDbEntity
  8
G-----TTP
370
    25
100
AcDbLine
 10
152.8182236350694
 20
114.678571428557
 30
0.0
 11
152.8182236350694
 21
90.63571428570075
 31
0.0
1001
REVIT
1002
{
1070
     3
1000
-2000282
1002
}
  0
LINE
  5
122
330
114
100
AcDbEntity
  8
G-----TTP
370
    25
100
AcDbLine
 10
97.66108077792623
 20
90.63571428570075
 30
0.0
 11
97.66108077792623
 21
114.678571428557
 31
0.0
1001
REVIT
1002
{
1070
     3
1000
-2000282
1002
}
  0
LINE
  5
123
330
114
100
AcDbEntity
  8
G-----TTP
370
    25
100
AcDbLine
 10
152.8182236350694
 20
90.63571428570075
 30
0.0
 11
97.66108077792623
 21
90.63571428570075
 31
0.0
1001
REVIT
1002
{
1070
     3
1000
-2000282
1002
}
  0
LINE
  5
124
330
114
100
AcDbEntity
  8
G-----TTP
370
    25
100
AcDbLine
 10
97.66108077792623
 20
114.678571428557
 30
0.0
 11
152.8182236350694
 21
114.678571428557
 31
0.0
1001
REVIT
1002
{
1070
     3
1000
-2000282
1002
}
  0
LINE
  5
125
330
114
100
AcDbEntity
  8
G-----TTP
370
    25
100
AcDbLine
 10
154.9396522064979
 20
114.6785714285573
 30
0.0
 11
154.9396522064979
 21
90.63571428570096
 31
0.0
1001
REVIT
1002
{
1070
     3
1000
-2000282
1002
}
  0
LINE
  5
126
330
114
100
AcDbEntity
  8
G-----TTP
100
AcDbLine
 10
215.046795063641
 20
104.7785714285581
 30
0.0
 11
292.8325093493553
 21
104.7785714285581
 31
0.0
1001
REVIT
1002
{
1070
     3
1000
-2000281
1002
}
  0
LINE
  5
127
330
114
100
AcDbEntity
  8
G-----TTP
100
AcDbLine
 10
215.046795063641
 20
101.2428571428439
 30
0.0
 11
253.939652206498
 21
101.2428571428439
 31
0.0
1001
REVIT
1002
{
1070
     3
1000
-2000281
1002
}
  0
LINE
  5
128
330
114
100
AcDbEntity
  8
G-----TTP
100
AcDbLine
 10
215.046795063641
 20
97.70714285712955
 30
0.0
 11
253.939652206498
 21
97.70714285712955
 31
0.0
1001
REVIT
1002
{
1070
     3
1000
-2000281
1002
}
  0
LINE
  5
129
330
114
100
AcDbEntity
  8
G-----TTP
100
AcDbLine
 10
253.939652206498
 20
104.7785714285581
 30
0.0
 11
253.939652206498
 21
90.63571428570096
 31
0.0
1001
REVIT
1002
{
1070
     3
1000
-2000281
1002
}
  0
LINE
  5
12A
330
114
100
AcDbEntity
  8
G-----TTP
100
AcDbLine
 10
292.8325093493553
 20
94.17142857141548
 30
0.0
 11
215.046795063641
 21
94.17142857141548
 31
0.0
1001
REVIT
1002
{
1070
     3
1000
-2000281
1002
}
  0
LINE
  5
12B
330
114
100
AcDbEntity
  8
G-----TTP
100
AcDbLine
 10
215.046795063641
 20
90.63571428570096
 30
0.0
 11
215.046795063641
 21
114.6785714285573
 31
0.0
1001
REVIT
1002
{
1070
     3
1000
-2000281
1002
}
  0
LINE
  5
12C
330
114
100
AcDbEntity
  8
G-----TTP
370
    25
100
AcDbLine
 10
292.8325093493553
 20
114.6785714285573
 30
0.0
 11
154.9396522064979
 21
114.6785714285573
 31
0.0
1001
REVIT
1002
{
1070
     3
1000
-2000282
1002
}
  0
LINE
  5
12D
330
114
100
AcDbEntity
  8
G-----TTP
370
    25
100
AcDbLine
 10
292.8325093493553
 20
90.63571428570096
 30
0.0
 11
154.9396522064979
 21
90.63571428570096
 31
0.0
1001
REVIT
1002
{
1070
     3
1000
-2000282
1002
}
  0
LINE
  5
12E
330
114
100
AcDbEntity
  8
G-----TTP
370
    25
100
AcDbLine
 10
292.8325093493553
 20
90.63571428570096
 30
0.0
 11
292.8325093493553
 21
114.6785714285573
 31
0.0
1001
REVIT
1002
{
1070
     3
1000
-2000282
1002
}
  0
LINE
  5
12F
330
114
100
AcDbEntity
  8
G-----TTP
370
    25
100
AcDbLine
 10
95.53965220649775
 20
90.63571428570085
 30
0.0
 11
95.53965220649775
 21
114.6785714285574
 31
0.0
1001
REVIT
1002
{
1070
     3
1000
-2000282
1002
}
  0
LINE
  5
130
330
114
100
AcDbEntity
  8
G-----TTP
370
    25
100
AcDbLine
 10
8.798463415511349
 20
114.6785714285574
 30
0.0
 11
95.53965220649775
 21
114.6785714285574
 31
0.0
1001
REVIT
1002
{
1070
     3
1000
-2000282
1002
}
  0
LINE
  5
131
330
114
100
AcDbEntity
  8
G-----TTP
370
    25
100
AcDbLine
 10
8.798463415511349
 20
90.63571428570085
 30
0.0
 11
95.53965220649775
 21
90.63571428570085
 31
0.0
1001
REVIT
1002
{
1070
     3
1000
-2000282
1002
}
  0
LINE
  5
132
330
114
100
AcDbEntity
  8
G-----TTP
370
    25
100
AcDbLine
 10
8.798463415511349
 20
114.6785714285574
 30
0.0
 11
8.798463415511349
 21
90.63571428570085
 31
0.0
1001
REVIT
1002
{
1070
     3
1000
-2000282
1002
}
  0
LINE
  5
133
330
114
100
AcDbEntity
  8
G-----TTP
370
    25
100
AcDbLine
 10
6.677034844082778
 20
116.7999999999851
 30
0.0
 11
294.9539379207838
 21
116.7999999999851
 31
0.0
1001
REVIT
1002
{
1070
     3
1000
-2000282
1002
}
  0
LINE
  5
134
330
114
100
AcDbEntity
  8
G-----TTP
370
    25
100
AcDbLine
 10
294.9539379207837
 20
291.4642857142719
 30
0.0
 11
294.9539379207837
 21
88.51428571427183
 31
0.0
1001
REVIT
1002
{
1070
     3
1000
-2000282
1002
}
  0
LINE
  5
135
330
114
100
AcDbEntity
  8
G-----TTP
370
    25
100
AcDbLine
 10
6.677034844082778
 20
88.51428571427181
 30
0.0
 11
294.9539379207838
 21
88.51428571427181
 31
0.0
1001
REVIT
1002
{
1070
     3
1000
-2000282
1002
}
  0
LINE
  5
136
330
114
100
AcDbEntity
  8
G-----TTP
370
    25
100
AcDbLine
 10
6.677034844082781
 20
291.4642857142719
 30
0.0
 11
6.677034844082781
 21
88.51428571427183
 31
0.0
1001
REVIT
1002
{
1070
     3
1000
-2000282
1002
}
  0
LINE
  5
137
330
114
100
AcDbEntity
  8
G-----TTP
370
    25
100
AcDbLine
 10
6.677034844082778
 20
291.4642857142719
 30
0.0
 11
294.9539379207838
 21
291.4642857142719
 31
0.0
1001
REVIT
1002
{
1070
     3
1000
-2000282
1002
}
  0
LINE
  5
138
330
114
100
AcDbEntity
  8
G-----TTP
100
AcDbLine
 10
2.792850708836863
 20
294.999999999986
 30
0.0
 11
2.792850708836863
 21
84.97857142855746
 31
0.0
1001
REVIT
1002
{
1070
     3
1000
-2000281
1002
}
  0
LINE
  5
139
330
114
100
AcDbEntity
  8
G-----TTP
100
AcDbLine
 10
299.7928507088368
 20
294.999999999986
 30
0.0
 11
2.792850708836863
 21
294.999999999986
 31
0.0
1001
REVIT
1002
{
1070
     3
1000
-2000281
1002
}
  0
LINE
  5
13A
330
114
100
AcDbEntity
  8
G-----TTP
100
AcDbLine
 10
299.7928507088368
 20
84.97857142855746
 30
0.0
 11
299.7928507088368
 21
294.9999999999861
 31
0.0
1001
REVIT
1002
{
1070
     3
1000
-2000281
1002
}
  0
LINE
  5
13B
330
114
100
AcDbEntity
  8
G-----TTP
100
AcDbLine
 10
2.792850708836863
 20
84.97857142855746
 30
0.0
 11
299.7928507088368
 21
84.97857142855746
 31
0.0
1001
REVIT
1002
{
1070
     3
1000
-2000281
1002
}
  0
MTEXT
  5
13C
330
114
100
AcDbEntity
  8
G-----TTP
100
AcDbMText
 10
254.998208396275
 20
93.10343409203412
 30
0.0
 40
1.721182634730538
 41
7.160647605924904
 46
0.0
 71
     1
 72
     1
  1
\fArial|b0|i0|c0|p34|;Scale
 73
     2
 44
0.9385317878468562
1001
REVIT
1002
{
1070
     3
1000
165349
1002
}
  0
MTEXT
  5
13D
330
114
100
AcDbEntity
  8
G-----TTP
100
AcDbMText
 10
216.8973466727144
 20
93.10343409203412
 30
0.0
 40
1.721182634730538
 41
15.05625904236996
 46
0.0
 71
     1
 72
     1
  1
\fArial|b0|i0|c0|p34|;Checked by
 73
     2
 44
0.9385317878468562
1001
REVIT
1002
{
1070
     3
1000
165349
1002
}
  0
MTEXT
  5
13E
330
114
100
AcDbEntity
  8
G-----TTP
100
AcDbMText
 10
216.8973466727144
 20
96.71042441791824
 30
0.0
 40
1.721182634730538
 41
11.94841198759903
 46
0.0
 71
     1
 72
     1
  1
\fArial|b0|i0|c0|p34|;Drawn by
 73
     2
 44
0.9385317878468562
1001
REVIT
1002
{
1070
     3
1000
165349
1002
}
  0
MTEXT
  5
13F
330
114
100
AcDbEntity
  8
G-----TTP
100
AcDbMText
 10
216.8973466727144
 20
100.202514490652
 30
0.0
 40
1.721182634730538
 41
6.047702376851532
 46
0.0
 71
     1
 72
     1
  1
\fArial|b0|i0|c0|p34|;Date
 73
     2
 44
0.9385317878468562
1001
REVIT
1002
{
1070
     3
1000
165349
1002
}
  0
MTEXT
  5
140
330
114
100
AcDbEntity
  8
G-----TTP
100
AcDbMText
 10
216.8973466727144
 20
103.8301902721618
 30
0.0
 40
1.721182634730538
 41
19.403045125732
 46
0.0
 71
     1
 72
     1
  1
\fArial|b0|i0|c0|p34|;Project number
 73
     2
 44
0.9385317878468562
1001
REVIT
1002
{
1070
     3
1000
165349
1002
}
  0
MTEXT
  5
141
330
114
100
AcDbEntity
  8
G-----TTP
100
AcDbMText
 10
20.88411674533643
 20
96.19741015798522
 30
0.0
 40
2.950598802395208
 41
72.60485385296722
 46
0.0
 71
     1
 72
     1
  1
\fArial|b0|i0|c0|p34|;South Pacific Shingles (2003) Ltd\P
 73
     2
 44
0.9385317878468562
1001
REVIT
1002
{
1070
     3
1000
165465
1002
}
  0
MTEXT
  5
142
330
114
100
AcDbEntity
  8
G-----TTP
100
AcDbMText
 10
158.4821206429074
 20
111.5973013750055
 30
0.0
 40
1.967065868263472
 41
65.1317262646808
 46
0.0
 71
     1
 72
     1
  1
\fArial|b0|i0|c0|p34|;South Pacific Shingles (2003) Ltd\PPO Box 51885, Pakuranga, Auckland\P21b Gabador Place, Mt Wellington, Auckland\PNew Zealand\PPh: 64 9 5733017     Fax: 64 9 5733018\PWeb:  www.southpacificshingles.co.nz
 73
     2
 44
0.9385317878468564
1001
REVIT
1002
{
1070
     3
1000
165218
1002
}
  0
ENDBLK
  5
144
330
114
100
AcDbEntity
  8
0
100
AcDbBlockEnd
  0
ENDSEC
  0
SECTION
  2
ENTITIES
  0
IMAGE
  5
83
330
75
100
AcDbEntity
  8
G-----PAP
 92
      140
310
8C00000001000000840000000600000005000000FB5C2ADDE15DA740CC18CFA35A40A9400000000000000000FB5C2ADDE15DA7402BBD292D7D9FA9400000000000000000C7F194B1E4EFA8402BBD292D7D9FA9400000000000000000C7F194B1E4EFA840CC18CFA35A40A9400000000000000000FB5C2ADDE15DA740CC18CF
310
A35A40A9400000000000000000
100
AcDbRasterImage
 90
        0
 10
2990.941140483713
 20
3232.177031013276
 30
0.0
 11
0.1651647714527601
 21
0.0
 31
0.0
 12
0.0
 22
0.16516477145276
 32
0.0
 13
1217.0
 23
288.0
340
82
 70
     7
280
     0
281
    50
282
    50
283
     0
360
0
 71
     1
 91
        2
 14
-0.5
 24
-0.5
 14
1216.5
 24
287.5
1001
REVIT
1002
{
1070
     1
1000
166236
1002
}
1002
{
1070
     5
1000
166201
1002
}
1002
{
1070
     2
1000
-2000560
1002
}
  0
LINE
  5
85
330
75
100
AcDbEntity
  8
A-----NPP
100
AcDbLine
 10
2488.328955582297
 20
2845.356411734758
 30
0.0
 11
2844.38857766298
 21
2746.041681152384
 31
0.0
1001
REVIT
1002
{
1070
     1
1000
160408
1002
}
1002
{
1070
     2
1000
-2000051
1002
}
1002
{
1070
     3
1000
-2000043
1002
}
  0
LINE
  5
86
330
75
100
AcDbEntity
  8
A-----NPP
100
AcDbLine
 10
2080.492142292582
 20
2749.245986996839
 30
0.0
 11
2438.328955582297
 21
2845.128072139971
 31
0.0
1001
REVIT
1002
{
1070
     1
1000
160407
1002
}
1002
{
1070
     2
1000
-2000051
1002
}
1002
{
1070
     3
1000
-2000043
1002
}
  0
HATCH
  5
8C
330
75
100
AcDbEntity
  8
A-DETLGEM
 62
   250
100
AcDbHatch
 10
0.0
 20
0.0
 30
0.0
210
0.0
220
0.0
230
1.0
  2
SOLID
 70
     1
 71
     0
 91
        1
 92
        0
 93
        4
 72
     1
 10
2441.017057673725
 20
2993.633098340816
 11
2440.232168796038
 21
2996.562343510645
 72
     1
 10
2440.232168796038
 20
2996.562343510645
 11
2080.492142292582
 21
2900.170293923923
 72
     1
 10
2080.492142292582
 20
2900.170293923923
 11
2080.492142292582
 21
2897.030738413137
 72
     1
 10
2080.492142292582
 20
2897.030738413137
 11
2441.017057673725
 21
2993.633098340816
 97
        0
 75
     0
 76
     1
 98
        1
 10
0.0
 20
0.0
450
        0
451
        0
460
0.0
461
0.0
452
        0
462
0.0
453
        0
470

1001
REVIT
1002
{
1070
     1
1000
160379
1002
}
1002
{
1070
     2
1000
-2000059
1002
}
1002
{
1070
     3
1000
131133
1002
}
  0
LINE
  5
8D
330
75
100
AcDbEntity
  8
A-----NPP
370
    18
100
AcDbLine
 10
2441.017057673727
 20
2993.633098340818
 30
0.0
 11
2440.23216879604
 21
2996.562343510647
 31
0.0
1001
REVIT
1002
{
1070
     1
1000
160379
1002
}
1002
{
1070
     2
1000
-2000051
1002
}
1002
{
1070
     3
1000
-2000042
1002
}
  0
LINE
  5
8E
330
75
100
AcDbEntity
  8
A-----NPP
370
    18
100
AcDbLine
 10
2440.23216879604
 20
2996.562343510646
 30
0.0
 11
2080.492142292582
 21
2900.170293923924
 31
0.0
1001
REVIT
1002
{
1070
     1
1000
160379
1002
}
1002
{
1070
     2
1000
-2000051
1002
}
1002
{
1070
     3
1000
-2000042
1002
}
  0
LINE
  5
8F
330
75
100
AcDbEntity
  8
A-----NPP
370
    18
100
AcDbLine
 10
2080.492142292582
 20
2897.030738413138
 30
0.0
 11
2441.017057673727
 21
2993.633098340818
 31
0.0
1001
REVIT
1002
{
1070
     1
1000
160379
1002
}
1002
{
1070
     2
1000
-2000051
1002
}
1002
{
1070
     3
1000
-2000042
1002
}
  0
HATCH
  5
94
330
75
100
AcDbEntity
  8
A-DETLGEM
 62
   250
100
AcDbHatch
 10
0.0
 20
0.0
 30
0.0
210
0.0
220
0.0
230
1.0
  2
SOLID
 70
     1
 71
     0
 91
        1
 92
        0
 93
        4
 72
     1
 10
2439.78632267163
 20
2998.367846820509
 11
2439.001433793969
 21
3001.29709199024
 72
     1
 10
2439.001433793969
 20
3001.29709199024
 11
2080.492142292582
 21
2905.234816853419
 72
     1
 10
2080.492142292582
 20
2905.234816853419
 11
2080.492142292582
 21
2902.095261342738
 72
     1
 10
2080.492142292582
 20
2902.095261342738
 11
2439.78632267163
 21
2998.367846820509
 97
        0
 75
     0
 76
     1
 98
        1
 10
0.0
 20
0.0
450
        0
451
        0
460
0.0
461
0.0
452
        0
462
0.0
453
        0
470

1001
REVIT
1002
{
1070
     1
1000
160388
1002
}
1002
{
1070
     2
1000
-2000059
1002
}
1002
{
1070
     3
1000
131133
1002
}
  0
LINE
  5
95
330
75
100
AcDbEntity
  8
A-----NPP
370
    18
100
AcDbLine
 10
2439.78632267163
 20
2998.36784682051
 30
0.0
 11
2439.001433793971
 21
3001.29709199024
 31
0.0
1001
REVIT
1002
{
1070
     1
1000
160388
1002
}
1002
{
1070
     2
1000
-2000051
1002
}
1002
{
1070
     3
1000
-2000042
1002
}
  0
LINE
  5
96
330
75
100
AcDbEntity
  8
A-----NPP
370
    18
100
AcDbLine
 10
2439.001433793971
 20
3001.29709199024
 30
0.0
 11
2080.492142292582
 21
2905.23481685342
 31
0.0
1001
REVIT
1002
{
1070
     1
1000
160388
1002
}
1002
{
1070
     2
1000
-2000051
1002
}
1002
{
1070
     3
1000
-2000042
1002
}
  0
LINE
  5
97
330
75
100
AcDbEntity
  8
A-----NPP
370
    18
100
AcDbLine
 10
2080.492142292582
 20
2902.095261342739
 30
0.0
 11
2439.78632267163
 21
2998.36784682051
 31
0.0
1001
REVIT
1002
{
1070
     1
1000
160388
1002
}
1002
{
1070
     2
1000
-2000051
1002
}
1002
{
1070
     3
1000
-2000042
1002
}
  0
HATCH
  5
9C
330
75
100
AcDbEntity
  8
A-DETLGEM
 62
   250
100
AcDbHatch
 10
0.0
 20
0.0
 30
0.0
210
0.0
220
0.0
230
1.0
  2
SOLID
 70
     1
 71
     0
 91
        1
 92
        0
 93
        4
 72
     1
 10
2490.579393453427
 20
2997.239697138624
 11
2489.794504575751
 21
2994.310451968837
 72
     1
 10
2489.794504575751
 20
2994.310451968837
 11
2844.388577662979
 21
2899.297256444219
 72
     1
 10
2844.388577662979
 20
2899.297256444219
 11
2844.388577662979
 21
2902.43681195496
 72
     1
 10
2844.388577662979
 20
2902.43681195496
 11
2490.579393453427
 21
2997.239697138624
 97
        0
 75
     0
 76
     1
 98
        1
 10
0.0
 20
0.0
450
        0
451
        0
460
0.0
461
0.0
452
        0
462
0.0
453
        0
470

1001
REVIT
1002
{
1070
     1
1000
160395
1002
}
1002
{
1070
     2
1000
-2000059
1002
}
1002
{
1070
     3
1000
131133
1002
}
  0
LINE
  5
9D
330
75
100
AcDbEntity
  8
A-----NPP
370
    18
100
AcDbLine
 10
2489.794504575752
 20
2994.310451968839
 30
0.0
 11
2844.38857766298
 21
2899.297256444219
 31
0.0
1001
REVIT
1002
{
1070
     1
1000
160395
1002
}
1002
{
1070
     2
1000
-2000051
1002
}
1002
{
1070
     3
1000
-2000042
1002
}
  0
LINE
  5
9E
330
75
100
AcDbEntity
  8
A-----NPP
370
    18
100
AcDbLine
 10
2844.38857766298
 20
2902.436811954961
 30
0.0
 11
2490.579393453427
 21
2997.239697138626
 31
0.0
1001
REVIT
1002
{
1070
     1
1000
160395
1002
}
1002
{
1070
     2
1000
-2000051
1002
}
1002
{
1070
     3
1000
-2000042
1002
}
  0
LINE
  5
9F
330
75
100
AcDbEntity
  8
A-----NPP
370
    18
100
AcDbLine
 10
2490.579393453427
 20
2997.239697138626
 30
0.0
 11
2489.794504575752
 21
2994.310451968838
 31
0.0
1001
REVIT
1002
{
1070
     1
1000
160395
1002
}
1002
{
1070
     2
1000
-2000051
1002
}
1002
{
1070
     3
1000
-2000042
1002
}
  0
HATCH
  5
A4
330
75
100
AcDbEntity
  8
A-DETLGEM
 62
   250
100
AcDbHatch
 10
0.0
 20
0.0
 30
0.0
210
0.0
220
0.0
230
1.0
  2
SOLID
 70
     1
 71
     0
 91
        1
 92
        0
 93
        4
 72
     1
 10
2492.315973852123
 20
3002.011599802297
 11
2491.531084974458
 21
2999.08235463255
 72
     1
 10
2491.531084974458
 20
2999.08235463255
 11
2844.388577662979
 21
2904.534474423356
 72
     1
 10
2844.388577662979
 20
2904.534474423356
 11
2844.388577662979
 21
2907.674029934054
 72
     1
 10
2844.388577662979
 20
2907.674029934054
 11
2492.315973852123
 21
3002.011599802297
 97
        0
 75
     0
 76
     1
 98
        1
 10
0.0
 20
0.0
450
        0
451
        0
460
0.0
461
0.0
452
        0
462
0.0
453
        0
470

1001
REVIT
1002
{
1070
     1
1000
160402
1002
}
1002
{
1070
     2
1000
-2000059
1002
}
1002
{
1070
     3
1000
131133
1002
}
  0
LINE
  5
A5
330
75
100
AcDbEntity
  8
A-----NPP
370
    18
100
AcDbLine
 10
2491.531084974459
 20
2999.08235463255
 30
0.0
 11
2844.38857766298
 21
2904.534474423357
 31
0.0
1001
REVIT
1002
{
1070
     1
1000
160402
1002
}
1002
{
1070
     2
1000
-2000051
1002
}
1002
{
1070
     3
1000
-2000042
1002
}
  0
LINE
  5
A6
330
75
100
AcDbEntity
  8
A-----NPP
370
    18
100
AcDbLine
 10
2844.38857766298
 20
2907.674029934055
 30
0.0
 11
2492.315973852124
 21
3002.011599802298
 31
0.0
1001
REVIT
1002
{
1070
     1
1000
160402
1002
}
1002
{
1070
     2
1000
-2000051
1002
}
1002
{
1070
     3
1000
-2000042
1002
}
  0
LINE
  5
A7
330
75
100
AcDbEntity
  8
A-----NPP
370
    18
100
AcDbLine
 10
2492.315973852124
 20
3002.011599802298
 30
0.0
 11
2491.531084974459
 21
2999.08235463255
 31
0.0
1001
REVIT
1002
{
1070
     1
1000
160402
1002
}
1002
{
1070
     2
1000
-2000051
1002
}
1002
{
1070
     3
1000
-2000042
1002
}
  0
INSERT
  5
B1
330
75
100
AcDbEntity
  8
A-DETLGEM
100
AcDbBlockReference
  2
ply2 20_ - ply 20__1-0-Detail 5
 10
2476.884306984472
 20
2964.434260091644
 30
0.0
 50
345.0000000000003
1001
REVIT
1002
{
1070
     1
1000
160369
1002
}
1002
{
1070
     5
1000
150469
1002
}
1002
{
1070
     2
1000
-2002000
1002
}
  0
INSERT
  5
BA
330
75
100
AcDbEntity
  8
A-DETLGEM
100
AcDbBlockReference
  2
ply2 20_ - ply 20__1-4-Detail 5
 10
1975.682413945115
 20
2837.319917837384
 30
0.0
 50
14.99999999999486
1001
REVIT
1002
{
1070
     1
1000
160373
1002
}
1002
{
1070
     5
1000
109593
1002
}
1002
{
1070
     2
1000
-2002000
1002
}
  0
LINE
  5
BC
330
75
100
AcDbEntity
  8
A-----NPP
  6
Overhead
100
AcDbLine
 10
2275.328839064595
 20
2936.710156944672
 30
0.0
 11
2080.492142292582
 21
2884.50382138865
 31
0.0
1001
REVIT
1002
{
1070
     1
1000
160375
1002
}
1002
{
1070
     2
1000
-2000051
1002
}
1002
{
1070
     3
1000
108839
1002
}
  0
LINE
  5
BE
330
75
100
AcDbEntity
  8
A-----NPP
  6
Dash
100
AcDbLine
 10
2651.482746596548
 20
2943.472210917003
 30
0.0
 11
2844.38857766298
 21
2885.489310715584
 31
0.0
1001
REVIT
1002
{
1070
     1
1000
160376
1002
}
1002
{
1070
     2
1000
-2000051
1002
}
1002
{
1070
     3
1000
108841
1002
}
  0
INSERT
  5
C7
330
75
100
AcDbEntity
  8
A-DETLGEM
100
AcDbBlockReference
  2
Break Line1 - M_Break Line_1-3-Detail 5
 10
2080.492142292587
 20
2799.205041560409
 30
0.0
 50
90.00000000000005
1001
REVIT
1002
{
1070
     1
1000
160384
1002
}
1002
{
1070
     5
1000
145426
1002
}
1002
{
1070
     2
1000
-2002000
1002
}
  0
INSERT
  5
D0
330
75
100
AcDbEntity
  8
A-DETLGEM
100
AcDbBlockReference
  2
Break Line1 - M_Break Line_1-2-Detail 5
 10
2844.388577662976
 20
2799.205041560409
 30
0.0
 50
89.99999999999996
1001
REVIT
1002
{
1070
     1
1000
160385
1002
}
1002
{
1070
     5
1000
153799
1002
}
1002
{
1070
     2
1000
-2002000
1002
}
  0
INSERT
  5
D9
330
75
100
AcDbEntity
  8
A-DETLGEM
100
AcDbBlockReference
  2
tmber 200_50 - tmber 100_50_1-1-Detail 5
 10
2438.328955582296
 20
2760.770926637475
 30
0.0
1001
REVIT
1002
{
1070
     1
1000
160374
1002
}
1002
{
1070
     5
1000
136746
1002
}
1002
{
1070
     2
1000
-2002000
1002
}
  0
SPLINE
  5
DA
330
75
100
AcDbEntity
  8
A-----NPP
  6
Overhead
100
AcDbSpline
210
0.0
220
0.0
230
1.0
 70
     8
 71
     3
 72
    10
 73
     6
 74
     0
 42
0.0000000001
 43
0.0000000001
 40
0.0
 40
0.0
 40
0.0
 40
0.0
 40
0.2467489381514827
 40
0.3766287865283358
 40
0.6216777012880441
 40
0.6216777012880441
 40
0.6216777012880441
 40
0.6216777012880441
 10
2657.026182891112
 20
2941.537582829197
 30
0.0
 10
2508.002180123936
 20
2983.104437836881
 30
0.0
 10
2484.215943452495
 20
2991.761919970483
 30
0.0
 10
2438.636204344888
 20
2990.338900614064
 30
0.0
 10
2393.198677853101
 20
2975.345400961265
 30
0.0
 10
2267.026182891096
 20
2941.537582829163
 30
0.0
1001
REVIT
1002
{
1070
     1
1000
160428
1002
}
1002
{
1070
     2
1000
-2000051
1002
}
1002
{
1070
     3
1000
108839
1002
}
  0
SPLINE
  5
DB
330
75
100
AcDbEntity
  8
A-----NPP
  6
Overhead
100
AcDbSpline
210
0.0
220
0.0
230
1.0
 70
     8
 71
     3
 72
    10
 73
     6
 74
     0
 42
0.0000000001
 43
0.0000000001
 40
0.0
 40
0.0
 40
0.0
 40
0.0
 40
0.2467489381514827
 40
0.3766287865283358
 40
0.6216777012880441
 40
0.6216777012880441
 40
0.6216777012880441
 40
0.6216777012880441
 10
2657.026182891112
 20
2934.279324900181
 30
0.0
 10
2508.002180123936
 20
2975.846179907865
 30
0.0
 10
2484.215943452495
 20
2984.503662041467
 30
0.0
 10
2438.636204344888
 20
2983.080642685049
 30
0.0
 10
2393.198677853101
 20
2968.087143032249
 30
0.0
 10
2267.026182891096
 20
2934.279324900146
 30
0.0
1001
REVIT
1002
{
1070
     1
1000
160429
1002
}
1002
{
1070
     2
1000
-2000051
1002
}
1002
{
1070
     3
1000
108839
1002
}
  0
SPLINE
  5
DC
330
75
100
AcDbEntity
  8
A-----NPP
370
   100
100
AcDbSpline
210
0.0
220
0.0
230
1.0
 70
     8
 71
     3
 72
    10
 73
     6
 74
     0
 42
0.0000000001
 43
0.0000000001
 40
0.0
 40
0.0
 40
0.0
 40
0.0
 40
0.2467489381514827
 40
0.3766287865283358
 40
0.6216777012880441
 40
0.6216777012880441
 40
0.6216777012880441
 40
0.6216777012880441
 10
2662.026182891128
 20
2963.63970998598
 30
0.0
 10
2513.002180123952
 20
3005.206564993664
 30
0.0
 10
2489.21594345251
 20
3013.864047127266
 30
0.0
 10
2443.636204344904
 20
3012.441027770848
 30
0.0
 10
2398.198677853117
 20
2997.447528118048
 30
0.0
 10
2272.026182891113
 20
2963.639709985945
 30
0.0
1001
REVIT
1002
{
1070
     1
1000
160430
1002
}
1002
{
1070
     2
1000
-2000051
1002
}
1002
{
1070
     3
1000
-2000044
1002
}
  0
MTEXT
  5
DE
330
75
100
AcDbEntity
  8
A-----TEP
 62
     7
100
AcDbMText
 10
2253.847813568922
 20
2556.157424659073
 30
0.0
 40
17.21182634730539
 41
528.9639683086462
 46
0.0
 71
     1
 72
     1
  1
\fArial|b1|i0|c0|p34|;TYPICAL HIP DETAIL- CROSS SECTION
 73
     2
 44
0.9385317878468562
1001
REVIT
1002
{
1070
     1
1000
160368
1002
}
1002
{
1070
     5
1000
1635
1002
}
1002
{
1070
     2
1000
-2000059
1002
}
1002
{
1070
     3
1000
1636
1002
}
  0
MTEXT
  5
DF
330
75
100
AcDbEntity
  8
A-----TEP
 62
     7
100
AcDbMText
 10
1880.135544244218
 20
2995.431169594037
 30
0.0
 40
12.29416167664671
 41
121.35
 46
0.0
 71
     1
 72
     1
  1
\fArial|b0|i0|c0|p34|;HIP RAFTER
 73
     2
 44
0.938531787846856
1001
REVIT
1002
{
1070
     1
1000
160370
1002
}
1002
{
1070
     5
1000
1631
1002
}
1002
{
1070
     2
1000
-2000059
1002
}
1002
{
1070
     3
1000
1632
1002
}
  0
MTEXT
  5
E0
330
75
100
AcDbEntity
  8
A-----TEP
 62
     7
100
AcDbMText
 10
1795.948112477035
 20
3073.408587908533
 30
0.0
 40
12.29416167664671
 41
227.1
 46
0.0
 71
     1
 72
     1
  1
\fArial|b0|i0|c0|p34|;HIP CAPPING SHINGLE
 73
     2
 44
0.938531787846856
1001
REVIT
1002
{
1070
     1
1000
160371
1002
}
1002
{
1070
     5
1000
1631
1002
}
1002
{
1070
     2
1000
-2000059
1002
}
1002
{
1070
     3
1000
1632
1002
}
  0
MTEXT
  5
E1
330
75
100
AcDbEntity
  8
A-----TEP
 62
     7
100
AcDbMText
 10
2940.87550259816
 20
2940.00491230569
 30
0.0
 40
12.29416167664671
 41
104.1
 46
0.0
 71
     1
 72
     1
  1
\fArial|b0|i0|c0|p34|;PLYWOOD
 73
     2
 44
0.938531787846856
1001
REVIT
1002
{
1070
     1
1000
160372
1002
}
1002
{
1070
     5
1000
1631
1002
}
1002
{
1070
     2
1000
-2000059
1002
}
1002
{
1070
     3
1000
1632
1002
}
  0
LINE
  5
E3
330
75
100
AcDbEntity
  8
A-----NOP
100
AcDbLine
 10
2691.850389724353
 20
2961.302205607157
 30
0.0
 11
2685.078667189725
 21
2965.633587218844
 31
0.0
1001
REVIT
1002
{
1070
     1
1000
160409
1002
}
1002
{
1070
     5
1000
142258
1002
}
1002
{
1070
     2
1000
-2000150
1002
}
  0
LINE
  5
E4
330
75
100
AcDbEntity
  8
A-----NOP
100
AcDbLine
 10
2685.078667189725
 20
2965.633587218844
 30
0.0
 11
2680.382060336147
 21
2950.831690136006
 31
0.0
1001
REVIT
1002
{
1070
     1
1000
160409
1002
}
1002
{
1070
     5
1000
142258
1002
}
1002
{
1070
     2
1000
-2000150
1002
}
  0
LINE
  5
E5
330
75
100
AcDbEntity
  8
A-----NOP
100
AcDbLine
 10
2680.382060336147
 20
2950.831690136006
 30
0.0
 11
2691.850389724353
 21
2961.302205607157
 31
0.0
1001
REVIT
1002
{
1070
     1
1000
160409
1002
}
1002
{
1070
     5
1000
142258
1002
}
1002
{
1070
     2
1000
-2000150
1002
}
  0
HATCH
  5
E6
330
75
100
AcDbEntity
  8
A-----NOP
100
AcDbHatch
 10
0.0
 20
0.0
 30
0.0
210
0.0
220
0.0
230
1.0
  2
SOLID
 70
     1
 71
     0
 91
        1
 92
        0
 93
        3
 72
     1
 10
2691.850389724353
 20
2961.302205607157
 11
2685.078667189725
 21
2965.633587218844
 72
     1
 10
2685.078667189725
 20
2965.633587218844
 11
2680.382060336147
 21
2950.831690136006
 72
     1
 10
2680.382060336147
 20
2950.831690136006
 11
2691.850389724353
 21
2961.302205607157
 97
        0
 75
     0
 76
     1
 98
        1
 10
0.0
 20
0.0
450
        0
451
        0
460
0.0
461
0.0
452
        0
462
0.0
453
        0
470

1001
REVIT
1002
{
1070
     1
1000
160409
1002
}
1002
{
1070
     5
1000
142258
1002
}
1002
{
1070
     2
1000
-2000150
1002
}
  0
LINE
  5
E7
330
75
100
AcDbEntity
  8
A-----NOP
100
AcDbLine
 10
2790.4526986869
 20
3122.91715591661
 30
0.0
 11
2905.464365006301
 21
3122.917155916667
 31
0.0
1001
REVIT
1002
{
1070
     1
1000
160409
1002
}
1002
{
1070
     5
1000
142258
1002
}
1002
{
1070
     2
1000
-2000150
1002
}
  0
LINE
  5
E8
330
75
100
AcDbEntity
  8
A-----NOP
100
AcDbLine
 10
2680.382060336147
 20
2950.831690136006
 30
0.0
 11
2790.4526986869
 21
3122.91715591661
 31
0.0
1001
REVIT
1002
{
1070
     1
1000
160409
1002
}
1002
{
1070
     5
1000
142258
1002
}
1002
{
1070
     2
1000
-2000150
1002
}
  0
INSERT
  5
EC
330
75
100
AcDbEntity
  8
A-----NOP
100
AcDbBlockReference
  2
M_Label Annotation - M_Label Annotation_1-142258-Detail 5
 10
2934.16218720784
 20
3128.216001618826
 30
0.0
 41
5.0
 42
5.0
 43
5.0
1001
REVIT
1002
{
1070
     1
1000
160409
1002
}
1002
{
1070
     5
1000
142258
1002
}
1002
{
1070
     2
1000
-2000150
1002
}
  0
LINE
  5
ED
330
75
100
AcDbEntity
  8
A-----NOP
100
AcDbLine
 10
2732.877661500767
 20
2931.644547042546
 30
0.0
 11
2727.063808181367
 21
2937.195781349665
 31
0.0
1001
REVIT
1002
{
1070
     1
1000
160410
1002
}
1002
{
1070
     5
1000
142258
1002
}
1002
{
1070
     2
1000
-2000150
1002
}
  0
LINE
  5
EE
330
75
100
AcDbEntity
  8
A-----NOP
100
AcDbLine
 10
2727.063808181367
 20
2937.195781349665
 30
0.0
 11
2719.611990601622
 21
2923.571366208229
 31
0.0
1001
REVIT
1002
{
1070
     1
1000
160410
1002
}
1002
{
1070
     5
1000
142258
1002
}
1002
{
1070
     2
1000
-2000150
1002
}
  0
LINE
  5
EF
330
75
100
AcDbEntity
  8
A-----NOP
100
AcDbLine
 10
2719.611990601622
 20
2923.571366208229
 30
0.0
 11
2732.877661500767
 21
2931.644547042546
 31
0.0
1001
REVIT
1002
{
1070
     1
1000
160410
1002
}
1002
{
1070
     5
1000
142258
1002
}
1002
{
1070
     2
1000
-2000150
1002
}
  0
HATCH
  5
F0
330
75
100
AcDbEntity
  8
A-----NOP
100
AcDbHatch
 10
0.0
 20
0.0
 30
0.0
210
0.0
220
0.0
230
1.0
  2
SOLID
 70
     1
 71
     0
 91
        1
 92
        0
 93
        3
 72
     1
 10
2732.877661500767
 20
2931.644547042546
 11
2727.063808181367
 21
2937.195781349665
 72
     1
 10
2727.063808181367
 20
2937.195781349665
 11
2719.611990601622
 21
2923.571366208229
 72
     1
 10
2719.611990601622
 20
2923.571366208229
 11
2732.877661500767
 21
2931.644547042546
 97
        0
 75
     0
 76
     1
 98
        1
 10
0.0
 20
0.0
450
        0
451
        0
460
0.0
461
0.0
452
        0
462
0.0
453
        0
470

1001
REVIT
1002
{
1070
     1
1000
160410
1002
}
1002
{
1070
     5
1000
142258
1002
}
1002
{
1070
     2
1000
-2000150
1002
}
  0
LINE
  5
F1
330
75
100
AcDbEntity
  8
A-----NOP
100
AcDbLine
 10
2815.4526986869
 20
3023.946127569065
 30
0.0
 11
2930.464365006301
 21
3023.946127569122
 31
0.0
1001
REVIT
1002
{
1070
     1
1000
160410
1002
}
1002
{
1070
     5
1000
142258
1002
}
1002
{
1070
     2
1000
-2000150
1002
}
  0
LINE
  5
F2
330
75
100
AcDbEntity
  8
A-----NOP
100
AcDbLine
 10
2719.611990601622
 20
2923.571366208229
 30
0.0
 11
2815.4526986869
 21
3023.946127569065
 31
0.0
1001
REVIT
1002
{
1070
     1
1000
160410
1002
}
1002
{
1070
     5
1000
142258
1002
}
1002
{
1070
     2
1000
-2000150
1002
}
  0
INSERT
  5
F3
330
75
100
AcDbEntity
  8
A-----NOP
100
AcDbBlockReference
  2
M_Label Annotation - M_Label Annotation_1-142258-Detail 5
 10
2959.162187207839
 20
3029.244973271281
 30
0.0
 41
5.0
 42
5.0
 43
5.0
1001
REVIT
1002
{
1070
     1
1000
160410
1002
}
1002
{
1070
     5
1000
142258
1002
}
1002
{
1070
     2
1000
-2000150
1002
}
  0
LINE
  5
F4
330
75
100
AcDbEntity
  8
A-----NOP
100
AcDbLine
 10
2764.989096114052
 20
2900.908387264184
 30
0.0
 11
2761.521923552521
 21
2908.160683947346
 31
0.0
1001
REVIT
1002
{
1070
     1
1000
160411
1002
}
1002
{
1070
     5
1000
142258
1002
}
1002
{
1070
     2
1000
-2000150
1002
}
  0
LINE
  5
F5
330
75
100
AcDbEntity
  8
A-----NOP
100
AcDbLine
 10
2761.521923552521
 20
2908.160683947346
 30
0.0
 11
2749.722539986724
 21
2898.064703526643
 31
0.0
1001
REVIT
1002
{
1070
     1
1000
160411
1002
}
1002
{
1070
     5
1000
142258
1002
}
1002
{
1070
     2
1000
-2000150
1002
}
  0
LINE
  5
F6
330
75
100
AcDbEntity
  8
A-----NOP
100
AcDbLine
 10
2749.722539986724
 20
2898.064703526643
 30
0.0
 11
2764.989096114052
 21
2900.908387264184
 31
0.0
1001
REVIT
1002
{
1070
     1
1000
160411
1002
}
1002
{
1070
     5
1000
142258
1002
}
1002
{
1070
     2
1000
-2000150
1002
}
  0
HATCH
  5
F7
330
75
100
AcDbEntity
  8
A-----NOP
100
AcDbHatch
 10
0.0
 20
0.0
 30
0.0
210
0.0
220
0.0
230
1.0
  2
SOLID
 70
     1
 71
     0
 91
        1
 92
        0
 93
        3
 72
     1
 10
2764.989096114052
 20
2900.908387264184
 11
2761.521923552521
 21
2908.160683947346
 72
     1
 10
2761.521923552521
 20
2908.160683947346
 11
2749.722539986724
 21
2898.064703526643
 72
     1
 10
2749.722539986724
 20
2898.064703526643
 11
2764.989096114052
 21
2900.908387264184
 97
        0
 75
     0
 76
     1
 98
        1
 10
0.0
 20
0.0
450
        0
451
        0
460
0.0
461
0.0
452
        0
462
0.0
453
        0
470

1001
REVIT
1002
{
1070
     1
1000
160411
1002
}
1002
{
1070
     5
1000
142258
1002
}
1002
{
1070
     2
1000
-2000150
1002
}
  0
LINE
  5
F8
330
75
100
AcDbEntity
  8
A-----NOP
100
AcDbLine
 10
2812.302443581203
 20
2927.982856923459
 30
0.0
 11
2927.314109900604
 21
2927.982856923517
 31
0.0
1001
REVIT
1002
{
1070
     1
1000
160411
1002
}
1002
{
1070
     5
1000
142258
1002
}
1002
{
1070
     2
1000
-2000150
1002
}
  0
LINE
  5
F9
330
75
100
AcDbEntity
  8
A-----NOP
100
AcDbLine
 10
2749.722539986724
 20
2898.064703526643
 30
0.0
 11
2812.302443581203
 21
2927.982856923459
 31
0.0
1001
REVIT
1002
{
1070
     1
1000
160411
1002
}
1002
{
1070
     5
1000
142258
1002
}
1002
{
1070
     2
1000
-2000150
1002
}
  0
INSERT
  5
FA
330
75
100
AcDbEntity
  8
A-----NOP
100
AcDbBlockReference
  2
M_Label Annotation - M_Label Annotation_1-142258-Detail 5
 10
2956.011932102142
 20
2933.281702625675
 30
0.0
 41
5.0
 42
5.0
 43
5.0
1001
REVIT
1002
{
1070
     1
1000
160411
1002
}
1002
{
1070
     5
1000
142258
1002
}
1002
{
1070
     2
1000
-2000150
1002
}
  0
LINE
  5
FB
330
75
100
AcDbEntity
  8
A-----NOP
100
AcDbLine
 10
2308.905729810915
 20
2988.132434778132
 30
0.0
 11
2306.248127146881
 21
2980.545983642576
 31
0.0
1001
REVIT
1002
{
1070
     1
1000
160412
1002
}
1002
{
1070
     5
1000
142258
1002
}
1002
{
1070
     2
1000
-2000150
1002
}
  0
LINE
  5
FC
330
75
100
AcDbEntity
  8
A-----NOP
100
AcDbLine
 10
2306.248127146881
 20
2980.545983642576
 30
0.0
 11
2321.733439022414
 21
2979.380055126105
 31
0.0
1001
REVIT
1002
{
1070
     1
1000
160412
1002
}
1002
{
1070
     5
1000
142258
1002
}
1002
{
1070
     2
1000
-2000150
1002
}
  0
LINE
  5
FD
330
75
100
AcDbEntity
  8
A-----NOP
100
AcDbLine
 10
2321.733439022414
 20
2979.380055126105
 30
0.0
 11
2308.905729810915
 21
2988.132434778132
 31
0.0
1001
REVIT
1002
{
1070
     1
1000
160412
1002
}
1002
{
1070
     5
1000
142258
1002
}
1002
{
1070
     2
1000
-2000150
1002
}
  0
HATCH
  5
FE
330
75
100
AcDbEntity
  8
A-----NOP
100
AcDbHatch
 10
0.0
 20
0.0
 30
0.0
210
0.0
220
0.0
230
1.0
  2
SOLID
 70
     1
 71
     0
 91
        1
 92
        0
 93
        3
 72
     1
 10
2308.905729810915
 20
2988.132434778132
 11
2306.248127146881
 21
2980.545983642576
 72
     1
 10
2306.248127146881
 20
2980.545983642576
 11
2321.733439022414
 21
2979.380055126105
 72
     1
 10
2321.733439022414
 20
2979.380055126105
 11
2308.905729810915
 21
2988.132434778132
 97
        0
 75
     0
 76
     1
 98
        1
 10
0.0
 20
0.0
450
        0
451
        0
460
0.0
461
0.0
452
        0
462
0.0
453
        0
470

1001
REVIT
1002
{
1070
     1
1000
160412
1002
}
1002
{
1070
     5
1000
142258
1002
}
1002
{
1070
     2
1000
-2000150
1002
}
  0
LINE
  5
FF
330
75
100
AcDbEntity
  8
A-----NOP
100
AcDbLine
 10
2092.735891432077
 20
3059.599973722919
 30
0.0
 11
1988.327300831036
 21
3059.599973722975
 31
0.0
1001
REVIT
1002
{
1070
     1
1000
160412
1002
}
1002
{
1070
     5
1000
142258
1002
}
1002
{
1070
     2
1000
-2000150
1002
}
  0
LINE
  5
100
330
75
100
AcDbEntity
  8
A-----NOP
100
AcDbLine
 10
2321.733439022414
 20
2979.380055126105
 30
0.0
 11
2092.735891432077
 21
3059.599973722919
 31
0.0
1001
REVIT
1002
{
1070
     1
1000
160412
1002
}
1002
{
1070
     5
1000
142258
1002
}
1002
{
1070
     2
1000
-2000150
1002
}
  0
INSERT
  5
101
330
75
100
AcDbEntity
  8
A-----NOP
100
AcDbBlockReference
  2
M_Label Annotation - M_Label Annotation_1-142258-Detail 5
 10
1959.558630683701
 20
3064.898819425133
 30
0.0
 41
5.0
 42
5.0
 43
5.0
1001
REVIT
1002
{
1070
     1
1000
160412
1002
}
1002
{
1070
     5
1000
142258
1002
}
1002
{
1070
     2
1000
-2000150
1002
}
  0
LINE
  5
102
330
75
100
AcDbEntity
  8
A-----NOP
100
AcDbLine
 10
2448.864515613328
 20
2894.56426568512
 30
0.0
 11
2446.828704573624
 21
2886.787854805886
 31
0.0
1001
REVIT
1002
{
1070
     1
1000
160413
1002
}
1002
{
1070
     5
1000
142258
1002
}
1002
{
1070
     2
1000
-2000150
1002
}
  0
LINE
  5
103
330
75
100
AcDbEntity
  8
A-----NOP
100
AcDbLine
 10
2446.828704573624
 20
2886.787854805886
 30
0.0
 11
2462.357590344391
 21
2886.877185128112
 31
0.0
1001
REVIT
1002
{
1070
     1
1000
160413
1002
}
1002
{
1070
     5
1000
142258
1002
}
1002
{
1070
     2
1000
-2000150
1002
}
  0
LINE
  5
104
330
75
100
AcDbEntity
  8
A-----NOP
100
AcDbLine
 10
2462.357590344391
 20
2886.877185128112
 30
0.0
 11
2448.864515613328
 21
2894.56426568512
 31
0.0
1001
REVIT
1002
{
1070
     1
1000
160413
1002
}
1002
{
1070
     5
1000
142258
1002
}
1002
{
1070
     2
1000
-2000150
1002
}
  0
HATCH
  5
105
330
75
100
AcDbEntity
  8
A-----NOP
100
AcDbHatch
 10
0.0
 20
0.0
 30
0.0
210
0.0
220
0.0
230
1.0
  2
SOLID
 70
     1
 71
     0
 91
        1
 92
        0
 93
        3
 72
     1
 10
2448.864515613328
 20
2894.56426568512
 11
2446.828704573624
 21
2886.787854805886
 72
     1
 10
2446.828704573624
 20
2886.787854805886
 11
2462.357590344391
 21
2886.877185128112
 72
     1
 10
2462.357590344391
 20
2886.877185128112
 11
2448.864515613328
 21
2894.56426568512
 97
        0
 75
     0
 76
     1
 98
        1
 10
0.0
 20
0.0
450
        0
451
        0
460
0.0
461
0.0
452
        0
462
0.0
453
        0
470

1001
REVIT
1002
{
1070
     1
1000
160413
1002
}
1002
{
1070
     5
1000
142258
1002
}
1002
{
1070
     2
1000
-2000150
1002
}
  0
LINE
  5
106
330
75
100
AcDbEntity
  8
A-----NOP
100
AcDbLine
 10
2092.735891432077
 20
2983.641611139757
 30
0.0
 11
1988.327300831036
 21
2983.641611139814
 31
0.0
1001
REVIT
1002
{
1070
     1
1000
160413
1002
}
1002
{
1070
     5
1000
142258
1002
}
1002
{
1070
     2
1000
-2000150
1002
}
  0
LINE
  5
107
330
75
100
AcDbEntity
  8
A-----NOP
100
AcDbLine
 10
2462.357590344391
 20
2886.877185128112
 30
0.0
 11
2092.735891432077
 21
2983.641611139757
 31
0.0
1001
REVIT
1002
{
1070
     1
1000
160413
1002
}
1002
{
1070
     5
1000
142258
1002
}
1002
{
1070
     2
1000
-2000150
1002
}
  0
INSERT
  5
108
330
75
100
AcDbEntity
  8
A-----NOP
100
AcDbBlockReference
  2
M_Label Annotation - M_Label Annotation_1-142258-Detail 5
 10
1959.558630683701
 20
2988.940456841972
 30
0.0
 41
5.0
 42
5.0
 43
5.0
1001
REVIT
1002
{
1070
     1
1000
160413
1002
}
1002
{
1070
     5
1000
142258
1002
}
1002
{
1070
     2
1000
-2000150
1002
}
  0
MTEXT
  5
109
330
75
100
AcDbEntity
  8
A-----TEP
 62
     7
100
AcDbMText
 10
1846.708817226609
 20
2902.898572449831
 30
0.0
 40
12.29416167664671
 41
158.7
 46
0.0
 71
     1
 72
     1
  1
\fArial|b0|i0|c0|p34|;ROOF FRAMING
 73
     2
 44
0.938531787846856
1001
REVIT
1002
{
1070
     1
1000
160431
1002
}
1002
{
1070
     5
1000
1631
1002
}
1002
{
1070
     2
1000
-2000059
1002
}
1002
{
1070
     3
1000
1632
1002
}
  0
LINE
  5
10A
330
75
100
AcDbEntity
  8
A-----NOP
100
AcDbLine
 10
2254.452149390266
 20
2848.45505959602
 30
0.0
 11
2252.161897039436
 21
2840.749747342675
 31
0.0
1001
REVIT
1002
{
1070
     1
1000
160432
1002
}
1002
{
1070
     5
1000
142258
1002
}
1002
{
1070
     2
1000
-2000150
1002
}
  0
LINE
  5
10B
330
75
100
AcDbEntity
  8
A-----NOP
100
AcDbLine
 10
2252.161897039436
 20
2840.749747342675
 30
0.0
 11
2267.685331623685
 21
2840.32873440162
 31
0.0
1001
REVIT
1002
{
1070
     1
1000
160432
1002
}
1002
{
1070
     5
1000
142258
1002
}
1002
{
1070
     2
1000
-2000150
1002
}
  0
LINE
  5
10C
330
75
100
AcDbEntity
  8
A-----NOP
100
AcDbLine
 10
2267.685331623685
 20
2840.32873440162
 30
0.0
 11
2254.452149390266
 21
2848.45505959602
 31
0.0
1001
REVIT
1002
{
1070
     1
1000
160432
1002
}
1002
{
1070
     5
1000
142258
1002
}
1002
{
1070
     2
1000
-2000150
1002
}
  0
HATCH
  5
10D
330
75
100
AcDbEntity
  8
A-----NOP
100
AcDbHatch
 10
0.0
 20
0.0
 30
0.0
210
0.0
220
0.0
230
1.0
  2
SOLID
 70
     1
 71
     0
 91
        1
 92
        0
 93
        3
 72
     1
 10
2254.452149390266
 20
2848.45505959602
 11
2252.161897039436
 21
2840.749747342675
 72
     1
 10
2252.161897039436
 20
2840.749747342675
 11
2267.685331623685
 21
2840.32873440162
 72
     1
 10
2267.685331623685
 20
2840.32873440162
 11
2254.452149390266
 21
2848.45505959602
 97
        0
 75
     0
 76
     1
 98
        1
 10
0.0
 20
0.0
450
        0
451
        0
460
0.0
461
0.0
452
        0
462
0.0
453
        0
470

1001
REVIT
1002
{
1070
     1
1000
160432
1002
}
1002
{
1070
     5
1000
142258
1002
}
1002
{
1070
     2
1000
-2000150
1002
}
  0
LINE
  5
10E
330
75
100
AcDbEntity
  8
A-----NOP
100
AcDbLine
 10
2092.735891432077
 20
2892.329010769572
 30
0.0
 11
1988.327300831036
 21
2892.329010769629
 31
0.0
1001
REVIT
1002
{
1070
     1
1000
160432
1002
}
1002
{
1070
     5
1000
142258
1002
}
1002
{
1070
     2
1000
-2000150
1002
}
  0
LINE
  5
10F
330
75
100
AcDbEntity
  8
A-----NOP
100
AcDbLine
 10
2267.685331623685
 20
2840.32873440162
 30
0.0
 11
2092.735891432077
 21
2892.329010769572
 31
0.0
1001
REVIT
1002
{
1070
     1
1000
160432
1002
}
1002
{
1070
     5
1000
142258
1002
}
1002
{
1070
     2
1000
-2000150
1002
}
  0
INSERT
  5
110
330
75
100
AcDbEntity
  8
A-----NOP
100
AcDbBlockReference
  2
M_Label Annotation - M_Label Annotation_1-142258-Detail 5
 10
1959.558630683701
 20
2897.627856471786
 30
0.0
 41
5.0
 42
5.0
 43
5.0
1001
REVIT
1002
{
1070
     1
1000
160432
1002
}
1002
{
1070
     5
1000
142258
1002
}
1002
{
1070
     2
1000
-2000150
1002
}
  0
MTEXT
  5
111
330
75
100
AcDbEntity
  8
A-----TEP
 62
     7
100
AcDbMText
 10
2911.183373442017
 20
3150.41350397285
 30
0.0
 40
12.29416167664671
 41
292.65
 46
0.0
 71
     1
 72
     1
  1
\fArial|b0|i0|c0|p34|;SELECTED OWENS CORNING\PASPHALT SHINGLES
 73
     2
 44
0.938531787846856
1001
REVIT
1002
{
1070
     1
1000
160433
1002
}
1002
{
1070
     5
1000
1631
1002
}
1002
{
1070
     2
1000
-2000059
1002
}
1002
{
1070
     3
1000
1632
1002
}
  0
MTEXT
  5
112
330
75
100
AcDbEntity
  8
A-----TEP
 62
     7
100
AcDbMText
 10
2938.375502598186
 20
3054.597641859818
 30
0.0
 40
12.29416167664671
 41
175.5
 46
0.0
 71
     1
 72
     1
  1
\fArial|b0|i0|c0|p34|;No15 RAG FELT\PROOF UNDERLAY\P
 73
     2
 44
0.938531787846856
1001
REVIT
1002
{
1070
     1
1000
160434
1002
}
1002
{
1070
     5
1000
1631
1002
}
1002
{
1070
     2
1000
-2000059
1002
}
1002
{
1070
     3
1000
1632
1002
}
  0
INSERT
  5
145
330
71
100
AcDbEntity
 67
     1
  8
G-----TTP
100
AcDbBlockReference
  2
A4 SPS - A4 sps_0-163380-HIP-CROSS SECTION
 10
0.0
 20
0.0
 30
0.0
1001
REVIT
1002
{
1070
     1
1000
164749
1002
}
1002
{
1070
     5
1000
163380
1002
}
1002
{
1070
     2
1000
-2000280
1002
}
  0
MTEXT
  5
146
330
71
100
AcDbEntity
 67
     1
  8
G-----TTP
100
AcDbMText
 10
290.2137418420315
 20
93.41593409203412
 30
0.0
 40
1.721182634730538
 41
6.383685842232174
 46
0.0
 71
     3
 72
     1
  1
\fArial|b0|i0|c0|p34|; 1 : 5
 73
     2
 44
0.9385317878468564
1001
REVIT
1002
{
1070
     1
1000
164749
1002
}
1002
{
1070
     5
1000
163380
1002
}
1002
{
1070
     2
1000
-2000059
1002
}
1002
{
1070
     3
1000
165231
1002
}
  0
MTEXT
  5
147
330
71
100
AcDbEntity
 67
     1
  8
G-----TTP
100
AcDbMText
 10
216.8973466727144
 20
111.2275978795859
 30
0.0
 40
2.95059880239521
 41
50.364
 46
0.0
 71
     1
 72
     1
  1
\fArial|b0|i0|c0|p34|;HIP-CROSS SECTION
 73
     2
 44
0.9385317878468562
1001
REVIT
1002
{
1070
     1
1000
164749
1002
}
1002
{
1070
     5
1000
163380
1002
}
1002
{
1070
     2
1000
-2000059
1002
}
1002
{
1070
     3
1000
165199
1002
}
  0
MTEXT
  5
148
330
71
100
AcDbEntity
 67
     1
  8
G-----TTP
100
AcDbMText
 10
273.1795488079906
 20
101.1312212254742
 30
0.0
 40
2.95059880239521
 41
8.208
 46
0.0
 71
     2
 72
     1
  1
\fArial|b0|i0|c0|p34|;005
 73
     2
 44
0.9385317878468562
1001
REVIT
1002
{
1070
     1
1000
164749
1002
}
1002
{
1070
     5
1000
163380
1002
}
1002
{
1070
     2
1000
-2000059
1002
}
1002
{
1070
     3
1000
165199
1002
}
  0
VIEWPORT
  5
149
330
71
100
AcDbEntity
 67
     1
  8
A-----NPP
100
AcDbViewport
 10
157.7403067527927
 20
215.7059043994231
 30
0.0
 40
287.2407945601931
 41
151.3763927605961
 68
    -1
 69
     2
 12
2503.890098877518
 22
2901.303503290181
 13
0.0
 23
0.0
 14
0.0
 24
0.0
 15
0.0
 25
0.0
 16
0.0
 26
0.0
 36
1.0
 17
0.0
 27
0.0
 37
0.0
 42
0.0
 43
0.0
 44
0.0
 45
756.8819638029806
 50
0.0
 51
0.0
 72
   100
 90
    32768
  1

281
     0
 71
     1
 74
     1
110
0.0
120
0.0
130
0.0
111
1.0
121
0.0
131
0.0
112
0.0
122
1.0
132
0.0
 79
     0
146
0.0
170
     0
 61
     5
292
     1
282
     1
141
0.0
142
0.0
 63
   250
421
  3355443
  0
VIEWPORT
  5
14B
330
71
100
AcDbEntity
 67
     1
  8
0
100
AcDbViewport
 10
6.0
 20
4.5
 30
0.0
 40
12.0
 41
9.0
 68
    -1
 69
     1
 12
6.0
 22
4.5
 13
0.0
 23
0.0
 14
0.0
 24
0.0
 15
0.0
 25
0.0
 16
0.0
 26
0.0
 36
1.0
 17
0.0
 27
0.0
 37
0.0
 42
50.0
 43
0.0
 44
0.0
 45
12.0
 50
0.0
 51
0.0
 72
   100
 90
    32800
  1

281
     0
 71
     1
 74
     1
110
0.0
120
0.0
130
0.0
111
1.0
121
0.0
131
0.0
112
0.0
122
1.0
132
0.0
 79
     0
146
0.0
170
     0
 61
     5
292
     1
282
     1
141
0.0
142
0.0
 63
   250
421
  3355443
  0
ENDSEC
  0
SECTION
  2
OBJECTS
  0
DICTIONARY
  5
C
330
0
100
AcDbDictionary
281
     1
  3
ACAD_COLOR
350
6B
  3
ACAD_GROUP
350
D
  3
ACAD_IMAGE_DICT
350
81
  3
ACAD_LAYOUT
350
6A
  3
ACAD_MATERIAL
350
10
  3
ACAD_MLEADERSTYLE
350
6E
  3
ACAD_MLINESTYLE
350
67
  3
ACAD_PLOTSETTINGS
350
69
  3
ACAD_PLOTSTYLENAME
350
E
  3
ACAD_SCALELIST
350
3A
  3
ACAD_TABLESTYLE
350
6C
  3
ACAD_VISUALSTYLE
350
29
  3
ACDB_RECOMPOSE_DATA
350
15D
  3
AcDbVariableDictionary
350
157
  3
REVIT_DICTIONARY
350
14E
  0
DICTIONARY
  5
152
330
75
100
AcDbDictionary
280
     1
281
     1
  3
ACAD_SORTENTS
360
153
  0
DICTIONARY
  5
6B
102
{ACAD_REACTORS
330
C
102
}
330
C
100
AcDbDictionary
281
     1
  0
DICTIONARY
  5
D
102
{ACAD_REACTORS
330
C
102
}
330
C
100
AcDbDictionary
281
     1
  0
DICTIONARY
  5
81
102
{ACAD_REACTORS
330
C
102
}
330
C
100
AcDbDictionary
281
     1
  3
005-HIP-CROSSSECTION-rvt-SPSA-rvt-SPSBanner-165453-166201
350
82
  3
005-HIP-CROSSSECTION-rvt-SPSBanner-165453
350
115
  0
DICTIONARY
  5
6A
102
{ACAD_REACTORS
330
C
102
}
330
C
100
AcDbDictionary
281
     1
  3
Layout1
350
74
  3
Layout2
350
7C
  3
Model
350
78
  0
DICTIONARY
  5
10
102
{ACAD_REACTORS
330
C
102
}
330
C
100
AcDbDictionary
281
     1
  3
ByBlock
350
19
  3
ByLayer
350
11
  3
Global
350
21
  0
DICTIONARY
  5
6E
102
{ACAD_REACTORS
330
C
102
}
330
C
100
AcDbDictionary
281
     1
  3
Standard
350
6F
  0
DICTIONARY
  5
67
102
{ACAD_REACTORS
330
C
102
}
330
C
100
AcDbDictionary
281
     1
  3
Standard
350
68
  0
DICTIONARY
  5
69
102
{ACAD_REACTORS
330
C
102
}
330
C
100
AcDbDictionary
281
     1
  0
ACDBDICTIONARYWDFLT
  5
E
102
{ACAD_REACTORS
330
C
102
}
330
C
100
AcDbDictionary
281
     1
  3
Normal
350
F
100
AcDbDictionaryWithDefault
340
F
  0
DICTIONARY
  5
3A
102
{ACAD_REACTORS
330
C
102
}
330
C
100
AcDbDictionary
281
     1
  3
A0
350
3B
  3
A1
350
3C
  3
A2
350
3D
  3
A3
350
3E
  3
A4
350
3F
  3
A5
350
40
  3
A6
350
41
  3
A7
350
42
  3
A8
350
43
  3
A9
350
44
  3
B0
350
45
  3
B1
350
46
  3
B2
350
47
  3
B3
350
48
  3
B4
350
49
  3
B5
350
4A
  3
B6
350
4B
  3
B7
350
4C
  3
B8
350
4D
  3
B9
350
4E
  3
C0
350
4F
  3
C1
350
50
  3
C2
350
51
  3
C3
350
52
  3
C4
350
53
  3
C5
350
54
  3
C6
350
55
  3
C7
350
56
  3
C8
350
57
  3
C9
350
58
  3
D0
350
59
  3
D1
350
5A
  3
D2
350
5B
  0
DICTIONARY
  5
6C
102
{ACAD_REACTORS
330
C
102
}
330
C
100
AcDbDictionary
281
     1
  3
Standard
350
6D
  0
DICTIONARY
  5
29
102
{ACAD_REACTORS
330
C
102
}
330
C
100
AcDbDictionary
281
     1
  3
2dWireframe
350
2F
  3
3D Hidden
350
31
  3
3dWireframe
350
30
  3
Basic
350
2E
  3
Brighten
350
35
  3
ColorChange
350
39
  3
Conceptual
350
32
  3
Dim
350
34
  3
Facepattern
350
38
  3
Flat
350
2A
  3
FlatWithEdges
350
2B
  3
Gouraud
350
2C
  3
GouraudWithEdges
350
2D
  3
Linepattern
350
37
  3
Realistic
350
33
  3
Thicken
350
36
  0
XRECORD
  5
15D
102
{ACAD_REACTORS
330
C
102
}
330
C
100
AcDbXrecord
280
     1
 90
        1
330
6D
  0
DICTIONARY
  5
157
102
{ACAD_REACTORS
330
C
102
}
330
C
100
AcDbDictionary
281
     1
  3
CANNOSCALE
350
15A
  3
CMLEADERSTYLE
350
159
  3
CTABLESTYLE
350
158
  0
DICTIONARY
  5
14E
102
{ACAD_REACTORS
330
C
102
}
330
C
100
AcDbDictionary
281
     1
  3
REVIT_CATEGORY_MAPPING
350
150
  3
REVIT_SUB_CATEGORY_MAPPING
350
151
  3
REVIT_TYPE_MAPPING
350
14F
  0
SORTENTSTABLE
  5
153
102
{ACAD_REACTORS
330
152
102
}
330
152
100
AcDbSortentsTable
330
75
  0
IMAGEDEF
  5
82
102
{ACAD_REACTORS
330
81
102
}
330
81
100
AcDbRasterImageDef
 90
        0
  1
C:\Documents and Settings\Edwards\Desktop\south pacific S\SPS 5\005-HIP-CROSSSECTION-rvt-SPSA-rvt-SPSBanner-165453-166201.jpg
 10
1217.0
 20
288.0
 11
0.2645833333333333
 21
0.2645833333333333
280
     1
281
     5
  0
IMAGEDEF
  5
115
102
{ACAD_REACTORS
330
81
102
}
330
81
100
AcDbRasterImageDef
 90
        0
  1
C:\Documents and Settings\Edwards\Desktop\south pacific S\SPS 5\005-HIP-CROSSSECTION-rvt-SPSBanner-165453.jpg
 10
1217.0
 20
288.0
 11
0.2645833333333333
 21
0.2645833333333333
280
     1
281
     5
  0
LAYOUT
  5
74
102
{ACAD_REACTORS
330
6A
102
}
330
6A
100
AcDbPlotSettings
  1

  2

  4

  6

 40
0.0
 41
0.0
 42
0.0
 43
0.0
 44
0.0
 45
0.0
 46
0.0
 47
0.0
 48
0.0
 49
0.0
140
0.0
141
0.0
142
1.0
143
1.0
 70
   688
 72
     0
 73
     0
 74
     5
  7

 75
    16
147
1.0
 76
     0
 77
     2
 78
   300
148
0.0
149
0.0
100
AcDbLayout
  1
Layout1
 70
     1
 71
     1
 10
0.0
 20
0.0
 11
12.0
 21
9.0
 12
0.0
 22
0.0
 32
0.0
 14
0.0
 24
0.0
 34
0.0
 15
0.0
 25
0.0
 35
0.0
146
0.0
 13
0.0
 23
0.0
 33
0.0
 16
1.0
 26
0.0
 36
0.0
 17
0.0
 27
1.0
 37
0.0
 76
     0
330
71
  0
LAYOUT
  5
7C
102
{ACAD_REACTORS
330
6A
102
}
330
6A
100
AcDbPlotSettings
  1

  2

  4

  6

 40
0.0
 41
0.0
 42
0.0
 43
0.0
 44
0.0
 45
0.0
 46
0.0
 47
0.0
 48
0.0
 49
0.0
140
0.0
141
0.0
142
1.0
143
1.0
 70
   688
 72
     0
 73
     0
 74
     5
  7

 75
    16
147
1.0
 76
     0
 77
     2
 78
   300
148
0.0
149
0.0
100
AcDbLayout
  1
Layout2
 70
     1
 71
     2
 10
0.0
 20
0.0
 11
12.0
 21
9.0
 12
0.0
 22
0.0
 32
0.0
 14
0.0
 24
0.0
 34
0.0
 15
0.0
 25
0.0
 35
0.0
146
0.0
 13
0.0
 23
0.0
 33
0.0
 16
1.0
 26
0.0
 36
0.0
 17
0.0
 27
1.0
 37
0.0
 76
     0
330
79
  0
LAYOUT
  5
78
102
{ACAD_REACTORS
330
6A
102
}
330
6A
100
AcDbPlotSettings
  1

  2

  4

  6

 40
0.0
 41
0.0
 42
0.0
 43
0.0
 44
0.0
 45
0.0
 46
0.0
 47
0.0
 48
0.0
 49
0.0
140
0.0
141
0.0
142
1.0
143
1.0
 70
  1712
 72
     0
 73
     0
 74
     0
  7

 75
     0
147
1.0
 76
     0
 77
     2
 78
   300
148
0.0
149
0.0
100
AcDbLayout
  1
Model
 70
     1
 71
     0
 10
0.0
 20
0.0
 11
12.0
 21
9.0
 12
0.0
 22
0.0
 32
0.0
 14
0.0
 24
0.0
 34
0.0
 15
0.0
 25
0.0
 35
0.0
146
0.0
 13
0.0
 23
0.0
 33
0.0
 16
1.0
 26
0.0
 36
0.0
 17
0.0
 27
1.0
 37
0.0
 76
     0
330
75
  0
MATERIAL
  5
19
102
{ACAD_XDICTIONARY
360
1A
102
}
102
{ACAD_REACTORS
330
10
102
}
330
10
100
AcDbMaterial
  1
ByBlock
 72
     0
 43
0.0208333333333333
 43
0.0
 43
0.0
 43
0.0
 43
0.0
 43
0.0208333333333333
 43
0.0
 43
0.0
 43
0.0
 43
0.0
 43
1.0
 43
0.0
 43
0.0
 43
0.0
 43
0.0
 43
1.0
 77
     0
 47
0.0208333333333333
 47
0.0
 47
0.0
 47
0.0
 47
0.0
 47
0.0208333333333333
 47
0.0
 47
0.0
 47
0.0
 47
0.0
 47
1.0
 47
0.0
 47
0.0
 47
0.0
 47
0.0
 47
1.0
171
     0
 49
0.0208333333333333
 49
0.0
 49
0.0
 49
0.0
 49
0.0
 49
0.0208333333333333
 49
0.0
 49
0.0
 49
0.0
 49
0.0
 49
1.0
 49
0.0
 49
0.0
 49
0.0
 49
0.0
 49
1.0
175
     0
142
0.0208333333333333
142
0.0
142
0.0
142
0.0
142
0.0
142
0.0208333333333333
142
0.0
142
0.0
142
0.0
142
0.0
142
1.0
142
0.0
142
0.0
142
0.0
142
0.0
142
1.0
179
     0
144
0.0208333333333333
144
0.0
144
0.0
144
0.0
144
0.0
144
0.0208333333333333
144
0.0
144
0.0
144
0.0
144
0.0
144
1.0
144
0.0
144
0.0
144
0.0
144
0.0
144
1.0
147
0.0208333333333333
147
0.0
147
0.0
147
0.0
147
0.0
147
0.0208333333333333
147
0.0
147
0.0
147
0.0
147
0.0
147
1.0
147
0.0
147
0.0
147
0.0
147
0.0
147
1.0
  0
MATERIAL
  5
11
102
{ACAD_XDICTIONARY
360
12
102
}
102
{ACAD_REACTORS
330
10
102
}
330
10
100
AcDbMaterial
  1
ByLayer
 72
     0
 43
0.0208333333333333
 43
0.0
 43
0.0
 43
0.0
 43
0.0
 43
0.0208333333333333
 43
0.0
 43
0.0
 43
0.0
 43
0.0
 43
1.0
 43
0.0
 43
0.0
 43
0.0
 43
0.0
 43
1.0
 77
     0
 47
0.0208333333333333
 47
0.0
 47
0.0
 47
0.0
 47
0.0
 47
0.0208333333333333
 47
0.0
 47
0.0
 47
0.0
 47
0.0
 47
1.0
 47
0.0
 47
0.0
 47
0.0
 47
0.0
 47
1.0
171
     0
 49
0.0208333333333333
 49
0.0
 49
0.0
 49
0.0
 49
0.0
 49
0.0208333333333333
 49
0.0
 49
0.0
 49
0.0
 49
0.0
 49
1.0
 49
0.0
 49
0.0
 49
0.0
 49
0.0
 49
1.0
175
     0
142
0.0208333333333333
142
0.0
142
0.0
142
0.0
142
0.0
142
0.0208333333333333
142
0.0
142
0.0
142
0.0
142
0.0
142
1.0
142
0.0
142
0.0
142
0.0
142
0.0
142
1.0
179
     0
144
0.0208333333333333
144
0.0
144
0.0
144
0.0
144
0.0
144
0.0208333333333333
144
0.0
144
0.0
144
0.0
144
0.0
144
1.0
144
0.0
144
0.0
144
0.0
144
0.0
144
1.0
147
0.0208333333333333
147
0.0
147
0.0
147
0.0
147
0.0
147
0.0208333333333333
147
0.0
147
0.0
147
0.0
147
0.0
147
1.0
147
0.0
147
0.0
147
0.0
147
0.0
147
1.0
  0
MATERIAL
  5
21
102
{ACAD_XDICTIONARY
360
22
102
}
102
{ACAD_REACTORS
330
10
102
}
330
10
100
AcDbMaterial
  1
Global
 72
     0
 43
0.0208333333333333
 43
0.0
 43
0.0
 43
0.0
 43
0.0
 43
0.0208333333333333
 43
0.0
 43
0.0
 43
0.0
 43
0.0
 43
1.0
 43
0.0
 43
0.0
 43
0.0
 43
0.0
 43
1.0
 77
     0
 47
0.0208333333333333
 47
0.0
 47
0.0
 47
0.0
 47
0.0
 47
0.0208333333333333
 47
0.0
 47
0.0
 47
0.0
 47
0.0
 47
1.0
 47
0.0
 47
0.0
 47
0.0
 47
0.0
 47
1.0
171
     0
 49
0.0208333333333333
 49
0.0
 49
0.0
 49
0.0
 49
0.0
 49
0.0208333333333333
 49
0.0
 49
0.0
 49
0.0
 49
0.0
 49
1.0
 49
0.0
 49
0.0
 49
0.0
 49
0.0
 49
1.0
175
     0
142
0.0208333333333333
142
0.0
142
0.0
142
0.0
142
0.0
142
0.0208333333333333
142
0.0
142
0.0
142
0.0
142
0.0
142
1.0
142
0.0
142
0.0
142
0.0
142
0.0
142
1.0
179
     0
144
0.0208333333333333
144
0.0
144
0.0
144
0.0
144
0.0
144
0.0208333333333333
144
0.0
144
0.0
144
0.0
144
0.0
144
1.0
144
0.0
144
0.0
144
0.0
144
0.0
144
1.0
147
0.0208333333333333
147
0.0
147
0.0
147
0.0
147
0.0
147
0.0208333333333333
147
0.0
147
0.0
147
0.0
147
0.0
147
1.0
147
0.0
147
0.0
147
0.0
147
0.0
147
1.0
  0
MLEADERSTYLE
  5
6F
102
{ACAD_REACTORS
330
6E
102
}
330
6E
100
AcDbMLeaderStyle
170
     2
171
     1
172
     0
 90
        2
 40
0.0
 41
0.0
173
     1
 91
-1056964608
340
63
 92
       -2
290
     1
 42
0.09
291
     1
 43
0.36
  3
Standard
 44
0.18
300

342
5D
174
     1
178
     6
175
     1
176
     0
 93
-1056964608
 45
0.18
292
     0
297
     0
 46
0.18
 94
-1056964608
 47
1.0
 49
1.0
140
1.0
293
     1
141
0.0
294
     1
177
     0
142
1.0
295
     1
296
     0
143
0.125
1001
ACAD_MLEADERVER
1070
     2
  0
MLINESTYLE
  5
68
102
{ACAD_REACTORS
330
67
102
}
330
67
100
AcDbMlineStyle
  2
STANDARD
 70
     0
  3

 62
   256
 51
90.0
 52
90.0
 71
     2
 49
0.5
 62
   256
  6
BYLAYER
 49
-0.5
 62
   256
  6
BYLAYER
  0
ACDBPLACEHOLDER
  5
F
102
{ACAD_REACTORS
330
E
102
}
330
E
  0
SCALE
  5
3B
102
{ACAD_REACTORS
330
3A
102
}
330
3A
100
AcDbScale
 70
     0
300
1:1
140
1.0
141
1.0
290
     1
  0
SCALE
  5
3C
102
{ACAD_REACTORS
330
3A
102
}
330
3A
100
AcDbScale
 70
     0
300
1:2
140
1.0
141
2.0
290
     0
  0
SCALE
  5
3D
102
{ACAD_REACTORS
330
3A
102
}
330
3A
100
AcDbScale
 70
     0
300
1:4
140
1.0
141
4.0
290
     0
  0
SCALE
  5
3E
102
{ACAD_REACTORS
330
3A
102
}
330
3A
100
AcDbScale
 70
     0
300
1:5
140
1.0
141
5.0
290
     0
  0
SCALE
  5
3F
102
{ACAD_REACTORS
330
3A
102
}
330
3A
100
AcDbScale
 70
     0
300
1:8
140
1.0
141
8.0
290
     0
  0
SCALE
  5
40
102
{ACAD_REACTORS
330
3A
102
}
330
3A
100
AcDbScale
 70
     0
300
1:10
140
1.0
141
10.0
290
     0
  0
SCALE
  5
41
102
{ACAD_REACTORS
330
3A
102
}
330
3A
100
AcDbScale
 70
     0
300
1:16
140
1.0
141
16.0
290
     0
  0
SCALE
  5
42
102
{ACAD_REACTORS
330
3A
102
}
330
3A
100
AcDbScale
 70
     0
300
1:20
140
1.0
141
20.0
290
     0
  0
SCALE
  5
43
102
{ACAD_REACTORS
330
3A
102
}
330
3A
100
AcDbScale
 70
     0
300
1:30
140
1.0
141
30.0
290
     0
  0
SCALE
  5
44
102
{ACAD_REACTORS
330
3A
102
}
330
3A
100
AcDbScale
 70
     0
300
1:40
140
1.0
141
40.0
290
     0
  0
SCALE
  5
45
102
{ACAD_REACTORS
330
3A
102
}
330
3A
100
AcDbScale
 70
     0
300
1:50
140
1.0
141
50.0
290
     0
  0
SCALE
  5
46
102
{ACAD_REACTORS
330
3A
102
}
330
3A
100
AcDbScale
 70
     0
300
1:100
140
1.0
141
100.0
290
     0
  0
SCALE
  5
47
102
{ACAD_REACTORS
330
3A
102
}
330
3A
100
AcDbScale
 70
     0
300
2:1
140
2.0
141
1.0
290
     0
  0
SCALE
  5
48
102
{ACAD_REACTORS
330
3A
102
}
330
3A
100
AcDbScale
 70
     0
300
4:1
140
4.0
141
1.0
290
     0
  0
SCALE
  5
49
102
{ACAD_REACTORS
330
3A
102
}
330
3A
100
AcDbScale
 70
     0
300
8:1
140
8.0
141
1.0
290
     0
  0
SCALE
  5
4A
102
{ACAD_REACTORS
330
3A
102
}
330
3A
100
AcDbScale
 70
     0
300
10:1
140
10.0
141
1.0
290
     0
  0
SCALE
  5
4B
102
{ACAD_REACTORS
330
3A
102
}
330
3A
100
AcDbScale
 70
     0
300
100:1
140
100.0
141
1.0
290
     0
  0
SCALE
  5
4C
102
{ACAD_REACTORS
330
3A
102
}
330
3A
100
AcDbScale
 70
     0
300
1/128" = 1'-0"
140
0.0078125
141
12.0
290
     0
  0
SCALE
  5
4D
102
{ACAD_REACTORS
330
3A
102
}
330
3A
100
AcDbScale
 70
     0
300
1/64" = 1'-0"
140
0.015625
141
12.0
290
     0
  0
SCALE
  5
4E
102
{ACAD_REACTORS
330
3A
102
}
330
3A
100
AcDbScale
 70
     0
300
1/32" = 1'-0"
140
0.03125
141
12.0
290
     0
  0
SCALE
  5
4F
102
{ACAD_REACTORS
330
3A
102
}
330
3A
100
AcDbScale
 70
     0
300
1/16" = 1'-0"
140
0.0625
141
12.0
290
     0
  0
SCALE
  5
50
102
{ACAD_REACTORS
330
3A
102
}
330
3A
100
AcDbScale
 70
     0
300
3/32" = 1'-0"
140
0.09375
141
12.0
290
     0
  0
SCALE
  5
51
102
{ACAD_REACTORS
330
3A
102
}
330
3A
100
AcDbScale
 70
     0
300
1/8" = 1'-0"
140
0.125
141
12.0
290
     0
  0
SCALE
  5
52
102
{ACAD_REACTORS
330
3A
102
}
330
3A
100
AcDbScale
 70
     0
300
3/16" = 1'-0"
140
0.1875
141
12.0
290
     0
  0
SCALE
  5
53
102
{ACAD_REACTORS
330
3A
102
}
330
3A
100
AcDbScale
 70
     0
300
1/4" = 1'-0"
140
0.25
141
12.0
290
     0
  0
SCALE
  5
54
102
{ACAD_REACTORS
330
3A
102
}
330
3A
100
AcDbScale
 70
     0
300
3/8" = 1'-0"
140
0.375
141
12.0
290
     0
  0
SCALE
  5
55
102
{ACAD_REACTORS
330
3A
102
}
330
3A
100
AcDbScale
 70
     0
300
1/2" = 1'-0"
140
0.5
141
12.0
290
     0
  0
SCALE
  5
56
102
{ACAD_REACTORS
330
3A
102
}
330
3A
100
AcDbScale
 70
     0
300
3/4" = 1'-0"
140
0.75
141
12.0
290
     0
  0
SCALE
  5
57
102
{ACAD_REACTORS
330
3A
102
}
330
3A
100
AcDbScale
 70
     0
300
1" = 1'-0"
140
1.0
141
12.0
290
     0
  0
SCALE
  5
58
102
{ACAD_REACTORS
330
3A
102
}
330
3A
100
AcDbScale
 70
     0
300
1-1/2" = 1'-0"
140
1.5
141
12.0
290
     0
  0
SCALE
  5
59
102
{ACAD_REACTORS
330
3A
102
}
330
3A
100
AcDbScale
 70
     0
300
3" = 1'-0"
140
3.0
141
12.0
290
     0
  0
SCALE
  5
5A
102
{ACAD_REACTORS
330
3A
102
}
330
3A
100
AcDbScale
 70
     0
300
6" = 1'-0"
140
6.0
141
12.0
290
     0
  0
SCALE
  5
5B
102
{ACAD_REACTORS
330
3A
102
}
330
3A
100
AcDbScale
 70
     0
300
1'-0" = 1'-0"
140
12.0
141
12.0
290
     0
  0
TABLESTYLE
  5
6D
102
{ACAD_XDICTIONARY
360
15B
102
}
102
{ACAD_REACTORS
330
6C
102
}
330
6C
100
AcDbTableStyle
  3
Standard
 70
     0
 71
     0
 40
0.06
 41
0.06
280
     0
281
     0
  7
Standard
140
0.18
170
     2
 62
     0
 63
     7
283
     0
 90
      512
 91
        0
  1

274
    -2
284
     1
 64
     0
275
    -2
285
     1
 65
     0
276
    -2
286
     1
 66
     0
277
    -2
287
     1
 67
     0
278
    -2
288
     1
 68
     0
279
    -2
289
     1
 69
     0
  7
Standard
140
0.25
170
     5
 62
     0
 63
     7
283
     0
 90
      512
 91
        0
  1

274
    -2
284
     1
 64
     0
275
    -2
285
     1
 65
     0
276
    -2
286
     1
 66
     0
277
    -2
287
     1
 67
     0
278
    -2
288
     1
 68
     0
279
    -2
289
     1
 69
     0
  7
Standard
140
0.18
170
     5
 62
     0
 63
     7
283
     0
 90
      512
 91
        0
  1

274
    -2
284
     1
 64
     0
275
    -2
285
     1
 65
     0
276
    -2
286
     1
 66
     0
277
    -2
287
     1
 67
     0
278
    -2
288
     1
 68
     0
279
    -2
289
     1
 69
     0
  0
VISUALSTYLE
  5
2F
102
{ACAD_REACTORS
330
29
102
}
330
29
100
AcDbVisualStyle
  2
2dWireframe
 70
     4
 71
     0
 72
     2
 73
     0
 90
        0
 40
-0.6
 41
-30.0
 62
     5
 63
     7
421
 16777215
 74
     1
 91
        4
 64
     7
 65
   257
 75
     1
175
     1
 42
1.0
 92
        0
 66
   257
 43
1.0
 76
     1
 77
     6
 78
     2
 67
     7
 79
     5
170
     0
171
     0
290
     0
174
     0
 93
        1
 44
0.0
173
     0
291
     0
 45
0.0
  0
VISUALSTYLE
  5
31
102
{ACAD_REACTORS
330
29
102
}
330
29
100
AcDbVisualStyle
  2
3D Hidden
 70
     6
 71
     1
 72
     2
 73
     2
 90
        0
 40
-0.6
 41
-30.0
 62
     5
 63
     7
421
 16777215
 74
     2
 91
        2
 64
     7
 65
   257
 75
     2
175
     1
 42
40.0
 92
        0
 66
   257
 43
1.0
 76
     1
 77
     6
 78
     2
 67
     7
 79
     3
170
     0
171
     0
290
     0
174
     0
 93
        1
 44
0.0
173
     0
291
     0
 45
0.0
  0
VISUALSTYLE
  5
30
102
{ACAD_REACTORS
330
29
102
}
330
29
100
AcDbVisualStyle
  2
3dWireframe
 70
     5
 71
     0
 72
     2
 73
     0
 90
        0
 40
-0.6
 41
-30.0
 62
     5
 63
     7
421
 16777215
 74
     1
 91
        4
 64
     7
 65
   257
 75
     1
175
     1
 42
1.0
 92
        0
 66
   257
 43
1.0
 76
     1
 77
     6
 78
     2
 67
     7
 79
     5
170
     0
171
     0
290
     0
174
     0
 93
        1
 44
0.0
173
     0
291
     0
 45
0.0
  0
VISUALSTYLE
  5
2E
102
{ACAD_REACTORS
330
29
102
}
330
29
100
AcDbVisualStyle
  2
Basic
 70
     7
 71
     1
 72
     0
 73
     1
 90
        0
 40
-0.6
 41
-30.0
 62
     5
 63
     7
421
 16777215
 74
     0
 91
        4
 64
     7
 65
   257
 75
     1
175
     1
 42
1.0
 92
        8
 66
     7
 43
1.0
 76
     1
 77
     6
 78
     2
 67
     7
 79
     5
170
     0
171
     0
290
     0
174
     0
 93
        1
 44
0.0
173
     0
291
     1
 45
0.0
  0
VISUALSTYLE
  5
35
102
{ACAD_REACTORS
330
29
102
}
330
29
100
AcDbVisualStyle
  2
Brighten
 70
    12
 71
     2
 72
     2
 73
     0
 90
        0
 40
-0.6
 41
-30.0
 62
     5
 63
     7
421
 16777215
 74
     1
 91
        4
 64
     7
 65
   257
 75
     1
175
     1
 42
1.0
 92
        8
 66
     7
 43
1.0
 76
     1
 77
     6
 78
     2
 67
     7
 79
     5
170
     0
171
     0
290
     0
174
     0
 93
        1
 44
50.0
173
     0
291
     1
 45
0.0
  0
VISUALSTYLE
  5
39
102
{ACAD_REACTORS
330
29
102
}
330
29
100
AcDbVisualStyle
  2
ColorChange
 70
    16
 71
     2
 72
     2
 73
     3
 90
        0
 40
-0.6
 41
-30.0
 62
     5
 63
     8
421
  8421504
 74
     1
 91
        4
 64
     7
 65
   257
 75
     1
175
     1
 42
1.0
 92
        8
 66
     8
424
  8421504
 43
1.0
 76
     1
 77
     6
 78
     2
 67
     7
 79
     5
170
     0
171
     0
290
     0
174
     0
 93
        1
 44
0.0
173
     0
291
     1
 45
0.0
  0
VISUALSTYLE
  5
32
102
{ACAD_REACTORS
330
29
102
}
330
29
100
AcDbVisualStyle
  2
Conceptual
 70
     9
 71
     3
 72
     2
 73
     0
 90
        0
 40
-0.6
 41
-30.0
 62
     5
 63
     7
421
 16777215
 74
     2
 91
        2
 64
     7
 65
   257
 75
     1
175
     1
 42
40.0
 92
        8
 66
     7
 43
1.0
 76
     1
 77
     6
 78
     2
 67
     7
 79
     3
170
     0
171
     0
290
     0
174
     0
 93
        1
 44
0.0
173
     0
291
     0
 45
0.0
  0
VISUALSTYLE
  5
34
102
{ACAD_REACTORS
330
29
102
}
330
29
100
AcDbVisualStyle
  2
Dim
 70
    11
 71
     2
 72
     2
 73
     0
 90
        0
 40
-0.6
 41
-30.0
 62
     5
 63
     7
421
 16777215
 74
     1
 91
        4
 64
     7
 65
   257
 75
     1
175
     1
 42
1.0
 92
        8
 66
     7
 43
1.0
 76
     1
 77
     6
 78
     2
 67
     7
 79
     5
170
     0
171
     0
290
     0
174
     0
 93
        1
 44
-50.0
173
     0
291
     1
 45
0.0
  0
VISUALSTYLE
  5
38
102
{ACAD_REACTORS
330
29
102
}
330
29
100
AcDbVisualStyle
  2
Facepattern
 70
    15
 71
     2
 72
     2
 73
     0
 90
        0
 40
-0.6
 41
-30.0
 62
     5
 63
     7
421
 16777215
 74
     1
 91
        4
 64
     7
 65
   257
 75
     1
175
     1
 42
1.0
 92
        8
 66
     7
 43
1.0
 76
     1
 77
     6
 78
     2
 67
     7
 79
     5
170
     0
171
     0
290
     0
174
     0
 93
        1
 44
0.0
173
     0
291
     1
 45
0.0
  0
VISUALSTYLE
  5
2A
102
{ACAD_REACTORS
330
29
102
}
330
29
100
AcDbVisualStyle
  2
Flat
 70
     0
 71
     2
 72
     1
 73
     1
 90
        2
 40
-0.6
 41
30.0
 62
     5
 63
     7
421
 16777215
 74
     0
 91
        4
 64
     7
 65
   257
 75
     1
175
     1
 42
1.0
 92
        8
 66
     7
 43
1.0
 76
     1
 77
     6
 78
     2
 67
     7
 79
     5
170
     0
171
     0
290
     0
174
     0
 93
       13
 44
0.0
173
     0
291
     1
 45
0.0
  0
VISUALSTYLE
  5
2B
102
{ACAD_REACTORS
330
29
102
}
330
29
100
AcDbVisualStyle
  2
FlatWithEdges
 70
     1
 71
     2
 72
     1
 73
     1
 90
        2
 40
-0.6
 41
30.0
 62
     5
 63
     7
421
 16777215
 74
     1
 91
        4
 64
     7
 65
   257
 75
     1
175
     1
 42
1.0
 92
        0
 66
   257
 43
1.0
 76
     1
 77
     6
 78
     2
 67
     7
 79
     5
170
     0
171
     0
290
     0
174
     0
 93
       13
 44
0.0
173
     0
291
     1
 45
0.0
  0
VISUALSTYLE
  5
2C
102
{ACAD_REACTORS
330
29
102
}
330
29
100
AcDbVisualStyle
  2
Gouraud
 70
     2
 71
     2
 72
     2
 73
     1
 90
        2
 40
-0.6
 41
30.0
 62
     5
 63
     7
421
 16777215
 74
     0
 91
        4
 64
     7
 65
   257
 75
     1
175
     1
 42
1.0
 92
        0
 66
     7
 43
1.0
 76
     1
 77
     6
 78
     2
 67
     7
 79
     5
170
     0
171
     0
290
     0
174
     0
 93
       13
 44
0.0
173
     0
291
     1
 45
0.0
  0
VISUALSTYLE
  5
2D
102
{ACAD_REACTORS
330
29
102
}
330
29
100
AcDbVisualStyle
  2
GouraudWithEdges
 70
     3
 71
     2
 72
     2
 73
     1
 90
        2
 40
-0.6
 41
30.0
 62
     5
 63
     7
421
 16777215
 74
     1
 91
        4
 64
     7
 65
   257
 75
     1
175
     1
 42
1.0
 92
        0
 66
   257
 43
1.0
 76
     1
 77
     6
 78
     2
 67
     7
 79
     5
170
     0
171
     0
290
     0
174
     0
 93
       13
 44
0.0
173
     0
291
     1
 45
0.0
  0
VISUALSTYLE
  5
37
102
{ACAD_REACTORS
330
29
102
}
330
29
100
AcDbVisualStyle
  2
Linepattern
 70
    14
 71
     2
 72
     2
 73
     0
 90
        0
 40
-0.6
 41
-30.0
 62
     5
 63
     7
421
 16777215
 74
     1
 91
        4
 64
     7
 65
   257
 75
     7
175
     7
 42
1.0
 92
        8
 66
     7
 43
1.0
 76
     1
 77
     6
 78
     2
 67
     7
 79
     5
170
     0
171
     0
290
     0
174
     0
 93
        1
 44
0.0
173
     0
291
     1
 45
0.0
  0
VISUALSTYLE
  5
33
102
{ACAD_REACTORS
330
29
102
}
330
29
100
AcDbVisualStyle
  2
Realistic
 70
     8
 71
     2
 72
     2
 73
     0
 90
        0
 40
-0.6
 41
-30.0
 62
     5
 63
     7
421
 16777215
 74
     1
 91
        0
 64
     7
 65
   257
 75
     1
175
     1
 42
1.0
 92
        8
 66
     8
424
  7895160
 43
1.0
 76
     1
 77
     6
 78
     2
 67
     7
 79
     5
170
     0
171
     0
290
     0
174
     0
 93
       13
 44
0.0
173
     0
291
     0
 45
0.0
  0
VISUALSTYLE
  5
36
102
{ACAD_REACTORS
330
29
102
}
330
29
100
AcDbVisualStyle
  2
Thicken
 70
    13
 71
     2
 72
     2
 73
     0
 90
        0
 40
-0.6
 41
-30.0
 62
     5
 63
     7
421
 16777215
 74
     1
 91
        4
 64
     7
 65
   257
 75
     1
175
     1
 42
1.0
 92
       12
 66
     7
 43
1.0
 76
     1
 77
     6
 78
     2
 67
     7
 79
     5
170
     0
171
     0
290
     0
174
     0
 93
        1
 44
0.0
173
     0
291
     1
 45
0.0
  0
DICTIONARYVAR
  5
15A
102
{ACAD_REACTORS
330
157
102
}
330
157
100
DictionaryVariables
280
     0
  1
1:1
  0
DICTIONARYVAR
  5
159
102
{ACAD_REACTORS
330
157
102
}
330
157
100
DictionaryVariables
280
     0
  1
STANDARD
  0
DICTIONARYVAR
  5
158
102
{ACAD_REACTORS
330
157
102
}
330
157
100
DictionaryVariables
280
     0
  1
STANDARD
  0
XRECORD
  5
150
102
{ACAD_REACTORS
330
14E
102
}
330
14E
100
AcDbXrecord
280
     1
  1
-2000051
  1
Lines
  1
-2000059
  1
Internal Object Styles
  1
-2000150
  1
Generic Annotations
  1
-2000280
  1
Title Blocks
  1
-2000560
  1
Raster Images
  1
-2002000
  1
Detail Items
  0
XRECORD
  5
151
102
{ACAD_REACTORS
330
14E
102
}
330
14E
100
AcDbXrecord
280
     1
  1
-2000042
  1
Thin Lines
  1
-2000043
  1
Medium Lines
  1
-2000044
  1
Wide Lines
  1
-2000281
  1
Thin Lines
  1
-2000282
  1
Medium Lines
  1
108839
  1
roll
  1
108841
  1
undrl
  1
131133
  1

  1
1349
  1
Medium Lines
  1
136727
  1

  1
1632
  1

  1
1636
  1

  1
165199
  1

  1
165218
  1

  1
165231
  1

  1
165349
  1

  1
165465
  1

  0
XRECORD
  5
14F
102
{ACAD_REACTORS
330
14E
102
}
330
14E
100
AcDbXrecord
280
     1
  1
109593
  1
ply2 20' : ply 20'
  1
136746
  1
tmber 200'50 : tmber 100'50
  1
142258
  1
M_Label Annotation : M_Label Annotation
  1
145426
  1
Break Line1 : M_Break Line
  1
150469
  1
ply2 20' : ply 20'
  1
153799
  1
Break Line1 : M_Break Line
  1
1631
  1
Text : 2.5mm Arial
  1
163380
  1
A4 SPS : A4 sps
  1
1635
  1
Text : 3.5mm Arial
  1
166201
  1
Raster image : C:\Documents and Settings\Edwards\Desktop\south pacific S\SPSA-rvt-SPSBanner-165453.jpg
  0
DICTIONARY
  5
1A
330
19
100
AcDbDictionary
280
     1
281
     1
  3
BUMPTILE
360
1C
  3
DIFFUSETILE
360
1B
  3
OPACITYTILE
360
1F
  3
REFLECTIONTILE
360
1E
  3
REFRACTIONTILE
360
20
  3
SPECULARTILE
360
1D
  0
DICTIONARY
  5
12
330
11
100
AcDbDictionary
280
     1
281
     1
  3
BUMPTILE
360
14
  3
DIFFUSETILE
360
13
  3
OPACITYTILE
360
17
  3
REFLECTIONTILE
360
16
  3
REFRACTIONTILE
360
18
  3
SPECULARTILE
360
15
  0
DICTIONARY
  5
22
330
21
100
AcDbDictionary
280
     1
281
     1
  3
BUMPTILE
360
24
  3
DIFFUSETILE
360
23
  3
OPACITYTILE
360
27
  3
REFLECTIONTILE
360
26
  3
REFRACTIONTILE
360
28
  3
SPECULARTILE
360
25
  0
DICTIONARY
  5
15B
330
6D
100
AcDbDictionary
280
     1
281
     1
  3
ACAD_ROUNDTRIP_2008_TABLESTYLE_CELLSTYLEMAP
360
15C
  0
XRECORD
  5
1C
102
{ACAD_REACTORS
330
1A
102
}
330
1A
100
AcDbXrecord
280
     1
270
     1
271
     1
  0
XRECORD
  5
1B
102
{ACAD_REACTORS
330
1A
102
}
330
1A
100
AcDbXrecord
280
     1
270
     1
271
     1
  0
XRECORD
  5
1F
102
{ACAD_REACTORS
330
1A
102
}
330
1A
100
AcDbXrecord
280
     1
270
     1
271
     1
  0
XRECORD
  5
1E
102
{ACAD_REACTORS
330
1A
102
}
330
1A
100
AcDbXrecord
280
     1
270
     1
271
     1
  0
XRECORD
  5
20
102
{ACAD_REACTORS
330
1A
102
}
330
1A
100
AcDbXrecord
280
     1
270
     1
271
     1
  0
XRECORD
  5
1D
102
{ACAD_REACTORS
330
1A
102
}
330
1A
100
AcDbXrecord
280
     1
270
     1
271
     1
  0
XRECORD
  5
14
102
{ACAD_REACTORS
330
12
102
}
330
12
100
AcDbXrecord
280
     1
270
     1
271
     1
  0
XRECORD
  5
13
102
{ACAD_REACTORS
330
12
102
}
330
12
100
AcDbXrecord
280
     1
270
     1
271
     1
  0
XRECORD
  5
17
102
{ACAD_REACTORS
330
12
102
}
330
12
100
AcDbXrecord
280
     1
270
     1
271
     1
  0
XRECORD
  5
16
102
{ACAD_REACTORS
330
12
102
}
330
12
100
AcDbXrecord
280
     1
270
     1
271
     1
  0
XRECORD
  5
18
102
{ACAD_REACTORS
330
12
102
}
330
12
100
AcDbXrecord
280
     1
270
     1
271
     1
  0
XRECORD
  5
15
102
{ACAD_REACTORS
330
12
102
}
330
12
100
AcDbXrecord
280
     1
270
     1
271
     1
  0
XRECORD
  5
24
102
{ACAD_REACTORS
330
22
102
}
330
22
100
AcDbXrecord
280
     1
270
     1
271
     1
  0
XRECORD
  5
23
102
{ACAD_REACTORS
330
22
102
}
330
22
100
AcDbXrecord
280
     1
270
     1
271
     1
  0
XRECORD
  5
27
102
{ACAD_REACTORS
330
22
102
}
330
22
100
AcDbXrecord
280
     1
270
     1
271
     1
  0
XRECORD
  5
26
102
{ACAD_REACTORS
330
22
102
}
330
22
100
AcDbXrecord
280
     1
270
     1
271
     1
  0
XRECORD
  5
28
102
{ACAD_REACTORS
330
22
102
}
330
22
100
AcDbXrecord
280
     1
270
     1
271
     1
  0
XRECORD
  5
25
102
{ACAD_REACTORS
330
22
102
}
330
22
100
AcDbXrecord
280
     1
270
     1
271
     1
  0
CELLSTYLEMAP
  5
15C
102
{ACAD_REACTORS
330
15B
102
}
330
15B
100
AcDbCellStyleMap
 90
        3
300
CELLSTYLE
  1
TABLEFORMAT_BEGIN
 90
        5
170
     1
 91
        0
 92
    32768
 62
   257
 93
        1
300
CONTENTFORMAT
  1
CONTENTFORMAT_BEGIN
 90
        0
 91
        0
 92
      512
 93
        0
300

 40
0.0
140
1.0
 94
        5
 62
     0
340
5D
144
0.25
309
CONTENTFORMAT_END
171
     0
 94
        0
309
TABLEFORMAT_END
  1
CELLSTYLE_BEGIN
 90
        1
 91
        1
300
_TITLE
309
CELLSTYLE_END
300
CELLSTYLE
  1
TABLEFORMAT_BEGIN
 90
        5
170
     1
 91
        0
 92
        0
 62
   257
 93
        1
300
CONTENTFORMAT
  1
CONTENTFORMAT_BEGIN
 90
        0
 91
        0
 92
      512
 93
        0
300

 40
0.0
140
1.0
 94
        5
 62
     0
340
5D
144
0.18
309
CONTENTFORMAT_END
171
     0
 94
        0
309
TABLEFORMAT_END
  1
CELLSTYLE_BEGIN
 90
        2
 91
        1
300
_HEADER
309
CELLSTYLE_END
300
CELLSTYLE
  1
TABLEFORMAT_BEGIN
 90
        5
170
     1
 91
        0
 92
        0
 62
   257
 93
        1
300
CONTENTFORMAT
  1
CONTENTFORMAT_BEGIN
 90
        0
 91
        0
 92
      512
 93
        0
300

 40
0.0
140
1.0
 94
        2
 62
     0
340
5D
144
0.18
309
CONTENTFORMAT_END
171
     0
 94
        0
309
TABLEFORMAT_END
  1
CELLSTYLE_BEGIN
 90
        3
 91
        2
300
_DATA
309
CELLSTYLE_END
  0
ENDSEC
  0
EOF
