  0
SECTION
  2
HEADER
  9
$ACADVER
  1
AC1021
  9
$ACADMAINTVER
 70
    25
  9
$DWGCODEPAGE
  3
ANSI_1252
  9
$INSBASE
 10
0.0
 20
0.0
 30
0.0
  9
$EXTMIN
 10
2467.629974185057
 20
2303.197690649233
 30
-0.00000001
  9
$EXTMAX
 10
3845.540559608569
 20
3029.915904227882
 30
0.00000001
  9
$LIMMIN
 10
0.0
 20
0.0
  9
$LIMMAX
 10
12.0
 20
9.0
  9
$ORTHOMODE
 70
     0
  9
$REGENMODE
 70
     1
  9
$FILLMODE
 70
     1
  9
$QTEXTMODE
 70
     0
  9
$MIRRTEXT
 70
     0
  9
$LTSCALE
 40
1.0
  9
$ATTMODE
 70
     1
  9
$TEXTSIZE
 40
0.2
  9
$TRACEWID
 40
0.05
  9
$TEXTSTYLE
  7
Standard
  9
$CLAYER
  8
0
  9
$CELTYPE
  6
ByLayer
  9
$CECOLOR
 62
   256
  9
$CELTSCALE
 40
1.0
  9
$DISPSILH
 70
     0
  9
$DIMSCALE
 40
1.0
  9
$DIMASZ
 40
0.18
  9
$DIMEXO
 40
0.0625
  9
$DIMDLI
 40
0.38
  9
$DIMRND
 40
0.0
  9
$DIMDLE
 40
0.0
  9
$DIMEXE
 40
0.18
  9
$DIMTP
 40
0.0
  9
$DIMTM
 40
0.0
  9
$DIMTXT
 40
0.18
  9
$DIMCEN
 40
0.09
  9
$DIMTSZ
 40
0.0
  9
$DIMTOL
 70
     0
  9
$DIMLIM
 70
     0
  9
$DIMTIH
 70
     1
  9
$DIMTOH
 70
     1
  9
$DIMSE1
 70
     0
  9
$DIMSE2
 70
     0
  9
$DIMTAD
 70
     0
  9
$DIMZIN
 70
     0
  9
$DIMBLK
  1

  9
$DIMASO
 70
     1
  9
$DIMSHO
 70
     1
  9
$DIMPOST
  1

  9
$DIMAPOST
  1

  9
$DIMALT
 70
     0
  9
$DIMALTD
 70
     2
  9
$DIMALTF
 40
25.4
  9
$DIMLFAC
 40
1.0
  9
$DIMTOFL
 70
     0
  9
$DIMTVP
 40
0.0
  9
$DIMTIX
 70
     0
  9
$DIMSOXD
 70
     0
  9
$DIMSAH
 70
     0
  9
$DIMBLK1
  1

  9
$DIMBLK2
  1

  9
$DIMSTYLE
  2
Standard
  9
$DIMCLRD
 70
     0
  9
$DIMCLRE
 70
     0
  9
$DIMCLRT
 70
     0
  9
$DIMTFAC
 40
1.0
  9
$DIMGAP
 40
0.09
  9
$DIMJUST
 70
     0
  9
$DIMSD1
 70
     0
  9
$DIMSD2
 70
     0
  9
$DIMTOLJ
 70
     1
  9
$DIMTZIN
 70
     0
  9
$DIMALTZ
 70
     0
  9
$DIMALTTZ
 70
     0
  9
$DIMUPT
 70
     0
  9
$DIMDEC
 70
     4
  9
$DIMTDEC
 70
     4
  9
$DIMALTU
 70
     2
  9
$DIMALTTD
 70
     2
  9
$DIMTXSTY
  7
Standard
  9
$DIMAUNIT
 70
     0
  9
$DIMADEC
 70
     0
  9
$DIMALTRND
 40
0.0
  9
$DIMAZIN
 70
     0
  9
$DIMDSEP
 70
    46
  9
$DIMATFIT
 70
     3
  9
$DIMFRAC
 70
     0
  9
$DIMLDRBLK
  1

  9
$DIMLUNIT
 70
     2
  9
$DIMLWD
 70
    -2
  9
$DIMLWE
 70
    -2
  9
$DIMTMOVE
 70
     0
  9
$DIMFXL
 40
1.0
  9
$DIMFXLON
 70
     0
  9
$DIMJOGANG
 40
0.7853981633974483
  9
$DIMTFILL
 70
     0
  9
$DIMTFILLCLR
 70
     0
  9
$DIMARCSYM
 70
     0
  9
$DIMLTYPE
  6

  9
$DIMLTEX1
  6

  9
$DIMLTEX2
  6

  9
$LUNITS
 70
     2
  9
$LUPREC
 70
     4
  9
$SKETCHINC
 40
0.1
  9
$FILLETRAD
 40
0.0
  9
$AUNITS
 70
     0
  9
$AUPREC
 70
     0
  9
$MENU
  1
.
  9
$ELEVATION
 40
0.0
  9
$PELEVATION
 40
0.0
  9
$THICKNESS
 40
0.0
  9
$LIMCHECK
 70
     0
  9
$CHAMFERA
 40
0.0
  9
$CHAMFERB
 40
0.0
  9
$CHAMFERC
 40
0.0
  9
$CHAMFERD
 40
0.0
  9
$SKPOLY
 70
     0
  9
$TDCREATE
 40
2455036.636320347
  9
$TDUCREATE
 40
2455036.136320348
  9
$TDUPDATE
 40
2455036.636320347
  9
$TDUUPDATE
 40
2455036.136320348
  9
$TDINDWG
 40
0.0000186227
  9
$TDUSRTIMER
 40
0.0000186227
  9
$USRTIMER
 70
     1
  9
$ANGBASE
 50
0.0
  9
$ANGDIR
 70
     0
  9
$PDMODE
 70
     0
  9
$PDSIZE
 40
0.0
  9
$PLINEWID
 40
0.0
  9
$SPLFRAME
 70
     0
  9
$SPLINETYPE
 70
     6
  9
$SPLINESEGS
 70
     8
  9
$HANDSEED
  5
1D5
  9
$SURFTAB1
 70
     6
  9
$SURFTAB2
 70
     6
  9
$SURFTYPE
 70
     6
  9
$SURFU
 70
     6
  9
$SURFV
 70
     6
  9
$UCSBASE
  2

  9
$UCSNAME
  2

  9
$UCSORG
 10
0.0
 20
0.0
 30
0.0
  9
$UCSXDIR
 10
1.0
 20
0.0
 30
0.0
  9
$UCSYDIR
 10
0.0
 20
1.0
 30
0.0
  9
$UCSORTHOREF
  2

  9
$UCSORTHOVIEW
 70
     0
  9
$UCSORGTOP
 10
0.0
 20
0.0
 30
0.0
  9
$UCSORGBOTTOM
 10
0.0
 20
0.0
 30
0.0
  9
$UCSORGLEFT
 10
0.0
 20
0.0
 30
0.0
  9
$UCSORGRIGHT
 10
0.0
 20
0.0
 30
0.0
  9
$UCSORGFRONT
 10
0.0
 20
0.0
 30
0.0
  9
$UCSORGBACK
 10
0.0
 20
0.0
 30
0.0
  9
$PUCSBASE
  2

  9
$PUCSNAME
  2

  9
$PUCSORG
 10
0.0
 20
0.0
 30
0.0
  9
$PUCSXDIR
 10
1.0
 20
0.0
 30
0.0
  9
$PUCSYDIR
 10
0.0
 20
1.0
 30
0.0
  9
$PUCSORTHOREF
  2

  9
$PUCSORTHOVIEW
 70
     0
  9
$PUCSORGTOP
 10
0.0
 20
0.0
 30
0.0
  9
$PUCSORGBOTTOM
 10
0.0
 20
0.0
 30
0.0
  9
$PUCSORGLEFT
 10
0.0
 20
0.0
 30
0.0
  9
$PUCSORGRIGHT
 10
0.0
 20
0.0
 30
0.0
  9
$PUCSORGFRONT
 10
0.0
 20
0.0
 30
0.0
  9
$PUCSORGBACK
 10
0.0
 20
0.0
 30
0.0
  9
$USERI1
 70
     0
  9
$USERI2
 70
     0
  9
$USERI3
 70
     0
  9
$USERI4
 70
     0
  9
$USERI5
 70
     0
  9
$USERR1
 40
0.0
  9
$USERR2
 40
0.0
  9
$USERR3
 40
0.0
  9
$USERR4
 40
0.0
  9
$USERR5
 40
0.0
  9
$WORLDVIEW
 70
     1
  9
$SHADEDGE
 70
     3
  9
$SHADEDIF
 70
    70
  9
$TILEMODE
 70
     0
  9
$MAXACTVP
 70
    64
  9
$PINSBASE
 10
0.0
 20
0.0
 30
0.0
  9
$PLIMCHECK
 70
     0
  9
$PEXTMIN
 10
2.792850708836863
 20
84.97857142855746
 30
0.0
  9
$PEXTMAX
 10
299.7928507088368
 20
294.9999999999861
 30
0.0
  9
$PLIMMIN
 10
0.0
 20
0.0
  9
$PLIMMAX
 10
12.0
 20
9.0
  9
$UNITMODE
 70
     0
  9
$VISRETAIN
 70
     1
  9
$PLINEGEN
 70
     0
  9
$PSLTSCALE
 70
     1
  9
$TREEDEPTH
 70
  3020
  9
$CMLSTYLE
  2
Standard
  9
$CMLJUST
 70
     0
  9
$CMLSCALE
 40
1.0
  9
$PROXYGRAPHICS
 70
     1
  9
$MEASUREMENT
 70
     1
  9
$CELWEIGHT
370
    -1
  9
$ENDCAPS
280
     0
  9
$JOINSTYLE
280
     0
  9
$LWDISPLAY
290
     0
  9
$INSUNITS
 70
     4
  9
$HYPERLINKBASE
  1

  9
$STYLESHEET
  1

  9
$XEDIT
290
     1
  9
$CEPSNTYPE
380
     0
  9
$PSTYLEMODE
290
     1
  9
$FINGERPRINTGUID
  2
{3DA8BC33-8FB8-4B8A-B9FD-AE4AACA1572E}
  9
$VERSIONGUID
  2
{7E9027D0-C3BB-41C9-B707-6F4D252B7892}
  9
$EXTNAMES
290
     1
  9
$PSVPSCALE
 40
0.0
  9
$OLESTARTUP
290
     0
  9
$SORTENTS
280
   127
  9
$INDEXCTL
280
     0
  9
$HIDETEXT
280
     1
  9
$XCLIPFRAME
290
     0
  9
$HALOGAP
280
     0
  9
$OBSCOLOR
 70
   257
  9
$OBSLTYPE
280
     0
  9
$INTERSECTIONDISPLAY
280
     0
  9
$INTERSECTIONCOLOR
 70
   257
  9
$DIMASSOC
280
     2
  9
$PROJECTNAME
  1

  9
$CAMERADISPLAY
290
     0
  9
$LENSLENGTH
 40
50.0
  9
$CAMERAHEIGHT
 40
0.0
  9
$STEPSPERSEC
 40
2.0
  9
$STEPSIZE
 40
6.0
  9
$3DDWFPREC
 40
2.0
  9
$PSOLWIDTH
 40
0.25
  9
$PSOLHEIGHT
 40
4.0
  9
$LOFTANG1
 40
1.570796326794896
  9
$LOFTANG2
 40
1.570796326794896
  9
$LOFTMAG1
 40
0.0
  9
$LOFTMAG2
 40
0.0
  9
$LOFTPARAM
 70
     7
  9
$LOFTNORMALS
280
     1
  9
$LATITUDE
 40
37.795
  9
$LONGITUDE
 40
-122.394
  9
$NORTHDIRECTION
 40
0.0
  9
$TIMEZONE
 70
 -8000
  9
$LIGHTGLYPHDISPLAY
280
     1
  9
$TILEMODELIGHTSYNCH
280
     1
  9
$CMATERIAL
347
11
  9
$SOLIDHIST
280
     1
  9
$SHOWHIST
280
     1
  9
$DWFFRAME
280
     2
  9
$DGNFRAME
280
     0
  9
$REALWORLDSCALE
290
     1
  9
$INTERFERECOLOR
 62
     1
  9
$INTERFEREOBJVS
345
33
  9
$INTERFEREVPVS
346
30
  9
$CSHADOW
280
     0
  9
$SHADOWPLANELOCATION
 40
0.0
  0
ENDSEC
  0
SECTION
  2
CLASSES
  0
CLASS
  1
ACDBDICTIONARYWDFLT
  2
AcDbDictionaryWithDefault
  3
ObjectDBX Classes
 90
        0
 91
        1
280
     0
281
     0
  0
CLASS
  1
MATERIAL
  2
AcDbMaterial
  3
ObjectDBX Classes
 90
     1153
 91
        3
280
     0
281
     0
  0
CLASS
  1
VISUALSTYLE
  2
AcDbVisualStyle
  3
ObjectDBX Classes
 90
     4095
 91
       16
280
     0
281
     0
  0
CLASS
  1
SCALE
  2
AcDbScale
  3
ObjectDBX Classes
 90
     1153
 91
       33
280
     0
281
     0
  0
CLASS
  1
TABLESTYLE
  2
AcDbTableStyle
  3
ObjectDBX Classes
 90
     4095
 91
        1
280
     0
281
     0
  0
CLASS
  1
MLEADERSTYLE
  2
AcDbMLeaderStyle
  3
ACDB_MLEADERSTYLE_CLASS
 90
     4095
 91
        1
280
     0
281
     0
  0
CLASS
  1
IMAGEDEF
  2
AcDbRasterImageDef
  3
ISM
 90
        0
 91
        2
280
     0
281
     0
  0
CLASS
  1
IMAGE
  2
AcDbRasterImage
  3
ISM
 90
     2175
 91
        2
280
     0
281
     1
  0
CLASS
  1
SORTENTSTABLE
  2
AcDbSortentsTable
  3
ObjectDBX Classes
 90
        0
 91
        1
280
     0
281
     0
  0
CLASS
  1
DICTIONARYVAR
  2
AcDbDictionaryVar
  3
ObjectDBX Classes
 90
        0
 91
        3
280
     0
281
     0
  0
CLASS
  1
CELLSTYLEMAP
  2
AcDbCellStyleMap
  3
ObjectDBX Classes
 90
     1152
 91
        1
280
     0
281
     0
  0
ENDSEC
  0
SECTION
  2
TABLES
  0
TABLE
  2
VPORT
  5
8
330
0
100
AcDbSymbolTable
 70
     1
  0
VPORT
  5
5F
330
8
100
AcDbSymbolTableRecord
100
AcDbViewportTableRecord
  2
*Active
 70
     0
 10
0.0
 20
0.0
 11
1.0
 21
1.0
 12
3156.585266896813
 22
2666.556797438558
 13
0.0
 23
0.0
 14
1.0
 24
1.0
 15
0.0
 25
0.0
 16
0.0
 26
0.0
 36
1.0
 17
0.0
 27
0.0
 37
0.0
 40
726.7182135786484
 41
1.896072727609418
 42
50.0
 43
0.0
 44
0.0
 50
0.0
 51
0.0
 71
     0
 72
   100
 73
     1
 74
     1
 75
     0
 76
     0
 77
     0
 78
     0
281
     0
 65
     1
110
0.0
120
0.0
130
0.0
111
1.0
121
0.0
131
0.0
112
0.0
122
1.0
132
0.0
 79
     0
146
0.0
 60
     3
 61
     5
292
     1
282
     1
141
0.0
142
0.0
 63
   250
421
  3355443
  0
ENDTAB
  0
TABLE
  2
LTYPE
  5
5
330
0
100
AcDbSymbolTable
 70
     3
  0
LTYPE
  5
63
330
5
100
AcDbSymbolTableRecord
100
AcDbLinetypeTableRecord
  2
ByBlock
 70
     0
  3

 72
    65
 73
     0
 40
0.0
  0
LTYPE
  5
64
330
5
100
AcDbSymbolTableRecord
100
AcDbLinetypeTableRecord
  2
ByLayer
 70
     0
  3

 72
    65
 73
     0
 40
0.0
  0
LTYPE
  5
65
330
5
100
AcDbSymbolTableRecord
100
AcDbLinetypeTableRecord
  2
Continuous
 70
     0
  3
Solid line
 72
    65
 73
     0
 40
0.0
  0
LTYPE
  5
7F
330
5
100
AcDbSymbolTableRecord
100
AcDbLinetypeTableRecord
  2
Aligning Line
 70
     0
  3

 72
    65
 73
     2
 40
6.350000000000001
 49
3.175
 74
     0
 49
-3.175
 74
     0
  0
LTYPE
  5
85
330
5
100
AcDbSymbolTableRecord
100
AcDbLinetypeTableRecord
  2
Dash
 70
     0
  3

 72
    65
 73
     2
 40
6.35
 49
3.175
 74
     0
 49
-3.175
 74
     0
  0
ENDTAB
  0
TABLE
  2
LAYER
  5
2
330
0
100
AcDbSymbolTable
 70
     7
  0
LAYER
  5
5C
330
2
100
AcDbSymbolTableRecord
100
AcDbLayerTableRecord
  2
0
 70
     0
 62
     7
  6
Continuous
370
    -3
390
F
347
21
  0
LAYER
  5
80
330
2
100
AcDbSymbolTableRecord
100
AcDbLayerTableRecord
  2
G-----PAP
 70
     0
 62
     8
  6
Aligning Line
370
    18
390
F
347
21
  0
LAYER
  5
84
330
2
100
AcDbSymbolTableRecord
100
AcDbLayerTableRecord
  2
A-DETLGEM
 70
     0
 62
     3
  6
Continuous
370
    18
390
F
347
21
  0
LAYER
  5
86
330
2
100
AcDbSymbolTableRecord
100
AcDbLayerTableRecord
  2
A-----NPP
 70
     0
 62
     5
  6
Dash
370
    18
390
F
347
21
  0
LAYER
  5
12D
330
2
100
AcDbSymbolTableRecord
100
AcDbLayerTableRecord
  2
A-----TEP
 70
     0
 62
     2
  6
Continuous
370
     9
390
F
347
21
  0
LAYER
  5
135
330
2
100
AcDbSymbolTableRecord
100
AcDbLayerTableRecord
  2
A-----NOP
 70
     0
 62
     2
  6
Continuous
370
     9
390
F
347
21
  0
LAYER
  5
18A
330
2
100
AcDbSymbolTableRecord
100
AcDbLayerTableRecord
  2
G-----TTP
 70
     0
 62
     6
  6
Continuous
370
     9
390
F
347
21
  0
ENDTAB
  0
TABLE
  2
STYLE
  5
3
330
0
100
AcDbSymbolTable
 70
     2
  0
STYLE
  5
5D
330
3
100
AcDbSymbolTableRecord
100
AcDbTextStyleTableRecord
  2
Standard
 70
     0
 40
0.0
 41
1.0
 50
0.0
 71
     0
 42
0.2
  3
txt
  4

  0
STYLE
  5
62
330
3
100
AcDbSymbolTableRecord
100
AcDbTextStyleTableRecord
  2
Annotative
 70
     0
 40
0.0
 41
1.0
 50
0.0
 71
     0
 42
0.2
  3

  4

1001
AcadAnnotative
1000
AnnotativeData
1002
{
1070
     1
1070
     1
1002
}
  0
ENDTAB
  0
TABLE
  2
VIEW
  5
6
330
0
100
AcDbSymbolTable
 70
     0
  0
ENDTAB
  0
TABLE
  2
UCS
  5
7
330
0
100
AcDbSymbolTable
 70
     0
  0
ENDTAB
  0
TABLE
  2
APPID
  5
9
330
0
100
AcDbSymbolTable
 70
     5
  0
APPID
  5
5E
330
9
100
AcDbSymbolTableRecord
100
AcDbRegAppTableRecord
  2
ACAD
 70
     0
  0
APPID
  5
66
330
9
100
AcDbSymbolTableRecord
100
AcDbRegAppTableRecord
  2
AcadAnnotative
 70
     0
  0
APPID
  5
70
330
9
100
AcDbSymbolTableRecord
100
AcDbRegAppTableRecord
  2
ACAD_MLEADERVER
 70
     0
  0
APPID
  5
7D
330
9
100
AcDbSymbolTableRecord
100
AcDbRegAppTableRecord
  2
ACCURENDER3
 70
     0
  0
APPID
  5
7E
330
9
100
AcDbSymbolTableRecord
100
AcDbRegAppTableRecord
  2
REVIT
 70
     0
  0
ENDTAB
  0
TABLE
  2
DIMSTYLE
  5
A
330
0
100
AcDbSymbolTable
 70
     2
100
AcDbDimStyleTable
 71
     0
  0
DIMSTYLE
105
60
330
A
100
AcDbSymbolTableRecord
100
AcDbDimStyleTableRecord
  2
Standard
 70
     0
340
5D
  0
DIMSTYLE
105
61
330
A
100
AcDbSymbolTableRecord
100
AcDbDimStyleTableRecord
  2
Annotative
 70
     0
340
5D
1001
AcadAnnotative
1000
AnnotativeData
1002
{
1070
     1
1070
     1
1002
}
  0
ENDTAB
  0
TABLE
  2
BLOCK_RECORD
  5
1
330
0
100
AcDbSymbolTable
 70
     9
  0
BLOCK_RECORD
  5
75
102
{ACAD_XDICTIONARY
360
1C9
102
}
330
1
100
AcDbSymbolTableRecord
100
AcDbBlockTableRecord
  2
*Model_Space
340
78
 70
     0
280
     1
281
     0
  0
BLOCK_RECORD
  5
71
330
1
100
AcDbSymbolTableRecord
100
AcDbBlockTableRecord
  2
*Paper_Space
340
74
 70
     0
280
     1
281
     0
  0
BLOCK_RECORD
  5
79
330
1
100
AcDbSymbolTableRecord
100
AcDbBlockTableRecord
  2
*Paper_Space0
340
7C
 70
     0
280
     1
281
     0
  0
BLOCK_RECORD
  5
B8
330
1
100
AcDbSymbolTableRecord
100
AcDbBlockTableRecord
  2
tmber 100_50 - tmber 100_50_1-0-Detail 3
340
0
102
{BLKREFS
331
CA
102
}
 70
     0
280
     1
281
     0
  0
BLOCK_RECORD
  5
CE
330
1
100
AcDbSymbolTableRecord
100
AcDbBlockTableRecord
  2
ply2 20_ - ply 20__1-5-Detail 3
340
0
102
{BLKREFS
331
DF
102
}
 70
     0
280
     1
281
     0
  0
BLOCK_RECORD
  5
E5
330
1
100
AcDbSymbolTableRecord
100
AcDbBlockTableRecord
  2
fascia board 200_30 - tmber 100_50_1-4-Detail 3
340
0
102
{BLKREFS
331
F1
102
}
 70
     0
280
     1
281
     0
  0
BLOCK_RECORD
  5
F4
330
1
100
AcDbSymbolTableRecord
100
AcDbBlockTableRecord
  2
gutter profile - gutter profile_1-3-Detail 3
340
0
102
{BLKREFS
331
105
102
}
 70
     0
280
     1
281
     0
  0
BLOCK_RECORD
  5
106
330
1
100
AcDbSymbolTableRecord
100
AcDbBlockTableRecord
  2
Break Line1 - M_Break Line_1-2-Detail 3
340
0
102
{BLKREFS
331
10E
102
}
 70
     0
280
     1
281
     0
  0
BLOCK_RECORD
  5
112
330
1
100
AcDbSymbolTableRecord
100
AcDbBlockTableRecord
  2
nail sp - nail sp_1-1-Detail 3
340
0
102
{BLKREFS
331
12B
331
12C
102
}
 70
     0
280
     1
281
     0
  0
BLOCK_RECORD
  5
13B
330
1
100
AcDbSymbolTableRecord
100
AcDbBlockTableRecord
  2
M_Label Annotation - M_Label Annotation_1-142258-Detail 3
340
0
102
{BLKREFS
331
13E
331
145
331
14C
331
153
331
15A
331
161
331
169
331
170
331
177
331
17F
331
187
102
}
 70
     0
280
     1
281
     0
  0
BLOCK_RECORD
  5
18B
330
1
100
AcDbSymbolTableRecord
100
AcDbBlockTableRecord
  2
A4 SPS - A4 sps_0-163380-EAVE-CROSS SECTION
340
0
102
{BLKREFS
331
1BC
102
}
 70
     0
280
     1
281
     0
  0
ENDTAB
  0
ENDSEC
  0
SECTION
  2
BLOCKS
  0
BLOCK
  5
76
330
75
100
AcDbEntity
  8
0
100
AcDbBlockBegin
  2
*Model_Space
 70
     0
 10
0.0
 20
0.0
 30
0.0
  3
*Model_Space
  1

  0
ENDBLK
  5
77
330
75
100
AcDbEntity
  8
0
100
AcDbBlockEnd
  0
BLOCK
  5
72
330
71
100
AcDbEntity
 67
     1
  8
0
100
AcDbBlockBegin
  2
*Paper_Space
 70
     0
 10
0.0
 20
0.0
 30
0.0
  3
*Paper_Space
  1

  0
ENDBLK
  5
73
330
71
100
AcDbEntity
 67
     1
  8
0
100
AcDbBlockEnd
  0
BLOCK
  5
7A
330
79
100
AcDbEntity
 67
     1
  8
0
100
AcDbBlockBegin
  2
*Paper_Space0
 70
     0
 10
0.0
 20
0.0
 30
0.0
  3
*Paper_Space0
  1

  0
ENDBLK
  5
7B
330
79
100
AcDbEntity
 67
     1
  8
0
100
AcDbBlockEnd
  0
BLOCK
  5
C8
330
B8
100
AcDbEntity
  8
0
100
AcDbBlockBegin
  2
tmber 100_50 - tmber 100_50_1-0-Detail 3
 70
     0
 10
0.0
 20
0.0
 30
0.0
  3
tmber 100_50 - tmber 100_50_1-0-Detail 3
  1

  0
HATCH
  5
C2
330
B8
100
AcDbEntity
  8
A-DETLGEM
100
AcDbHatch
 10
0.0
 20
0.0
 30
0.0
210
0.0
220
0.0
230
1.0
  2
FP1_1
 70
     0
 71
     0
 91
        1
 92
        0
 93
        9
 72
     1
 10
49.99999999999946
 20
100.0000000000004
 11
-0.00000000000054
 21
100.0000000000008
 72
     1
 10
-0.0000000000005414
 20
100.0000000000008
 11
-0.0000000000005414
 21
64.33762573144702
 72
     1
 10
-0.0000000000005414
 20
64.33762573144702
 11
20.77267330262522
 21
64.337625731455
 72
     1
 10
20.77267330262522
 20
64.337625731455
 11
22.45588961396618
 21
62.65440942011593
 72
     1
 10
22.45588961396618
 20
62.65440942011593
 11
20.4755670111561
 21
61.00125874693269
 72
     1
 10
20.4755670111561
 20
61.00125874693269
 11
-0.00000000000054
 21
61.00125874692476
 72
     1
 10
-0.0000000000005414
 20
61.00125874692476
 11
0.0
 21
0.000000000000135
 72
     1
 10
0.0
 20
0.0000000000001354
 11
50.0
 21
0.0000000000002707
 72
     1
 10
50.0
 20
0.0000000000002707
 11
49.99999999999946
 21
100.0000000000004
 97
        0
 75
     0
 76
     2
 52
0.0
 41
1.0
 77
     0
 78
     1
 53
125.0
 43
2151.319
 44
-3432.15
 45
-20.47880110722479
 46
-14.33941090877615
 79
     0
 98
        1
 10
0.0
 20
0.0
1001
REVIT
1002
{
1070
     3
1000
113602
1002
}
  0
LINE
  5
C3
330
B8
100
AcDbEntity
  8
A-DETLGEM
100
AcDbLine
 10
50.0
 20
100.0
 30
0.0
 11
0.0
 21
100.0
 31
0.0
  0
LINE
  5
C4
330
B8
100
AcDbEntity
  8
A-DETLGEM
100
AcDbLine
 10
0.0
 20
100.0
 30
0.0
 11
0.0
 21
64.33762573144628
 31
0.0
  0
LINE
  5
C5
330
B8
100
AcDbEntity
  8
A-DETLGEM
100
AcDbLine
 10
0.0
 20
61.00125874692463
 30
0.0
 11
0.0
 21
0.0
 31
0.0
  0
LINE
  5
C6
330
B8
100
AcDbEntity
  8
A-DETLGEM
100
AcDbLine
 10
0.0
 20
0.0
 30
0.0
 11
50.0
 21
0.0
 31
0.0
  0
LINE
  5
C7
330
B8
100
AcDbEntity
  8
A-DETLGEM
100
AcDbLine
 10
50.0
 20
0.0
 30
0.0
 11
50.0
 21
100.0
 31
0.0
  0
ENDBLK
  5
C9
330
B8
100
AcDbEntity
  8
0
100
AcDbBlockEnd
  0
BLOCK
  5
DD
330
CE
100
AcDbEntity
  8
0
100
AcDbBlockBegin
  2
ply2 20_ - ply 20__1-5-Detail 3
 70
     0
 10
0.0
 20
0.0
 30
0.0
  3
ply2 20_ - ply 20__1-5-Detail 3
  1

  0
LINE
  5
CF
330
CE
100
AcDbEntity
  8
A-DETLGEM
100
AcDbLine
 10
314.4045392606827
 20
11.94621723361908
 30
0.0
 11
427.0502152231164
 21
11.94621723361908
 31
0.0
  0
LINE
  5
D0
330
CE
100
AcDbEntity
  8
A-DETLGEM
100
AcDbLine
 10
161.3425236865488
 20
11.94621723361908
 30
0.0
 11
311.0681722761616
 21
11.94621723361908
 31
0.0
  0
LINE
  5
D1
330
CE
100
AcDbEntity
  8
A-DETLGEM
100
AcDbLine
 10
0.0
 20
11.94621723361908
 30
0.0
 11
158.0061567020274
 21
11.94621723361908
 31
0.0
  0
LINE
  5
D2
330
CE
100
AcDbEntity
  8
A-DETLGEM
100
AcDbLine
 10
0.0
 20
0.0
 30
0.0
 11
0.0
 21
6.071876166871061
 31
0.0
  0
LINE
  5
D3
330
CE
100
AcDbEntity
  8
A-DETLGEM
100
AcDbLine
 10
158.0061567020315
 20
0.0
 30
0.0
 11
0.0
 21
0.0
 31
0.0
  0
LINE
  5
D4
330
CE
100
AcDbEntity
  8
A-DETLGEM
100
AcDbLine
 10
311.0681722761654
 20
0.0
 30
0.0
 11
161.3425236865532
 21
0.0
 31
0.0
  0
LINE
  5
D5
330
CE
100
AcDbEntity
  8
A-DETLGEM
100
AcDbLine
 10
424.9437748074275
 20
0.0
 30
0.0
 11
314.4045392606871
 21
0.0
 31
0.0
  0
LINE
  5
D6
330
CE
100
AcDbEntity
  8
A-DETLGEM
100
AcDbLine
 10
314.4045392606839
 20
8.084953675936482
 30
0.0
 11
426.3693702782713
 21
8.08495367593612
 31
0.0
  0
LINE
  5
D7
330
CE
100
AcDbEntity
  8
A-DETLGEM
100
AcDbLine
 10
161.3425236865501
 20
8.084953675936976
 30
0.0
 11
311.0681722761624
 21
8.084953675936493
 31
0.0
  0
LINE
  5
D8
330
CE
100
AcDbEntity
  8
A-DETLGEM
100
AcDbLine
 10
0.0
 20
8.084953675937498
 30
0.0
 11
158.0061567020285
 21
8.084953675936986
 31
0.0
  0
LINE
  5
D9
330
CE
100
AcDbEntity
  8
A-DETLGEM
100
AcDbLine
 10
314.4045392606859
 20
4.015637839629625
 30
0.0
 11
425.6518401033069
 21
4.015637839629266
 31
0.0
  0
LINE
  5
DA
330
CE
100
AcDbEntity
  8
A-DETLGEM
100
AcDbLine
 10
161.3425236865521
 20
4.015637839630119
 30
0.0
 11
311.0681722761641
 21
4.015637839629635
 31
0.0
  0
LINE
  5
DB
330
CE
100
AcDbEntity
  8
A-DETLGEM
100
AcDbLine
 10
0.0
 20
4.015637839630641
 30
0.0
 11
158.0061567020303
 21
4.01563783963013
 31
0.0
  0
LINE
  5
DC
330
CE
100
AcDbEntity
  8
A-DETLGEM
100
AcDbLine
 10
0.0
 20
11.94621723361908
 30
0.0
 11
0.0
 21
0.0
 31
0.0
  0
ENDBLK
  5
DE
330
CE
100
AcDbEntity
  8
0
100
AcDbBlockEnd
  0
BLOCK
  5
EF
330
E5
100
AcDbEntity
  8
0
100
AcDbBlockBegin
  2
fascia board 200_30 - tmber 100_50_1-4-Detail 3
 70
     0
 10
0.0
 20
0.0
 30
0.0
  3
fascia board 200_30 - tmber 100_50_1-4-Detail 3
  1

  0
LINE
  5
E6
330
E5
100
AcDbEntity
  8
A-DETLGEM
100
AcDbLine
 10
30.0
 20
200.0000000000119
 30
0.0
 11
0.0
 21
200.0000000000119
 31
0.0
  0
LINE
  5
E7
330
E5
100
AcDbEntity
  8
A-DETLGEM
100
AcDbLine
 10
0.0
 20
200.0000000000119
 30
0.0
 11
0.0
 21
0.0
 31
0.0
  0
LINE
  5
E8
330
E5
100
AcDbEntity
  8
A-DETLGEM
100
AcDbLine
 10
0.0
 20
0.0
 30
0.0
 11
30.0
 21
0.0
 31
0.0
  0
LINE
  5
E9
330
E5
100
AcDbEntity
  8
A-DETLGEM
100
AcDbLine
 10
30.0
 20
0.0
 30
0.0
 11
30.0
 21
9.999999999997692
 31
0.0
  0
LINE
  5
EA
330
E5
100
AcDbEntity
  8
A-DETLGEM
100
AcDbLine
 10
30.0
 20
9.999999999997692
 30
0.0
 11
22.55672383538675
 21
9.999999999997726
 31
0.0
  0
LINE
  5
EB
330
E5
100
AcDbEntity
  8
A-DETLGEM
100
AcDbLine
 10
22.55672383538675
 20
9.999999999997726
 30
0.0
 11
22.55672383538676
 21
19.99999999999548
 31
0.0
  0
LINE
  5
EC
330
E5
100
AcDbEntity
  8
A-DETLGEM
100
AcDbLine
 10
22.55672383538676
 20
19.99999999999548
 30
0.0
 11
30.0
 21
19.99999999999545
 31
0.0
  0
LINE
  5
ED
330
E5
100
AcDbEntity
  8
A-DETLGEM
100
AcDbLine
 10
30.0
 20
19.99999999999545
 30
0.0
 11
30.0
 21
200.0000000000119
 31
0.0
  0
HATCH
  5
EE
330
E5
100
AcDbEntity
  8
A-DETLGEM
100
AcDbHatch
 10
0.0
 20
0.0
 30
0.0
210
0.0
220
0.0
230
1.0
  2
FP1_2
 70
     0
 71
     0
 91
        1
 92
        0
 93
        8
 72
     1
 10
30.0
 20
200.0000000000119
 11
0.0
 21
200.0000000000119
 72
     1
 10
0.0
 20
200.0000000000119
 11
0.0
 21
0.0
 72
     1
 10
0.0
 20
0.0
 11
30.0
 21
0.0
 72
     1
 10
30.0
 20
0.0
 11
30.0
 21
9.999999999997692
 72
     1
 10
30.0
 20
9.999999999997692
 11
22.55672383538675
 21
9.999999999997726
 72
     1
 10
22.55672383538675
 20
9.999999999997726
 11
22.55672383538676
 21
19.99999999999548
 72
     1
 10
22.55672383538676
 20
19.99999999999548
 11
30.0
 21
19.99999999999545
 72
     1
 10
30.0
 20
19.99999999999545
 11
30.0
 21
200.0000000000119
 97
        0
 75
     0
 76
     2
 52
0.0
 41
1.0
 77
     0
 78
     1
 53
45.0
 43
-2945.511
 44
-2492.099
 45
-17.67766952966368
 46
17.67766952966369
 79
     0
 98
        1
 10
0.0
 20
0.0
1001
REVIT
1002
{
1070
     3
1000
113081
1002
}
  0
ENDBLK
  5
F0
330
E5
100
AcDbEntity
  8
0
100
AcDbBlockEnd
  0
BLOCK
  5
103
330
F4
100
AcDbEntity
  8
0
100
AcDbBlockBegin
  2
gutter profile - gutter profile_1-3-Detail 3
 70
     0
 10
0.0
 20
0.0
 30
0.0
  3
gutter profile - gutter profile_1-3-Detail 3
  1

  0
LINE
  5
F5
330
F4
100
AcDbEntity
  8
A-DETLGEM
100
AcDbLine
 10
131.2852111030042
 20
115.0000000000002
 30
0.0
 11
131.2852111030042
 21
0.0000000000001354
 31
0.0
  0
LINE
  5
F6
330
F4
100
AcDbEntity
  8
A-DETLGEM
100
AcDbLine
 10
131.2852111030042
 20
0.0000000000001354
 30
0.0
 11
44.56233066275449
 21
0.0000000000001354
 31
0.0
  0
LINE
  5
F7
330
F4
100
AcDbEntity
  8
A-DETLGEM
100
AcDbLine
 10
44.56233066275451
 20
0.0000000000001348
 30
0.0
 11
-0.0000000000000085
 21
77.18422081158141
 31
0.0
  0
LINE
  5
F8
330
F4
100
AcDbEntity
  8
A-DETLGEM
100
AcDbLine
 10
0.0
 20
77.18422081158138
 30
0.0
 11
0.0
 21
98.91901487595781
 31
0.0
  0
LINE
  5
F9
330
F4
100
AcDbEntity
  8
A-DETLGEM
100
AcDbLine
 10
0.0
 20
98.91901487595781
 30
0.0
 11
16.68780900481939
 21
98.91901487595781
 31
0.0
  0
LINE
  5
FA
330
F4
100
AcDbEntity
  8
A-DETLGEM
100
AcDbLine
 10
16.68780900481939
 20
98.91901487595781
 30
0.0
 11
16.68780900481939
 21
85.22151138900929
 31
0.0
  0
LINE
  5
FB
330
F4
100
AcDbEntity
  8
A-DETLGEM
100
AcDbLine
 10
129.1398623752408
 20
115.0000000000002
 30
0.0
 11
129.1398623752408
 21
2.466987006200233
 31
0.0
  0
LINE
  5
FC
330
F4
100
AcDbEntity
  8
A-DETLGEM
100
AcDbLine
 10
129.1398623752408
 20
2.466987006200233
 30
0.0
 11
46.22964000675917
 21
2.466987006200233
 31
0.0
  0
LINE
  5
FD
330
F4
100
AcDbEntity
  8
A-DETLGEM
100
AcDbLine
 10
46.22964000675916
 20
2.466987006200238
 30
0.0
 11
2.769953919901317
 21
77.7413713896381
 31
0.0
  0
LINE
  5
FE
330
F4
100
AcDbEntity
  8
A-DETLGEM
100
AcDbLine
 10
2.769953919901334
 20
77.7413713896381
 30
0.0
 11
2.769953919901334
 21
96.07470472298615
 31
0.0
  0
LINE
  5
FF
330
F4
100
AcDbEntity
  8
A-DETLGEM
100
AcDbLine
 10
2.769953919901334
 20
96.07470472298615
 30
0.0
 11
13.62968780447193
 21
96.07470472298615
 31
0.0
  0
LINE
  5
100
330
F4
100
AcDbEntity
  8
A-DETLGEM
100
AcDbLine
 10
13.62968780447193
 20
96.07470472298615
 30
0.0
 11
13.62968780447193
 21
85.22151138900929
 31
0.0
  0
LINE
  5
101
330
F4
100
AcDbEntity
  8
A-DETLGEM
100
AcDbLine
 10
16.68780900481939
 20
85.22151138900929
 30
0.0
 11
13.62968780447193
 21
85.22151138900929
 31
0.0
  0
LINE
  5
102
330
F4
100
AcDbEntity
  8
A-DETLGEM
100
AcDbLine
 10
131.2852111030042
 20
115.0000000000002
 30
0.0
 11
129.1398623752408
 21
115.0000000000002
 31
0.0
  0
ENDBLK
  5
104
330
F4
100
AcDbEntity
  8
0
100
AcDbBlockEnd
  0
BLOCK
  5
10C
330
106
100
AcDbEntity
  8
0
100
AcDbBlockBegin
  2
Break Line1 - M_Break Line_1-2-Detail 3
 70
     0
 10
0.0
 20
0.0
 30
0.0
  3
Break Line1 - M_Break Line_1-2-Detail 3
  1

  0
LINE
  5
107
330
106
100
AcDbEntity
  8
A-DETLGEM
370
    35
100
AcDbLine
 10
-18.60697444189654
 20
0.0000000000045937
 30
0.0
 11
-9.303487220949294
 21
12.12986432713319
 31
0.0
1001
REVIT
1002
{
1070
     3
1000
1349
1002
}
  0
LINE
  5
108
330
106
100
AcDbEntity
  8
A-DETLGEM
370
    35
100
AcDbLine
 10
-9.303487220949296
 20
12.12986432713319
 30
0.0
 11
9.215834510488308
 21
-12.01299404650817
 31
0.0
1001
REVIT
1002
{
1070
     3
1000
1349
1002
}
  0
LINE
  5
109
330
106
100
AcDbEntity
  8
A-DETLGEM
370
    35
100
AcDbLine
 10
9.215834510488305
 20
-12.01299404650817
 30
0.0
 11
18.43166902097825
 21
0.0000000000045937
 31
0.0
1001
REVIT
1002
{
1070
     3
1000
1349
1002
}
  0
LINE
  5
10A
330
106
100
AcDbEntity
  8
A-DETLGEM
370
    35
100
AcDbLine
 10
18.43166902097825
 20
0.0000000000045937
 30
0.0
 11
226.7183311240295
 21
0.0000000000045937
 31
0.0
1001
REVIT
1002
{
1070
     3
1000
1349
1002
}
  0
LINE
  5
10B
330
106
100
AcDbEntity
  8
A-DETLGEM
370
    35
100
AcDbLine
 10
-190.5616232031876
 20
0.0000000000045937
 30
0.0
 11
-18.60697444189655
 21
0.0000000000045937
 31
0.0
1001
REVIT
1002
{
1070
     3
1000
1349
1002
}
  0
ENDBLK
  5
10D
330
106
100
AcDbEntity
  8
0
100
AcDbBlockEnd
  0
BLOCK
  5
129
330
112
100
AcDbEntity
  8
0
100
AcDbBlockBegin
  2
nail sp - nail sp_1-1-Detail 3
 70
     0
 10
0.0
 20
0.0
 30
0.0
  3
nail sp - nail sp_1-1-Detail 3
  1

  0
LINE
  5
113
330
112
100
AcDbEntity
  8
A-DETLGEM
100
AcDbLine
 10
93.29474221601016
 20
101.7301492685655
 30
0.0
 11
95.55345240452476
 21
101.7301492685655
 31
0.0
  0
LINE
  5
114
330
112
100
AcDbEntity
  8
A-DETLGEM
100
AcDbLine
 10
95.55345240452476
 20
101.7301492685655
 30
0.0
 11
95.55345240452476
 21
104.0804720895462
 31
0.0
  0
LINE
  5
115
330
112
100
AcDbEntity
  8
A-DETLGEM
100
AcDbLine
 10
95.55345240452476
 20
104.0804720895462
 30
0.0
 11
95.55345240452476
 21
108.2464910352098
 31
0.0
  0
LINE
  5
117
330
112
100
AcDbEntity
  8
A-DETLGEM
100
AcDbLine
 10
95.55345240452478
 20
111.5828580197312
 30
0.0
 11
95.55345240452478
 21
117.742975413612
 31
0.0
  0
LINE
  5
118
330
112
100
AcDbEntity
  8
A-DETLGEM
100
AcDbLine
 10
95.55345240452478
 20
117.742975413612
 30
0.0
 11
93.29474221601017
 21
117.742975413612
 31
0.0
  0
LINE
  5
119
330
112
100
AcDbEntity
  8
A-DETLGEM
100
AcDbLine
 10
93.29474221601017
 20
117.742975413612
 30
0.0
 11
93.29474221601016
 21
101.7301492685655
 31
0.0
  0
HATCH
  5
11A
330
112
100
AcDbEntity
  8
A-DETLGEM
100
AcDbHatch
 10
0.0
 20
0.0
 30
0.0
210
0.0
220
0.0
230
1.0
  2
SOLID
 70
     1
 71
     0
 91
        1
 92
        0
 93
        7
 72
     1
 10
93.29474221601016
 20
101.7301492685655
 11
95.55345240452476
 21
101.7301492685655
 72
     1
 10
95.55345240452476
 20
101.7301492685655
 11
95.55345240452476
 21
104.0804720895462
 72
     1
 10
95.55345240452476
 20
104.0804720895462
 11
95.55345240452476
 21
108.2464910352098
 72
     1
 10
95.55345240452476
 20
108.2464910352098
 11
95.55345240452478
 21
111.5828580197312
 72
     1
 10
95.55345240452478
 20
111.5828580197312
 11
95.55345240452478
 21
117.742975413612
 72
     1
 10
95.55345240452478
 20
117.742975413612
 11
93.29474221601017
 21
117.742975413612
 72
     1
 10
93.29474221601017
 20
117.742975413612
 11
93.29474221601016
 21
101.7301492685655
 97
        0
 75
     0
 76
     1
 98
        1
 10
0.0
 20
0.0
450
        0
451
        0
460
0.0
461
0.0
452
        0
462
0.0
453
        0
470

1001
REVIT
1002
{
1070
     3
1000
129614
1002
}
  0
LINE
  5
11B
330
112
100
AcDbEntity
  8
A-DETLGEM
100
AcDbLine
 10
151.9694857141748
 20
111.5828580197311
 30
0.0
 11
95.55345240452478
 21
111.5828580197313
 31
0.0
  0
LINE
  5
11C
330
112
100
AcDbEntity
  8
A-DETLGEM
100
AcDbLine
 10
95.55345240452478
 20
111.5828580197313
 30
0.0
 11
95.55345240452478
 21
108.2464910352096
 31
0.0
  0
LINE
  5
11D
330
112
100
AcDbEntity
  8
A-DETLGEM
100
AcDbLine
 10
95.55345240452478
 20
108.2464910352096
 30
0.0
 11
151.6723794227039
 21
108.2464910352094
 31
0.0
  0
LINE
  5
11E
330
112
100
AcDbEntity
  8
A-DETLGEM
100
AcDbLine
 10
151.6723794227039
 20
108.2464910352094
 30
0.0
 11
153.6527020255147
 21
109.8996417083912
 31
0.0
  0
LINE
  5
11F
330
112
100
AcDbEntity
  8
A-DETLGEM
100
AcDbLine
 10
153.6527020255147
 20
109.8996417083912
 30
0.0
 11
151.9694857141748
 21
111.5828580197311
 31
0.0
  0
HATCH
  5
120
330
112
100
AcDbEntity
  8
A-DETLGEM
100
AcDbHatch
 10
0.0
 20
0.0
 30
0.0
210
0.0
220
0.0
230
1.0
  2
SOLID
 70
     1
 71
     0
 91
        1
 92
        0
 93
        5
 72
     1
 10
151.9694857141748
 20
111.5828580197311
 11
95.55345240452478
 21
111.5828580197313
 72
     1
 10
95.55345240452478
 20
111.5828580197313
 11
95.55345240452478
 21
108.2464910352096
 72
     1
 10
95.55345240452478
 20
108.2464910352096
 11
151.6723794227039
 21
108.2464910352094
 72
     1
 10
151.6723794227039
 20
108.2464910352094
 11
153.6527020255147
 21
109.8996417083912
 72
     1
 10
153.6527020255147
 20
109.8996417083912
 11
151.9694857141748
 21
111.5828580197311
 97
        0
 75
     0
 76
     1
 98
        1
 10
0.0
 20
0.0
450
        0
451
        0
460
0.0
461
0.0
452
        0
462
0.0
453
        0
470

1001
REVIT
1002
{
1070
     3
1000
129614
1002
}
  0
LINE
  5
121
330
112
100
AcDbEntity
  8
A-DETLGEM
100
AcDbLine
 10
93.29474221601017
 20
117.742975413612
 30
0.0
 11
95.55345240452478
 21
117.742975413612
 31
0.0
1001
REVIT
1002
{
1070
     3
1000
25650
1002
}
  0
LINE
  5
122
330
112
100
AcDbEntity
  8
A-DETLGEM
100
AcDbLine
 10
93.29474221601017
 20
101.7301492685655
 30
0.0
 11
93.29474221601017
 21
117.742975413612
 31
0.0
1001
REVIT
1002
{
1070
     3
1000
25650
1002
}
  0
LINE
  5
123
330
112
100
AcDbEntity
  8
A-DETLGEM
100
AcDbLine
 10
95.55345240452478
 20
101.7301492685655
 30
0.0
 11
93.29474221601017
 21
101.7301492685655
 31
0.0
1001
REVIT
1002
{
1070
     3
1000
25650
1002
}
  0
LINE
  5
124
330
112
100
AcDbEntity
  8
A-DETLGEM
100
AcDbLine
 10
95.55345240452478
 20
117.742975413612
 30
0.0
 11
95.55345240452478
 21
101.7301492685655
 31
0.0
1001
REVIT
1002
{
1070
     3
1000
25650
1002
}
  0
LINE
  5
125
330
112
100
AcDbEntity
  8
A-DETLGEM
100
AcDbLine
 10
95.55345240452478
 20
111.5828580197313
 30
0.0
 11
151.8652786753083
 21
111.5828580197311
 31
0.0
  0
LINE
  5
126
330
112
100
AcDbEntity
  8
A-DETLGEM
100
AcDbLine
 10
95.55345240452478
 20
108.2464910352096
 30
0.0
 11
151.6723794227039
 21
108.2464910352094
 31
0.0
  0
LINE
  5
127
330
112
100
AcDbEntity
  8
A-DETLGEM
100
AcDbLine
 10
151.8652786753083
 20
111.5828580197311
 30
0.0
 11
153.7342458053615
 21
109.967713523739
 31
0.0
  0
LINE
  5
128
330
112
100
AcDbEntity
  8
A-DETLGEM
100
AcDbLine
 10
151.6723794227038
 20
108.2464910352094
 30
0.0
 11
153.7342458053615
 21
109.967713523739
 31
0.0
  0
ENDBLK
  5
12A
330
112
100
AcDbEntity
  8
0
100
AcDbBlockEnd
  0
BLOCK
  5
13C
330
13B
100
AcDbEntity
  8
0
100
AcDbBlockBegin
  2
M_Label Annotation - M_Label Annotation_1-142258-Detail 3
 70
     0
 10
0.0
 20
0.0
 30
0.0
  3
M_Label Annotation - M_Label Annotation_1-142258-Detail 3
  1

  0
ENDBLK
  5
13D
330
13B
100
AcDbEntity
  8
0
100
AcDbBlockEnd
  0
BLOCK
  5
1BA
330
18B
100
AcDbEntity
  8
0
100
AcDbBlockBegin
  2
A4 SPS - A4 sps_0-163380-EAVE-CROSS SECTION
 70
     0
 10
0.0
 20
0.0
 30
0.0
  3
A4 SPS - A4 sps_0-163380-EAVE-CROSS SECTION
  1

  0
IMAGE
  5
18D
330
18B
100
AcDbEntity
  8
G-----TTP
 92
      140
310
8C00000001000000840000000600000005000000C168BED14A7B22406AAAC3784E8A58400000000000000000C168BED14A7B2240D44C002E3CEE5C400000000000000000F73E2E47CADC5440D44C002E3CEE5C400000000000000000F73E2E47CADC54406AAAC3784E8A58400000000000000000C168BED14A7B22406AAAC3
310
784E8A58400000000000000000
100
AcDbRasterImage
 90
        0
 10
9.240805201047239
 20
98.16103953464486
 30
0.0
 11
0.0609770261884177
 21
0.0
 31
0.0
 12
0.0
 22
0.0609770261884177
 32
0.0
 13
1217.0
 23
288.0
340
18C
 70
     7
280
     0
281
    50
282
    50
283
     0
360
0
 71
     1
 91
        2
 14
-0.5
 24
-0.5
 14
1216.5
 24
287.5
  0
LINE
  5
18E
330
18B
100
AcDbEntity
  8
G-----TTP
100
AcDbLine
 10
97.66108077792623
 20
93.39672673794749
 30
0.0
 11
152.8182236350694
 21
93.39672673794749
 31
0.0
1001
REVIT
1002
{
1070
     3
1000
-2000281
1002
}
  0
LINE
  5
18F
330
18B
100
AcDbEntity
  8
G-----TTP
100
AcDbLine
 10
97.66108077792623
 20
96.15458388080464
 30
0.0
 11
152.8182236350694
 21
96.15458388080464
 31
0.0
1001
REVIT
1002
{
1070
     3
1000
-2000281
1002
}
  0
LINE
  5
190
330
18B
100
AcDbEntity
  8
G-----TTP
100
AcDbLine
 10
95.53965220649775
 20
99.12142857141512
 30
0.0
 11
8.798463415511349
 21
99.12142857141541
 31
0.0
  0
LINE
  5
191
330
18B
100
AcDbEntity
  8
G-----TTP
100
AcDbLine
 10
141.5039379207837
 20
114.678571428557
 30
0.0
 11
141.5039379207837
 21
90.63571428570075
 31
0.0
1001
REVIT
1002
{
1070
     3
1000
-2000281
1002
}
  0
LINE
  5
192
330
18B
100
AcDbEntity
  8
G-----TTP
100
AcDbLine
 10
104.7325093493548
 20
114.678571428557
 30
0.0
 11
104.7325093493548
 21
90.63571428570075
 31
0.0
1001
REVIT
1002
{
1070
     3
1000
-2000281
1002
}
  0
LINE
  5
193
330
18B
100
AcDbEntity
  8
G-----TTP
100
AcDbLine
 10
97.66108077792623
 20
109.9438695950903
 30
0.0
 11
152.8182236350694
 21
109.9438695950903
 31
0.0
1001
REVIT
1002
{
1070
     3
1000
-2000281
1002
}
  0
LINE
  5
194
330
18B
100
AcDbEntity
  8
G-----TTP
100
AcDbLine
 10
97.66108077792623
 20
107.1860124522332
 30
0.0
 11
152.8182236350694
 21
107.1860124522332
 31
0.0
1001
REVIT
1002
{
1070
     3
1000
-2000281
1002
}
  0
LINE
  5
195
330
18B
100
AcDbEntity
  8
G-----TTP
100
AcDbLine
 10
97.66108077792623
 20
104.428155309376
 30
0.0
 11
152.8182236350694
 21
104.428155309376
 31
0.0
1001
REVIT
1002
{
1070
     3
1000
-2000281
1002
}
  0
LINE
  5
196
330
18B
100
AcDbEntity
  8
G-----TTP
100
AcDbLine
 10
97.66108077792623
 20
101.6702981665189
 30
0.0
 11
152.8182236350694
 21
101.6702981665189
 31
0.0
1001
REVIT
1002
{
1070
     3
1000
-2000281
1002
}
  0
LINE
  5
197
330
18B
100
AcDbEntity
  8
G-----TTP
100
AcDbLine
 10
97.66108077792623
 20
98.91244102366178
 30
0.0
 11
152.8182236350694
 21
98.91244102366178
 31
0.0
1001
REVIT
1002
{
1070
     3
1000
-2000281
1002
}
  0
LINE
  5
198
330
18B
100
AcDbEntity
  8
G-----TTP
370
    25
100
AcDbLine
 10
152.8182236350694
 20
114.678571428557
 30
0.0
 11
152.8182236350694
 21
90.63571428570075
 31
0.0
1001
REVIT
1002
{
1070
     3
1000
-2000282
1002
}
  0
LINE
  5
199
330
18B
100
AcDbEntity
  8
G-----TTP
370
    25
100
AcDbLine
 10
97.66108077792623
 20
90.63571428570075
 30
0.0
 11
97.66108077792623
 21
114.678571428557
 31
0.0
1001
REVIT
1002
{
1070
     3
1000
-2000282
1002
}
  0
LINE
  5
19A
330
18B
100
AcDbEntity
  8
G-----TTP
370
    25
100
AcDbLine
 10
152.8182236350694
 20
90.63571428570075
 30
0.0
 11
97.66108077792623
 21
90.63571428570075
 31
0.0
1001
REVIT
1002
{
1070
     3
1000
-2000282
1002
}
  0
LINE
  5
19B
330
18B
100
AcDbEntity
  8
G-----TTP
370
    25
100
AcDbLine
 10
97.66108077792623
 20
114.678571428557
 30
0.0
 11
152.8182236350694
 21
114.678571428557
 31
0.0
1001
REVIT
1002
{
1070
     3
1000
-2000282
1002
}
  0
LINE
  5
19C
330
18B
100
AcDbEntity
  8
G-----TTP
370
    25
100
AcDbLine
 10
154.9396522064979
 20
114.6785714285573
 30
0.0
 11
154.9396522064979
 21
90.63571428570096
 31
0.0
1001
REVIT
1002
{
1070
     3
1000
-2000282
1002
}
  0
LINE
  5
19D
330
18B
100
AcDbEntity
  8
G-----TTP
100
AcDbLine
 10
215.046795063641
 20
104.7785714285581
 30
0.0
 11
292.8325093493553
 21
104.7785714285581
 31
0.0
1001
REVIT
1002
{
1070
     3
1000
-2000281
1002
}
  0
LINE
  5
19E
330
18B
100
AcDbEntity
  8
G-----TTP
100
AcDbLine
 10
215.046795063641
 20
101.2428571428439
 30
0.0
 11
253.939652206498
 21
101.2428571428439
 31
0.0
1001
REVIT
1002
{
1070
     3
1000
-2000281
1002
}
  0
LINE
  5
19F
330
18B
100
AcDbEntity
  8
G-----TTP
100
AcDbLine
 10
215.046795063641
 20
97.70714285712955
 30
0.0
 11
253.939652206498
 21
97.70714285712955
 31
0.0
1001
REVIT
1002
{
1070
     3
1000
-2000281
1002
}
  0
LINE
  5
1A0
330
18B
100
AcDbEntity
  8
G-----TTP
100
AcDbLine
 10
253.939652206498
 20
104.7785714285581
 30
0.0
 11
253.939652206498
 21
90.63571428570096
 31
0.0
1001
REVIT
1002
{
1070
     3
1000
-2000281
1002
}
  0
LINE
  5
1A1
330
18B
100
AcDbEntity
  8
G-----TTP
100
AcDbLine
 10
292.8325093493553
 20
94.17142857141548
 30
0.0
 11
215.046795063641
 21
94.17142857141548
 31
0.0
1001
REVIT
1002
{
1070
     3
1000
-2000281
1002
}
  0
LINE
  5
1A2
330
18B
100
AcDbEntity
  8
G-----TTP
100
AcDbLine
 10
215.046795063641
 20
90.63571428570096
 30
0.0
 11
215.046795063641
 21
114.6785714285573
 31
0.0
1001
REVIT
1002
{
1070
     3
1000
-2000281
1002
}
  0
LINE
  5
1A3
330
18B
100
AcDbEntity
  8
G-----TTP
370
    25
100
AcDbLine
 10
292.8325093493553
 20
114.6785714285573
 30
0.0
 11
154.9396522064979
 21
114.6785714285573
 31
0.0
1001
REVIT
1002
{
1070
     3
1000
-2000282
1002
}
  0
LINE
  5
1A4
330
18B
100
AcDbEntity
  8
G-----TTP
370
    25
100
AcDbLine
 10
292.8325093493553
 20
90.63571428570096
 30
0.0
 11
154.9396522064979
 21
90.63571428570096
 31
0.0
1001
REVIT
1002
{
1070
     3
1000
-2000282
1002
}
  0
LINE
  5
1A5
330
18B
100
AcDbEntity
  8
G-----TTP
370
    25
100
AcDbLine
 10
292.8325093493553
 20
90.63571428570096
 30
0.0
 11
292.8325093493553
 21
114.6785714285573
 31
0.0
1001
REVIT
1002
{
1070
     3
1000
-2000282
1002
}
  0
LINE
  5
1A6
330
18B
100
AcDbEntity
  8
G-----TTP
370
    25
100
AcDbLine
 10
95.53965220649775
 20
90.63571428570085
 30
0.0
 11
95.53965220649775
 21
114.6785714285574
 31
0.0
1001
REVIT
1002
{
1070
     3
1000
-2000282
1002
}
  0
LINE
  5
1A7
330
18B
100
AcDbEntity
  8
G-----TTP
370
    25
100
AcDbLine
 10
8.798463415511349
 20
114.6785714285574
 30
0.0
 11
95.53965220649775
 21
114.6785714285574
 31
0.0
1001
REVIT
1002
{
1070
     3
1000
-2000282
1002
}
  0
LINE
  5
1A8
330
18B
100
AcDbEntity
  8
G-----TTP
370
    25
100
AcDbLine
 10
8.798463415511349
 20
90.63571428570085
 30
0.0
 11
95.53965220649775
 21
90.63571428570085
 31
0.0
1001
REVIT
1002
{
1070
     3
1000
-2000282
1002
}
  0
LINE
  5
1A9
330
18B
100
AcDbEntity
  8
G-----TTP
370
    25
100
AcDbLine
 10
8.798463415511349
 20
114.6785714285574
 30
0.0
 11
8.798463415511349
 21
90.63571428570085
 31
0.0
1001
REVIT
1002
{
1070
     3
1000
-2000282
1002
}
  0
LINE
  5
1AA
330
18B
100
AcDbEntity
  8
G-----TTP
370
    25
100
AcDbLine
 10
6.677034844082778
 20
116.7999999999851
 30
0.0
 11
294.9539379207838
 21
116.7999999999851
 31
0.0
1001
REVIT
1002
{
1070
     3
1000
-2000282
1002
}
  0
LINE
  5
1AB
330
18B
100
AcDbEntity
  8
G-----TTP
370
    25
100
AcDbLine
 10
294.9539379207837
 20
291.4642857142719
 30
0.0
 11
294.9539379207837
 21
88.51428571427183
 31
0.0
1001
REVIT
1002
{
1070
     3
1000
-2000282
1002
}
  0
LINE
  5
1AC
330
18B
100
AcDbEntity
  8
G-----TTP
370
    25
100
AcDbLine
 10
6.677034844082778
 20
88.51428571427181
 30
0.0
 11
294.9539379207838
 21
88.51428571427181
 31
0.0
1001
REVIT
1002
{
1070
     3
1000
-2000282
1002
}
  0
LINE
  5
1AD
330
18B
100
AcDbEntity
  8
G-----TTP
370
    25
100
AcDbLine
 10
6.677034844082781
 20
291.4642857142719
 30
0.0
 11
6.677034844082781
 21
88.51428571427183
 31
0.0
1001
REVIT
1002
{
1070
     3
1000
-2000282
1002
}
  0
LINE
  5
1AE
330
18B
100
AcDbEntity
  8
G-----TTP
370
    25
100
AcDbLine
 10
6.677034844082778
 20
291.4642857142719
 30
0.0
 11
294.9539379207838
 21
291.4642857142719
 31
0.0
1001
REVIT
1002
{
1070
     3
1000
-2000282
1002
}
  0
LINE
  5
1AF
330
18B
100
AcDbEntity
  8
G-----TTP
100
AcDbLine
 10
2.792850708836863
 20
294.999999999986
 30
0.0
 11
2.792850708836863
 21
84.97857142855746
 31
0.0
1001
REVIT
1002
{
1070
     3
1000
-2000281
1002
}
  0
LINE
  5
1B0
330
18B
100
AcDbEntity
  8
G-----TTP
100
AcDbLine
 10
299.7928507088368
 20
294.999999999986
 30
0.0
 11
2.792850708836863
 21
294.999999999986
 31
0.0
1001
REVIT
1002
{
1070
     3
1000
-2000281
1002
}
  0
LINE
  5
1B1
330
18B
100
AcDbEntity
  8
G-----TTP
100
AcDbLine
 10
299.7928507088368
 20
84.97857142855746
 30
0.0
 11
299.7928507088368
 21
294.9999999999861
 31
0.0
1001
REVIT
1002
{
1070
     3
1000
-2000281
1002
}
  0
LINE
  5
1B2
330
18B
100
AcDbEntity
  8
G-----TTP
100
AcDbLine
 10
2.792850708836863
 20
84.97857142855746
 30
0.0
 11
299.7928507088368
 21
84.97857142855746
 31
0.0
1001
REVIT
1002
{
1070
     3
1000
-2000281
1002
}
  0
MTEXT
  5
1B3
330
18B
100
AcDbEntity
  8
G-----TTP
100
AcDbMText
 10
254.998208396275
 20
93.10343409203412
 30
0.0
 40
1.721182634730538
 41
7.160647605924904
 46
0.0
 71
     1
 72
     1
  1
\fArial|b0|i0|c0|p34|;Scale
 73
     2
 44
0.9385317878468562
1001
REVIT
1002
{
1070
     3
1000
165349
1002
}
  0
MTEXT
  5
1B4
330
18B
100
AcDbEntity
  8
G-----TTP
100
AcDbMText
 10
216.8973466727144
 20
93.10343409203412
 30
0.0
 40
1.721182634730538
 41
15.05625904236996
 46
0.0
 71
     1
 72
     1
  1
\fArial|b0|i0|c0|p34|;Checked by
 73
     2
 44
0.9385317878468562
1001
REVIT
1002
{
1070
     3
1000
165349
1002
}
  0
MTEXT
  5
1B5
330
18B
100
AcDbEntity
  8
G-----TTP
100
AcDbMText
 10
216.8973466727144
 20
96.71042441791824
 30
0.0
 40
1.721182634730538
 41
11.94841198759903
 46
0.0
 71
     1
 72
     1
  1
\fArial|b0|i0|c0|p34|;Drawn by
 73
     2
 44
0.9385317878468562
1001
REVIT
1002
{
1070
     3
1000
165349
1002
}
  0
MTEXT
  5
1B6
330
18B
100
AcDbEntity
  8
G-----TTP
100
AcDbMText
 10
216.8973466727144
 20
100.202514490652
 30
0.0
 40
1.721182634730538
 41
6.047702376851532
 46
0.0
 71
     1
 72
     1
  1
\fArial|b0|i0|c0|p34|;Date
 73
     2
 44
0.9385317878468562
1001
REVIT
1002
{
1070
     3
1000
165349
1002
}
  0
MTEXT
  5
1B7
330
18B
100
AcDbEntity
  8
G-----TTP
100
AcDbMText
 10
216.8973466727144
 20
103.8301902721618
 30
0.0
 40
1.721182634730538
 41
19.403045125732
 46
0.0
 71
     1
 72
     1
  1
\fArial|b0|i0|c0|p34|;Project number
 73
     2
 44
0.9385317878468562
1001
REVIT
1002
{
1070
     3
1000
165349
1002
}
  0
MTEXT
  5
1B8
330
18B
100
AcDbEntity
  8
G-----TTP
100
AcDbMText
 10
20.88411674533643
 20
96.19741015798522
 30
0.0
 40
2.950598802395208
 41
72.60485385296722
 46
0.0
 71
     1
 72
     1
  1
\fArial|b0|i0|c0|p34|;South Pacific Shingles (2003) Ltd\P
 73
     2
 44
0.9385317878468562
1001
REVIT
1002
{
1070
     3
1000
165465
1002
}
  0
MTEXT
  5
1B9
330
18B
100
AcDbEntity
  8
G-----TTP
100
AcDbMText
 10
158.4821206429074
 20
111.5973013750055
 30
0.0
 40
1.967065868263472
 41
65.1317262646808
 46
0.0
 71
     1
 72
     1
  1
\fArial|b0|i0|c0|p34|;South Pacific Shingles (2003) Ltd\PPO Box 51885, Pakuranga, Auckland\P21b Gabador Place, Mt Wellington, Auckland\PNew Zealand\PPh: 64 9 5733017     Fax: 64 9 5733018\PWeb:  www.southpacificshingles.co.nz
 73
     2
 44
0.9385317878468564
1001
REVIT
1002
{
1070
     3
1000
165218
1002
}
  0
ENDBLK
  5
1BB
330
18B
100
AcDbEntity
  8
0
100
AcDbBlockEnd
  0
ENDSEC
  0
SECTION
  2
ENTITIES
  0
IMAGE
  5
83
330
75
100
AcDbEntity
  8
G-----PAP
 92
      140
310
8C000000010000008400000006000000050000008D094C51CC2DAC40AB7D0B68B24CA74000000000000000008D094C51CC2DAC400A2266F1D4ABA7400000000000000000599EB625CFBFAD400A2266F1D4ABA7400000000000000000599EB625CFBFAD40AB7D0B68B24CA74000000000000000008D094C51CC2DAC40AB7D0B
310
68B24CA7400000000000000000
100
AcDbRasterImage
 90
        0
 10
3606.899057747045
 20
2982.348450049487
 30
0.0
 11
0.1651647714527601
 21
0.0
 31
0.0
 12
0.0
 22
0.16516477145276
 32
0.0
 13
1217.0
 23
288.0
340
82
 70
     7
280
     0
281
    50
282
    50
283
     0
360
0
 71
     1
 91
        2
 14
-0.5
 24
-0.5
 14
1216.5
 24
287.5
1001
REVIT
1002
{
1070
     1
1000
166224
1002
}
1002
{
1070
     5
1000
166201
1002
}
1002
{
1070
     2
1000
-2000560
1002
}
  0
LINE
  5
87
330
75
100
AcDbEntity
  8
A-----NPP
100
AcDbLine
 10
2935.423082616588
 20
2724.54553446338
 30
0.0
 11
2925.575005086434
 21
2722.809052686705
 31
0.0
1001
REVIT
1002
{
1070
     1
1000
160128
1002
}
1002
{
1070
     2
1000
-2000051
1002
}
1002
{
1070
     3
1000
82546
1002
}
  0
ARC
  5
88
330
75
100
AcDbEntity
  8
A-----NPP
100
AcDbCircle
 10
2930.499043851508
 20
2723.67729357506
 30
0.0
 40
5.000000000016323
100
AcDbArc
 50
10.00000000000482
 51
190.0000000000035
1001
REVIT
1002
{
1070
     1
1000
160128
1002
}
1002
{
1070
     2
1000
-2000051
1002
}
1002
{
1070
     3
1000
82546
1002
}
  0
HATCH
  5
89
330
75
100
AcDbEntity
  8
A-DETLGEM
 62
     7
100
AcDbHatch
 10
0.0
 20
0.0
 30
0.0
210
0.0
220
0.0
230
1.0
  2
SOLID
 70
     1
 71
     0
 91
        1
 92
        0
 93
        2
 72
     1
 10
2935.423082616588
 20
2724.54553446338
 11
2925.575005086434
 21
2722.809052686705
 72
     2
 10
2930.499043851508
 20
2723.67729357506
 40
5.000000000016323
 50
169.9999999999961
 51
349.9999999999948
 73
     0
 97
        0
 75
     0
 76
     1
 98
        1
 10
0.0
 20
0.0
450
        0
451
        0
460
0.0
461
0.0
452
        0
462
0.0
453
        0
470

1001
REVIT
1002
{
1070
     1
1000
160128
1002
}
1002
{
1070
     2
1000
-2000059
1002
}
1002
{
1070
     3
1000
768
1002
}
  0
HATCH
  5
8E
330
75
100
AcDbEntity
  8
A-DETLGEM
 62
   250
100
AcDbHatch
 10
0.0
 20
0.0
 30
0.0
210
0.0
220
0.0
230
1.0
  2
SOLID
 70
     1
 71
     0
 91
        1
 92
        0
 93
        4
 72
     1
 10
3041.09401415596
 20
2763.127337210149
 11
3041.620615756029
 21
2760.140831129489
 72
     1
 10
3041.620615756029
 20
2760.140831129489
 11
3210.523522772546
 21
2789.922970756614
 72
     1
 10
3210.523522772546
 20
2789.922970756614
 11
3209.996921172478
 21
2792.909476837259
 72
     1
 10
3209.996921172478
 20
2792.909476837259
 11
3041.09401415596
 21
2763.127337210149
 97
        0
 75
     0
 76
     1
 98
        1
 10
0.0
 20
0.0
450
        0
451
        0
460
0.0
461
0.0
452
        0
462
0.0
453
        0
470

1001
REVIT
1002
{
1070
     1
1000
160145
1002
}
1002
{
1070
     2
1000
-2000059
1002
}
1002
{
1070
     3
1000
131133
1002
}
  0
HATCH
  5
93
330
75
100
AcDbEntity
  8
A-DETLGEM
 62
   250
100
AcDbHatch
 10
0.0
 20
0.0
 30
0.0
210
0.0
220
0.0
230
1.0
  2
SOLID
 70
     1
 71
     0
 91
        1
 92
        0
 93
        4
 72
     1
 10
3329.427030480756
 20
2810.888867266463
 11
3329.427030480756
 21
2813.968227417274
 72
     1
 10
3329.427030480756
 20
2813.968227417274
 11
3213.282601245729
 21
2793.48883088415
 72
     1
 10
3213.282601245729
 20
2793.48883088415
 11
3213.809202845797
 21
2790.502324803505
 72
     1
 10
3213.809202845797
 20
2790.502324803505
 11
3329.427030480756
 21
2810.888867266463
 97
        0
 75
     0
 76
     1
 98
        1
 10
0.0
 20
0.0
450
        0
451
        0
460
0.0
461
0.0
452
        0
462
0.0
453
        0
470

1001
REVIT
1002
{
1070
     1
1000
160145
1002
}
1002
{
1070
     2
1000
-2000059
1002
}
1002
{
1070
     3
1000
131133
1002
}
  0
LINE
  5
94
330
75
100
AcDbEntity
  8
A-----NPP
  6
Continuous
100
AcDbLine
 10
3329.427030480758
 20
2813.968227417275
 30
0.0
 11
3213.28260124573
 21
2793.488830884151
 31
0.0
1001
REVIT
1002
{
1070
     1
1000
160145
1002
}
1002
{
1070
     2
1000
-2000051
1002
}
1002
{
1070
     3
1000
-2000042
1002
}
  0
LINE
  5
95
330
75
100
AcDbEntity
  8
A-----NPP
  6
Continuous
100
AcDbLine
 10
3209.996921172479
 20
2792.909476837261
 30
0.0
 11
3041.094014155961
 21
2763.12733721015
 31
0.0
1001
REVIT
1002
{
1070
     1
1000
160145
1002
}
1002
{
1070
     2
1000
-2000051
1002
}
1002
{
1070
     3
1000
-2000042
1002
}
  0
LINE
  5
96
330
75
100
AcDbEntity
  8
A-----NPP
  6
Continuous
100
AcDbLine
 10
3041.094014155961
 20
2763.12733721015
 30
0.0
 11
3041.62061575603
 21
2760.14083112949
 31
0.0
1001
REVIT
1002
{
1070
     1
1000
160145
1002
}
1002
{
1070
     2
1000
-2000051
1002
}
1002
{
1070
     3
1000
-2000042
1002
}
  0
LINE
  5
97
330
75
100
AcDbEntity
  8
A-----NPP
  6
Continuous
100
AcDbLine
 10
3041.62061575603
 20
2760.14083112949
 30
0.0
 11
3210.523522772547
 21
2789.922970756616
 31
0.0
1001
REVIT
1002
{
1070
     1
1000
160145
1002
}
1002
{
1070
     2
1000
-2000051
1002
}
1002
{
1070
     3
1000
-2000042
1002
}
  0
LINE
  5
98
330
75
100
AcDbEntity
  8
A-----NPP
  6
Continuous
100
AcDbLine
 10
3213.809202845798
 20
2790.502324803506
 30
0.0
 11
3329.427030480758
 21
2810.888867266464
 31
0.0
1001
REVIT
1002
{
1070
     1
1000
160145
1002
}
1002
{
1070
     2
1000
-2000051
1002
}
1002
{
1070
     3
1000
-2000042
1002
}
  0
HATCH
  5
9D
330
75
100
AcDbEntity
  8
A-DETLGEM
 62
   250
100
AcDbHatch
 10
0.0
 20
0.0
 30
0.0
210
0.0
220
0.0
230
1.0
  2
SOLID
 70
     1
 71
     0
 91
        1
 92
        0
 93
        4
 72
     1
 10
3226.638279841492
 20
2786.001012575108
 11
3226.111678241414
 21
2788.987518655819
 72
     1
 10
3226.111678241414
 20
2788.987518655819
 11
3214.439214978146
 21
2786.929348451176
 72
     1
 10
3214.439214978146
 20
2786.929348451176
 11
3214.965816578226
 21
2783.942842370464
 72
     1
 10
3214.965816578226
 20
2783.942842370464
 11
3226.638279841492
 21
2786.001012575108
 97
        0
 75
     0
 76
     1
 98
        1
 10
0.0
 20
0.0
450
        0
451
        0
460
0.0
461
0.0
452
        0
462
0.0
453
        0
470

1001
REVIT
1002
{
1070
     1
1000
160152
1002
}
1002
{
1070
     2
1000
-2000059
1002
}
1002
{
1070
     3
1000
131133
1002
}
  0
HATCH
  5
A2
330
75
100
AcDbEntity
  8
A-DETLGEM
 62
   250
100
AcDbHatch
 10
0.0
 20
0.0
 30
0.0
210
0.0
220
0.0
230
1.0
  2
SOLID
 70
     1
 71
     0
 91
        1
 92
        0
 93
        4
 72
     1
 10
2901.125119747337
 20
2731.683620025713
 11
2901.65172134742
 21
2728.697113944974
 72
     1
 10
2901.65172134742
 20
2728.697113944974
 11
3060.943476875896
 21
2756.78454824908
 72
     1
 10
3060.943476875896
 20
2756.78454824908
 11
3060.416875275814
 21
2759.771054329805
 72
     1
 10
3060.416875275814
 20
2759.771054329805
 11
2901.125119747337
 21
2731.683620025713
 97
        0
 75
     0
 76
     1
 98
        1
 10
0.0
 20
0.0
450
        0
451
        0
460
0.0
461
0.0
452
        0
462
0.0
453
        0
470

1001
REVIT
1002
{
1070
     1
1000
160152
1002
}
1002
{
1070
     2
1000
-2000059
1002
}
1002
{
1070
     3
1000
131133
1002
}
  0
HATCH
  5
A7
330
75
100
AcDbEntity
  8
A-DETLGEM
 62
   250
100
AcDbHatch
 10
0.0
 20
0.0
 30
0.0
210
0.0
220
0.0
230
1.0
  2
SOLID
 70
     1
 71
     0
 91
        1
 92
        0
 93
        4
 72
     1
 10
3211.680136504975
 20
2783.363488323573
 11
3211.153534904895
 21
2786.349994404285
 72
     1
 10
3211.153534904895
 20
2786.349994404285
 11
3063.702555349065
 21
2760.350408376696
 72
     1
 10
3063.702555349065
 20
2760.350408376696
 11
3064.229156949147
 21
2757.363902295971
 72
     1
 10
3064.229156949147
 20
2757.363902295971
 11
3211.680136504975
 21
2783.363488323573
 97
        0
 75
     0
 76
     1
 98
        1
 10
0.0
 20
0.0
450
        0
451
        0
460
0.0
461
0.0
452
        0
462
0.0
453
        0
470

1001
REVIT
1002
{
1070
     1
1000
160152
1002
}
1002
{
1070
     2
1000
-2000059
1002
}
1002
{
1070
     3
1000
131133
1002
}
  0
LINE
  5
A8
330
75
100
AcDbEntity
  8
A-----NPP
  6
Continuous
100
AcDbLine
 10
3226.638279841493
 20
2786.001012575109
 30
0.0
 11
3226.111678241415
 21
2788.98751865582
 31
0.0
1001
REVIT
1002
{
1070
     1
1000
160152
1002
}
1002
{
1070
     2
1000
-2000051
1002
}
1002
{
1070
     3
1000
-2000042
1002
}
  0
LINE
  5
A9
330
75
100
AcDbEntity
  8
A-----NPP
  6
Continuous
100
AcDbLine
 10
3226.111678241415
 20
2788.98751865582
 30
0.0
 11
3214.439214978147
 21
2786.929348451177
 31
0.0
1001
REVIT
1002
{
1070
     1
1000
160152
1002
}
1002
{
1070
     2
1000
-2000051
1002
}
1002
{
1070
     3
1000
-2000042
1002
}
  0
LINE
  5
AA
330
75
100
AcDbEntity
  8
A-----NPP
  6
Continuous
100
AcDbLine
 10
3211.153534904897
 20
2786.349994404286
 30
0.0
 11
3063.702555349065
 21
2760.350408376697
 31
0.0
1001
REVIT
1002
{
1070
     1
1000
160152
1002
}
1002
{
1070
     2
1000
-2000051
1002
}
1002
{
1070
     3
1000
-2000042
1002
}
  0
LINE
  5
AB
330
75
100
AcDbEntity
  8
A-----NPP
  6
Continuous
100
AcDbLine
 10
3060.416875275815
 20
2759.771054329806
 30
0.0
 11
2901.125119747338
 21
2731.683620025714
 31
0.0
1001
REVIT
1002
{
1070
     1
1000
160152
1002
}
1002
{
1070
     2
1000
-2000051
1002
}
1002
{
1070
     3
1000
-2000042
1002
}
  0
LINE
  5
AC
330
75
100
AcDbEntity
  8
A-----NPP
  6
Continuous
100
AcDbLine
 10
2901.125119747338
 20
2731.683620025714
 30
0.0
 11
2901.651721347421
 21
2728.697113944975
 31
0.0
1001
REVIT
1002
{
1070
     1
1000
160152
1002
}
1002
{
1070
     2
1000
-2000051
1002
}
1002
{
1070
     3
1000
-2000042
1002
}
  0
LINE
  5
AD
330
75
100
AcDbEntity
  8
A-----NPP
  6
Continuous
100
AcDbLine
 10
2901.651721347421
 20
2728.697113944975
 30
0.0
 11
3060.943476875897
 21
2756.784548249082
 31
0.0
1001
REVIT
1002
{
1070
     1
1000
160152
1002
}
1002
{
1070
     2
1000
-2000051
1002
}
1002
{
1070
     3
1000
-2000042
1002
}
  0
LINE
  5
AE
330
75
100
AcDbEntity
  8
A-----NPP
  6
Continuous
100
AcDbLine
 10
3064.229156949148
 20
2757.363902295971
 30
0.0
 11
3211.680136504977
 21
2783.363488323575
 31
0.0
1001
REVIT
1002
{
1070
     1
1000
160152
1002
}
1002
{
1070
     2
1000
-2000051
1002
}
1002
{
1070
     3
1000
-2000042
1002
}
  0
LINE
  5
AF
330
75
100
AcDbEntity
  8
A-----NPP
  6
Continuous
100
AcDbLine
 10
3214.965816578227
 20
2783.942842370465
 30
0.0
 11
3226.638279841493
 21
2786.001012575109
 31
0.0
1001
REVIT
1002
{
1070
     1
1000
160152
1002
}
1002
{
1070
     2
1000
-2000051
1002
}
1002
{
1070
     3
1000
-2000042
1002
}
  0
HATCH
  5
B4
330
75
100
AcDbEntity
  8
A-DETLGEM
 62
   250
100
AcDbHatch
 10
0.0
 20
0.0
 30
0.0
210
0.0
220
0.0
230
1.0
  2
SOLID
 70
     1
 71
     0
 91
        1
 92
        0
 93
        4
 72
     1
 10
3191.765215947607
 20
2796.414228719009
 11
3192.29181754767
 21
2793.427722638381
 72
     1
 10
3192.29181754767
 20
2793.427722638381
 11
3329.427030480756
 21
2817.6083606837
 72
     1
 10
3329.427030480756
 20
2817.6083606837
 11
3329.427030480756
 21
2820.687720834492
 72
     1
 10
3329.427030480756
 20
2820.687720834492
 11
3191.765215947607
 21
2796.414228719009
 97
        0
 75
     0
 76
     1
 98
        1
 10
0.0
 20
0.0
450
        0
451
        0
460
0.0
461
0.0
452
        0
462
0.0
453
        0
470

1001
REVIT
1002
{
1070
     1
1000
160159
1002
}
1002
{
1070
     2
1000
-2000059
1002
}
1002
{
1070
     3
1000
131133
1002
}
  0
LINE
  5
B5
330
75
100
AcDbEntity
  8
A-----NPP
  6
Continuous
100
AcDbLine
 10
3329.427030480758
 20
2820.687720834493
 30
0.0
 11
3191.765215947608
 21
2796.41422871901
 31
0.0
1001
REVIT
1002
{
1070
     1
1000
160159
1002
}
1002
{
1070
     2
1000
-2000051
1002
}
1002
{
1070
     3
1000
-2000042
1002
}
  0
LINE
  5
B6
330
75
100
AcDbEntity
  8
A-----NPP
  6
Continuous
100
AcDbLine
 10
3191.765215947608
 20
2796.41422871901
 30
0.0
 11
3192.291817547672
 21
2793.427722638381
 31
0.0
1001
REVIT
1002
{
1070
     1
1000
160159
1002
}
1002
{
1070
     2
1000
-2000051
1002
}
1002
{
1070
     3
1000
-2000042
1002
}
  0
LINE
  5
B7
330
75
100
AcDbEntity
  8
A-----NPP
  6
Continuous
100
AcDbLine
 10
3192.291817547672
 20
2793.427722638381
 30
0.0
 11
3329.427030480758
 21
2817.608360683701
 31
0.0
1001
REVIT
1002
{
1070
     1
1000
160159
1002
}
1002
{
1070
     2
1000
-2000051
1002
}
1002
{
1070
     3
1000
-2000042
1002
}
  0
INSERT
  5
CA
330
75
100
AcDbEntity
  8
A-DETLGEM
100
AcDbBlockReference
  2
tmber 100_50 - tmber 100_50_1-0-Detail 3
 10
3006.435552406925
 20
2714.622101008693
 30
0.0
 50
279.999999999987
1001
REVIT
1002
{
1070
     1
1000
160120
1002
}
1002
{
1070
     5
1000
113610
1002
}
1002
{
1070
     2
1000
-2002000
1002
}
  0
LINE
  5
CB
330
75
100
AcDbEntity
  8
A-----NPP
  6
Continuous
100
AcDbLine
 10
2969.427030480805
 20
2510.778717046874
 30
0.0
 11
3329.427030480758
 21
2510.778717046874
 31
0.0
1001
REVIT
1002
{
1070
     1
1000
160116
1002
}
1002
{
1070
     2
1000
-2000051
1002
}
1002
{
1070
     3
1000
-2000042
1002
}
  0
LINE
  5
CC
330
75
100
AcDbEntity
  8
A-----NPP
  6
Continuous
100
AcDbLine
 10
2969.427030480805
 20
2503.399899551792
 30
0.0
 11
2969.427030480805
 21
2510.778717046874
 31
0.0
1001
REVIT
1002
{
1070
     1
1000
160117
1002
}
1002
{
1070
     2
1000
-2000051
1002
}
1002
{
1070
     3
1000
-2000042
1002
}
  0
LINE
  5
CD
330
75
100
AcDbEntity
  8
A-----NPP
  6
Continuous
100
AcDbLine
 10
3329.427030480758
 20
2503.399899551792
 30
0.0
 11
2969.427030480805
 21
2503.399899551792
 31
0.0
1001
REVIT
1002
{
1070
     1
1000
160118
1002
}
1002
{
1070
     2
1000
-2000051
1002
}
1002
{
1070
     3
1000
-2000042
1002
}
  0
INSERT
  5
DF
330
75
100
AcDbEntity
  8
A-DETLGEM
100
AcDbBlockReference
  2
ply2 20_ - ply 20__1-5-Detail 3
 10
2910.939106456112
 20
2697.58041570341
 30
0.0
 50
9.999999999987192
1001
REVIT
1002
{
1070
     1
1000
160122
1002
}
1002
{
1070
     5
1000
109593
1002
}
1002
{
1070
     2
1000
-2002000
1002
}
  0
LINE
  5
E0
330
75
100
AcDbEntity
  8
A-----NPP
  6
Continuous
370
    35
100
AcDbLine
 10
3065.98801785187
 20
2747.388906435138
 30
0.0
 11
3081.435097008744
 21
2750.112643263631
 31
0.0
1001
REVIT
1002
{
1070
     1
1000
160123
1002
}
1002
{
1070
     2
1000
-2000051
1002
}
1002
{
1070
     3
1000
-2000043
1002
}
  0
LINE
  5
E1
330
75
100
AcDbEntity
  8
A-----NPP
  6
Continuous
370
    35
100
AcDbLine
 10
2904.169701466555
 20
2718.855971283625
 30
0.0
 11
3062.702337778619
 21
2746.809552388248
 31
0.0
1001
REVIT
1002
{
1070
     1
1000
160123
1002
}
1002
{
1070
     2
1000
-2000051
1002
}
1002
{
1070
     3
1000
-2000043
1002
}
  0
LINE
  5
E2
330
75
100
AcDbEntity
  8
A-----NPP
370
    35
100
AcDbLine
 10
3215.70481044328
 20
2779.751799898791
 30
0.0
 11
3329.427030480758
 21
2799.804095597436
 31
0.0
1001
REVIT
1002
{
1070
     1
1000
160124
1002
}
1002
{
1070
     2
1000
-2000051
1002
}
1002
{
1070
     3
1000
108841
1002
}
  0
LINE
  5
E3
330
75
100
AcDbEntity
  8
A-----NPP
370
    35
100
AcDbLine
 10
3064.968150814191
 20
2753.172859824349
 30
0.0
 11
3212.419130370028
 21
2779.172445851901
 31
0.0
1001
REVIT
1002
{
1070
     1
1000
160124
1002
}
1002
{
1070
     2
1000
-2000051
1002
}
1002
{
1070
     3
1000
108841
1002
}
  0
LINE
  5
E4
330
75
100
AcDbEntity
  8
A-----NPP
370
    35
100
AcDbLine
 10
2939.690003594254
 20
2731.082942376335
 30
0.0
 11
3061.682470740941
 21
2752.593505777459
 31
0.0
1001
REVIT
1002
{
1070
     1
1000
160124
1002
}
1002
{
1070
     2
1000
-2000051
1002
}
1002
{
1070
     3
1000
108841
1002
}
  0
INSERT
  5
F1
330
75
100
AcDbEntity
  8
A-DETLGEM
100
AcDbBlockReference
  2
fascia board 200_30 - tmber 100_50_1-4-Detail 3
 10
2945.510531637112
 20
2492.09878526467
 30
0.0
1001
REVIT
1002
{
1070
     1
1000
160125
1002
}
1002
{
1070
     5
1000
113235
1002
}
1002
{
1070
     2
1000
-2002000
1002
}
  0
LINE
  5
F2
330
75
100
AcDbEntity
  8
A-----NPP
  6
Continuous
100
AcDbLine
 10
2976.422353961526
 20
2549.078318471492
 30
0.0
 11
3329.427030480758
 21
2611.322567258014
 31
0.0
1001
REVIT
1002
{
1070
     1
1000
160132
1002
}
1002
{
1070
     2
1000
-2000051
1002
}
1002
{
1070
     3
1000
-2000042
1002
}
  0
LINE
  5
F3
330
75
100
AcDbEntity
  8
A-----NPP
  6
Continuous
100
AcDbLine
 10
2976.422353961526
 20
2549.078318471492
 30
0.0
 11
2976.422353961526
 21
2709.126879023001
 31
0.0
1001
REVIT
1002
{
1070
     1
1000
160133
1002
}
1002
{
1070
     2
1000
-2000051
1002
}
1002
{
1070
     3
1000
-2000042
1002
}
  0
INSERT
  5
105
330
75
100
AcDbEntity
  8
A-DETLGEM
100
AcDbBlockReference
  2
gutter profile - gutter profile_1-3-Detail 3
 10
2812.42588731487
 20
2577.098785264668
 30
0.0
1001
REVIT
1002
{
1070
     1
1000
160141
1002
}
1002
{
1070
     5
1000
120870
1002
}
1002
{
1070
     2
1000
-2002000
1002
}
  0
INSERT
  5
10E
330
75
100
AcDbEntity
  8
A-DETLGEM
100
AcDbBlockReference
  2
Break Line1 - M_Break Line_1-2-Detail 3
 10
3329.427030480753
 20
2676.61572297807
 30
0.0
 50
270.0
1001
REVIT
1002
{
1070
     1
1000
160142
1002
}
1002
{
1070
     5
1000
121451
1002
}
1002
{
1070
     2
1000
-2002000
1002
}
  0
LINE
  5
10F
330
75
100
AcDbEntity
  8
A-----NPP
  6
Continuous
370
    35
100
AcDbLine
 10
2978.786468790742
 20
2726.310787516682
 30
0.0
 11
2904.925887314823
 21
2713.287174191676
 31
0.0
1001
REVIT
1002
{
1070
     1
1000
160113
1002
}
1002
{
1070
     2
1000
-2000051
1002
}
1002
{
1070
     3
1000
-2000043
1002
}
  0
LINE
  5
110
330
75
100
AcDbEntity
  8
A-----NPP
  6
Continuous
370
    35
100
AcDbLine
 10
2904.925887314823
 20
2713.287174191676
 30
0.0
 11
2904.925887314823
 21
2688.324275973691
 31
0.0
1001
REVIT
1002
{
1070
     1
1000
160114
1002
}
1002
{
1070
     2
1000
-2000051
1002
}
1002
{
1070
     3
1000
-2000043
1002
}
  0
LINE
  5
111
330
75
100
AcDbEntity
  8
A-----NPP
  6
Continuous
370
    35
100
AcDbLine
 10
2904.925887314823
 20
2688.324275973691
 30
0.0
 11
2898.663306386462
 21
2677.901591028062
 31
0.0
1001
REVIT
1002
{
1070
     1
1000
160115
1002
}
1002
{
1070
     2
1000
-2000051
1002
}
1002
{
1070
     3
1000
-2000043
1002
}
  0
INSERT
  5
12B
330
75
100
AcDbEntity
  8
A-DETLGEM
100
AcDbBlockReference
  2
nail sp - nail sp_1-1-Detail 3
 10
3086.664703644502
 20
2868.994542399279
 30
0.0
 50
280.0000000000098
1001
REVIT
1002
{
1070
     1
1000
160187
1002
}
1002
{
1070
     5
1000
129817
1002
}
1002
{
1070
     2
1000
-2002000
1002
}
  0
INSERT
  5
12C
330
75
100
AcDbEntity
  8
A-DETLGEM
100
AcDbBlockReference
  2
nail sp - nail sp_1-1-Detail 3
 10
2937.125993965567
 20
2835.621690551727
 30
0.0
 50
280.0000000000098
1001
REVIT
1002
{
1070
     1
1000
160188
1002
}
1002
{
1070
     5
1000
129817
1002
}
1002
{
1070
     2
1000
-2002000
1002
}
  0
MTEXT
  5
12E
330
75
100
AcDbEntity
  8
A-----TEP
 62
     7
100
AcDbMText
 10
2482.455544900017
 20
2548.144249578654
 30
0.0
 40
12.29416167664671
 41
314.55
 46
0.0
 71
     1
 72
     1
  1
\fArial|b0|i0|c0|p34|;SOFFIT LINING (IF APPLICABLE)
 73
     2
 44
0.938531787846856
1001
REVIT
1002
{
1070
     1
1000
160134
1002
}
1002
{
1070
     5
1000
1631
1002
}
1002
{
1070
     2
1000
-2000059
1002
}
1002
{
1070
     3
1000
1632
1002
}
  0
MTEXT
  5
12F
330
75
100
AcDbEntity
  8
A-----TEP
 62
     7
100
AcDbMText
 10
3469.940559608569
 20
2570.232019590115
 30
0.0
 40
12.29416167664671
 41
375.6
 46
0.0
 71
     1
 72
     1
  1
\fArial|b0|i0|c0|p34|;NOG\P(POSITION TO ALLOW FOR AIR FLOW)
 73
     2
 44
0.938531787846856
1001
REVIT
1002
{
1070
     1
1000
160135
1002
}
1002
{
1070
     5
1000
1631
1002
}
1002
{
1070
     2
1000
-2000059
1002
}
1002
{
1070
     3
1000
1632
1002
}
  0
MTEXT
  5
130
330
75
100
AcDbEntity
  8
A-----TEP
 62
     7
100
AcDbMText
 10
2612.725701526787
 20
2598.178174961756
 30
0.0
 40
12.29416167664671
 41
152.1
 46
0.0
 71
     1
 72
     1
  1
\fArial|b0|i0|c0|p34|;FASCIA BOARD
 73
     2
 44
0.938531787846856
1001
REVIT
1002
{
1070
     1
1000
160136
1002
}
1002
{
1070
     5
1000
1631
1002
}
1002
{
1070
     2
1000
-2000059
1002
}
1002
{
1070
     3
1000
1632
1002
}
  0
MTEXT
  5
131
330
75
100
AcDbEntity
  8
A-----TEP
 62
     7
100
AcDbMText
 10
2467.629974185057
 20
2806.018551876681
 30
0.0
 40
12.29416167664671
 41
364.2
 46
0.0
 71
     1
 72
     1
  1
\fArial|b0|i0|c0|p34|;SHINGLE STARTER ROLL 180mm\POR STARTER STRIP WITH ADHESIVE\PBEAD INCORPORATED\P
 73
     2
 44
0.938531787846856
1001
REVIT
1002
{
1070
     1
1000
160137
1002
}
1002
{
1070
     5
1000
1631
1002
}
1002
{
1070
     2
1000
-2000059
1002
}
1002
{
1070
     3
1000
1632
1002
}
  0
MTEXT
  5
132
330
75
100
AcDbEntity
  8
A-----TEP
 62
     7
100
AcDbMText
 10
3469.940559608569
 20
2727.853915050816
 30
0.0
 40
12.29416167664671
 41
104.1
 46
0.0
 71
     1
 72
     1
  1
\fArial|b0|i0|c0|p34|;PLYWOOD
 73
     2
 44
0.938531787846856
1001
REVIT
1002
{
1070
     1
1000
160138
1002
}
1002
{
1070
     5
1000
1631
1002
}
1002
{
1070
     2
1000
-2000059
1002
}
1002
{
1070
     3
1000
1632
1002
}
  0
MTEXT
  5
133
330
75
100
AcDbEntity
  8
A-----TEP
 62
     7
100
AcDbMText
 10
2912.766713116925
 20
2326.146792445641
 30
0.0
 40
17.21182634730539
 41
565.5021701687908
 46
0.0
 71
     1
 72
     1
  1
\fArial|b1|i0|c0|p34|;TYPICAL EAVE DETAIL - CROSS SECTION
 73
     2
 44
0.9385317878468562
1001
REVIT
1002
{
1070
     1
1000
160139
1002
}
1002
{
1070
     5
1000
1635
1002
}
1002
{
1070
     2
1000
-2000059
1002
}
1002
{
1070
     3
1000
1636
1002
}
  0
MTEXT
  5
134
330
75
100
AcDbEntity
  8
A-----TEP
 62
     7
100
AcDbMText
 10
2544.798208746675
 20
2653.417638076661
 30
0.0
 40
12.29416167664671
 41
233.7
 46
0.0
 71
     1
 72
     1
  1
\fArial|b0|i0|c0|p34|;SELECTED GUTTERING
 73
     2
 44
0.938531787846856
1001
REVIT
1002
{
1070
     1
1000
160140
1002
}
1002
{
1070
     5
1000
1631
1002
}
1002
{
1070
     2
1000
-2000059
1002
}
1002
{
1070
     3
1000
1632
1002
}
  0
LINE
  5
136
330
75
100
AcDbEntity
  8
A-----NOP
100
AcDbLine
 10
3319.446229467398
 20
2791.912542760362
 30
0.0
 11
3319.446229467395
 21
2799.951018533296
 31
0.0
1001
REVIT
1002
{
1070
     1
1000
160173
1002
}
1002
{
1070
     5
1000
142258
1002
}
1002
{
1070
     2
1000
-2000150
1002
}
  0
LINE
  5
137
330
75
100
AcDbEntity
  8
A-----NOP
100
AcDbLine
 10
3319.446229467395
 20
2799.951018533296
 30
0.0
 11
3304.446229467396
 21
2795.931780646824
 31
0.0
1001
REVIT
1002
{
1070
     1
1000
160173
1002
}
1002
{
1070
     5
1000
142258
1002
}
1002
{
1070
     2
1000
-2000150
1002
}
  0
LINE
  5
138
330
75
100
AcDbEntity
  8
A-----NOP
100
AcDbLine
 10
3304.446229467396
 20
2795.931780646824
 30
0.0
 11
3319.446229467398
 21
2791.912542760362
 31
0.0
1001
REVIT
1002
{
1070
     1
1000
160173
1002
}
1002
{
1070
     5
1000
142258
1002
}
1002
{
1070
     2
1000
-2000150
1002
}
  0
HATCH
  5
139
330
75
100
AcDbEntity
  8
A-----NOP
100
AcDbHatch
 10
0.0
 20
0.0
 30
0.0
210
0.0
220
0.0
230
1.0
  2
SOLID
 70
     1
 71
     0
 91
        1
 92
        0
 93
        3
 72
     1
 10
3319.446229467398
 20
2791.912542760362
 11
3319.446229467395
 21
2799.951018533296
 72
     1
 10
3319.446229467395
 20
2799.951018533296
 11
3304.446229467396
 21
2795.931780646824
 72
     1
 10
3304.446229467396
 20
2795.931780646824
 11
3319.446229467398
 21
2791.912542760362
 97
        0
 75
     0
 76
     1
 98
        1
 10
0.0
 20
0.0
450
        0
451
        0
460
0.0
461
0.0
452
        0
462
0.0
453
        0
470

1001
REVIT
1002
{
1070
     1
1000
160173
1002
}
1002
{
1070
     5
1000
142258
1002
}
1002
{
1070
     2
1000
-2000150
1002
}
  0
LINE
  5
13A
330
75
100
AcDbEntity
  8
A-----NOP
100
AcDbLine
 10
3304.446229467396
 20
2795.931780646824
 30
0.0
 11
3464.377948366833
 21
2795.93178064688
 31
0.0
1001
REVIT
1002
{
1070
     1
1000
160173
1002
}
1002
{
1070
     5
1000
142258
1002
}
1002
{
1070
     2
1000
-2000150
1002
}
  0
INSERT
  5
13E
330
75
100
AcDbEntity
  8
A-----NOP
100
AcDbBlockReference
  2
M_Label Annotation - M_Label Annotation_1-142258-Detail 3
 10
3493.075770568372
 20
2801.230626349039
 30
0.0
 41
5.0
 42
5.0
 43
5.0
1001
REVIT
1002
{
1070
     1
1000
160173
1002
}
1002
{
1070
     5
1000
142258
1002
}
1002
{
1070
     2
1000
-2000150
1002
}
  0
LINE
  5
13F
330
75
100
AcDbEntity
  8
A-----NOP
100
AcDbLine
 10
3274.454788840453
 20
2694.814181136445
 30
0.0
 11
3277.521519564839
 21
2702.244676100857
 31
0.0
1001
REVIT
1002
{
1070
     1
1000
160174
1002
}
1002
{
1070
     5
1000
142258
1002
}
1002
{
1070
     2
1000
-2000150
1002
}
  0
LINE
  5
140
330
75
100
AcDbEntity
  8
A-----NOP
100
AcDbLine
 10
3277.521519564839
 20
2702.244676100857
 30
0.0
 11
3262.122661836361
 21
2704.252026056921
 31
0.0
1001
REVIT
1002
{
1070
     1
1000
160174
1002
}
1002
{
1070
     5
1000
142258
1002
}
1002
{
1070
     2
1000
-2000150
1002
}
  0
LINE
  5
141
330
75
100
AcDbEntity
  8
A-----NOP
100
AcDbLine
 10
3262.122661836361
 20
2704.252026056921
 30
0.0
 11
3274.454788840453
 21
2694.814181136445
 31
0.0
1001
REVIT
1002
{
1070
     1
1000
160174
1002
}
1002
{
1070
     5
1000
142258
1002
}
1002
{
1070
     2
1000
-2000150
1002
}
  0
HATCH
  5
142
330
75
100
AcDbEntity
  8
A-----NOP
100
AcDbHatch
 10
0.0
 20
0.0
 30
0.0
210
0.0
220
0.0
230
1.0
  2
SOLID
 70
     1
 71
     0
 91
        1
 92
        0
 93
        3
 72
     1
 10
3274.454788840453
 20
2694.814181136445
 11
3277.521519564839
 21
2702.244676100857
 72
     1
 10
3277.521519564839
 20
2702.244676100857
 11
3262.122661836361
 21
2704.252026056921
 72
     1
 10
3262.122661836361
 20
2704.252026056921
 11
3274.454788840453
 21
2694.814181136445
 97
        0
 75
     0
 76
     1
 98
        1
 10
0.0
 20
0.0
450
        0
451
        0
460
0.0
461
0.0
452
        0
462
0.0
453
        0
470

1001
REVIT
1002
{
1070
     1
1000
160174
1002
}
1002
{
1070
     5
1000
142258
1002
}
1002
{
1070
     2
1000
-2000150
1002
}
  0
LINE
  5
143
330
75
100
AcDbEntity
  8
A-----NOP
100
AcDbLine
 10
3416.1304878817
 20
2640.689567002549
 30
0.0
 11
3464.377948366833
 21
2640.689567002607
 31
0.0
1001
REVIT
1002
{
1070
     1
1000
160174
1002
}
1002
{
1070
     5
1000
142258
1002
}
1002
{
1070
     2
1000
-2000150
1002
}
  0
LINE
  5
144
330
75
100
AcDbEntity
  8
A-----NOP
100
AcDbLine
 10
3262.122661836361
 20
2704.252026056921
 30
0.0
 11
3416.1304878817
 21
2640.689567002549
 31
0.0
1001
REVIT
1002
{
1070
     1
1000
160174
1002
}
1002
{
1070
     5
1000
142258
1002
}
1002
{
1070
     2
1000
-2000150
1002
}
  0
INSERT
  5
145
330
75
100
AcDbEntity
  8
A-----NOP
100
AcDbBlockReference
  2
M_Label Annotation - M_Label Annotation_1-142258-Detail 3
 10
3493.075770568372
 20
2645.988412704765
 30
0.0
 41
5.0
 42
5.0
 43
5.0
1001
REVIT
1002
{
1070
     1
1000
160174
1002
}
1002
{
1070
     5
1000
142258
1002
}
1002
{
1070
     2
1000
-2000150
1002
}
  0
LINE
  5
146
330
75
100
AcDbEntity
  8
A-----NOP
100
AcDbLine
 10
3091.639619911787
 20
2685.295371658177
 30
0.0
 11
3095.03279331273
 21
2692.582584226997
 31
0.0
1001
REVIT
1002
{
1070
     1
1000
160175
1002
}
1002
{
1070
     5
1000
142258
1002
}
1002
{
1070
     2
1000
-2000150
1002
}
  0
LINE
  5
147
330
75
100
AcDbEntity
  8
A-----NOP
100
AcDbLine
 10
3095.03279331273
 20
2692.582584226997
 30
0.0
 11
3079.738082836063
 21
2695.270725708193
 31
0.0
1001
REVIT
1002
{
1070
     1
1000
160175
1002
}
1002
{
1070
     5
1000
142258
1002
}
1002
{
1070
     2
1000
-2000150
1002
}
  0
LINE
  5
148
330
75
100
AcDbEntity
  8
A-----NOP
100
AcDbLine
 10
3079.738082836063
 20
2695.270725708193
 30
0.0
 11
3091.639619911787
 21
2685.295371658177
 31
0.0
1001
REVIT
1002
{
1070
     1
1000
160175
1002
}
1002
{
1070
     5
1000
142258
1002
}
1002
{
1070
     2
1000
-2000150
1002
}
  0
HATCH
  5
149
330
75
100
AcDbEntity
  8
A-----NOP
100
AcDbHatch
 10
0.0
 20
0.0
 30
0.0
210
0.0
220
0.0
230
1.0
  2
SOLID
 70
     1
 71
     0
 91
        1
 92
        0
 93
        3
 72
     1
 10
3091.639619911787
 20
2685.295371658177
 11
3095.03279331273
 21
2692.582584226997
 72
     1
 10
3095.03279331273
 20
2692.582584226997
 11
3079.738082836063
 21
2695.270725708193
 72
     1
 10
3079.738082836063
 20
2695.270725708193
 11
3091.639619911787
 21
2685.295371658177
 97
        0
 75
     0
 76
     1
 98
        1
 10
0.0
 20
0.0
450
        0
451
        0
460
0.0
461
0.0
452
        0
462
0.0
453
        0
470

1001
REVIT
1002
{
1070
     1
1000
160175
1002
}
1002
{
1070
     5
1000
142258
1002
}
1002
{
1070
     2
1000
-2000150
1002
}
  0
LINE
  5
14A
330
75
100
AcDbEntity
  8
A-----NOP
100
AcDbLine
 10
3416.1304878817
 20
2538.63500933508
 30
0.0
 11
3464.377948366833
 21
2538.635009335137
 31
0.0
1001
REVIT
1002
{
1070
     1
1000
160175
1002
}
1002
{
1070
     5
1000
142258
1002
}
1002
{
1070
     2
1000
-2000150
1002
}
  0
LINE
  5
14B
330
75
100
AcDbEntity
  8
A-----NOP
100
AcDbLine
 10
3079.738082836063
 20
2695.270725708193
 30
0.0
 11
3416.1304878817
 21
2538.63500933508
 31
0.0
1001
REVIT
1002
{
1070
     1
1000
160175
1002
}
1002
{
1070
     5
1000
142258
1002
}
1002
{
1070
     2
1000
-2000150
1002
}
  0
INSERT
  5
14C
330
75
100
AcDbEntity
  8
A-----NOP
100
AcDbBlockReference
  2
M_Label Annotation - M_Label Annotation_1-142258-Detail 3
 10
3493.075770568372
 20
2543.933855037295
 30
0.0
 41
5.0
 42
5.0
 43
5.0
1001
REVIT
1002
{
1070
     1
1000
160175
1002
}
1002
{
1070
     5
1000
142258
1002
}
1002
{
1070
     2
1000
-2000150
1002
}
  0
LINE
  5
14D
330
75
100
AcDbEntity
  8
A-----NOP
100
AcDbLine
 10
2950.501497989556
 20
2764.495001031999
 30
0.0
 11
2945.46965265567
 21
2758.226219229456
 31
0.0
1001
REVIT
1002
{
1070
     1
1000
160176
1002
}
1002
{
1070
     5
1000
142258
1002
}
1002
{
1070
     2
1000
-2000150
1002
}
  0
LINE
  5
14E
330
75
100
AcDbEntity
  8
A-----NOP
100
AcDbLine
 10
2945.46965265567
 20
2758.226219229456
 30
0.0
 11
2959.683281416939
 21
2751.971058909783
 31
0.0
1001
REVIT
1002
{
1070
     1
1000
160176
1002
}
1002
{
1070
     5
1000
142258
1002
}
1002
{
1070
     2
1000
-2000150
1002
}
  0
LINE
  5
14F
330
75
100
AcDbEntity
  8
A-----NOP
100
AcDbLine
 10
2959.683281416939
 20
2751.971058909783
 30
0.0
 11
2950.501497989556
 21
2764.495001031999
 31
0.0
1001
REVIT
1002
{
1070
     1
1000
160176
1002
}
1002
{
1070
     5
1000
142258
1002
}
1002
{
1070
     2
1000
-2000150
1002
}
  0
HATCH
  5
150
330
75
100
AcDbEntity
  8
A-----NOP
100
AcDbHatch
 10
0.0
 20
0.0
 30
0.0
210
0.0
220
0.0
230
1.0
  2
SOLID
 70
     1
 71
     0
 91
        1
 92
        0
 93
        3
 72
     1
 10
2950.501497989556
 20
2764.495001031999
 11
2945.46965265567
 21
2758.226219229456
 72
     1
 10
2945.46965265567
 20
2758.226219229456
 11
2959.683281416939
 21
2751.971058909783
 72
     1
 10
2959.683281416939
 20
2751.971058909783
 11
2950.501497989556
 21
2764.495001031999
 97
        0
 75
     0
 76
     1
 98
        1
 10
0.0
 20
0.0
450
        0
451
        0
460
0.0
461
0.0
452
        0
462
0.0
453
        0
470

1001
REVIT
1002
{
1070
     1
1000
160176
1002
}
1002
{
1070
     5
1000
142258
1002
}
1002
{
1070
     2
1000
-2000150
1002
}
  0
LINE
  5
151
330
75
100
AcDbEntity
  8
A-----NOP
100
AcDbLine
 10
2817.847593091849
 20
2865.820171697144
 30
0.0
 11
2740.450329454944
 21
2865.820171697201
 31
0.0
1001
REVIT
1002
{
1070
     1
1000
160176
1002
}
1002
{
1070
     5
1000
142258
1002
}
1002
{
1070
     2
1000
-2000150
1002
}
  0
LINE
  5
152
330
75
100
AcDbEntity
  8
A-----NOP
100
AcDbLine
 10
2959.683281416939
 20
2751.971058909783
 30
0.0
 11
2817.847593091849
 21
2865.820171697144
 31
0.0
1001
REVIT
1002
{
1070
     1
1000
160176
1002
}
1002
{
1070
     5
1000
142258
1002
}
1002
{
1070
     2
1000
-2000150
1002
}
  0
INSERT
  5
153
330
75
100
AcDbEntity
  8
A-----NOP
100
AcDbBlockReference
  2
M_Label Annotation - M_Label Annotation_1-142258-Detail 3
 10
2711.681659307609
 20
2871.11901739936
 30
0.0
 41
5.0
 42
5.0
 43
5.0
1001
REVIT
1002
{
1070
     1
1000
160176
1002
}
1002
{
1070
     5
1000
142258
1002
}
1002
{
1070
     2
1000
-2000150
1002
}
  0
LINE
  5
154
330
75
100
AcDbEntity
  8
A-----NOP
100
AcDbLine
 10
2909.44650432219
 20
2736.05709008617
 30
0.0
 11
2907.34580623479
 21
2728.297956094696
 31
0.0
1001
REVIT
1002
{
1070
     1
1000
160177
1002
}
1002
{
1070
     5
1000
142258
1002
}
1002
{
1070
     2
1000
-2000150
1002
}
  0
LINE
  5
155
330
75
100
AcDbEntity
  8
A-----NOP
100
AcDbLine
 10
2907.34580623479
 20
2728.297956094696
 30
0.0
 11
2922.874896417947
 21
2728.257567093665
 31
0.0
1001
REVIT
1002
{
1070
     1
1000
160177
1002
}
1002
{
1070
     5
1000
142258
1002
}
1002
{
1070
     2
1000
-2000150
1002
}
  0
LINE
  5
156
330
75
100
AcDbEntity
  8
A-----NOP
100
AcDbLine
 10
2922.874896417947
 20
2728.257567093665
 30
0.0
 11
2909.44650432219
 21
2736.05709008617
 31
0.0
1001
REVIT
1002
{
1070
     1
1000
160177
1002
}
1002
{
1070
     5
1000
142258
1002
}
1002
{
1070
     2
1000
-2000150
1002
}
  0
HATCH
  5
157
330
75
100
AcDbEntity
  8
A-----NOP
100
AcDbHatch
 10
0.0
 20
0.0
 30
0.0
210
0.0
220
0.0
230
1.0
  2
SOLID
 70
     1
 71
     0
 91
        1
 92
        0
 93
        3
 72
     1
 10
2909.44650432219
 20
2736.05709008617
 11
2907.34580623479
 21
2728.297956094696
 72
     1
 10
2907.34580623479
 20
2728.297956094696
 11
2922.874896417947
 21
2728.257567093665
 72
     1
 10
2922.874896417947
 20
2728.257567093665
 11
2909.44650432219
 21
2736.05709008617
 97
        0
 75
     0
 76
     1
 98
        1
 10
0.0
 20
0.0
450
        0
451
        0
460
0.0
461
0.0
452
        0
462
0.0
453
        0
470

1001
REVIT
1002
{
1070
     1
1000
160177
1002
}
1002
{
1070
     5
1000
142258
1002
}
1002
{
1070
     2
1000
-2000150
1002
}
  0
LINE
  5
158
330
75
100
AcDbEntity
  8
A-----NOP
100
AcDbLine
 10
2817.847593091849
 20
2756.692525874408
 30
0.0
 11
2740.450329454944
 21
2756.692525874465
 31
0.0
1001
REVIT
1002
{
1070
     1
1000
160177
1002
}
1002
{
1070
     5
1000
142258
1002
}
1002
{
1070
     2
1000
-2000150
1002
}
  0
LINE
  5
159
330
75
100
AcDbEntity
  8
A-----NOP
100
AcDbLine
 10
2922.874896417947
 20
2728.257567093665
 30
0.0
 11
2817.847593091849
 21
2756.692525874408
 31
0.0
1001
REVIT
1002
{
1070
     1
1000
160177
1002
}
1002
{
1070
     5
1000
142258
1002
}
1002
{
1070
     2
1000
-2000150
1002
}
  0
INSERT
  5
15A
330
75
100
AcDbEntity
  8
A-----NOP
100
AcDbBlockReference
  2
M_Label Annotation - M_Label Annotation_1-142258-Detail 3
 10
2711.681659307609
 20
2761.991371576622
 30
0.0
 41
5.0
 42
5.0
 43
5.0
1001
REVIT
1002
{
1070
     1
1000
160177
1002
}
1002
{
1070
     5
1000
142258
1002
}
1002
{
1070
     2
1000
-2000150
1002
}
  0
LINE
  5
15B
330
75
100
AcDbEntity
  8
A-----NOP
100
AcDbLine
 10
2878.463097925886
 20
2692.530543416216
 30
0.0
 11
2877.305057302203
 21
2684.575919938895
 31
0.0
1001
REVIT
1002
{
1070
     1
1000
160178
1002
}
1002
{
1070
     5
1000
142258
1002
}
1002
{
1070
     2
1000
-2000150
1002
}
  0
LINE
  5
15C
330
75
100
AcDbEntity
  8
A-----NOP
100
AcDbLine
 10
2877.305057302203
 20
2684.575919938895
 30
0.0
 11
2892.727607100265
 21
2686.392298455148
 31
0.0
1001
REVIT
1002
{
1070
     1
1000
160178
1002
}
1002
{
1070
     5
1000
142258
1002
}
1002
{
1070
     2
1000
-2000150
1002
}
  0
LINE
  5
15D
330
75
100
AcDbEntity
  8
A-----NOP
100
AcDbLine
 10
2892.727607100265
 20
2686.392298455148
 30
0.0
 11
2878.463097925886
 21
2692.530543416216
 31
0.0
1001
REVIT
1002
{
1070
     1
1000
160178
1002
}
1002
{
1070
     5
1000
142258
1002
}
1002
{
1070
     2
1000
-2000150
1002
}
  0
HATCH
  5
15E
330
75
100
AcDbEntity
  8
A-----NOP
100
AcDbHatch
 10
0.0
 20
0.0
 30
0.0
210
0.0
220
0.0
230
1.0
  2
SOLID
 70
     1
 71
     0
 91
        1
 92
        0
 93
        3
 72
     1
 10
2878.463097925886
 20
2692.530543416216
 11
2877.305057302203
 21
2684.575919938895
 72
     1
 10
2877.305057302203
 20
2684.575919938895
 11
2892.727607100265
 21
2686.392298455148
 72
     1
 10
2892.727607100265
 20
2686.392298455148
 11
2878.463097925886
 21
2692.530543416216
 97
        0
 75
     0
 76
     1
 98
        1
 10
0.0
 20
0.0
450
        0
451
        0
460
0.0
461
0.0
452
        0
462
0.0
453
        0
470

1001
REVIT
1002
{
1070
     1
1000
160178
1002
}
1002
{
1070
     5
1000
142258
1002
}
1002
{
1070
     2
1000
-2000150
1002
}
  0
LINE
  5
15F
330
75
100
AcDbEntity
  8
A-----NOP
100
AcDbLine
 10
2817.847593091849
 20
2697.293392437905
 30
0.0
 11
2740.450329454944
 21
2697.293392437963
 31
0.0
1001
REVIT
1002
{
1070
     1
1000
160178
1002
}
1002
{
1070
     5
1000
142258
1002
}
1002
{
1070
     2
1000
-2000150
1002
}
  0
LINE
  5
160
330
75
100
AcDbEntity
  8
A-----NOP
100
AcDbLine
 10
2892.727607100265
 20
2686.392298455148
 30
0.0
 11
2817.847593091849
 21
2697.293392437905
 31
0.0
1001
REVIT
1002
{
1070
     1
1000
160178
1002
}
1002
{
1070
     5
1000
142258
1002
}
1002
{
1070
     2
1000
-2000150
1002
}
  0
INSERT
  5
161
330
75
100
AcDbEntity
  8
A-----NOP
100
AcDbBlockReference
  2
M_Label Annotation - M_Label Annotation_1-142258-Detail 3
 10
2711.681659307609
 20
2702.592238140121
 30
0.0
 41
5.0
 42
5.0
 43
5.0
1001
REVIT
1002
{
1070
     1
1000
160178
1002
}
1002
{
1070
     5
1000
142258
1002
}
1002
{
1070
     2
1000
-2000150
1002
}
  0
MTEXT
  5
162
330
75
100
AcDbEntity
  8
A-----TEP
 62
     7
100
AcDbMText
 10
2600.222590415144
 20
2726.746688172016
 30
0.0
 40
12.29416167664671
 41
182.85
 46
0.0
 71
     1
 72
     1
  1
\fArial|b0|i0|c0|p34|;METAL EAVE DRIP\PEDGE FLASHING
 73
     2
 44
0.938531787846856
1001
REVIT
1002
{
1070
     1
1000
160179
1002
}
1002
{
1070
     5
1000
1631
1002
}
1002
{
1070
     2
1000
-2000059
1002
}
1002
{
1070
     3
1000
1632
1002
}
  0
LINE
  5
163
330
75
100
AcDbEntity
  8
A-----NOP
100
AcDbLine
 10
2810.097124304755
 20
2640.051427878435
 30
0.0
 11
2808.313568293607
 21
2632.213314539936
 31
0.0
1001
REVIT
1002
{
1070
     1
1000
160180
1002
}
1002
{
1070
     5
1000
142258
1002
}
1002
{
1070
     2
1000
-2000150
1002
}
  0
LINE
  5
164
330
75
100
AcDbEntity
  8
A-----NOP
100
AcDbLine
 10
2808.313568293607
 20
2632.213314539936
 30
0.0
 11
2823.83146490656
 21
2632.804210383311
 31
0.0
1001
REVIT
1002
{
1070
     1
1000
160180
1002
}
1002
{
1070
     5
1000
142258
1002
}
1002
{
1070
     2
1000
-2000150
1002
}
  0
LINE
  5
165
330
75
100
AcDbEntity
  8
A-----NOP
100
AcDbLine
 10
2823.83146490656
 20
2632.804210383311
 30
0.0
 11
2810.097124304755
 21
2640.051427878435
 31
0.0
1001
REVIT
1002
{
1070
     1
1000
160180
1002
}
1002
{
1070
     5
1000
142258
1002
}
1002
{
1070
     2
1000
-2000150
1002
}
  0
HATCH
  5
166
330
75
100
AcDbEntity
  8
A-----NOP
100
AcDbHatch
 10
0.0
 20
0.0
 30
0.0
210
0.0
220
0.0
230
1.0
  2
SOLID
 70
     1
 71
     0
 91
        1
 92
        0
 93
        3
 72
     1
 10
2810.097124304755
 20
2640.051427878435
 11
2808.313568293607
 21
2632.213314539936
 72
     1
 10
2808.313568293607
 20
2632.213314539936
 11
2823.83146490656
 21
2632.804210383311
 72
     1
 10
2823.83146490656
 20
2632.804210383311
 11
2810.097124304755
 21
2640.051427878435
 97
        0
 75
     0
 76
     1
 98
        1
 10
0.0
 20
0.0
450
        0
451
        0
460
0.0
461
0.0
452
        0
462
0.0
453
        0
470

1001
REVIT
1002
{
1070
     1
1000
160180
1002
}
1002
{
1070
     5
1000
142258
1002
}
1002
{
1070
     2
1000
-2000150
1002
}
  0
LINE
  5
167
330
75
100
AcDbEntity
  8
A-----NOP
100
AcDbLine
 10
2789.178043029282
 20
2640.689567002549
 30
0.0
 11
2740.450329454944
 21
2640.689567002607
 31
0.0
1001
REVIT
1002
{
1070
     1
1000
160180
1002
}
1002
{
1070
     5
1000
142258
1002
}
1002
{
1070
     2
1000
-2000150
1002
}
  0
LINE
  5
168
330
75
100
AcDbEntity
  8
A-----NOP
100
AcDbLine
 10
2823.83146490656
 20
2632.804210383311
 30
0.0
 11
2789.178043029282
 21
2640.689567002549
 31
0.0
1001
REVIT
1002
{
1070
     1
1000
160180
1002
}
1002
{
1070
     5
1000
142258
1002
}
1002
{
1070
     2
1000
-2000150
1002
}
  0
INSERT
  5
169
330
75
100
AcDbEntity
  8
A-----NOP
100
AcDbBlockReference
  2
M_Label Annotation - M_Label Annotation_1-142258-Detail 3
 10
2711.681659307609
 20
2645.988412704765
 30
0.0
 41
5.0
 42
5.0
 43
5.0
1001
REVIT
1002
{
1070
     1
1000
160180
1002
}
1002
{
1070
     5
1000
142258
1002
}
1002
{
1070
     2
1000
-2000150
1002
}
  0
LINE
  5
16A
330
75
100
AcDbEntity
  8
A-----NOP
100
AcDbLine
 10
2943.532040692005
 20
2562.914191221921
 30
0.0
 11
2941.842976577765
 21
2555.05517377888
 31
0.0
1001
REVIT
1002
{
1070
     1
1000
160181
1002
}
1002
{
1070
     5
1000
142258
1002
}
1002
{
1070
     2
1000
-2000150
1002
}
  0
LINE
  5
16B
330
75
100
AcDbEntity
  8
A-----NOP
100
AcDbLine
 10
2941.842976577765
 20
2555.05517377888
 30
0.0
 11
2957.352634832385
 21
2555.832845954606
 31
0.0
1001
REVIT
1002
{
1070
     1
1000
160181
1002
}
1002
{
1070
     5
1000
142258
1002
}
1002
{
1070
     2
1000
-2000150
1002
}
  0
LINE
  5
16C
330
75
100
AcDbEntity
  8
A-----NOP
100
AcDbLine
 10
2957.352634832385
 20
2555.832845954606
 30
0.0
 11
2943.532040692005
 21
2562.914191221921
 31
0.0
1001
REVIT
1002
{
1070
     1
1000
160181
1002
}
1002
{
1070
     5
1000
142258
1002
}
1002
{
1070
     2
1000
-2000150
1002
}
  0
HATCH
  5
16D
330
75
100
AcDbEntity
  8
A-----NOP
100
AcDbHatch
 10
0.0
 20
0.0
 30
0.0
210
0.0
220
0.0
230
1.0
  2
SOLID
 70
     1
 71
     0
 91
        1
 92
        0
 93
        3
 72
     1
 10
2943.532040692005
 20
2562.914191221921
 11
2941.842976577765
 21
2555.05517377888
 72
     1
 10
2941.842976577765
 20
2555.05517377888
 11
2957.352634832385
 21
2555.832845954606
 72
     1
 10
2957.352634832385
 20
2555.832845954606
 11
2943.532040692005
 21
2562.914191221921
 97
        0
 75
     0
 76
     1
 98
        1
 10
0.0
 20
0.0
450
        0
451
        0
460
0.0
461
0.0
452
        0
462
0.0
453
        0
470

1001
REVIT
1002
{
1070
     1
1000
160181
1002
}
1002
{
1070
     5
1000
142258
1002
}
1002
{
1070
     2
1000
-2000150
1002
}
  0
LINE
  5
16E
330
75
100
AcDbEntity
  8
A-----NOP
100
AcDbLine
 10
2817.847593091849
 20
2585.815342044909
 30
0.0
 11
2740.450329454944
 21
2585.815342044965
 31
0.0
1001
REVIT
1002
{
1070
     1
1000
160181
1002
}
1002
{
1070
     5
1000
142258
1002
}
1002
{
1070
     2
1000
-2000150
1002
}
  0
LINE
  5
16F
330
75
100
AcDbEntity
  8
A-----NOP
100
AcDbLine
 10
2957.352634832385
 20
2555.832845954606
 30
0.0
 11
2817.847593091849
 21
2585.815342044909
 31
0.0
1001
REVIT
1002
{
1070
     1
1000
160181
1002
}
1002
{
1070
     5
1000
142258
1002
}
1002
{
1070
     2
1000
-2000150
1002
}
  0
INSERT
  5
170
330
75
100
AcDbEntity
  8
A-----NOP
100
AcDbBlockReference
  2
M_Label Annotation - M_Label Annotation_1-142258-Detail 3
 10
2711.681659307609
 20
2591.114187747124
 30
0.0
 41
5.0
 42
5.0
 43
5.0
1001
REVIT
1002
{
1070
     1
1000
160181
1002
}
1002
{
1070
     5
1000
142258
1002
}
1002
{
1070
     2
1000
-2000150
1002
}
  0
LINE
  5
171
330
75
100
AcDbEntity
  8
A-----NOP
100
AcDbLine
 10
3027.675464067926
 20
2513.138085674722
 30
0.0
 11
3026.774494039301
 21
2505.150260829399
 31
0.0
1001
REVIT
1002
{
1070
     1
1000
160182
1002
}
1002
{
1070
     5
1000
142258
1002
}
1002
{
1070
     2
1000
-2000150
1002
}
  0
LINE
  5
172
330
75
100
AcDbEntity
  8
A-----NOP
100
AcDbLine
 10
3026.774494039301
 20
2505.150260829399
 30
0.0
 11
3042.130463135967
 21
2507.462940290599
 31
0.0
1001
REVIT
1002
{
1070
     1
1000
160182
1002
}
1002
{
1070
     5
1000
142258
1002
}
1002
{
1070
     2
1000
-2000150
1002
}
  0
LINE
  5
173
330
75
100
AcDbEntity
  8
A-----NOP
100
AcDbLine
 10
3042.130463135967
 20
2507.462940290599
 30
0.0
 11
3027.675464067926
 21
2513.138085674722
 31
0.0
1001
REVIT
1002
{
1070
     1
1000
160182
1002
}
1002
{
1070
     5
1000
142258
1002
}
1002
{
1070
     2
1000
-2000150
1002
}
  0
HATCH
  5
174
330
75
100
AcDbEntity
  8
A-----NOP
100
AcDbHatch
 10
0.0
 20
0.0
 30
0.0
210
0.0
220
0.0
230
1.0
  2
SOLID
 70
     1
 71
     0
 91
        1
 92
        0
 93
        3
 72
     1
 10
3027.675464067926
 20
2513.138085674722
 11
3026.774494039301
 21
2505.150260829399
 72
     1
 10
3026.774494039301
 20
2505.150260829399
 11
3042.130463135967
 21
2507.462940290599
 72
     1
 10
3042.130463135967
 20
2507.462940290599
 11
3027.675464067926
 21
2513.138085674722
 97
        0
 75
     0
 76
     1
 98
        1
 10
0.0
 20
0.0
450
        0
451
        0
460
0.0
461
0.0
452
        0
462
0.0
453
        0
470

1001
REVIT
1002
{
1070
     1
1000
160182
1002
}
1002
{
1070
     5
1000
142258
1002
}
1002
{
1070
     2
1000
-2000150
1002
}
  0
LINE
  5
175
330
75
100
AcDbEntity
  8
A-----NOP
100
AcDbLine
 10
2817.847593091849
 20
2532.760458420578
 30
0.0
 11
2740.450329454944
 21
2532.760458420636
 31
0.0
1001
REVIT
1002
{
1070
     1
1000
160182
1002
}
1002
{
1070
     5
1000
142258
1002
}
1002
{
1070
     2
1000
-2000150
1002
}
  0
LINE
  5
176
330
75
100
AcDbEntity
  8
A-----NOP
100
AcDbLine
 10
3042.130463135967
 20
2507.462940290599
 30
0.0
 11
2817.847593091849
 21
2532.760458420578
 31
0.0
1001
REVIT
1002
{
1070
     1
1000
160182
1002
}
1002
{
1070
     5
1000
142258
1002
}
1002
{
1070
     2
1000
-2000150
1002
}
  0
INSERT
  5
177
330
75
100
AcDbEntity
  8
A-----NOP
100
AcDbBlockReference
  2
M_Label Annotation - M_Label Annotation_1-142258-Detail 3
 10
2711.681659307609
 20
2538.059304122794
 30
0.0
 41
5.0
 42
5.0
 43
5.0
1001
REVIT
1002
{
1070
     1
1000
160182
1002
}
1002
{
1070
     5
1000
142258
1002
}
1002
{
1070
     2
1000
-2000150
1002
}
  0
MTEXT
  5
178
330
75
100
AcDbEntity
  8
A-----TEP
 62
     7
100
AcDbMText
 10
3469.940559608569
 20
2480.405673425101
 30
0.0
 40
12.29416167664671
 41
143.1
 46
0.0
 71
     1
 72
     1
  1
\fArial|b0|i0|c0|p34|;AIR VENT GAP
 73
     2
 44
0.938531787846856
1001
REVIT
1002
{
1070
     1
1000
160183
1002
}
1002
{
1070
     5
1000
1631
1002
}
1002
{
1070
     2
1000
-2000059
1002
}
1002
{
1070
     3
1000
1632
1002
}
  0
LINE
  5
179
330
75
100
AcDbEntity
  8
A-----NOP
100
AcDbLine
 10
2993.606244605613
 20
2689.247412623353
 30
0.0
 11
2997.403853159855
 21
2696.332274091356
 31
0.0
1001
REVIT
1002
{
1070
     1
1000
160184
1002
}
1002
{
1070
     5
1000
142258
1002
}
1002
{
1070
     2
1000
-2000150
1002
}
  0
LINE
  5
17A
330
75
100
AcDbEntity
  8
A-----NOP
100
AcDbLine
 10
2997.403853159855
 20
2696.332274091356
 30
0.0
 11
2982.284517401146
 21
2699.876277393198
 31
0.0
1001
REVIT
1002
{
1070
     1
1000
160184
1002
}
1002
{
1070
     5
1000
142258
1002
}
1002
{
1070
     2
1000
-2000150
1002
}
  0
LINE
  5
17B
330
75
100
AcDbEntity
  8
A-----NOP
100
AcDbLine
 10
2982.284517401146
 20
2699.876277393198
 30
0.0
 11
2993.606244605613
 21
2689.247412623353
 31
0.0
1001
REVIT
1002
{
1070
     1
1000
160184
1002
}
1002
{
1070
     5
1000
142258
1002
}
1002
{
1070
     2
1000
-2000150
1002
}
  0
HATCH
  5
17C
330
75
100
AcDbEntity
  8
A-----NOP
100
AcDbHatch
 10
0.0
 20
0.0
 30
0.0
210
0.0
220
0.0
230
1.0
  2
SOLID
 70
     1
 71
     0
 91
        1
 92
        0
 93
        3
 72
     1
 10
2993.606244605613
 20
2689.247412623353
 11
2997.403853159855
 21
2696.332274091356
 72
     1
 10
2997.403853159855
 20
2696.332274091356
 11
2982.284517401146
 21
2699.876277393198
 72
     1
 10
2982.284517401146
 20
2699.876277393198
 11
2993.606244605613
 21
2689.247412623353
 97
        0
 75
     0
 76
     1
 98
        1
 10
0.0
 20
0.0
450
        0
451
        0
460
0.0
461
0.0
452
        0
462
0.0
453
        0
470

1001
REVIT
1002
{
1070
     1
1000
160184
1002
}
1002
{
1070
     5
1000
142258
1002
}
1002
{
1070
     2
1000
-2000150
1002
}
  0
LINE
  5
17D
330
75
100
AcDbEntity
  8
A-----NOP
100
AcDbLine
 10
3416.1304878817
 20
2467.327317027374
 30
0.0
 11
3464.377948366833
 21
2467.327317027431
 31
0.0
1001
REVIT
1002
{
1070
     1
1000
160184
1002
}
1002
{
1070
     5
1000
142258
1002
}
1002
{
1070
     2
1000
-2000150
1002
}
  0
LINE
  5
17E
330
75
100
AcDbEntity
  8
A-----NOP
100
AcDbLine
 10
2982.284517401146
 20
2699.876277393198
 30
0.0
 11
3416.1304878817
 21
2467.327317027374
 31
0.0
1001
REVIT
1002
{
1070
     1
1000
160184
1002
}
1002
{
1070
     5
1000
142258
1002
}
1002
{
1070
     2
1000
-2000150
1002
}
  0
INSERT
  5
17F
330
75
100
AcDbEntity
  8
A-----NOP
100
AcDbBlockReference
  2
M_Label Annotation - M_Label Annotation_1-142258-Detail 3
 10
3493.075770568372
 20
2472.626162729588
 30
0.0
 41
5.0
 42
5.0
 43
5.0
1001
REVIT
1002
{
1070
     1
1000
160184
1002
}
1002
{
1070
     5
1000
142258
1002
}
1002
{
1070
     2
1000
-2000150
1002
}
  0
MTEXT
  5
180
330
75
100
AcDbEntity
  8
A-----TEP
 62
     7
100
AcDbMText
 10
3469.940559608569
 20
2650.76472244111
 30
0.0
 40
12.29416167664671
 41
81.6
 46
0.0
 71
     1
 72
     1
  1
\fArial|b0|i0|c0|p34|;RAFTER
 73
     2
 44
0.938531787846856
1001
REVIT
1002
{
1070
     1
1000
160185
1002
}
1002
{
1070
     5
1000
1631
1002
}
1002
{
1070
     2
1000
-2000059
1002
}
1002
{
1070
     3
1000
1632
1002
}
  0
LINE
  5
181
330
75
100
AcDbEntity
  8
A-----NOP
100
AcDbLine
 10
3296.503872103832
 20
2761.235275290473
 30
0.0
 11
3299.491205110484
 21
2768.69804516897
 31
0.0
1001
REVIT
1002
{
1070
     1
1000
160186
1002
}
1002
{
1070
     5
1000
142258
1002
}
1002
{
1070
     2
1000
-2000150
1002
}
  0
LINE
  5
182
330
75
100
AcDbEntity
  8
A-----NOP
100
AcDbLine
 10
3299.491205110484
 20
2768.69804516897
 30
0.0
 11
3284.071820431284
 21
2770.541099509698
 31
0.0
1001
REVIT
1002
{
1070
     1
1000
160186
1002
}
1002
{
1070
     5
1000
142258
1002
}
1002
{
1070
     2
1000
-2000150
1002
}
  0
LINE
  5
183
330
75
100
AcDbEntity
  8
A-----NOP
100
AcDbLine
 10
3284.071820431284
 20
2770.541099509698
 30
0.0
 11
3296.503872103832
 21
2761.235275290473
 31
0.0
1001
REVIT
1002
{
1070
     1
1000
160186
1002
}
1002
{
1070
     5
1000
142258
1002
}
1002
{
1070
     2
1000
-2000150
1002
}
  0
HATCH
  5
184
330
75
100
AcDbEntity
  8
A-----NOP
100
AcDbHatch
 10
0.0
 20
0.0
 30
0.0
210
0.0
220
0.0
230
1.0
  2
SOLID
 70
     1
 71
     0
 91
        1
 92
        0
 93
        3
 72
     1
 10
3296.503872103832
 20
2761.235275290473
 11
3299.491205110484
 21
2768.69804516897
 72
     1
 10
3299.491205110484
 20
2768.69804516897
 11
3284.071820431284
 21
2770.541099509698
 72
     1
 10
3284.071820431284
 20
2770.541099509698
 11
3296.503872103832
 21
2761.235275290473
 97
        0
 75
     0
 76
     1
 98
        1
 10
0.0
 20
0.0
450
        0
451
        0
460
0.0
461
0.0
452
        0
462
0.0
453
        0
470

1001
REVIT
1002
{
1070
     1
1000
160186
1002
}
1002
{
1070
     5
1000
142258
1002
}
1002
{
1070
     2
1000
-2000150
1002
}
  0
LINE
  5
185
330
75
100
AcDbEntity
  8
A-----NOP
100
AcDbLine
 10
3416.1304878817
 20
2717.678258699639
 30
0.0
 11
3464.377948366833
 21
2717.678258699696
 31
0.0
1001
REVIT
1002
{
1070
     1
1000
160186
1002
}
1002
{
1070
     5
1000
142258
1002
}
1002
{
1070
     2
1000
-2000150
1002
}
  0
LINE
  5
186
330
75
100
AcDbEntity
  8
A-----NOP
100
AcDbLine
 10
3284.071820431284
 20
2770.541099509698
 30
0.0
 11
3416.1304878817
 21
2717.678258699639
 31
0.0
1001
REVIT
1002
{
1070
     1
1000
160186
1002
}
1002
{
1070
     5
1000
142258
1002
}
1002
{
1070
     2
1000
-2000150
1002
}
  0
INSERT
  5
187
330
75
100
AcDbEntity
  8
A-----NOP
100
AcDbBlockReference
  2
M_Label Annotation - M_Label Annotation_1-142258-Detail 3
 10
3493.075770568372
 20
2722.977104401854
 30
0.0
 41
5.0
 42
5.0
 43
5.0
1001
REVIT
1002
{
1070
     1
1000
160186
1002
}
1002
{
1070
     5
1000
142258
1002
}
1002
{
1070
     2
1000
-2000150
1002
}
  0
MTEXT
  5
188
330
75
100
AcDbEntity
  8
A-----TEP
 62
     7
100
AcDbMText
 10
2489.974547687417
 20
2898.906081911672
 30
0.0
 40
12.29416167664671
 41
292.65
 46
0.0
 71
     1
 72
     1
  1
\fArial|b0|i0|c0|p34|;SELECTED OWENS CORNING\PASPHALT SHINGLES
 73
     2
 44
0.938531787846856
1001
REVIT
1002
{
1070
     1
1000
160189
1002
}
1002
{
1070
     5
1000
1631
1002
}
1002
{
1070
     2
1000
-2000059
1002
}
1002
{
1070
     3
1000
1632
1002
}
  0
MTEXT
  5
189
330
75
100
AcDbEntity
  8
A-----TEP
 62
     7
100
AcDbMText
 10
3472.440559608577
 20
2826.237623428179
 30
0.0
 40
12.29416167664671
 41
175.5
 46
0.0
 71
     1
 72
     1
  1
\fArial|b0|i0|c0|p34|;No15 RAG FELT\PROOF UNDERLAY\P
 73
     2
 44
0.938531787846856
1001
REVIT
1002
{
1070
     1
1000
160190
1002
}
1002
{
1070
     5
1000
1631
1002
}
1002
{
1070
     2
1000
-2000059
1002
}
1002
{
1070
     3
1000
1632
1002
}
  0
INSERT
  5
1BC
330
71
100
AcDbEntity
 67
     1
  8
G-----TTP
100
AcDbBlockReference
  2
A4 SPS - A4 sps_0-163380-EAVE-CROSS SECTION
 10
0.0
 20
0.0
 30
0.0
1001
REVIT
1002
{
1070
     1
1000
164733
1002
}
1002
{
1070
     5
1000
163380
1002
}
1002
{
1070
     2
1000
-2000280
1002
}
  0
MTEXT
  5
1BD
330
71
100
AcDbEntity
 67
     1
  8
G-----TTP
100
AcDbMText
 10
290.2137418420315
 20
93.41593409203412
 30
0.0
 40
1.721182634730538
 41
6.383685842232174
 46
0.0
 71
     3
 72
     1
  1
\fArial|b0|i0|c0|p34|; 1 : 5
 73
     2
 44
0.9385317878468564
1001
REVIT
1002
{
1070
     1
1000
164733
1002
}
1002
{
1070
     5
1000
163380
1002
}
1002
{
1070
     2
1000
-2000059
1002
}
1002
{
1070
     3
1000
165231
1002
}
  0
MTEXT
  5
1BE
330
71
100
AcDbEntity
 67
     1
  8
G-----TTP
100
AcDbMText
 10
216.8973466727144
 20
111.2275978795859
 30
0.0
 40
2.95059880239521
 41
55.296
 46
0.0
 71
     1
 72
     1
  1
\fArial|b0|i0|c0|p34|;EAVE-CROSS SECTION
 73
     2
 44
0.9385317878468562
1001
REVIT
1002
{
1070
     1
1000
164733
1002
}
1002
{
1070
     5
1000
163380
1002
}
1002
{
1070
     2
1000
-2000059
1002
}
1002
{
1070
     3
1000
165199
1002
}
  0
MTEXT
  5
1BF
330
71
100
AcDbEntity
 67
     1
  8
G-----TTP
100
AcDbMText
 10
273.1795488079906
 20
101.1312212254742
 30
0.0
 40
2.95059880239521
 41
8.208
 46
0.0
 71
     2
 72
     1
  1
\fArial|b0|i0|c0|p34|;003
 73
     2
 44
0.9385317878468562
1001
REVIT
1002
{
1070
     1
1000
164733
1002
}
1002
{
1070
     5
1000
163380
1002
}
1002
{
1070
     2
1000
-2000059
1002
}
1002
{
1070
     3
1000
165199
1002
}
  0
VIEWPORT
  5
1C0
330
71
100
AcDbEntity
 67
     1
  8
A-----NPP
  6
Continuous
100
AcDbViewport
 10
160.3507270274949
 20
218.2001071904804
 30
0.0
 40
271.1484499942519
 41
147.4128030105246
 68
    -1
 69
     2
 12
3135.341099170688
 22
2661.383896701571
 13
0.0
 23
0.0
 14
0.0
 24
0.0
 15
0.0
 25
0.0
 16
0.0
 26
0.0
 36
1.0
 17
0.0
 27
0.0
 37
0.0
 42
0.0
 43
0.0
 44
0.0
 45
737.0640150526229
 50
0.0
 51
0.0
 72
   100
 90
    32768
  1

281
     0
 71
     1
 74
     1
110
0.0
120
0.0
130
0.0
111
1.0
121
0.0
131
0.0
112
0.0
122
1.0
132
0.0
 79
     0
146
0.0
170
     0
 61
     5
292
     1
282
     1
141
0.0
142
0.0
 63
   250
421
  3355443
  0
VIEWPORT
  5
1C2
330
71
100
AcDbEntity
 67
     1
  8
0
100
AcDbViewport
 10
6.0
 20
4.5
 30
0.0
 40
12.0
 41
9.0
 68
    -1
 69
     1
 12
6.0
 22
4.5
 13
0.0
 23
0.0
 14
0.0
 24
0.0
 15
0.0
 25
0.0
 16
0.0
 26
0.0
 36
1.0
 17
0.0
 27
0.0
 37
0.0
 42
50.0
 43
0.0
 44
0.0
 45
12.0
 50
0.0
 51
0.0
 72
   100
 90
    32800
  1

281
     0
 71
     1
 74
     1
110
0.0
120
0.0
130
0.0
111
1.0
121
0.0
131
0.0
112
0.0
122
1.0
132
0.0
 79
     0
146
0.0
170
     0
 61
     5
292
     1
282
     1
141
0.0
142
0.0
 63
   250
421
  3355443
  0
ENDSEC
  0
SECTION
  2
OBJECTS
  0
DICTIONARY
  5
C
330
0
100
AcDbDictionary
281
     1
  3
ACAD_COLOR
350
6B
  3
ACAD_GROUP
350
D
  3
ACAD_IMAGE_DICT
350
81
  3
ACAD_LAYOUT
350
6A
  3
ACAD_MATERIAL
350
10
  3
ACAD_MLEADERSTYLE
350
6E
  3
ACAD_MLINESTYLE
350
67
  3
ACAD_PLOTSETTINGS
350
69
  3
ACAD_PLOTSTYLENAME
350
E
  3
ACAD_SCALELIST
350
3A
  3
ACAD_TABLESTYLE
350
6C
  3
ACAD_VISUALSTYLE
350
29
  3
ACDB_RECOMPOSE_DATA
350
1D4
  3
AcDbVariableDictionary
350
1CE
  3
REVIT_DICTIONARY
350
1C5
  0
DICTIONARY
  5
1C9
330
75
100
AcDbDictionary
280
     1
281
     1
  3
ACAD_SORTENTS
360
1CA
  0
DICTIONARY
  5
6B
102
{ACAD_REACTORS
330
C
102
}
330
C
100
AcDbDictionary
281
     1
  0
DICTIONARY
  5
D
102
{ACAD_REACTORS
330
C
102
}
330
C
100
AcDbDictionary
281
     1
  0
DICTIONARY
  5
81
102
{ACAD_REACTORS
330
C
102
}
330
C
100
AcDbDictionary
281
     1
  3
003-EAVE-CROSSSECTION-rvt-SPSA-rvt-SPSBanner-165453-166201
350
82
  3
003-EAVE-CROSSSECTION-rvt-SPSBanner-165453
350
18C
  0
DICTIONARY
  5
6A
102
{ACAD_REACTORS
330
C
102
}
330
C
100
AcDbDictionary
281
     1
  3
Layout1
350
74
  3
Layout2
350
7C
  3
Model
350
78
  0
DICTIONARY
  5
10
102
{ACAD_REACTORS
330
C
102
}
330
C
100
AcDbDictionary
281
     1
  3
ByBlock
350
19
  3
ByLayer
350
11
  3
Global
350
21
  0
DICTIONARY
  5
6E
102
{ACAD_REACTORS
330
C
102
}
330
C
100
AcDbDictionary
281
     1
  3
Standard
350
6F
  0
DICTIONARY
  5
67
102
{ACAD_REACTORS
330
C
102
}
330
C
100
AcDbDictionary
281
     1
  3
Standard
350
68
  0
DICTIONARY
  5
69
102
{ACAD_REACTORS
330
C
102
}
330
C
100
AcDbDictionary
281
     1
  0
ACDBDICTIONARYWDFLT
  5
E
102
{ACAD_REACTORS
330
C
102
}
330
C
100
AcDbDictionary
281
     1
  3
Normal
350
F
100
AcDbDictionaryWithDefault
340
F
  0
DICTIONARY
  5
3A
102
{ACAD_REACTORS
330
C
102
}
330
C
100
AcDbDictionary
281
     1
  3
A0
350
3B
  3
A1
350
3C
  3
A2
350
3D
  3
A3
350
3E
  3
A4
350
3F
  3
A5
350
40
  3
A6
350
41
  3
A7
350
42
  3
A8
350
43
  3
A9
350
44
  3
B0
350
45
  3
B1
350
46
  3
B2
350
47
  3
B3
350
48
  3
B4
350
49
  3
B5
350
4A
  3
B6
350
4B
  3
B7
350
4C
  3
B8
350
4D
  3
B9
350
4E
  3
C0
350
4F
  3
C1
350
50
  3
C2
350
51
  3
C3
350
52
  3
C4
350
53
  3
C5
350
54
  3
C6
350
55
  3
C7
350
56
  3
C8
350
57
  3
C9
350
58
  3
D0
350
59
  3
D1
350
5A
  3
D2
350
5B
  0
DICTIONARY
  5
6C
102
{ACAD_REACTORS
330
C
102
}
330
C
100
AcDbDictionary
281
     1
  3
Standard
350
6D
  0
DICTIONARY
  5
29
102
{ACAD_REACTORS
330
C
102
}
330
C
100
AcDbDictionary
281
     1
  3
2dWireframe
350
2F
  3
3D Hidden
350
31
  3
3dWireframe
350
30
  3
Basic
350
2E
  3
Brighten
350
35
  3
ColorChange
350
39
  3
Conceptual
350
32
  3
Dim
350
34
  3
Facepattern
350
38
  3
Flat
350
2A
  3
FlatWithEdges
350
2B
  3
Gouraud
350
2C
  3
GouraudWithEdges
350
2D
  3
Linepattern
350
37
  3
Realistic
350
33
  3
Thicken
350
36
  0
XRECORD
  5
1D4
102
{ACAD_REACTORS
330
C
102
}
330
C
100
AcDbXrecord
280
     1
 90
        1
330
6D
  0
DICTIONARY
  5
1CE
102
{ACAD_REACTORS
330
C
102
}
330
C
100
AcDbDictionary
281
     1
  3
CANNOSCALE
350
1D1
  3
CMLEADERSTYLE
350
1D0
  3
CTABLESTYLE
350
1CF
  0
DICTIONARY
  5
1C5
102
{ACAD_REACTORS
330
C
102
}
330
C
100
AcDbDictionary
281
     1
  3
REVIT_CATEGORY_MAPPING
350
1C7
  3
REVIT_SUB_CATEGORY_MAPPING
350
1C8
  3
REVIT_TYPE_MAPPING
350
1C6
  0
SORTENTSTABLE
  5
1CA
102
{ACAD_REACTORS
330
1C9
102
}
330
1C9
100
AcDbSortentsTable
330
75
  0
IMAGEDEF
  5
82
102
{ACAD_REACTORS
330
81
102
}
330
81
100
AcDbRasterImageDef
 90
        0
  1
C:\Documents and Settings\Edwards\Desktop\south pacific S\SPS 3\003-EAVE-CROSSSECTION-rvt-SPSA-rvt-SPSBanner-165453-166201.jpg
 10
1217.0
 20
288.0
 11
0.2645833333333333
 21
0.2645833333333333
280
     1
281
     5
  0
IMAGEDEF
  5
18C
102
{ACAD_REACTORS
330
81
102
}
330
81
100
AcDbRasterImageDef
 90
        0
  1
C:\Documents and Settings\Edwards\Desktop\south pacific S\SPS 3\003-EAVE-CROSSSECTION-rvt-SPSBanner-165453.jpg
 10
1217.0
 20
288.0
 11
0.2645833333333333
 21
0.2645833333333333
280
     1
281
     5
  0
LAYOUT
  5
74
102
{ACAD_REACTORS
330
6A
102
}
330
6A
100
AcDbPlotSettings
  1

  2

  4

  6

 40
0.0
 41
0.0
 42
0.0
 43
0.0
 44
0.0
 45
0.0
 46
0.0
 47
0.0
 48
0.0
 49
0.0
140
0.0
141
0.0
142
1.0
143
1.0
 70
   688
 72
     0
 73
     0
 74
     5
  7

 75
    16
147
1.0
 76
     0
 77
     2
 78
   300
148
0.0
149
0.0
100
AcDbLayout
  1
Layout1
 70
     1
 71
     1
 10
0.0
 20
0.0
 11
12.0
 21
9.0
 12
0.0
 22
0.0
 32
0.0
 14
0.0
 24
0.0
 34
0.0
 15
0.0
 25
0.0
 35
0.0
146
0.0
 13
0.0
 23
0.0
 33
0.0
 16
1.0
 26
0.0
 36
0.0
 17
0.0
 27
1.0
 37
0.0
 76
     0
330
71
  0
LAYOUT
  5
7C
102
{ACAD_REACTORS
330
6A
102
}
330
6A
100
AcDbPlotSettings
  1

  2

  4

  6

 40
0.0
 41
0.0
 42
0.0
 43
0.0
 44
0.0
 45
0.0
 46
0.0
 47
0.0
 48
0.0
 49
0.0
140
0.0
141
0.0
142
1.0
143
1.0
 70
   688
 72
     0
 73
     0
 74
     5
  7

 75
    16
147
1.0
 76
     0
 77
     2
 78
   300
148
0.0
149
0.0
100
AcDbLayout
  1
Layout2
 70
     1
 71
     2
 10
0.0
 20
0.0
 11
12.0
 21
9.0
 12
0.0
 22
0.0
 32
0.0
 14
0.0
 24
0.0
 34
0.0
 15
0.0
 25
0.0
 35
0.0
146
0.0
 13
0.0
 23
0.0
 33
0.0
 16
1.0
 26
0.0
 36
0.0
 17
0.0
 27
1.0
 37
0.0
 76
     0
330
79
  0
LAYOUT
  5
78
102
{ACAD_REACTORS
330
6A
102
}
330
6A
100
AcDbPlotSettings
  1

  2

  4

  6

 40
0.0
 41
0.0
 42
0.0
 43
0.0
 44
0.0
 45
0.0
 46
0.0
 47
0.0
 48
0.0
 49
0.0
140
0.0
141
0.0
142
1.0
143
1.0
 70
  1712
 72
     0
 73
     0
 74
     0
  7

 75
     0
147
1.0
 76
     0
 77
     2
 78
   300
148
0.0
149
0.0
100
AcDbLayout
  1
Model
 70
     1
 71
     0
 10
0.0
 20
0.0
 11
12.0
 21
9.0
 12
0.0
 22
0.0
 32
0.0
 14
0.0
 24
0.0
 34
0.0
 15
0.0
 25
0.0
 35
0.0
146
0.0
 13
0.0
 23
0.0
 33
0.0
 16
1.0
 26
0.0
 36
0.0
 17
0.0
 27
1.0
 37
0.0
 76
     0
330
75
  0
MATERIAL
  5
19
102
{ACAD_XDICTIONARY
360
1A
102
}
102
{ACAD_REACTORS
330
10
102
}
330
10
100
AcDbMaterial
  1
ByBlock
 72
     0
 43
0.0208333333333333
 43
0.0
 43
0.0
 43
0.0
 43
0.0
 43
0.0208333333333333
 43
0.0
 43
0.0
 43
0.0
 43
0.0
 43
1.0
 43
0.0
 43
0.0
 43
0.0
 43
0.0
 43
1.0
 77
     0
 47
0.0208333333333333
 47
0.0
 47
0.0
 47
0.0
 47
0.0
 47
0.0208333333333333
 47
0.0
 47
0.0
 47
0.0
 47
0.0
 47
1.0
 47
0.0
 47
0.0
 47
0.0
 47
0.0
 47
1.0
171
     0
 49
0.0208333333333333
 49
0.0
 49
0.0
 49
0.0
 49
0.0
 49
0.0208333333333333
 49
0.0
 49
0.0
 49
0.0
 49
0.0
 49
1.0
 49
0.0
 49
0.0
 49
0.0
 49
0.0
 49
1.0
175
     0
142
0.0208333333333333
142
0.0
142
0.0
142
0.0
142
0.0
142
0.0208333333333333
142
0.0
142
0.0
142
0.0
142
0.0
142
1.0
142
0.0
142
0.0
142
0.0
142
0.0
142
1.0
179
     0
144
0.0208333333333333
144
0.0
144
0.0
144
0.0
144
0.0
144
0.0208333333333333
144
0.0
144
0.0
144
0.0
144
0.0
144
1.0
144
0.0
144
0.0
144
0.0
144
0.0
144
1.0
147
0.0208333333333333
147
0.0
147
0.0
147
0.0
147
0.0
147
0.0208333333333333
147
0.0
147
0.0
147
0.0
147
0.0
147
1.0
147
0.0
147
0.0
147
0.0
147
0.0
147
1.0
  0
MATERIAL
  5
11
102
{ACAD_XDICTIONARY
360
12
102
}
102
{ACAD_REACTORS
330
10
102
}
330
10
100
AcDbMaterial
  1
ByLayer
 72
     0
 43
0.0208333333333333
 43
0.0
 43
0.0
 43
0.0
 43
0.0
 43
0.0208333333333333
 43
0.0
 43
0.0
 43
0.0
 43
0.0
 43
1.0
 43
0.0
 43
0.0
 43
0.0
 43
0.0
 43
1.0
 77
     0
 47
0.0208333333333333
 47
0.0
 47
0.0
 47
0.0
 47
0.0
 47
0.0208333333333333
 47
0.0
 47
0.0
 47
0.0
 47
0.0
 47
1.0
 47
0.0
 47
0.0
 47
0.0
 47
0.0
 47
1.0
171
     0
 49
0.0208333333333333
 49
0.0
 49
0.0
 49
0.0
 49
0.0
 49
0.0208333333333333
 49
0.0
 49
0.0
 49
0.0
 49
0.0
 49
1.0
 49
0.0
 49
0.0
 49
0.0
 49
0.0
 49
1.0
175
     0
142
0.0208333333333333
142
0.0
142
0.0
142
0.0
142
0.0
142
0.0208333333333333
142
0.0
142
0.0
142
0.0
142
0.0
142
1.0
142
0.0
142
0.0
142
0.0
142
0.0
142
1.0
179
     0
144
0.0208333333333333
144
0.0
144
0.0
144
0.0
144
0.0
144
0.0208333333333333
144
0.0
144
0.0
144
0.0
144
0.0
144
1.0
144
0.0
144
0.0
144
0.0
144
0.0
144
1.0
147
0.0208333333333333
147
0.0
147
0.0
147
0.0
147
0.0
147
0.0208333333333333
147
0.0
147
0.0
147
0.0
147
0.0
147
1.0
147
0.0
147
0.0
147
0.0
147
0.0
147
1.0
  0
MATERIAL
  5
21
102
{ACAD_XDICTIONARY
360
22
102
}
102
{ACAD_REACTORS
330
10
102
}
330
10
100
AcDbMaterial
  1
Global
 72
     0
 43
0.0208333333333333
 43
0.0
 43
0.0
 43
0.0
 43
0.0
 43
0.0208333333333333
 43
0.0
 43
0.0
 43
0.0
 43
0.0
 43
1.0
 43
0.0
 43
0.0
 43
0.0
 43
0.0
 43
1.0
 77
     0
 47
0.0208333333333333
 47
0.0
 47
0.0
 47
0.0
 47
0.0
 47
0.0208333333333333
 47
0.0
 47
0.0
 47
0.0
 47
0.0
 47
1.0
 47
0.0
 47
0.0
 47
0.0
 47
0.0
 47
1.0
171
     0
 49
0.0208333333333333
 49
0.0
 49
0.0
 49
0.0
 49
0.0
 49
0.0208333333333333
 49
0.0
 49
0.0
 49
0.0
 49
0.0
 49
1.0
 49
0.0
 49
0.0
 49
0.0
 49
0.0
 49
1.0
175
     0
142
0.0208333333333333
142
0.0
142
0.0
142
0.0
142
0.0
142
0.0208333333333333
142
0.0
142
0.0
142
0.0
142
0.0
142
1.0
142
0.0
142
0.0
142
0.0
142
0.0
142
1.0
179
     0
144
0.0208333333333333
144
0.0
144
0.0
144
0.0
144
0.0
144
0.0208333333333333
144
0.0
144
0.0
144
0.0
144
0.0
144
1.0
144
0.0
144
0.0
144
0.0
144
0.0
144
1.0
147
0.0208333333333333
147
0.0
147
0.0
147
0.0
147
0.0
147
0.0208333333333333
147
0.0
147
0.0
147
0.0
147
0.0
147
1.0
147
0.0
147
0.0
147
0.0
147
0.0
147
1.0
  0
MLEADERSTYLE
  5
6F
102
{ACAD_REACTORS
330
6E
102
}
330
6E
100
AcDbMLeaderStyle
170
     2
171
     1
172
     0
 90
        2
 40
0.0
 41
0.0
173
     1
 91
-1056964608
340
63
 92
       -2
290
     1
 42
0.09
291
     1
 43
0.36
  3
Standard
 44
0.18
300

342
5D
174
     1
178
     6
175
     1
176
     0
 93
-1056964608
 45
0.18
292
     0
297
     0
 46
0.18
 94
-1056964608
 47
1.0
 49
1.0
140
1.0
293
     1
141
0.0
294
     1
177
     0
142
1.0
295
     1
296
     0
143
0.125
1001
ACAD_MLEADERVER
1070
     2
  0
MLINESTYLE
  5
68
102
{ACAD_REACTORS
330
67
102
}
330
67
100
AcDbMlineStyle
  2
STANDARD
 70
     0
  3

 62
   256
 51
90.0
 52
90.0
 71
     2
 49
0.5
 62
   256
  6
BYLAYER
 49
-0.5
 62
   256
  6
BYLAYER
  0
ACDBPLACEHOLDER
  5
F
102
{ACAD_REACTORS
330
E
102
}
330
E
  0
SCALE
  5
3B
102
{ACAD_REACTORS
330
3A
102
}
330
3A
100
AcDbScale
 70
     0
300
1:1
140
1.0
141
1.0
290
     1
  0
SCALE
  5
3C
102
{ACAD_REACTORS
330
3A
102
}
330
3A
100
AcDbScale
 70
     0
300
1:2
140
1.0
141
2.0
290
     0
  0
SCALE
  5
3D
102
{ACAD_REACTORS
330
3A
102
}
330
3A
100
AcDbScale
 70
     0
300
1:4
140
1.0
141
4.0
290
     0
  0
SCALE
  5
3E
102
{ACAD_REACTORS
330
3A
102
}
330
3A
100
AcDbScale
 70
     0
300
1:5
140
1.0
141
5.0
290
     0
  0
SCALE
  5
3F
102
{ACAD_REACTORS
330
3A
102
}
330
3A
100
AcDbScale
 70
     0
300
1:8
140
1.0
141
8.0
290
     0
  0
SCALE
  5
40
102
{ACAD_REACTORS
330
3A
102
}
330
3A
100
AcDbScale
 70
     0
300
1:10
140
1.0
141
10.0
290
     0
  0
SCALE
  5
41
102
{ACAD_REACTORS
330
3A
102
}
330
3A
100
AcDbScale
 70
     0
300
1:16
140
1.0
141
16.0
290
     0
  0
SCALE
  5
42
102
{ACAD_REACTORS
330
3A
102
}
330
3A
100
AcDbScale
 70
     0
300
1:20
140
1.0
141
20.0
290
     0
  0
SCALE
  5
43
102
{ACAD_REACTORS
330
3A
102
}
330
3A
100
AcDbScale
 70
     0
300
1:30
140
1.0
141
30.0
290
     0
  0
SCALE
  5
44
102
{ACAD_REACTORS
330
3A
102
}
330
3A
100
AcDbScale
 70
     0
300
1:40
140
1.0
141
40.0
290
     0
  0
SCALE
  5
45
102
{ACAD_REACTORS
330
3A
102
}
330
3A
100
AcDbScale
 70
     0
300
1:50
140
1.0
141
50.0
290
     0
  0
SCALE
  5
46
102
{ACAD_REACTORS
330
3A
102
}
330
3A
100
AcDbScale
 70
     0
300
1:100
140
1.0
141
100.0
290
     0
  0
SCALE
  5
47
102
{ACAD_REACTORS
330
3A
102
}
330
3A
100
AcDbScale
 70
     0
300
2:1
140
2.0
141
1.0
290
     0
  0
SCALE
  5
48
102
{ACAD_REACTORS
330
3A
102
}
330
3A
100
AcDbScale
 70
     0
300
4:1
140
4.0
141
1.0
290
     0
  0
SCALE
  5
49
102
{ACAD_REACTORS
330
3A
102
}
330
3A
100
AcDbScale
 70
     0
300
8:1
140
8.0
141
1.0
290
     0
  0
SCALE
  5
4A
102
{ACAD_REACTORS
330
3A
102
}
330
3A
100
AcDbScale
 70
     0
300
10:1
140
10.0
141
1.0
290
     0
  0
SCALE
  5
4B
102
{ACAD_REACTORS
330
3A
102
}
330
3A
100
AcDbScale
 70
     0
300
100:1
140
100.0
141
1.0
290
     0
  0
SCALE
  5
4C
102
{ACAD_REACTORS
330
3A
102
}
330
3A
100
AcDbScale
 70
     0
300
1/128" = 1'-0"
140
0.0078125
141
12.0
290
     0
  0
SCALE
  5
4D
102
{ACAD_REACTORS
330
3A
102
}
330
3A
100
AcDbScale
 70
     0
300
1/64" = 1'-0"
140
0.015625
141
12.0
290
     0
  0
SCALE
  5
4E
102
{ACAD_REACTORS
330
3A
102
}
330
3A
100
AcDbScale
 70
     0
300
1/32" = 1'-0"
140
0.03125
141
12.0
290
     0
  0
SCALE
  5
4F
102
{ACAD_REACTORS
330
3A
102
}
330
3A
100
AcDbScale
 70
     0
300
1/16" = 1'-0"
140
0.0625
141
12.0
290
     0
  0
SCALE
  5
50
102
{ACAD_REACTORS
330
3A
102
}
330
3A
100
AcDbScale
 70
     0
300
3/32" = 1'-0"
140
0.09375
141
12.0
290
     0
  0
SCALE
  5
51
102
{ACAD_REACTORS
330
3A
102
}
330
3A
100
AcDbScale
 70
     0
300
1/8" = 1'-0"
140
0.125
141
12.0
290
     0
  0
SCALE
  5
52
102
{ACAD_REACTORS
330
3A
102
}
330
3A
100
AcDbScale
 70
     0
300
3/16" = 1'-0"
140
0.1875
141
12.0
290
     0
  0
SCALE
  5
53
102
{ACAD_REACTORS
330
3A
102
}
330
3A
100
AcDbScale
 70
     0
300
1/4" = 1'-0"
140
0.25
141
12.0
290
     0
  0
SCALE
  5
54
102
{ACAD_REACTORS
330
3A
102
}
330
3A
100
AcDbScale
 70
     0
300
3/8" = 1'-0"
140
0.375
141
12.0
290
     0
  0
SCALE
  5
55
102
{ACAD_REACTORS
330
3A
102
}
330
3A
100
AcDbScale
 70
     0
300
1/2" = 1'-0"
140
0.5
141
12.0
290
     0
  0
SCALE
  5
56
102
{ACAD_REACTORS
330
3A
102
}
330
3A
100
AcDbScale
 70
     0
300
3/4" = 1'-0"
140
0.75
141
12.0
290
     0
  0
SCALE
  5
57
102
{ACAD_REACTORS
330
3A
102
}
330
3A
100
AcDbScale
 70
     0
300
1" = 1'-0"
140
1.0
141
12.0
290
     0
  0
SCALE
  5
58
102
{ACAD_REACTORS
330
3A
102
}
330
3A
100
AcDbScale
 70
     0
300
1-1/2" = 1'-0"
140
1.5
141
12.0
290
     0
  0
SCALE
  5
59
102
{ACAD_REACTORS
330
3A
102
}
330
3A
100
AcDbScale
 70
     0
300
3" = 1'-0"
140
3.0
141
12.0
290
     0
  0
SCALE
  5
5A
102
{ACAD_REACTORS
330
3A
102
}
330
3A
100
AcDbScale
 70
     0
300
6" = 1'-0"
140
6.0
141
12.0
290
     0
  0
SCALE
  5
5B
102
{ACAD_REACTORS
330
3A
102
}
330
3A
100
AcDbScale
 70
     0
300
1'-0" = 1'-0"
140
12.0
141
12.0
290
     0
  0
TABLESTYLE
  5
6D
102
{ACAD_XDICTIONARY
360
1D2
102
}
102
{ACAD_REACTORS
330
6C
102
}
330
6C
100
AcDbTableStyle
  3
Standard
 70
     0
 71
     0
 40
0.06
 41
0.06
280
     0
281
     0
  7
Standard
140
0.18
170
     2
 62
     0
 63
     7
283
     0
 90
      512
 91
        0
  1

274
    -2
284
     1
 64
     0
275
    -2
285
     1
 65
     0
276
    -2
286
     1
 66
     0
277
    -2
287
     1
 67
     0
278
    -2
288
     1
 68
     0
279
    -2
289
     1
 69
     0
  7
Standard
140
0.25
170
     5
 62
     0
 63
     7
283
     0
 90
      512
 91
        0
  1

274
    -2
284
     1
 64
     0
275
    -2
285
     1
 65
     0
276
    -2
286
     1
 66
     0
277
    -2
287
     1
 67
     0
278
    -2
288
     1
 68
     0
279
    -2
289
     1
 69
     0
  7
Standard
140
0.18
170
     5
 62
     0
 63
     7
283
     0
 90
      512
 91
        0
  1

274
    -2
284
     1
 64
     0
275
    -2
285
     1
 65
     0
276
    -2
286
     1
 66
     0
277
    -2
287
     1
 67
     0
278
    -2
288
     1
 68
     0
279
    -2
289
     1
 69
     0
  0
VISUALSTYLE
  5
2F
102
{ACAD_REACTORS
330
29
102
}
330
29
100
AcDbVisualStyle
  2
2dWireframe
 70
     4
 71
     0
 72
     2
 73
     0
 90
        0
 40
-0.6
 41
-30.0
 62
     5
 63
     7
421
 16777215
 74
     1
 91
        4
 64
     7
 65
   257
 75
     1
175
     1
 42
1.0
 92
        0
 66
   257
 43
1.0
 76
     1
 77
     6
 78
     2
 67
     7
 79
     5
170
     0
171
     0
290
     0
174
     0
 93
        1
 44
0.0
173
     0
291
     0
 45
0.0
  0
VISUALSTYLE
  5
31
102
{ACAD_REACTORS
330
29
102
}
330
29
100
AcDbVisualStyle
  2
3D Hidden
 70
     6
 71
     1
 72
     2
 73
     2
 90
        0
 40
-0.6
 41
-30.0
 62
     5
 63
     7
421
 16777215
 74
     2
 91
        2
 64
     7
 65
   257
 75
     2
175
     1
 42
40.0
 92
        0
 66
   257
 43
1.0
 76
     1
 77
     6
 78
     2
 67
     7
 79
     3
170
     0
171
     0
290
     0
174
     0
 93
        1
 44
0.0
173
     0
291
     0
 45
0.0
  0
VISUALSTYLE
  5
30
102
{ACAD_REACTORS
330
29
102
}
330
29
100
AcDbVisualStyle
  2
3dWireframe
 70
     5
 71
     0
 72
     2
 73
     0
 90
        0
 40
-0.6
 41
-30.0
 62
     5
 63
     7
421
 16777215
 74
     1
 91
        4
 64
     7
 65
   257
 75
     1
175
     1
 42
1.0
 92
        0
 66
   257
 43
1.0
 76
     1
 77
     6
 78
     2
 67
     7
 79
     5
170
     0
171
     0
290
     0
174
     0
 93
        1
 44
0.0
173
     0
291
     0
 45
0.0
  0
VISUALSTYLE
  5
2E
102
{ACAD_REACTORS
330
29
102
}
330
29
100
AcDbVisualStyle
  2
Basic
 70
     7
 71
     1
 72
     0
 73
     1
 90
        0
 40
-0.6
 41
-30.0
 62
     5
 63
     7
421
 16777215
 74
     0
 91
        4
 64
     7
 65
   257
 75
     1
175
     1
 42
1.0
 92
        8
 66
     7
 43
1.0
 76
     1
 77
     6
 78
     2
 67
     7
 79
     5
170
     0
171
     0
290
     0
174
     0
 93
        1
 44
0.0
173
     0
291
     1
 45
0.0
  0
VISUALSTYLE
  5
35
102
{ACAD_REACTORS
330
29
102
}
330
29
100
AcDbVisualStyle
  2
Brighten
 70
    12
 71
     2
 72
     2
 73
     0
 90
        0
 40
-0.6
 41
-30.0
 62
     5
 63
     7
421
 16777215
 74
     1
 91
        4
 64
     7
 65
   257
 75
     1
175
     1
 42
1.0
 92
        8
 66
     7
 43
1.0
 76
     1
 77
     6
 78
     2
 67
     7
 79
     5
170
     0
171
     0
290
     0
174
     0
 93
        1
 44
50.0
173
     0
291
     1
 45
0.0
  0
VISUALSTYLE
  5
39
102
{ACAD_REACTORS
330
29
102
}
330
29
100
AcDbVisualStyle
  2
ColorChange
 70
    16
 71
     2
 72
     2
 73
     3
 90
        0
 40
-0.6
 41
-30.0
 62
     5
 63
     8
421
  8421504
 74
     1
 91
        4
 64
     7
 65
   257
 75
     1
175
     1
 42
1.0
 92
        8
 66
     8
424
  8421504
 43
1.0
 76
     1
 77
     6
 78
     2
 67
     7
 79
     5
170
     0
171
     0
290
     0
174
     0
 93
        1
 44
0.0
173
     0
291
     1
 45
0.0
  0
VISUALSTYLE
  5
32
102
{ACAD_REACTORS
330
29
102
}
330
29
100
AcDbVisualStyle
  2
Conceptual
 70
     9
 71
     3
 72
     2
 73
     0
 90
        0
 40
-0.6
 41
-30.0
 62
     5
 63
     7
421
 16777215
 74
     2
 91
        2
 64
     7
 65
   257
 75
     1
175
     1
 42
40.0
 92
        8
 66
     7
 43
1.0
 76
     1
 77
     6
 78
     2
 67
     7
 79
     3
170
     0
171
     0
290
     0
174
     0
 93
        1
 44
0.0
173
     0
291
     0
 45
0.0
  0
VISUALSTYLE
  5
34
102
{ACAD_REACTORS
330
29
102
}
330
29
100
AcDbVisualStyle
  2
Dim
 70
    11
 71
     2
 72
     2
 73
     0
 90
        0
 40
-0.6
 41
-30.0
 62
     5
 63
     7
421
 16777215
 74
     1
 91
        4
 64
     7
 65
   257
 75
     1
175
     1
 42
1.0
 92
        8
 66
     7
 43
1.0
 76
     1
 77
     6
 78
     2
 67
     7
 79
     5
170
     0
171
     0
290
     0
174
     0
 93
        1
 44
-50.0
173
     0
291
     1
 45
0.0
  0
VISUALSTYLE
  5
38
102
{ACAD_REACTORS
330
29
102
}
330
29
100
AcDbVisualStyle
  2
Facepattern
 70
    15
 71
     2
 72
     2
 73
     0
 90
        0
 40
-0.6
 41
-30.0
 62
     5
 63
     7
421
 16777215
 74
     1
 91
        4
 64
     7
 65
   257
 75
     1
175
     1
 42
1.0
 92
        8
 66
     7
 43
1.0
 76
     1
 77
     6
 78
     2
 67
     7
 79
     5
170
     0
171
     0
290
     0
174
     0
 93
        1
 44
0.0
173
     0
291
     1
 45
0.0
  0
VISUALSTYLE
  5
2A
102
{ACAD_REACTORS
330
29
102
}
330
29
100
AcDbVisualStyle
  2
Flat
 70
     0
 71
     2
 72
     1
 73
     1
 90
        2
 40
-0.6
 41
30.0
 62
     5
 63
     7
421
 16777215
 74
     0
 91
        4
 64
     7
 65
   257
 75
     1
175
     1
 42
1.0
 92
        8
 66
     7
 43
1.0
 76
     1
 77
     6
 78
     2
 67
     7
 79
     5
170
     0
171
     0
290
     0
174
     0
 93
       13
 44
0.0
173
     0
291
     1
 45
0.0
  0
VISUALSTYLE
  5
2B
102
{ACAD_REACTORS
330
29
102
}
330
29
100
AcDbVisualStyle
  2
FlatWithEdges
 70
     1
 71
     2
 72
     1
 73
     1
 90
        2
 40
-0.6
 41
30.0
 62
     5
 63
     7
421
 16777215
 74
     1
 91
        4
 64
     7
 65
   257
 75
     1
175
     1
 42
1.0
 92
        0
 66
   257
 43
1.0
 76
     1
 77
     6
 78
     2
 67
     7
 79
     5
170
     0
171
     0
290
     0
174
     0
 93
       13
 44
0.0
173
     0
291
     1
 45
0.0
  0
VISUALSTYLE
  5
2C
102
{ACAD_REACTORS
330
29
102
}
330
29
100
AcDbVisualStyle
  2
Gouraud
 70
     2
 71
     2
 72
     2
 73
     1
 90
        2
 40
-0.6
 41
30.0
 62
     5
 63
     7
421
 16777215
 74
     0
 91
        4
 64
     7
 65
   257
 75
     1
175
     1
 42
1.0
 92
        0
 66
     7
 43
1.0
 76
     1
 77
     6
 78
     2
 67
     7
 79
     5
170
     0
171
     0
290
     0
174
     0
 93
       13
 44
0.0
173
     0
291
     1
 45
0.0
  0
VISUALSTYLE
  5
2D
102
{ACAD_REACTORS
330
29
102
}
330
29
100
AcDbVisualStyle
  2
GouraudWithEdges
 70
     3
 71
     2
 72
     2
 73
     1
 90
        2
 40
-0.6
 41
30.0
 62
     5
 63
     7
421
 16777215
 74
     1
 91
        4
 64
     7
 65
   257
 75
     1
175
     1
 42
1.0
 92
        0
 66
   257
 43
1.0
 76
     1
 77
     6
 78
     2
 67
     7
 79
     5
170
     0
171
     0
290
     0
174
     0
 93
       13
 44
0.0
173
     0
291
     1
 45
0.0
  0
VISUALSTYLE
  5
37
102
{ACAD_REACTORS
330
29
102
}
330
29
100
AcDbVisualStyle
  2
Linepattern
 70
    14
 71
     2
 72
     2
 73
     0
 90
        0
 40
-0.6
 41
-30.0
 62
     5
 63
     7
421
 16777215
 74
     1
 91
        4
 64
     7
 65
   257
 75
     7
175
     7
 42
1.0
 92
        8
 66
     7
 43
1.0
 76
     1
 77
     6
 78
     2
 67
     7
 79
     5
170
     0
171
     0
290
     0
174
     0
 93
        1
 44
0.0
173
     0
291
     1
 45
0.0
  0
VISUALSTYLE
  5
33
102
{ACAD_REACTORS
330
29
102
}
330
29
100
AcDbVisualStyle
  2
Realistic
 70
     8
 71
     2
 72
     2
 73
     0
 90
        0
 40
-0.6
 41
-30.0
 62
     5
 63
     7
421
 16777215
 74
     1
 91
        0
 64
     7
 65
   257
 75
     1
175
     1
 42
1.0
 92
        8
 66
     8
424
  7895160
 43
1.0
 76
     1
 77
     6
 78
     2
 67
     7
 79
     5
170
     0
171
     0
290
     0
174
     0
 93
       13
 44
0.0
173
     0
291
     0
 45
0.0
  0
VISUALSTYLE
  5
36
102
{ACAD_REACTORS
330
29
102
}
330
29
100
AcDbVisualStyle
  2
Thicken
 70
    13
 71
     2
 72
     2
 73
     0
 90
        0
 40
-0.6
 41
-30.0
 62
     5
 63
     7
421
 16777215
 74
     1
 91
        4
 64
     7
 65
   257
 75
     1
175
     1
 42
1.0
 92
       12
 66
     7
 43
1.0
 76
     1
 77
     6
 78
     2
 67
     7
 79
     5
170
     0
171
     0
290
     0
174
     0
 93
        1
 44
0.0
173
     0
291
     1
 45
0.0
  0
DICTIONARYVAR
  5
1D1
102
{ACAD_REACTORS
330
1CE
102
}
330
1CE
100
DictionaryVariables
280
     0
  1
1:1
  0
DICTIONARYVAR
  5
1D0
102
{ACAD_REACTORS
330
1CE
102
}
330
1CE
100
DictionaryVariables
280
     0
  1
STANDARD
  0
DICTIONARYVAR
  5
1CF
102
{ACAD_REACTORS
330
1CE
102
}
330
1CE
100
DictionaryVariables
280
     0
  1
STANDARD
  0
XRECORD
  5
1C7
102
{ACAD_REACTORS
330
1C5
102
}
330
1C5
100
AcDbXrecord
280
     1
  1
-2000051
  1
Lines
  1
-2000059
  1
Internal Object Styles
  1
-2000150
  1
Generic Annotations
  1
-2000280
  1
Title Blocks
  1
-2000560
  1
Raster Images
  1
-2002000
  1
Detail Items
  0
XRECORD
  5
1C8
102
{ACAD_REACTORS
330
1C5
102
}
330
1C5
100
AcDbXrecord
280
     1
  1
-2000042
  1
Thin Lines
  1
-2000043
  1
Medium Lines
  1
-2000281
  1
Thin Lines
  1
-2000282
  1
Medium Lines
  1
108841
  1
undrl
  1
113081
  1

  1
113602
  1

  1
129614
  1

  1
131133
  1

  1
1349
  1
Medium Lines
  1
1632
  1

  1
1636
  1

  1
165199
  1

  1
165218
  1

  1
165231
  1

  1
165349
  1

  1
165465
  1

  1
25650
  1
Light Lines
  1
768
  1

  1
82546
  1
daed
  0
XRECORD
  5
1C6
102
{ACAD_REACTORS
330
1C5
102
}
330
1C5
100
AcDbXrecord
280
     1
  1
109593
  1
ply2 20' : ply 20'
  1
113235
  1
fascia board 200'30 : tmber 100'50
  1
113610
  1
tmber 100'50 : tmber 100'50
  1
120870
  1
gutter profile : gutter profile
  1
121451
  1
Break Line1 : M_Break Line
  1
129817
  1
nail sp : nail sp
  1
142258
  1
M_Label Annotation : M_Label Annotation
  1
1631
  1
Text : 2.5mm Arial
  1
163380
  1
A4 SPS : A4 sps
  1
1635
  1
Text : 3.5mm Arial
  1
166201
  1
Raster image : C:\Documents and Settings\Edwards\Desktop\south pacific S\SPSA-rvt-SPSBanner-165453.jpg
  0
DICTIONARY
  5
1A
330
19
100
AcDbDictionary
280
     1
281
     1
  3
BUMPTILE
360
1C
  3
DIFFUSETILE
360
1B
  3
OPACITYTILE
360
1F
  3
REFLECTIONTILE
360
1E
  3
REFRACTIONTILE
360
20
  3
SPECULARTILE
360
1D
  0
DICTIONARY
  5
12
330
11
100
AcDbDictionary
280
     1
281
     1
  3
BUMPTILE
360
14
  3
DIFFUSETILE
360
13
  3
OPACITYTILE
360
17
  3
REFLECTIONTILE
360
16
  3
REFRACTIONTILE
360
18
  3
SPECULARTILE
360
15
  0
DICTIONARY
  5
22
330
21
100
AcDbDictionary
280
     1
281
     1
  3
BUMPTILE
360
24
  3
DIFFUSETILE
360
23
  3
OPACITYTILE
360
27
  3
REFLECTIONTILE
360
26
  3
REFRACTIONTILE
360
28
  3
SPECULARTILE
360
25
  0
DICTIONARY
  5
1D2
330
6D
100
AcDbDictionary
280
     1
281
     1
  3
ACAD_ROUNDTRIP_2008_TABLESTYLE_CELLSTYLEMAP
360
1D3
  0
XRECORD
  5
1C
102
{ACAD_REACTORS
330
1A
102
}
330
1A
100
AcDbXrecord
280
     1
270
     1
271
     1
  0
XRECORD
  5
1B
102
{ACAD_REACTORS
330
1A
102
}
330
1A
100
AcDbXrecord
280
     1
270
     1
271
     1
  0
XRECORD
  5
1F
102
{ACAD_REACTORS
330
1A
102
}
330
1A
100
AcDbXrecord
280
     1
270
     1
271
     1
  0
XRECORD
  5
1E
102
{ACAD_REACTORS
330
1A
102
}
330
1A
100
AcDbXrecord
280
     1
270
     1
271
     1
  0
XRECORD
  5
20
102
{ACAD_REACTORS
330
1A
102
}
330
1A
100
AcDbXrecord
280
     1
270
     1
271
     1
  0
XRECORD
  5
1D
102
{ACAD_REACTORS
330
1A
102
}
330
1A
100
AcDbXrecord
280
     1
270
     1
271
     1
  0
XRECORD
  5
14
102
{ACAD_REACTORS
330
12
102
}
330
12
100
AcDbXrecord
280
     1
270
     1
271
     1
  0
XRECORD
  5
13
102
{ACAD_REACTORS
330
12
102
}
330
12
100
AcDbXrecord
280
     1
270
     1
271
     1
  0
XRECORD
  5
17
102
{ACAD_REACTORS
330
12
102
}
330
12
100
AcDbXrecord
280
     1
270
     1
271
     1
  0
XRECORD
  5
16
102
{ACAD_REACTORS
330
12
102
}
330
12
100
AcDbXrecord
280
     1
270
     1
271
     1
  0
XRECORD
  5
18
102
{ACAD_REACTORS
330
12
102
}
330
12
100
AcDbXrecord
280
     1
270
     1
271
     1
  0
XRECORD
  5
15
102
{ACAD_REACTORS
330
12
102
}
330
12
100
AcDbXrecord
280
     1
270
     1
271
     1
  0
XRECORD
  5
24
102
{ACAD_REACTORS
330
22
102
}
330
22
100
AcDbXrecord
280
     1
270
     1
271
     1
  0
XRECORD
  5
23
102
{ACAD_REACTORS
330
22
102
}
330
22
100
AcDbXrecord
280
     1
270
     1
271
     1
  0
XRECORD
  5
27
102
{ACAD_REACTORS
330
22
102
}
330
22
100
AcDbXrecord
280
     1
270
     1
271
     1
  0
XRECORD
  5
26
102
{ACAD_REACTORS
330
22
102
}
330
22
100
AcDbXrecord
280
     1
270
     1
271
     1
  0
XRECORD
  5
28
102
{ACAD_REACTORS
330
22
102
}
330
22
100
AcDbXrecord
280
     1
270
     1
271
     1
  0
XRECORD
  5
25
102
{ACAD_REACTORS
330
22
102
}
330
22
100
AcDbXrecord
280
     1
270
     1
271
     1
  0
CELLSTYLEMAP
  5
1D3
102
{ACAD_REACTORS
330
1D2
102
}
330
1D2
100
AcDbCellStyleMap
 90
        3
300
CELLSTYLE
  1
TABLEFORMAT_BEGIN
 90
        5
170
     1
 91
        0
 92
    32768
 62
   257
 93
        1
300
CONTENTFORMAT
  1
CONTENTFORMAT_BEGIN
 90
        0
 91
        0
 92
      512
 93
        0
300

 40
0.0
140
1.0
 94
        5
 62
     0
340
5D
144
0.25
309
CONTENTFORMAT_END
171
     0
 94
        0
309
TABLEFORMAT_END
  1
CELLSTYLE_BEGIN
 90
        1
 91
        1
300
_TITLE
309
CELLSTYLE_END
300
CELLSTYLE
  1
TABLEFORMAT_BEGIN
 90
        5
170
     1
 91
        0
 92
        0
 62
   257
 93
        1
300
CONTENTFORMAT
  1
CONTENTFORMAT_BEGIN
 90
        0
 91
        0
 92
      512
 93
        0
300

 40
0.0
140
1.0
 94
        5
 62
     0
340
5D
144
0.18
309
CONTENTFORMAT_END
171
     0
 94
        0
309
TABLEFORMAT_END
  1
CELLSTYLE_BEGIN
 90
        2
 91
        1
300
_HEADER
309
CELLSTYLE_END
300
CELLSTYLE
  1
TABLEFORMAT_BEGIN
 90
        5
170
     1
 91
        0
 92
        0
 62
   257
 93
        1
300
CONTENTFORMAT
  1
CONTENTFORMAT_BEGIN
 90
        0
 91
        0
 92
      512
 93
        0
300

 40
0.0
140
1.0
 94
        2
 62
     0
340
5D
144
0.18
309
CONTENTFORMAT_END
171
     0
 94
        0
309
TABLEFORMAT_END
  1
CELLSTYLE_BEGIN
 90
        3
 91
        2
300
_DATA
309
CELLSTYLE_END
  0
ENDSEC
  0
EOF
